999
DXF file: C:\Users\sesa63760\Dev\_Creo\CAD\MCADID0004249_3D-CAD\drw0001_4.dxf
999
Pro/ENGINEER 2019471 by Parametric Technology Corporation
  0
SECTION
  2
HEADER
  9
$ACADVER
  1
AC1024
  9
$DWGCODEPAGE
  3
ANSI_1252
  9
$EXTMAX
 10
950.9640154188
 20
1344.9348218065
 30
0.0
  9
$EXTMIN
 10
0.0
 20
0.0
 30
0.0
  9
$LIMMIN
 10
0.0
 20
0.0
  9
$LIMMAX
 10
950.9640154188
 20
1344.9348218065
  9
$VIEWCTR
 10
475.4820077094
 20
672.4674109033
  9
$VIEWSIZE
 40
1344.9348218065
  9
$CLAYER
  8
0
  9
$LTSCALE
 40
87.6698254215
  9
$CELTYPE
  6
BYLAYER
  9
$DIMSCALE
 40
1.0
  9
$DIMASZ
 40
11.3210001836
  9
$DIMEXO
 40
1.0
  9
$DIMDLI
 40
60.5718793821
  9
$DIMEXE
 40
1.0
  9
$DIMCEN
 40
14.3459714326
  9
$DIMLFAC
 40
1.0
  9
$DIMBLK
  1
_FILLED
  9
$DIMALT
 70
0
  9
$DIMALTF
 40
0.0393700787
  9
$DIMTXT
 40
15.849400257
  9
$DIMTOL
 70
1
  9
$DIMLIM
 70
0
  9
$DIMTFAC
 40
1.0
  9
$DIMTP
 40
0.01
  9
$DIMTM
 40
0.01
  9
$DIMGAP
 40
0.625
  9
$DIMDSEP
 70
46
  9
$AUNITS
 70
0
  9
$PDMODE
 70
3
  9
$PDSIZE
 40
0.3125
  9
$HANDSEED
  5
402
  9
$TILEMODE
 70
1
  9
$MEASUREMENT
 70
1
  9
$INSUNITS
 70
4
  0
ENDSEC
  0
SECTION
  2
CLASSES
  0
CLASS
  1
ACDBDICTIONARYWDFLT
  2
AcDbDictionaryWithDefault
  3
AutoCAD 2000
 90
0
 91
1
280
0
281
0
  0
CLASS
  1
ACDBPLACEHOLDER
  2
AcDbPlaceHolder
  3
AutoCAD 2000
 90
0
 91
1
280
0
281
0
  0
CLASS
  1
LAYOUT
  2
AcDbLayout
  3
AutoCAD 2000
 90
0
 91
0
280
0
281
0
  0
ENDSEC
  0
SECTION
  2
TABLES
  0
TABLE
  2
VPORT
  5
8
100
AcDbSymbolTable
 70
2
  0
VPORT
  5
1F4
100
AcDbSymbolTableRecord
100
AcDbViewportTableRecord
  2
*ACTIVE
 70
0
 10
0.0
 20
0.0
 11
1.0
 21
1.0
 12
475.4820077094
 22
672.4674109033
 13
0.0
 23
0.0
 14
1.0
 24
1.0
 15
0.0
 25
0.0
 16
0.0
 26
0.0
 36
1.0
 17
0.0
 27
0.0
 37
0.0
 40
1344.9348218065
 41
0.7070707071
 42
50.0
 43
0.0
 44
0.0
 50
0.0
 51
0.0
 71
0
 72
100
 73
1
 74
1
 75
0
 76
0
 77
0
 78
0
  0
ENDTAB
  0
TABLE
  2
LTYPE
  5
5
100
AcDbSymbolTable
 70
6
  0
LTYPE
  5
14
100
AcDbSymbolTableRecord
100
AcDbLinetypeTableRecord
  2
BYBLOCK
 70
0
  3

 72
65
 73
0
 40
0.0
  0
LTYPE
  5
15
100
AcDbSymbolTableRecord
100
AcDbLinetypeTableRecord
  2
BYLAYER
 70
0
  3

 72
65
 73
0
 40
0.0
  0
LTYPE
  5
16
100
AcDbSymbolTableRecord
100
AcDbLinetypeTableRecord
  2
CONTINUOUS
 70
64
  3
Solid line
 72
65
 73
0
 40
0.0
  0
LTYPE
  5
1F5
100
AcDbSymbolTableRecord
100
AcDbLinetypeTableRecord
  2
CENTER
 70
64
  3
____ _ ____ _ ____ _ ____ _ ____ _ ____ _ ____
 72
65
 73
4
 40
0.6
 49
0.375
 74
0
 49
-0.075
 74
0
 49
0.075
 74
0
 49
-0.075
 74
0
  0
LTYPE
  5
1F6
100
AcDbSymbolTableRecord
100
AcDbLinetypeTableRecord
  2
HIDDEN
 70
64
  3
- - - - - - - - - - - - - - - - - - - -
 72
65
 73
2
 40
0.2
 49
0.1
 74
0
 49
-0.1
 74
0
  0
LTYPE
  5
1F7
100
AcDbSymbolTableRecord
100
AcDbLinetypeTableRecord
  2
PHANTOM
 70
64
  3
_____ _ _ _____ _ _ _____ _ _ _____
 72
65
 73
6
 40
0.8
 49
0.45
 74
0
 49
-0.05
 74
0
 49
0.1
 74
0
 49
-0.05
 74
0
 49
0.1
 74
0
 49
-0.05
 74
0
  0
LTYPE
  5
1F8
100
AcDbSymbolTableRecord
100
AcDbLinetypeTableRecord
  2
DOT
 70
64
  3
. . . . . . . . . . . . . . . . . . . .
 72
65
 73
2
 40
0.2
 49
0.1
 74
0
 49
-0.1
 74
0
  0
LTYPE
  5
1F9
100
AcDbSymbolTableRecord
100
AcDbLinetypeTableRecord
  2
DASHED
 70
64
  3
- - - - - - - - - - - - - - - - - - - -
 72
65
 73
2
 40
0.2
 49
0.1
 74
0
 49
-0.1
 74
0
  0
ENDTAB
  0
TABLE
  2
LAYER
  5
2
100
AcDbSymbolTable
 70
36
  0
LAYER
  5
10
100
AcDbSymbolTableRecord
100
AcDbLayerTableRecord
  2
0
 70
0
 62
7
  6
CONTINUOUS
370
-3
390
F
  0
LAYER
  5
1FA
100
AcDbSymbolTableRecord
100
AcDbLayerTableRecord
  2
DEFAULT_1
 70
0
 62
7
  6
CENTER
370
-3
390
F
  0
LAYER
  5
1FB
100
AcDbSymbolTableRecord
100
AcDbLayerTableRecord
  2
DEFAULT_2
 70
0
 62
7
  6
HIDDEN
370
-3
390
F
  0
LAYER
  5
1FC
100
AcDbSymbolTableRecord
100
AcDbLayerTableRecord
  2
DEFAULT_3
 70
0
 62
7
  6
PHANTOM
370
-3
390
F
  0
LAYER
  5
1FD
100
AcDbSymbolTableRecord
100
AcDbLayerTableRecord
  2
00_COMPONENTS
 70
0
 62
7
  6
CONTINUOUS
370
-3
390
F
  0
LAYER
  5
1FE
100
AcDbSymbolTableRecord
100
AcDbLayerTableRecord
  2
01_1_DEFAULT_DATUMS
 70
0
 62
7
  6
CONTINUOUS
370
-3
390
F
  0
LAYER
  5
1FF
100
AcDbSymbolTableRecord
100
AcDbLayerTableRecord
  2
01_PLANES
 70
0
 62
7
  6
CONTINUOUS
370
-3
390
F
  0
LAYER
  5
200
100
AcDbSymbolTableRecord
100
AcDbLayerTableRecord
  2
02_COORD_SYS
 70
0
 62
7
  6
CONTINUOUS
370
-3
390
F
  0
LAYER
  5
201
100
AcDbSymbolTableRecord
100
AcDbLayerTableRecord
  2
03_AXES
 70
0
 62
7
  6
CONTINUOUS
370
-3
390
F
  0
LAYER
  5
202
100
AcDbSymbolTableRecord
100
AcDbLayerTableRecord
  2
04_POINTS
 70
0
 62
7
  6
CONTINUOUS
370
-3
390
F
  0
LAYER
  5
203
100
AcDbSymbolTableRecord
100
AcDbLayerTableRecord
  2
05_CURVES
 70
0
 62
7
  6
CONTINUOUS
370
-3
390
F
  0
LAYER
  5
204
100
AcDbSymbolTableRecord
100
AcDbLayerTableRecord
  2
06_SURFS
 70
0
 62
7
  6
CONTINUOUS
370
-3
390
F
  0
LAYER
  5
205
100
AcDbSymbolTableRecord
100
AcDbLayerTableRecord
  2
07_COSMETICS
 70
0
 62
7
  6
CONTINUOUS
370
-3
390
F
  0
LAYER
  5
206
100
AcDbSymbolTableRecord
100
AcDbLayerTableRecord
  2
10_NOTES
 70
0
 62
7
  6
CONTINUOUS
370
-3
390
F
  0
LAYER
  5
207
100
AcDbSymbolTableRecord
100
AcDbLayerTableRecord
  2
11_NOTES_PUB
 70
0
 62
7
  6
CONTINUOUS
370
-3
390
F
  0
LAYER
  5
208
100
AcDbSymbolTableRecord
100
AcDbLayerTableRecord
  2
13_REF_GTOL
 70
0
 62
7
  6
CONTINUOUS
370
-3
390
F
  0
LAYER
  5
209
100
AcDbSymbolTableRecord
100
AcDbLayerTableRecord
  2
16_MISC
 70
0
 62
7
  6
CONTINUOUS
370
-3
390
F
  0
LAYER
  5
20A
100
AcDbSymbolTableRecord
100
AcDbLayerTableRecord
  2
17_NO_PRINT
 70
0
 62
7
  6
CONTINUOUS
370
-3
390
F
  0
LAYER
  5
20B
100
AcDbSymbolTableRecord
100
AcDbLayerTableRecord
  2
18_DATUM_CAMS_JOINTS
 70
0
 62
7
  6
CONTINUOUS
370
-3
390
F
  0
LAYER
  5
20C
100
AcDbSymbolTableRecord
100
AcDbLayerTableRecord
  2
19_DATUM_FUNCTIONAL
 70
0
 62
7
  6
CONTINUOUS
370
-3
390
F
  0
LAYER
  5
20D
100
AcDbSymbolTableRecord
100
AcDbLayerTableRecord
  2
20_DATUM_KINEMATIC_SCHEME
 70
0
 62
7
  6
CONTINUOUS
370
-3
390
F
  0
LAYER
  5
20E
100
AcDbSymbolTableRecord
100
AcDbLayerTableRecord
  2
3
 70
0
 62
7
  6
CONTINUOUS
370
-3
390
F
  0
LAYER
  5
20F
100
AcDbSymbolTableRecord
100
AcDbLayerTableRecord
  2
4
 70
0
 62
7
  6
CONTINUOUS
370
-3
390
F
  0
ENDTAB
  0
TABLE
  2
STYLE
  5
3
100
AcDbSymbolTable
 70
1
  0
STYLE
  5
11
100
AcDbSymbolTableRecord
100
AcDbTextStyleTableRecord
  2
STANDARD
 70
0
 40
0.0
 41
1.0
 50
0.0
 71
0
 42
0.2
  3
ARIAL.TTF
  4

  0
STYLE
  5
210
100
AcDbSymbolTableRecord
100
AcDbTextStyleTableRecord
  2
TEXTSTYLE_1
 70
0
 40
0.0
 41
0.8
 50
0.0
 71
0
 42
0.2
  3
gdt
  4

  0
ENDTAB
  0
TABLE
  2
VIEW
  5
6
100
AcDbSymbolTable
 70
0
  0
ENDTAB
  0
TABLE
  2
UCS
  5
7
100
AcDbSymbolTable
 70
0
  0
ENDTAB
  0
TABLE
  2
APPID
  5
9
100
AcDbSymbolTable
 70
1
  0
APPID
  5
211
100
AcDbSymbolTableRecord
100
AcDbRegAppTableRecord
  2
ACAD
 70
0
  0
ENDTAB
  0
TABLE
  2
BLOCK_RECORD
  5
1
100
AcDbSymbolTable
 70
0
  0
BLOCK_RECORD
  5
212
100
AcDbSymbolTableRecord
100
AcDbBlockTableRecord
  2
*Model_Space
  0
BLOCK_RECORD
  5
213
100
AcDbSymbolTableRecord
100
AcDbBlockTableRecord
  2
*Paper_Space
  0
BLOCK_RECORD
  5
214
100
AcDbSymbolTableRecord
100
AcDbBlockTableRecord
  2
_FILLED
  0
ENDTAB
  0
TABLE
  2
DIMSTYLE
  5
A
100
AcDbSymbolTable
 70
1
100
AcDbDimStyleTable
 71
0
  0
DIMSTYLE
105
215
100
AcDbSymbolTableRecord
100
AcDbDimStyleTableRecord
  2
STANDARD
 70
0
  3

  4

 40
1.0
 41
11.3210001836
 42
1.0
 43
0.38
 44
1.0
 45
0.0
 46
0.0
 47
0.01
 48
0.01
140
15.849400257
141
0.09
142
0.0
143
25.4
144
1.0
145
0.0
146
1.0
147
0.625
 71
1
 72
0
 73
0
 74
0
 75
0
 76
0
 77
1
 78
8
 79
2
170
0
171
1
172
0
173
0
174
0
175
0
176
0
177
0
178
0
270
2
179
2
271
2
272
2
273
2
274
2
275
0
280
0
281
0
282
0
283
1
284
8
285
0
286
0
287
3
288
0
340
11
278
46
341
214
342
214
343
214
344
214
  0
ENDTAB
  0
ENDSEC
  0
SECTION
  2
BLOCKS
  0
BLOCK
  5
20
100
AcDbEntity
  8
0
100
AcDbBlockBegin
  2
*Model_Space
 70
0
 10
0.0
 20
0.0
 30
0.0
  3
*Model_Space
  1

  0
ENDBLK
  5
21
100
AcDbEntity
  8
0
100
AcDbBlockEnd
  0
BLOCK
  5
1C
100
AcDbEntity
  8
0
100
AcDbBlockBegin
  2
*Paper_Space
 70
0
 10
0.0
 20
0.0
 30
0.0
  3
*Paper_Space
  1

  0
ENDBLK
  5
1D
100
AcDbEntity
  8
0
100
AcDbBlockEnd
  0
BLOCK
  5
216
100
AcDbEntity
  8
0
100
AcDbBlockBegin
  2
_FILLED
 70
64
 10
0.0
 20
0.0
  3
_FILLED
  1

  0
SOLID
  5
217
100
AcDbEntity
  8
0
  6
BYBLOCK
 62
0
100
AcDbTrace
 10
0.0
 20
0.0
 11
-1.0
 21
0.25
 12
-1.0
 22
-0.25
 13
-1.0
 23
-0.25
  0
ENDBLK
  5
218
100
AcDbEntity
  8
0
  6
BYBLOCK
 62
0
100
AcDbBlockEnd
  0
ENDSEC
  0
SECTION
  2
ENTITIES
  0
LINE
  5
219
100
AcDbEntity
  8
0
100
AcDbLine
 62
7
  6
BYLAYER
 10
580.3587393172
 20
96.3019425651
 11
574.7583659499
 21
96.3019425651
  0
LINE
  5
21A
100
AcDbEntity
  8
0
100
AcDbLine
 62
7
  6
BYLAYER
 10
538.3582642801
 20
96.3019425651
 11
532.7588409929
 21
96.3019425651
  0
LINE
  5
21B
100
AcDbEntity
  8
0
100
AcDbLine
 62
7
  6
BYLAYER
 10
432.7096084287
 20
96.3019425651
 11
427.1092350614
 21
96.3019425651
  0
LINE
  5
21C
100
AcDbEntity
  8
0
100
AcDbLine
 62
7
  6
BYLAYER
 10
390.7091333916
 20
96.3019425651
 11
385.1097101044
 21
96.3019425651
  0
LINE
  5
21D
100
AcDbEntity
  8
0
100
AcDbLine
 62
7
  6
BYLAYER
 10
385.3979575343
 20
96.4018324266
 11
432.4205108213
 21
96.4018324266
  0
LINE
  5
21E
100
AcDbEntity
  8
0
100
AcDbLine
 62
7
  6
BYLAYER
 10
533.0470884228
 20
96.4018324266
 11
580.0696417098
 21
96.4018324266
  0
LINE
  5
21F
100
AcDbEntity
  8
0
100
AcDbLine
 62
7
  6
BYLAYER
 10
581.3588407432
 20
97.3019425651
 11
581.0373142993
 21
97.3019425651
  0
LINE
  5
220
100
AcDbEntity
  8
0
100
AcDbLine
 62
7
  6
BYLAYER
 10
532.0794173369
 20
97.3019425651
 11
531.7588407462
 21
97.3019425651
  0
LINE
  5
221
100
AcDbEntity
  8
0
100
AcDbLine
 62
7
  6
BYLAYER
 10
433.7097098547
 20
97.3019425651
 11
433.3881834108
 21
97.3019425651
  0
LINE
  5
222
100
AcDbEntity
  8
0
100
AcDbLine
 62
7
  6
BYLAYER
 10
384.4302864484
 20
97.3019425651
 11
384.1097098577
 21
97.3019425651
  0
LINE
  5
223
100
AcDbEntity
  8
0
100
AcDbLine
 62
7
  6
BYLAYER
 10
581.5583657032
 20
97.4018324266
 11
581.3588407432
 21
97.4018324266
  0
LINE
  5
224
100
AcDbEntity
  8
0
100
AcDbLine
 62
7
  6
BYLAYER
 10
531.7588407462
 20
97.4018324266
 11
531.5583657032
 21
97.4018324266
  0
LINE
  5
225
100
AcDbEntity
  8
0
100
AcDbLine
 62
7
  6
BYLAYER
 10
581.069770727
 20
97.4018324266
 11
532.0469606795
 21
97.4018324266
  0
LINE
  5
226
100
AcDbEntity
  8
0
100
AcDbLine
 62
7
  6
BYLAYER
 10
433.9092348147
 20
97.4018324266
 11
433.7097098547
 21
97.4018324266
  0
LINE
  5
227
100
AcDbEntity
  8
0
100
AcDbLine
 62
7
  6
BYLAYER
 10
384.1097098577
 20
97.4018324266
 11
383.9092348147
 21
97.4018324266
  0
LINE
  5
228
100
AcDbEntity
  8
0
100
AcDbLine
 62
7
  6
BYLAYER
 10
433.4206398385
 20
97.4018324266
 11
384.397829791
 21
97.4018324266
  0
LINE
  5
229
100
AcDbEntity
  8
0
100
AcDbLine
 62
7
  6
BYLAYER
 10
383.9092348147
 20
98.4018323577
 11
384.1097098577
 21
98.4018323577
  0
LINE
  5
22A
100
AcDbEntity
  8
0
100
AcDbLine
 62
7
  6
BYLAYER
 10
433.7097098547
 20
98.4018323695
 11
433.9092348147
 21
98.4018323695
  0
LINE
  5
22B
100
AcDbEntity
  8
0
100
AcDbLine
 62
7
  6
BYLAYER
 10
531.5583657032
 20
98.4018323577
 11
531.7588407462
 21
98.4018323577
  0
LINE
  5
22C
100
AcDbEntity
  8
0
100
AcDbLine
 62
7
  6
BYLAYER
 10
581.3588407432
 20
98.4018323695
 11
581.5583657032
 21
98.4018323695
  0
LINE
  5
22D
100
AcDbEntity
  8
0
100
AcDbLine
 62
7
  6
BYLAYER
 10
384.1097098577
 20
98.9019425651
 11
384.397829791
 21
98.9019425651
  0
LINE
  5
22E
100
AcDbEntity
  8
0
100
AcDbLine
 62
7
  6
BYLAYER
 10
433.4206398385
 20
98.9019425651
 11
433.7097098547
 21
98.9019425651
  0
LINE
  5
22F
100
AcDbEntity
  8
0
100
AcDbLine
 62
7
  6
BYLAYER
 10
531.7588407462
 20
98.9019425651
 11
532.0469606795
 21
98.9019425651
  0
LINE
  5
230
100
AcDbEntity
  8
0
100
AcDbLine
 62
7
  6
BYLAYER
 10
581.069770727
 20
98.9019425651
 11
581.3588407432
 21
98.9019425651
  0
LINE
  5
231
100
AcDbEntity
  8
0
100
AcDbLine
 62
7
  6
BYLAYER
 10
581.5583657032
 20
99.4018324266
 11
581.0120566484
 21
99.4018324266
  0
LINE
  5
232
100
AcDbEntity
  8
0
100
AcDbLine
 62
7
  6
BYLAYER
 10
532.1046747581
 20
99.4018324266
 11
531.5583657032
 21
99.4018324266
  0
LINE
  5
233
100
AcDbEntity
  8
0
100
AcDbLine
 62
7
  6
BYLAYER
 10
433.9092348147
 20
99.4018324266
 11
433.3629257599
 21
99.4018324266
  0
LINE
  5
234
100
AcDbEntity
  8
0
100
AcDbLine
 62
7
  6
BYLAYER
 10
384.4555438695
 20
99.4018324266
 11
383.9092348147
 21
99.4018324266
  0
LINE
  5
235
100
AcDbEntity
  8
0
100
AcDbLine
 62
7
  6
BYLAYER
 10
383.9092348147
 20
113.9018324266
 11
427.9092348147
 21
113.9018324266
  0
LINE
  5
236
100
AcDbEntity
  8
0
100
AcDbLine
 62
7
  6
BYLAYER
 10
427.9620212192
 20
113.9018324266
 11
433.9092348147
 21
113.9018324266
  0
LINE
  5
237
100
AcDbEntity
  8
0
100
AcDbLine
 62
7
  6
BYLAYER
 10
531.5583657032
 20
113.9018324266
 11
575.5583657032
 21
113.9018324266
  0
LINE
  5
238
100
AcDbEntity
  8
0
100
AcDbLine
 62
7
  6
BYLAYER
 10
575.6111521077
 20
113.9018324266
 11
581.5583657032
 21
113.9018324266
  0
LINE
  5
239
100
AcDbEntity
  8
3
100
AcDbLine
 62
7
  6
BYLAYER
 10
581.5588407463
 20
113.9019553736
 11
575.5578601672
 21
113.9019553736
  0
LINE
  5
23A
100
AcDbEntity
  8
3
100
AcDbLine
 62
7
  6
BYLAYER
 10
537.5598213253
 20
113.9019553736
 11
531.5588407463
 21
113.9019553736
  0
LINE
  5
23B
100
AcDbEntity
  8
3
100
AcDbLine
 62
7
  6
BYLAYER
 10
433.9097098578
 20
113.9019553736
 11
427.9087292787
 21
113.9019553736
  0
LINE
  5
23C
100
AcDbEntity
  8
3
100
AcDbLine
 62
7
  6
BYLAYER
 10
389.9106904368
 20
113.9019553736
 11
383.9097098578
 21
113.9019553736
  0
LINE
  5
23D
100
AcDbEntity
  8
3
100
AcDbLine
 62
7
  6
BYLAYER
 10
390.1090707091
 20
113.9019553736
 11
427.7090707091
 21
113.9019553736
  0
LINE
  5
23E
100
AcDbEntity
  8
3
100
AcDbLine
 62
7
  6
BYLAYER
 10
537.7582015976
 20
113.9019553736
 11
575.3582015976
 21
113.9019553736
  0
LINE
  5
23F
100
AcDbEntity
  8
4
100
AcDbLine
 62
7
  6
BYLAYER
 10
591.7475864298
 20
141.2501176883
 11
581.5588407463
 21
141.2501176883
  0
LINE
  5
240
100
AcDbEntity
  8
3
100
AcDbLine
 62
7
  6
BYLAYER
 10
444.0984555412
 20
141.2501176883
 11
433.9097098578
 21
141.2501176883
  0
LINE
  5
241
100
AcDbEntity
  8
0
100
AcDbLine
 62
7
  6
BYLAYER
 10
392.6599626258
 20
1236.4019425651
 11
392.1599626258
 21
1235.9019425651
  0
LINE
  5
242
100
AcDbEntity
  8
3
100
AcDbLine
 62
7
  6
BYLAYER
 10
433.9097098578
 20
191.2501176883
 11
444.0984555412
 21
191.2501176883
  0
LINE
  5
243
100
AcDbEntity
  8
4
100
AcDbLine
 62
7
  6
BYLAYER
 10
581.5588407463
 20
191.2501176883
 11
591.7475864298
 21
191.2501176883
  0
LINE
  5
244
100
AcDbEntity
  8
0
100
AcDbLine
 62
7
  6
BYLAYER
 10
412.4099606471
 20
1240.4019425651
 11
411.9099626258
 21
1239.9019447236
  0
LINE
  5
245
100
AcDbEntity
  8
0
100
AcDbLine
 62
7
  6
BYLAYER
 10
410.6599626258
 20
1236.4019425651
 11
410.1599626258
 21
1235.9019425651
  0
LINE
  5
246
100
AcDbEntity
  8
0
100
AcDbLine
 62
7
  6
BYLAYER
 10
410.6599626258
 20
1231.4019425651
 11
410.1599626258
 21
1230.9019425651
  0
LINE
  5
247
100
AcDbEntity
  8
0
100
AcDbLine
 62
7
  6
BYLAYER
 10
425.4599626258
 20
1229.9019425651
 11
425.6599626258
 21
1230.1019425651
  0
LINE
  5
248
100
AcDbEntity
  8
0
100
AcDbLine
 62
7
  6
BYLAYER
 10
540.3090935143
 20
1236.4019425651
 11
539.8090935143
 21
1235.9019425651
  0
LINE
  5
249
100
AcDbEntity
  8
0
100
AcDbLine
 62
7
  6
BYLAYER
 10
560.0590915356
 20
1240.4019425651
 11
559.5590935143
 21
1239.9019447236
  0
LINE
  5
24A
100
AcDbEntity
  8
0
100
AcDbLine
 62
7
  6
BYLAYER
 10
558.3090935143
 20
1236.4019425651
 11
557.8090935143
 21
1235.9019425651
  0
LINE
  5
24B
100
AcDbEntity
  8
0
100
AcDbLine
 62
7
  6
BYLAYER
 10
558.3090935143
 20
1231.4019425651
 11
557.8090935143
 21
1230.9019425651
  0
LINE
  5
24C
100
AcDbEntity
  8
0
100
AcDbLine
 62
7
  6
BYLAYER
 10
573.1090935143
 20
1229.9019425651
 11
573.3090935143
 21
1230.1019425651
  0
LINE
  5
24D
100
AcDbEntity
  8
0
100
AcDbLine
 62
7
  6
BYLAYER
 10
383.9092348147
 20
97.4018324266
 11
383.9092348147
 21
113.9018324266
  0
LINE
  5
24E
100
AcDbEntity
  8
3
100
AcDbLine
 62
7
  6
BYLAYER
 10
383.9097098578
 20
1212.4019553736
 11
383.9097098578
 21
113.9019553736
  0
LINE
  5
24F
100
AcDbEntity
  8
0
100
AcDbLine
 62
7
  6
BYLAYER
 10
383.9099626258
 20
1228.9019425651
 11
383.9099626258
 21
1212.4019425651
  0
LINE
  5
250
100
AcDbEntity
  8
0
100
AcDbLine
 62
7
  6
BYLAYER
 10
384.1097098577
 20
98.9019425651
 11
384.1097098577
 21
97.3019425651
  0
LINE
  5
251
100
AcDbEntity
  8
0
100
AcDbLine
 62
7
  6
BYLAYER
 10
384.1099626258
 20
1229.0019425651
 11
384.1099626258
 21
1227.4019425651
  0
LINE
  5
252
100
AcDbEntity
  8
0
100
AcDbLine
 62
7
  6
BYLAYER
 10
384.2939953383
 20
99.4018324266
 11
384.2939953383
 21
113.9018324266
  0
LINE
  5
253
100
AcDbEntity
  8
3
100
AcDbLine
 62
7
  6
BYLAYER
 10
384.2944703814
 20
113.9019553736
 11
384.2944703814
 21
1212.4019553736
  0
LINE
  5
254
100
AcDbEntity
  8
0
100
AcDbLine
 62
7
  6
BYLAYER
 10
384.2947231493
 20
1212.4019425651
 11
384.2947231493
 21
1226.9019425651
  0
LINE
  5
255
100
AcDbEntity
  8
0
100
AcDbLine
 62
7
  6
BYLAYER
 10
384.397829791
 20
99.0171434102
 11
384.397829791
 21
97.4018324266
  0
LINE
  5
256
100
AcDbEntity
  8
0
100
AcDbLine
 62
7
  6
BYLAYER
 10
384.398557602
 20
1228.9019425651
 11
384.398557602
 21
1227.2866315645
  0
LINE
  5
257
100
AcDbEntity
  8
0
100
AcDbLine
 62
7
  6
BYLAYER
 10
384.4555438695
 20
97.4018324266
 11
384.4555438695
 21
99.4018324266
  0
LINE
  5
258
100
AcDbEntity
  8
0
100
AcDbLine
 62
7
  6
BYLAYER
 10
384.4562716806
 20
1226.9019425651
 11
384.4562716806
 21
1228.9019425651
  0
LINE
  5
259
100
AcDbEntity
  8
0
100
AcDbLine
 62
7
  6
BYLAYER
 10
385.494789745
 20
113.9018324266
 11
385.494789745
 21
97.4018324266
  0
LINE
  5
25A
100
AcDbEntity
  8
3
100
AcDbLine
 62
7
  6
BYLAYER
 10
385.495264788
 20
1212.4019553736
 11
385.495264788
 21
113.9019553736
  0
LINE
  5
25B
100
AcDbEntity
  8
0
100
AcDbLine
 62
7
  6
BYLAYER
 10
385.495517556
 20
1228.9019425651
 11
385.495517556
 21
1212.4019425651
  0
LINE
  5
25C
100
AcDbEntity
  8
0
100
AcDbLine
 62
7
  6
BYLAYER
 10
387.4178376402
 20
96.4018324266
 11
387.4178376402
 21
113.9018324266
  0
LINE
  5
25D
100
AcDbEntity
  8
3
100
AcDbLine
 62
7
  6
BYLAYER
 10
387.4183126833
 20
863.9019553736
 11
387.4183126833
 21
1212.4019553736
  0
LINE
  5
25E
100
AcDbEntity
  8
0
100
AcDbLine
 62
7
  6
BYLAYER
 10
387.4185654513
 20
1212.4019425651
 11
387.4185654513
 21
1229.9019425651
  0
LINE
  5
25F
100
AcDbEntity
  8
3
100
AcDbLine
 62
7
  6
BYLAYER
 10
387.5464675713
 20
113.9019553736
 11
387.5464675713
 21
863.9019553736
  0
LINE
  5
260
100
AcDbEntity
  8
0
100
AcDbLine
 62
7
  6
BYLAYER
 10
387.6731668372
 20
113.9018324266
 11
387.6731668372
 21
96.4018324266
  0
LINE
  5
261
100
AcDbEntity
  8
0
100
AcDbLine
 62
7
  6
BYLAYER
 10
387.6738946483
 20
1229.9019425651
 11
387.6738946483
 21
1212.4019425651
  0
LINE
  5
262
100
AcDbEntity
  8
3
100
AcDbLine
 62
7
  6
BYLAYER
 10
387.6746224593
 20
1212.4019553736
 11
387.6746224593
 21
863.9019553736
  0
LINE
  5
263
100
AcDbEntity
  8
0
100
AcDbLine
 62
7
  6
BYLAYER
 10
389.4620212192
 20
97.4018324266
 11
389.4620212192
 21
113.9018324266
  0
LINE
  5
264
100
AcDbEntity
  8
0
100
AcDbLine
 62
7
  6
BYLAYER
 10
389.4627490303
 20
1212.4019425651
 11
389.4627490303
 21
1228.9019425651
  0
LINE
  5
265
100
AcDbEntity
  8
3
100
AcDbLine
 62
7
  6
BYLAYER
 10
389.4634768413
 20
113.9019553736
 11
389.4634768413
 21
1212.4019553736
  0
LINE
  5
266
100
AcDbEntity
  8
0
100
AcDbLine
 62
7
  6
BYLAYER
 10
389.8564484102
 20
113.9018324266
 11
389.8564484102
 21
97.4018324266
  0
LINE
  5
267
100
AcDbEntity
  8
0
100
AcDbLine
 62
7
  6
BYLAYER
 10
389.8571762213
 20
1228.9019425651
 11
389.8571762213
 21
1212.4019425651
  0
LINE
  5
268
100
AcDbEntity
  8
3
100
AcDbLine
 62
7
  6
BYLAYER
 10
389.8579040323
 20
1212.4019553736
 11
389.8579040323
 21
113.9019553736
  0
LINE
  5
269
100
AcDbEntity
  8
0
100
AcDbLine
 62
7
  6
BYLAYER
 10
389.9092348147
 20
97.4018324266
 11
389.9092348147
 21
113.9018324266
  0
LINE
  5
26A
100
AcDbEntity
  8
0
100
AcDbLine
 62
7
  6
BYLAYER
 10
389.9099626258
 20
1212.4019425651
 11
389.9099626258
 21
1228.9019425651
  0
LINE
  5
26B
100
AcDbEntity
  8
3
100
AcDbLine
 62
7
  6
BYLAYER
 10
389.9106904368
 20
113.9019553736
 11
389.9106904368
 21
1212.4019553736
  0
LINE
  5
26C
100
AcDbEntity
  8
3
100
AcDbLine
 62
7
  6
BYLAYER
 10
390.1090707091
 20
113.9019553736
 11
390.1090707091
 21
1212.4019718327
  0
LINE
  5
26D
100
AcDbEntity
  8
0
100
AcDbLine
 62
7
  6
BYLAYER
 10
392.1599626258
 20
1229.9019425651
 11
392.1599626258
 21
1235.9019425651
  0
LINE
  5
26E
100
AcDbEntity
  8
0
100
AcDbLine
 62
7
  6
BYLAYER
 10
395.7832026258
 20
1237.6019425651
 11
395.7832026258
 21
1236.4019425651
  0
LINE
  5
26F
100
AcDbEntity
  8
0
100
AcDbLine
 62
7
  6
BYLAYER
 10
399.2082026258
 20
1236.4019425651
 11
399.2082026258
 21
1237.9019425651
  0
LINE
  5
270
100
AcDbEntity
  8
0
100
AcDbLine
 62
7
  6
BYLAYER
 10
400.6082026258
 20
1236.4019425651
 11
400.6082026258
 21
1237.9019425651
  0
LINE
  5
271
100
AcDbEntity
  8
0
100
AcDbLine
 62
7
  6
BYLAYER
 10
404.0332026258
 20
1236.4019425651
 11
404.0332026258
 21
1237.6019425651
  0
LINE
  5
272
100
AcDbEntity
  8
0
100
AcDbLine
 62
7
  6
BYLAYER
 10
407.6599626258
 20
1229.9019425651
 11
407.6599626258
 21
1235.9019425651
  0
LINE
  5
273
100
AcDbEntity
  8
0
100
AcDbLine
 62
7
  6
BYLAYER
 10
410.1599626258
 20
1229.9019425651
 11
410.1599626258
 21
1235.9019425651
  0
LINE
  5
274
100
AcDbEntity
  8
0
100
AcDbLine
 62
7
  6
BYLAYER
 10
411.9099626258
 20
1239.9019416277
 11
411.9099626258
 21
1232.4019425651
  0
LINE
  5
275
100
AcDbEntity
  8
0
100
AcDbLine
 62
7
  6
BYLAYER
 10
412.4099626258
 20
1231.4019425651
 11
412.4099626258
 21
1232.4019425651
  0
LINE
  5
276
100
AcDbEntity
  8
0
100
AcDbLine
 62
7
  6
BYLAYER
 10
423.4099626258
 20
1231.4019425651
 11
423.4099626258
 21
1232.4019425651
  0
LINE
  5
277
100
AcDbEntity
  8
0
100
AcDbLine
 62
7
  6
BYLAYER
 10
423.9099626258
 20
1232.4019425651
 11
423.9099626258
 21
1239.9019416277
  0
LINE
  5
278
100
AcDbEntity
  8
0
100
AcDbLine
 62
7
  6
BYLAYER
 10
425.6599626258
 20
1229.9019425651
 11
425.6599626258
 21
1235.9019425651
  0
LINE
  5
279
100
AcDbEntity
  8
3
100
AcDbLine
 62
7
  6
BYLAYER
 10
427.7090707091
 20
1212.4019718327
 11
427.7090707091
 21
113.9019553736
  0
LINE
  5
27A
100
AcDbEntity
  8
3
100
AcDbLine
 62
7
  6
BYLAYER
 10
427.9087292787
 20
1212.4019553736
 11
427.9087292787
 21
113.9019553736
  0
LINE
  5
27B
100
AcDbEntity
  8
0
100
AcDbLine
 62
7
  6
BYLAYER
 10
427.9092348147
 20
113.9018324266
 11
427.9092348147
 21
97.4018324266
  0
LINE
  5
27C
100
AcDbEntity
  8
0
100
AcDbLine
 62
7
  6
BYLAYER
 10
427.9099626258
 20
1228.9019425651
 11
427.9099626258
 21
1212.4019425651
  0
LINE
  5
27D
100
AcDbEntity
  8
3
100
AcDbLine
 62
7
  6
BYLAYER
 10
427.9615156832
 20
113.9019553736
 11
427.9615156832
 21
1212.4019553736
  0
LINE
  5
27E
100
AcDbEntity
  8
0
100
AcDbLine
 62
7
  6
BYLAYER
 10
427.9620212192
 20
97.4018324266
 11
427.9620212192
 21
113.9018324266
  0
LINE
  5
27F
100
AcDbEntity
  8
0
100
AcDbLine
 62
7
  6
BYLAYER
 10
427.9627490303
 20
1212.4019425651
 11
427.9627490303
 21
1228.9019425651
  0
LINE
  5
280
100
AcDbEntity
  8
3
100
AcDbLine
 62
7
  6
BYLAYER
 10
428.3559428742
 20
1212.4019553736
 11
428.3559428742
 21
113.9019553736
  0
LINE
  5
281
100
AcDbEntity
  8
0
100
AcDbLine
 62
7
  6
BYLAYER
 10
428.3564484102
 20
113.9018324266
 11
428.3564484102
 21
97.4018324266
  0
LINE
  5
282
100
AcDbEntity
  8
0
100
AcDbLine
 62
7
  6
BYLAYER
 10
428.3571762213
 20
1228.9019425651
 11
428.3571762213
 21
1212.4019425651
  0
LINE
  5
283
100
AcDbEntity
  8
3
100
AcDbLine
 62
7
  6
BYLAYER
 10
430.1447972562
 20
863.9019553736
 11
430.1447972562
 21
1212.4019553736
  0
LINE
  5
284
100
AcDbEntity
  8
0
100
AcDbLine
 62
7
  6
BYLAYER
 10
430.1453027922
 20
96.4018324266
 11
430.1453027922
 21
113.9018324266
  0
LINE
  5
285
100
AcDbEntity
  8
0
100
AcDbLine
 62
7
  6
BYLAYER
 10
430.1460306033
 20
1212.4019425651
 11
430.1460306033
 21
1229.9019425651
  0
LINE
  5
286
100
AcDbEntity
  8
3
100
AcDbLine
 62
7
  6
BYLAYER
 10
430.2729521442
 20
113.9019553736
 11
430.2729521442
 21
863.9019553736
  0
LINE
  5
287
100
AcDbEntity
  8
0
100
AcDbLine
 62
7
  6
BYLAYER
 10
430.4006319892
 20
113.9018324266
 11
430.4006319892
 21
96.4018324266
  0
LINE
  5
288
100
AcDbEntity
  8
3
100
AcDbLine
 62
7
  6
BYLAYER
 10
430.4011070322
 20
1212.4019553736
 11
430.4011070322
 21
863.9019553736
  0
LINE
  5
289
100
AcDbEntity
  8
0
100
AcDbLine
 62
7
  6
BYLAYER
 10
430.4013598002
 20
1229.9019425651
 11
430.4013598002
 21
1212.4019425651
  0
LINE
  5
28A
100
AcDbEntity
  8
0
100
AcDbLine
 62
7
  6
BYLAYER
 10
432.3236798845
 20
97.4018324266
 11
432.3236798845
 21
113.9018324266
  0
LINE
  5
28B
100
AcDbEntity
  8
3
100
AcDbLine
 62
7
  6
BYLAYER
 10
432.3241549275
 20
113.9019553736
 11
432.3241549275
 21
1212.4019553736
  0
LINE
  5
28C
100
AcDbEntity
  8
0
100
AcDbLine
 62
7
  6
BYLAYER
 10
432.3244076955
 20
1212.4019425651
 11
432.3244076955
 21
1228.9019425651
  0
LINE
  5
28D
100
AcDbEntity
  8
0
100
AcDbLine
 62
7
  6
BYLAYER
 10
433.3629257599
 20
99.4018324266
 11
433.3629257599
 21
97.4018324266
  0
LINE
  5
28E
100
AcDbEntity
  8
0
100
AcDbLine
 62
7
  6
BYLAYER
 10
433.3636535709
 20
1228.9019425651
 11
433.3636535709
 21
1226.9019425651
  0
LINE
  5
28F
100
AcDbEntity
  8
0
100
AcDbLine
 62
7
  6
BYLAYER
 10
433.4206398385
 20
97.4018324266
 11
433.4206398385
 21
99.0171434272
  0
LINE
  5
290
100
AcDbEntity
  8
0
100
AcDbLine
 62
7
  6
BYLAYER
 10
433.4213676495
 20
1227.2866315815
 11
433.4213676495
 21
1228.9019425651
  0
LINE
  5
291
100
AcDbEntity
  8
0
100
AcDbLine
 62
7
  6
BYLAYER
 10
433.5244742911
 20
113.9018324266
 11
433.5244742911
 21
99.4018324266
  0
LINE
  5
292
100
AcDbEntity
  8
3
100
AcDbLine
 62
7
  6
BYLAYER
 10
433.5249493342
 20
1212.4019553736
 11
433.5249493342
 21
113.9019553736
  0
LINE
  5
293
100
AcDbEntity
  8
0
100
AcDbLine
 62
7
  6
BYLAYER
 10
433.5252021022
 20
1226.9019425651
 11
433.5252021022
 21
1212.4019425651
  0
LINE
  5
294
100
AcDbEntity
  8
0
100
AcDbLine
 62
7
  6
BYLAYER
 10
433.7097098547
 20
97.3019425651
 11
433.7097098547
 21
98.9019425651
  0
LINE
  5
295
100
AcDbEntity
  8
0
100
AcDbLine
 62
7
  6
BYLAYER
 10
433.7099626258
 20
1227.4019425651
 11
433.7099626258
 21
1229.0019425651
  0
LINE
  5
296
100
AcDbEntity
  8
0
100
AcDbLine
 62
7
  6
BYLAYER
 10
433.9092348147
 20
97.4018324266
 11
433.9092348147
 21
113.9018324266
  0
LINE
  5
297
100
AcDbEntity
  8
3
100
AcDbLine
 62
7
  6
BYLAYER
 10
433.9097098578
 20
113.9019553736
 11
433.9097098578
 21
1212.4019553736
  0
LINE
  5
298
100
AcDbEntity
  8
0
100
AcDbLine
 62
7
  6
BYLAYER
 10
433.9099626258
 20
1212.4019425651
 11
433.9099626258
 21
1228.9019425651
  0
LINE
  5
299
100
AcDbEntity
  8
3
100
AcDbLine
 62
7
  6
BYLAYER
 10
437.0984555412
 20
1187.5850201492
 11
437.0984555412
 21
1137.5850201492
  0
LINE
  5
29A
100
AcDbEntity
  8
3
100
AcDbLine
 62
7
  6
BYLAYER
 10
437.0984555412
 20
191.2501176883
 11
437.0984555412
 21
141.2501176883
  0
LINE
  5
29B
100
AcDbEntity
  8
3
100
AcDbLine
 62
7
  6
BYLAYER
 10
444.0984555412
 20
141.2501176883
 11
444.0984555412
 21
191.2501176883
  0
LINE
  5
29C
100
AcDbEntity
  8
3
100
AcDbLine
 62
7
  6
BYLAYER
 10
444.0984555412
 20
1137.5850201492
 11
444.0984555412
 21
1187.5850201492
  0
LINE
  5
29D
100
AcDbEntity
  8
0
100
AcDbLine
 62
7
  6
BYLAYER
 10
531.5583657032
 20
97.4018324266
 11
531.5583657032
 21
113.9018324266
  0
LINE
  5
29E
100
AcDbEntity
  8
3
100
AcDbLine
 62
7
  6
BYLAYER
 10
531.5588407463
 20
1212.4019553736
 11
531.5588407463
 21
113.9019553736
  0
LINE
  5
29F
100
AcDbEntity
  8
0
100
AcDbLine
 62
7
  6
BYLAYER
 10
531.5590935143
 20
1226.9019425651
 11
531.5590935143
 21
1212.4019425651
  0
LINE
  5
2A0
100
AcDbEntity
  8
0
100
AcDbLine
 62
7
  6
BYLAYER
 10
531.5590935143
 20
1228.9019425651
 11
531.5590935143
 21
1226.915675326
  0
LINE
  5
2A1
100
AcDbEntity
  8
0
100
AcDbLine
 62
7
  6
BYLAYER
 10
531.7588407462
 20
98.9019425651
 11
531.7588407462
 21
97.3019425651
  0
LINE
  5
2A2
100
AcDbEntity
  8
0
100
AcDbLine
 62
7
  6
BYLAYER
 10
531.7590935143
 20
1229.0019425651
 11
531.7590935143
 21
1227.4019425651
  0
LINE
  5
2A3
100
AcDbEntity
  8
0
100
AcDbLine
 62
7
  6
BYLAYER
 10
531.9431262268
 20
99.4018324266
 11
531.9431262268
 21
113.9018324266
  0
LINE
  5
2A4
100
AcDbEntity
  8
3
100
AcDbLine
 62
7
  6
BYLAYER
 10
531.9436012699
 20
113.9019553736
 11
531.9436012699
 21
1212.4019553736
  0
LINE
  5
2A5
100
AcDbEntity
  8
0
100
AcDbLine
 62
7
  6
BYLAYER
 10
531.9438540379
 20
1212.4019425651
 11
531.9438540379
 21
1226.9019425651
  0
LINE
  5
2A6
100
AcDbEntity
  8
0
100
AcDbLine
 62
7
  6
BYLAYER
 10
532.0469606795
 20
99.0171434102
 11
532.0469606795
 21
97.4018324266
  0
LINE
  5
2A7
100
AcDbEntity
  8
0
100
AcDbLine
 62
7
  6
BYLAYER
 10
532.0476884905
 20
1228.9019425651
 11
532.0476884905
 21
1227.2866315645
  0
LINE
  5
2A8
100
AcDbEntity
  8
0
100
AcDbLine
 62
7
  6
BYLAYER
 10
532.1046747581
 20
97.4018324266
 11
532.1046747581
 21
99.4018324266
  0
LINE
  5
2A9
100
AcDbEntity
  8
0
100
AcDbLine
 62
7
  6
BYLAYER
 10
532.1054025691
 20
1226.9019425651
 11
532.1054025691
 21
1228.9019425651
  0
LINE
  5
2AA
100
AcDbEntity
  8
0
100
AcDbLine
 62
7
  6
BYLAYER
 10
533.1439206335
 20
113.9018324266
 11
533.1439206335
 21
97.4018324266
  0
LINE
  5
2AB
100
AcDbEntity
  8
3
100
AcDbLine
 62
7
  6
BYLAYER
 10
533.1443956765
 20
1212.4019553736
 11
533.1443956765
 21
113.9019553736
  0
LINE
  5
2AC
100
AcDbEntity
  8
0
100
AcDbLine
 62
7
  6
BYLAYER
 10
533.1446484445
 20
1228.9019425651
 11
533.1446484445
 21
1212.4019425651
  0
LINE
  5
2AD
100
AcDbEntity
  8
0
100
AcDbLine
 62
7
  6
BYLAYER
 10
535.0669685288
 20
96.4018324266
 11
535.0669685288
 21
113.9018324266
  0
LINE
  5
2AE
100
AcDbEntity
  8
3
100
AcDbLine
 62
7
  6
BYLAYER
 10
535.0674435718
 20
863.9019553736
 11
535.0674435718
 21
1212.4019553736
  0
LINE
  5
2AF
100
AcDbEntity
  8
0
100
AcDbLine
 62
7
  6
BYLAYER
 10
535.0676963398
 20
1212.4019425651
 11
535.0676963398
 21
1229.9019425651
  0
LINE
  5
2B0
100
AcDbEntity
  8
3
100
AcDbLine
 62
7
  6
BYLAYER
 10
535.1955984598
 20
113.9019553736
 11
535.1955984598
 21
863.9019553736
  0
LINE
  5
2B1
100
AcDbEntity
  8
0
100
AcDbLine
 62
7
  6
BYLAYER
 10
535.3222977257
 20
113.9018324266
 11
535.3222977257
 21
96.4018324266
  0
LINE
  5
2B2
100
AcDbEntity
  8
0
100
AcDbLine
 62
7
  6
BYLAYER
 10
535.3230255368
 20
1229.9019425651
 11
535.3230255368
 21
1212.4019425651
  0
LINE
  5
2B3
100
AcDbEntity
  8
3
100
AcDbLine
 62
7
  6
BYLAYER
 10
535.3237533478
 20
1212.4019553736
 11
535.3237533478
 21
863.9019553736
  0
LINE
  5
2B4
100
AcDbEntity
  8
0
100
AcDbLine
 62
7
  6
BYLAYER
 10
537.1111521077
 20
97.4018324266
 11
537.1111521077
 21
113.9018324266
  0
LINE
  5
2B5
100
AcDbEntity
  8
0
100
AcDbLine
 62
7
  6
BYLAYER
 10
537.1118799188
 20
1212.4019425651
 11
537.1118799188
 21
1228.9019425651
  0
LINE
  5
2B6
100
AcDbEntity
  8
3
100
AcDbLine
 62
7
  6
BYLAYER
 10
537.1126077298
 20
113.9019553736
 11
537.1126077298
 21
1212.4019553736
  0
LINE
  5
2B7
100
AcDbEntity
  8
0
100
AcDbLine
 62
7
  6
BYLAYER
 10
537.5055792987
 20
113.9018324266
 11
537.5055792987
 21
97.4018324266
  0
LINE
  5
2B8
100
AcDbEntity
  8
0
100
AcDbLine
 62
7
  6
BYLAYER
 10
537.5063071098
 20
1228.9019425651
 11
537.5063071098
 21
1212.4019425651
  0
LINE
  5
2B9
100
AcDbEntity
  8
3
100
AcDbLine
 62
7
  6
BYLAYER
 10
537.5070349208
 20
1212.4019553736
 11
537.5070349208
 21
113.9019553736
  0
LINE
  5
2BA
100
AcDbEntity
  8
0
100
AcDbLine
 62
7
  6
BYLAYER
 10
537.5583657032
 20
97.4018324266
 11
537.5583657032
 21
113.9018324266
  0
LINE
  5
2BB
100
AcDbEntity
  8
0
100
AcDbLine
 62
7
  6
BYLAYER
 10
537.5590935143
 20
1212.4019425651
 11
537.5590935143
 21
1228.9019425651
  0
LINE
  5
2BC
100
AcDbEntity
  8
3
100
AcDbLine
 62
7
  6
BYLAYER
 10
537.5598213253
 20
113.9019553736
 11
537.5598213253
 21
1212.4019553736
  0
LINE
  5
2BD
100
AcDbEntity
  8
3
100
AcDbLine
 62
7
  6
BYLAYER
 10
537.7582015976
 20
113.9019553736
 11
537.7582015976
 21
1212.4019718327
  0
LINE
  5
2BE
100
AcDbEntity
  8
0
100
AcDbLine
 62
7
  6
BYLAYER
 10
539.8090935143
 20
1229.9019425651
 11
539.8090935143
 21
1235.9019425651
  0
LINE
  5
2BF
100
AcDbEntity
  8
0
100
AcDbLine
 62
7
  6
BYLAYER
 10
543.4323335143
 20
1237.6019425651
 11
543.4323335143
 21
1236.4019425651
  0
LINE
  5
2C0
100
AcDbEntity
  8
0
100
AcDbLine
 62
7
  6
BYLAYER
 10
549.9368695954
 20
1236.4019425651
 11
549.9368695954
 21
1237.6019425651
  0
LINE
  5
2C1
100
AcDbEntity
  8
0
100
AcDbLine
 62
7
  6
BYLAYER
 10
550.4918266562
 20
1236.4019425651
 11
550.4918266562
 21
1237.9019425651
  0
LINE
  5
2C2
100
AcDbEntity
  8
0
100
AcDbLine
 62
7
  6
BYLAYER
 10
550.9268190891
 20
1237.6019425651
 11
550.9268190891
 21
1236.4019425651
  0
LINE
  5
2C3
100
AcDbEntity
  8
0
100
AcDbLine
 62
7
  6
BYLAYER
 10
551.6823335143
 20
1237.6019425651
 11
551.6823335143
 21
1236.4019425651
  0
LINE
  5
2C4
100
AcDbEntity
  8
0
100
AcDbLine
 62
7
  6
BYLAYER
 10
555.3090935143
 20
1229.9019425651
 11
555.3090935143
 21
1235.9019425651
  0
LINE
  5
2C5
100
AcDbEntity
  8
0
100
AcDbLine
 62
7
  6
BYLAYER
 10
557.8090935143
 20
1229.9019425651
 11
557.8090935143
 21
1235.9019425651
  0
LINE
  5
2C6
100
AcDbEntity
  8
0
100
AcDbLine
 62
7
  6
BYLAYER
 10
559.5590935143
 20
1239.9019416277
 11
559.5590935143
 21
1232.4019425651
  0
LINE
  5
2C7
100
AcDbEntity
  8
0
100
AcDbLine
 62
7
  6
BYLAYER
 10
560.0590935143
 20
1231.4019425651
 11
560.0590935143
 21
1232.4019425651
  0
LINE
  5
2C8
100
AcDbEntity
  8
0
100
AcDbLine
 62
7
  6
BYLAYER
 10
571.0590935143
 20
1231.4019425651
 11
571.0590935143
 21
1232.4019425651
  0
LINE
  5
2C9
100
AcDbEntity
  8
0
100
AcDbLine
 62
7
  6
BYLAYER
 10
571.5590935143
 20
1232.4019425651
 11
571.5590935143
 21
1239.9019416277
  0
LINE
  5
2CA
100
AcDbEntity
  8
0
100
AcDbLine
 62
7
  6
BYLAYER
 10
573.3090935143
 20
1229.9019425651
 11
573.3090935143
 21
1235.9019425651
  0
LINE
  5
2CB
100
AcDbEntity
  8
3
100
AcDbLine
 62
7
  6
BYLAYER
 10
575.3582015976
 20
1212.4019718327
 11
575.3582015976
 21
113.9019553736
  0
LINE
  5
2CC
100
AcDbEntity
  8
3
100
AcDbLine
 62
7
  6
BYLAYER
 10
575.5578601672
 20
1212.4019553736
 11
575.5578601672
 21
113.9019553736
  0
LINE
  5
2CD
100
AcDbEntity
  8
0
100
AcDbLine
 62
7
  6
BYLAYER
 10
575.5583657032
 20
113.9018324266
 11
575.5583657032
 21
97.4018324266
  0
LINE
  5
2CE
100
AcDbEntity
  8
0
100
AcDbLine
 62
7
  6
BYLAYER
 10
575.5590935143
 20
1228.9019425651
 11
575.5590935143
 21
1212.4019425651
  0
LINE
  5
2CF
100
AcDbEntity
  8
3
100
AcDbLine
 62
7
  6
BYLAYER
 10
575.6106465717
 20
113.9019553736
 11
575.6106465717
 21
1212.4019553736
  0
LINE
  5
2D0
100
AcDbEntity
  8
0
100
AcDbLine
 62
7
  6
BYLAYER
 10
575.6111521077
 20
97.4018324266
 11
575.6111521077
 21
113.9018324266
  0
LINE
  5
2D1
100
AcDbEntity
  8
0
100
AcDbLine
 62
7
  6
BYLAYER
 10
575.6118799188
 20
1212.4019425651
 11
575.6118799188
 21
1228.9019425651
  0
LINE
  5
2D2
100
AcDbEntity
  8
3
100
AcDbLine
 62
7
  6
BYLAYER
 10
576.0050737627
 20
1212.4019553736
 11
576.0050737627
 21
113.9019553736
  0
LINE
  5
2D3
100
AcDbEntity
  8
0
100
AcDbLine
 62
7
  6
BYLAYER
 10
576.0055792987
 20
113.9018324266
 11
576.0055792987
 21
97.4018324266
  0
LINE
  5
2D4
100
AcDbEntity
  8
0
100
AcDbLine
 62
7
  6
BYLAYER
 10
576.0063071098
 20
1228.9019425651
 11
576.0063071098
 21
1212.4019425651
  0
LINE
  5
2D5
100
AcDbEntity
  8
3
100
AcDbLine
 62
7
  6
BYLAYER
 10
577.7939281447
 20
863.9019553736
 11
577.7939281447
 21
1212.4019553736
  0
LINE
  5
2D6
100
AcDbEntity
  8
0
100
AcDbLine
 62
7
  6
BYLAYER
 10
577.7944336807
 20
96.4018324266
 11
577.7944336807
 21
113.9018324266
  0
LINE
  5
2D7
100
AcDbEntity
  8
0
100
AcDbLine
 62
7
  6
BYLAYER
 10
577.7951614918
 20
1212.4019425651
 11
577.7951614918
 21
1229.9019425651
  0
LINE
  5
2D8
100
AcDbEntity
  8
3
100
AcDbLine
 62
7
  6
BYLAYER
 10
577.9220830327
 20
113.9019553736
 11
577.9220830327
 21
863.9019553736
  0
LINE
  5
2D9
100
AcDbEntity
  8
0
100
AcDbLine
 62
7
  6
BYLAYER
 10
578.0497628777
 20
113.9018324266
 11
578.0497628777
 21
96.4018324266
  0
LINE
  5
2DA
100
AcDbEntity
  8
3
100
AcDbLine
 62
7
  6
BYLAYER
 10
578.0502379207
 20
1212.4019553736
 11
578.0502379207
 21
863.9019553736
  0
LINE
  5
2DB
100
AcDbEntity
  8
0
100
AcDbLine
 62
7
  6
BYLAYER
 10
578.0504906888
 20
1229.9019425651
 11
578.0504906888
 21
1212.4019425651
  0
LINE
  5
2DC
100
AcDbEntity
  8
0
100
AcDbLine
 62
7
  6
BYLAYER
 10
579.972810773
 20
97.4018324266
 11
579.972810773
 21
113.9018324266
  0
LINE
  5
2DD
100
AcDbEntity
  8
3
100
AcDbLine
 62
7
  6
BYLAYER
 10
579.973285816
 20
113.9019553736
 11
579.973285816
 21
1212.4019553736
  0
LINE
  5
2DE
100
AcDbEntity
  8
0
100
AcDbLine
 62
7
  6
BYLAYER
 10
579.973538584
 20
1212.4019425651
 11
579.973538584
 21
1228.9019425651
  0
LINE
  5
2DF
100
AcDbEntity
  8
0
100
AcDbLine
 62
7
  6
BYLAYER
 10
581.0120566484
 20
99.4018324266
 11
581.0120566484
 21
97.4018324266
  0
LINE
  5
2E0
100
AcDbEntity
  8
0
100
AcDbLine
 62
7
  6
BYLAYER
 10
581.0127844595
 20
1228.9019425651
 11
581.0127844595
 21
1226.9019425651
  0
LINE
  5
2E1
100
AcDbEntity
  8
0
100
AcDbLine
 62
7
  6
BYLAYER
 10
581.069770727
 20
97.4018324266
 11
581.069770727
 21
99.0171434272
  0
LINE
  5
2E2
100
AcDbEntity
  8
0
100
AcDbLine
 62
7
  6
BYLAYER
 10
581.070498538
 20
1227.2866315815
 11
581.070498538
 21
1228.9019425651
  0
LINE
  5
2E3
100
AcDbEntity
  8
0
100
AcDbLine
 62
7
  6
BYLAYER
 10
581.1736051797
 20
113.9018324266
 11
581.1736051797
 21
99.4018324266
  0
LINE
  5
2E4
100
AcDbEntity
  8
3
100
AcDbLine
 62
7
  6
BYLAYER
 10
581.1740802227
 20
1212.4019553736
 11
581.1740802227
 21
113.9019553736
  0
LINE
  5
2E5
100
AcDbEntity
  8
0
100
AcDbLine
 62
7
  6
BYLAYER
 10
581.1743329907
 20
1226.9019425651
 11
581.1743329907
 21
1212.4019425651
  0
LINE
  5
2E6
100
AcDbEntity
  8
0
100
AcDbLine
 62
7
  6
BYLAYER
 10
581.3588407432
 20
97.3019425651
 11
581.3588407432
 21
98.9019425651
  0
LINE
  5
2E7
100
AcDbEntity
  8
0
100
AcDbLine
 62
7
  6
BYLAYER
 10
581.3590935143
 20
1227.4019425651
 11
581.3590935143
 21
1229.0019425651
  0
LINE
  5
2E8
100
AcDbEntity
  8
0
100
AcDbLine
 62
7
  6
BYLAYER
 10
581.5583657032
 20
97.4018324266
 11
581.5583657032
 21
99.3881293716
  0
LINE
  5
2E9
100
AcDbEntity
  8
0
100
AcDbLine
 62
7
  6
BYLAYER
 10
581.5583657032
 20
99.4018324266
 11
581.5583657032
 21
113.9018324266
  0
LINE
  5
2EA
100
AcDbEntity
  8
3
100
AcDbLine
 62
7
  6
BYLAYER
 10
581.5588407463
 20
113.9019553736
 11
581.5588407463
 21
1212.4019553736
  0
LINE
  5
2EB
100
AcDbEntity
  8
0
100
AcDbLine
 62
7
  6
BYLAYER
 10
581.5590935143
 20
1212.4019425651
 11
581.5590935143
 21
1228.9019425651
  0
LINE
  5
2EC
100
AcDbEntity
  8
4
100
AcDbLine
 62
7
  6
BYLAYER
 10
584.7475864298
 20
1187.5850201492
 11
584.7475864298
 21
1137.5850201492
  0
LINE
  5
2ED
100
AcDbEntity
  8
4
100
AcDbLine
 62
7
  6
BYLAYER
 10
584.7475864298
 20
191.2501176883
 11
584.7475864298
 21
141.2501176883
  0
LINE
  5
2EE
100
AcDbEntity
  8
4
100
AcDbLine
 62
7
  6
BYLAYER
 10
591.7475864298
 20
141.2501176883
 11
591.7475864298
 21
191.2501176883
  0
LINE
  5
2EF
100
AcDbEntity
  8
4
100
AcDbLine
 62
7
  6
BYLAYER
 10
591.7475864298
 20
1137.5850201492
 11
591.7475864298
 21
1187.5850201492
  0
LINE
  5
2F0
100
AcDbEntity
  8
3
100
AcDbLine
 62
7
  6
BYLAYER
 10
578.0502379207
 20
863.9019553736
 11
577.7939281447
 21
863.9019553736
  0
LINE
  5
2F1
100
AcDbEntity
  8
3
100
AcDbLine
 62
7
  6
BYLAYER
 10
535.3237533478
 20
863.9019553736
 11
535.0674435718
 21
863.9019553736
  0
LINE
  5
2F2
100
AcDbEntity
  8
3
100
AcDbLine
 62
7
  6
BYLAYER
 10
430.4011070322
 20
863.9019553736
 11
430.1447972562
 21
863.9019553736
  0
LINE
  5
2F3
100
AcDbEntity
  8
3
100
AcDbLine
 62
7
  6
BYLAYER
 10
387.6746224593
 20
863.9019553736
 11
387.4183126833
 21
863.9019553736
  0
LINE
  5
2F4
100
AcDbEntity
  8
0
100
AcDbLine
 62
7
  6
BYLAYER
 10
410.3599626258
 20
1229.9019425651
 11
410.1599626258
 21
1230.1019425651
  0
LINE
  5
2F5
100
AcDbEntity
  8
0
100
AcDbLine
 62
7
  6
BYLAYER
 10
407.1599626258
 20
1236.4019425651
 11
407.6599626258
 21
1235.9019425651
  0
LINE
  5
2F6
100
AcDbEntity
  8
0
100
AcDbLine
 62
7
  6
BYLAYER
 10
425.1599626258
 20
1231.4019425651
 11
425.6599626258
 21
1230.9019425651
  0
LINE
  5
2F7
100
AcDbEntity
  8
0
100
AcDbLine
 62
7
  6
BYLAYER
 10
425.1599626258
 20
1236.4019425651
 11
425.6599626258
 21
1235.9019425651
  0
LINE
  5
2F8
100
AcDbEntity
  8
0
100
AcDbLine
 62
7
  6
BYLAYER
 10
423.4099646044
 20
1240.4019425651
 11
423.9099626258
 21
1239.9019447236
  0
LINE
  5
2F9
100
AcDbEntity
  8
4
100
AcDbLine
 62
7
  6
BYLAYER
 10
591.7475864298
 20
1137.5850201492
 11
581.5588407463
 21
1137.5850201492
  0
LINE
  5
2FA
100
AcDbEntity
  8
3
100
AcDbLine
 62
7
  6
BYLAYER
 10
444.0984555412
 20
1137.5850201492
 11
433.9097098578
 21
1137.5850201492
  0
LINE
  5
2FB
100
AcDbEntity
  8
0
100
AcDbLine
 62
7
  6
BYLAYER
 10
558.0090935143
 20
1229.9019425651
 11
557.8090935143
 21
1230.1019425651
  0
LINE
  5
2FC
100
AcDbEntity
  8
0
100
AcDbLine
 62
7
  6
BYLAYER
 10
554.8090935143
 20
1236.4019425651
 11
555.3090935143
 21
1235.9019425651
  0
LINE
  5
2FD
100
AcDbEntity
  8
0
100
AcDbLine
 62
7
  6
BYLAYER
 10
572.8090935143
 20
1231.4019425651
 11
573.3090935143
 21
1230.9019425651
  0
LINE
  5
2FE
100
AcDbEntity
  8
0
100
AcDbLine
 62
7
  6
BYLAYER
 10
572.8090935143
 20
1236.4019425651
 11
573.3090935143
 21
1235.9019425651
  0
LINE
  5
2FF
100
AcDbEntity
  8
0
100
AcDbLine
 62
7
  6
BYLAYER
 10
571.0590954929
 20
1240.4019425651
 11
571.5590935143
 21
1239.9019447236
  0
LINE
  5
300
100
AcDbEntity
  8
3
100
AcDbLine
 62
7
  6
BYLAYER
 10
433.9097098578
 20
1187.5850201492
 11
444.0984555412
 21
1187.5850201492
  0
LINE
  5
301
100
AcDbEntity
  8
4
100
AcDbLine
 62
7
  6
BYLAYER
 10
581.5588407463
 20
1187.5850201492
 11
591.7475864298
 21
1187.5850201492
  0
LINE
  5
302
100
AcDbEntity
  8
3
100
AcDbLine
 62
7
  6
BYLAYER
 10
575.3582015976
 20
1212.4019718327
 11
537.7582015976
 21
1212.4019718327
  0
LINE
  5
303
100
AcDbEntity
  8
0
100
AcDbLine
 62
7
  6
BYLAYER
 10
581.5590935143
 20
1212.4019425651
 11
537.5590935143
 21
1212.4019425651
  0
LINE
  5
304
100
AcDbEntity
  8
0
100
AcDbLine
 62
7
  6
BYLAYER
 10
537.5063071098
 20
1212.4019425651
 11
531.5590935143
 21
1212.4019425651
  0
LINE
  5
305
100
AcDbEntity
  8
0
100
AcDbLine
 62
7
  6
BYLAYER
 10
433.9099626258
 20
1212.4019425651
 11
389.9099626258
 21
1212.4019425651
  0
LINE
  5
306
100
AcDbEntity
  8
3
100
AcDbLine
 62
7
  6
BYLAYER
 10
427.7090707091
 20
1212.4019718327
 11
390.1090707091
 21
1212.4019718327
  0
LINE
  5
307
100
AcDbEntity
  8
0
100
AcDbLine
 62
7
  6
BYLAYER
 10
389.8571762213
 20
1212.4019425651
 11
383.9099626258
 21
1212.4019425651
  0
LINE
  5
308
100
AcDbEntity
  8
3
100
AcDbLine
 62
7
  6
BYLAYER
 10
383.9097098578
 20
1212.4019553736
 11
389.9106904368
 21
1212.4019553736
  0
LINE
  5
309
100
AcDbEntity
  8
3
100
AcDbLine
 62
7
  6
BYLAYER
 10
427.9087292787
 20
1212.4019553736
 11
433.9097098578
 21
1212.4019553736
  0
LINE
  5
30A
100
AcDbEntity
  8
3
100
AcDbLine
 62
7
  6
BYLAYER
 10
531.5588407463
 20
1212.4019553736
 11
537.5598213253
 21
1212.4019553736
  0
LINE
  5
30B
100
AcDbEntity
  8
3
100
AcDbLine
 62
7
  6
BYLAYER
 10
575.5578601672
 20
1212.4019553736
 11
581.5588407463
 21
1212.4019553736
  0
LINE
  5
30C
100
AcDbEntity
  8
0
100
AcDbLine
 62
7
  6
BYLAYER
 10
573.5590935143
 20
1225.9019425651
 11
557.5591103282
 21
1225.9019425651
  0
LINE
  5
30D
100
AcDbEntity
  8
0
100
AcDbLine
 62
7
  6
BYLAYER
 10
555.5590935143
 20
1225.9019425651
 11
539.5591103282
 21
1225.9019425651
  0
LINE
  5
30E
100
AcDbEntity
  8
0
100
AcDbLine
 62
7
  6
BYLAYER
 10
425.9099626258
 20
1225.9019425651
 11
409.9099794397
 21
1225.9019425651
  0
LINE
  5
30F
100
AcDbEntity
  8
0
100
AcDbLine
 62
7
  6
BYLAYER
 10
407.9099626258
 20
1225.9019425651
 11
391.9099794397
 21
1225.9019425651
  0
LINE
  5
310
100
AcDbEntity
  8
0
100
AcDbLine
 62
7
  6
BYLAYER
 10
555.4537970296
 20
1225.913155648
 11
539.6644065915
 21
1225.913155648
  0
LINE
  5
311
100
AcDbEntity
  8
0
100
AcDbLine
 62
7
  6
BYLAYER
 10
407.8046661411
 20
1225.913155648
 11
392.015275703
 21
1225.913155648
  0
LINE
  5
312
100
AcDbEntity
  8
0
100
AcDbLine
 62
7
  6
BYLAYER
 10
410.0151716546
 20
1225.9131368161
 11
425.8047370041
 21
1225.9131368161
  0
LINE
  5
313
100
AcDbEntity
  8
0
100
AcDbLine
 62
7
  6
BYLAYER
 10
557.6643025431
 20
1225.9131368161
 11
573.4538678926
 21
1225.9131368161
  0
LINE
  5
314
100
AcDbEntity
  8
0
100
AcDbLine
 62
7
  6
BYLAYER
 10
573.6645881745
 20
1226.8906867484
 11
557.4536158897
 21
1226.8906867484
  0
LINE
  5
315
100
AcDbEntity
  8
0
100
AcDbLine
 62
7
  6
BYLAYER
 10
555.6643899989
 20
1226.8907294822
 11
539.4538140649
 21
1226.8907294822
  0
LINE
  5
316
100
AcDbEntity
  8
0
100
AcDbLine
 62
7
  6
BYLAYER
 10
426.015457286
 20
1226.8906867484
 11
409.8044850012
 21
1226.8906867484
  0
LINE
  5
317
100
AcDbEntity
  8
0
100
AcDbLine
 62
7
  6
BYLAYER
 10
408.0152591104
 20
1226.8907294822
 11
391.8046831763
 21
1226.8907294822
  0
LINE
  5
318
100
AcDbEntity
  8
0
100
AcDbLine
 62
7
  6
BYLAYER
 10
383.9099626258
 20
1226.9019425651
 11
384.4562716806
 21
1226.9019425651
  0
LINE
  5
319
100
AcDbEntity
  8
0
100
AcDbLine
 62
7
  6
BYLAYER
 10
433.3636535709
 20
1226.9019425651
 11
433.9099626258
 21
1226.9019425651
  0
LINE
  5
31A
100
AcDbEntity
  8
0
100
AcDbLine
 62
7
  6
BYLAYER
 10
531.5590935143
 20
1226.9019425651
 11
532.1054025691
 21
1226.9019425651
  0
LINE
  5
31B
100
AcDbEntity
  8
0
100
AcDbLine
 62
7
  6
BYLAYER
 10
581.0127844595
 20
1226.9019425651
 11
581.5590935143
 21
1226.9019425651
  0
LINE
  5
31C
100
AcDbEntity
  8
0
100
AcDbLine
 62
7
  6
BYLAYER
 10
581.3590935143
 20
1227.4019425651
 11
581.070498538
 21
1227.4019425651
  0
LINE
  5
31D
100
AcDbEntity
  8
0
100
AcDbLine
 62
7
  6
BYLAYER
 10
532.0476884905
 20
1227.4019425651
 11
531.7590935143
 21
1227.4019425651
  0
LINE
  5
31E
100
AcDbEntity
  8
0
100
AcDbLine
 62
7
  6
BYLAYER
 10
433.7099626258
 20
1227.4019425651
 11
433.4213676495
 21
1227.4019425651
  0
LINE
  5
31F
100
AcDbEntity
  8
0
100
AcDbLine
 62
7
  6
BYLAYER
 10
384.398557602
 20
1227.4019425651
 11
384.1099626258
 21
1227.4019425651
  0
LINE
  5
320
100
AcDbEntity
  8
0
100
AcDbLine
 62
7
  6
BYLAYER
 10
581.5590935143
 20
1227.901942634
 11
581.3590935143
 21
1227.901942634
  0
LINE
  5
321
100
AcDbEntity
  8
0
100
AcDbLine
 62
7
  6
BYLAYER
 10
531.7590935143
 20
1227.9019426222
 11
531.5590935143
 21
1227.9019426222
  0
LINE
  5
322
100
AcDbEntity
  8
0
100
AcDbLine
 62
7
  6
BYLAYER
 10
433.9099626258
 20
1227.901942634
 11
433.7099626258
 21
1227.901942634
  0
LINE
  5
323
100
AcDbEntity
  8
0
100
AcDbLine
 62
7
  6
BYLAYER
 10
384.1099626258
 20
1227.9019426222
 11
383.9099626258
 21
1227.9019426222
  0
LINE
  5
324
100
AcDbEntity
  8
0
100
AcDbLine
 62
7
  6
BYLAYER
 10
383.9099626258
 20
1228.9019425651
 11
384.1099626258
 21
1228.9019425651
  0
LINE
  5
325
100
AcDbEntity
  8
0
100
AcDbLine
 62
7
  6
BYLAYER
 10
433.7099626258
 20
1228.9019425651
 11
433.9099626258
 21
1228.9019425651
  0
LINE
  5
326
100
AcDbEntity
  8
0
100
AcDbLine
 62
7
  6
BYLAYER
 10
384.398557602
 20
1228.9019425651
 11
433.4213676495
 21
1228.9019425651
  0
LINE
  5
327
100
AcDbEntity
  8
0
100
AcDbLine
 62
7
  6
BYLAYER
 10
531.5590935143
 20
1228.9019425651
 11
531.7590935143
 21
1228.9019425651
  0
LINE
  5
328
100
AcDbEntity
  8
0
100
AcDbLine
 62
7
  6
BYLAYER
 10
581.3590935143
 20
1228.9019425651
 11
581.5590935143
 21
1228.9019425651
  0
LINE
  5
329
100
AcDbEntity
  8
0
100
AcDbLine
 62
7
  6
BYLAYER
 10
532.0476884905
 20
1228.9019425651
 11
581.070498538
 21
1228.9019425651
  0
LINE
  5
32A
100
AcDbEntity
  8
0
100
AcDbLine
 62
7
  6
BYLAYER
 10
384.1099626258
 20
1229.0019425651
 11
384.4310498161
 21
1229.0019425651
  0
LINE
  5
32B
100
AcDbEntity
  8
0
100
AcDbLine
 62
7
  6
BYLAYER
 10
433.3888752055
 20
1229.0019425651
 11
433.7099626258
 21
1229.0019425651
  0
LINE
  5
32C
100
AcDbEntity
  8
0
100
AcDbLine
 62
7
  6
BYLAYER
 10
531.7590935143
 20
1229.0019425651
 11
532.0801807046
 21
1229.0019425651
  0
LINE
  5
32D
100
AcDbEntity
  8
0
100
AcDbLine
 62
7
  6
BYLAYER
 10
581.038006094
 20
1229.0019425651
 11
581.3590935143
 21
1229.0019425651
  0
LINE
  5
32E
100
AcDbEntity
  8
0
100
AcDbLine
 62
7
  6
BYLAYER
 10
385.3987795168
 20
1229.9019425651
 11
432.4211441537
 21
1229.9019425651
  0
LINE
  5
32F
100
AcDbEntity
  8
0
100
AcDbLine
 62
7
  6
BYLAYER
 10
533.0479104053
 20
1229.9019425651
 11
580.0702750422
 21
1229.9019425651
  0
LINE
  5
330
100
AcDbEntity
  8
0
100
AcDbLine
 62
7
  6
BYLAYER
 10
385.1100640518
 20
1230.0019425651
 11
390.7099623791
 21
1230.0019425651
  0
LINE
  5
331
100
AcDbEntity
  8
0
100
AcDbLine
 62
7
  6
BYLAYER
 10
427.1100640518
 20
1230.0019425651
 11
432.7099623791
 21
1230.0019425651
  0
LINE
  5
332
100
AcDbEntity
  8
0
100
AcDbLine
 62
7
  6
BYLAYER
 10
532.7591949403
 20
1230.0019425651
 11
538.3590932676
 21
1230.0019425651
  0
LINE
  5
333
100
AcDbEntity
  8
0
100
AcDbLine
 62
7
  6
BYLAYER
 10
574.7591949403
 20
1230.0019425651
 11
580.3590932676
 21
1230.0019425651
  0
LINE
  5
334
100
AcDbEntity
  8
0
100
AcDbLine
 62
7
  6
BYLAYER
 10
573.3090935143
 20
1230.1019425651
 11
557.8090935143
 21
1230.1019425651
  0
LINE
  5
335
100
AcDbEntity
  8
0
100
AcDbLine
 62
7
  6
BYLAYER
 10
425.6599626258
 20
1230.1019425651
 11
410.1599626258
 21
1230.1019425651
  0
LINE
  5
336
100
AcDbEntity
  8
0
100
AcDbLine
 62
7
  6
BYLAYER
 10
410.1599626258
 20
1230.9019425651
 11
425.6599626258
 21
1230.9019425651
  0
LINE
  5
337
100
AcDbEntity
  8
0
100
AcDbLine
 62
7
  6
BYLAYER
 10
557.8090935143
 20
1230.9019425651
 11
573.3090935143
 21
1230.9019425651
  0
LINE
  5
338
100
AcDbEntity
  8
0
100
AcDbLine
 62
7
  6
BYLAYER
 10
555.3090935143
 20
1231.4019425651
 11
539.8090935143
 21
1231.4019425651
  0
LINE
  5
339
100
AcDbEntity
  8
0
100
AcDbLine
 62
7
  6
BYLAYER
 10
407.6599626258
 20
1231.4019425651
 11
392.1599626258
 21
1231.4019425651
  0
LINE
  5
33A
100
AcDbEntity
  8
0
100
AcDbLine
 62
7
  6
BYLAYER
 10
410.1599626258
 20
1231.4019425651
 11
425.6599626258
 21
1231.4019425651
  0
LINE
  5
33B
100
AcDbEntity
  8
0
100
AcDbLine
 62
7
  6
BYLAYER
 10
557.8090935143
 20
1231.4019425651
 11
573.3090935143
 21
1231.4019425651
  0
LINE
  5
33C
100
AcDbEntity
  8
0
100
AcDbLine
 62
7
  6
BYLAYER
 10
571.5590935143
 20
1232.4019425651
 11
559.5590935143
 21
1232.4019425651
  0
LINE
  5
33D
100
AcDbEntity
  8
0
100
AcDbLine
 62
7
  6
BYLAYER
 10
423.9099626258
 20
1232.4019425651
 11
411.9099626258
 21
1232.4019425651
  0
LINE
  5
33E
100
AcDbEntity
  8
0
100
AcDbLine
 62
7
  6
BYLAYER
 10
573.3090892315
 20
1234.4019425651
 11
571.5590935143
 21
1234.4019425651
  0
LINE
  5
33F
100
AcDbEntity
  8
0
100
AcDbLine
 62
7
  6
BYLAYER
 10
559.5590935143
 20
1234.4019425651
 11
557.8090977971
 21
1234.4019425651
  0
LINE
  5
340
100
AcDbEntity
  8
0
100
AcDbLine
 62
7
  6
BYLAYER
 10
555.3090892315
 20
1234.4019425651
 11
539.8090977971
 21
1234.4019425651
  0
LINE
  5
341
100
AcDbEntity
  8
0
100
AcDbLine
 62
7
  6
BYLAYER
 10
425.6599583429
 20
1234.4019425651
 11
423.9099626258
 21
1234.4019425651
  0
LINE
  5
342
100
AcDbEntity
  8
0
100
AcDbLine
 62
7
  6
BYLAYER
 10
411.9099626258
 20
1234.4019425651
 11
410.1599669086
 21
1234.4019425651
  0
LINE
  5
343
100
AcDbEntity
  8
0
100
AcDbLine
 62
7
  6
BYLAYER
 10
407.6599583429
 20
1234.4019425651
 11
392.1599669086
 21
1234.4019425651
  0
LINE
  5
344
100
AcDbEntity
  8
0
100
AcDbLine
 62
7
  6
BYLAYER
 10
392.1599626258
 20
1235.9019425651
 11
407.6599626258
 21
1235.9019425651
  0
LINE
  5
345
100
AcDbEntity
  8
0
100
AcDbLine
 62
7
  6
BYLAYER
 10
410.1599626258
 20
1235.9019425651
 11
411.9099626258
 21
1235.9019425651
  0
LINE
  5
346
100
AcDbEntity
  8
0
100
AcDbLine
 62
7
  6
BYLAYER
 10
423.9099626258
 20
1235.9019425651
 11
425.6599626258
 21
1235.9019425651
  0
LINE
  5
347
100
AcDbEntity
  8
0
100
AcDbLine
 62
7
  6
BYLAYER
 10
539.8090935143
 20
1235.9019425651
 11
555.3090935143
 21
1235.9019425651
  0
LINE
  5
348
100
AcDbEntity
  8
0
100
AcDbLine
 62
7
  6
BYLAYER
 10
557.8090935143
 20
1235.9019425651
 11
559.5590935143
 21
1235.9019425651
  0
LINE
  5
349
100
AcDbEntity
  8
0
100
AcDbLine
 62
7
  6
BYLAYER
 10
571.5590935143
 20
1235.9019425651
 11
573.3090935143
 21
1235.9019425651
  0
LINE
  5
34A
100
AcDbEntity
  8
0
100
AcDbLine
 62
7
  6
BYLAYER
 10
392.6599666286
 20
1236.4019425651
 11
407.159958623
 21
1236.4019425651
  0
LINE
  5
34B
100
AcDbEntity
  8
0
100
AcDbLine
 62
7
  6
BYLAYER
 10
410.6599666286
 20
1236.4019425651
 11
411.9099626258
 21
1236.4019425651
  0
LINE
  5
34C
100
AcDbEntity
  8
0
100
AcDbLine
 62
7
  6
BYLAYER
 10
423.9099626258
 20
1236.4019425651
 11
425.159958623
 21
1236.4019425651
  0
LINE
  5
34D
100
AcDbEntity
  8
0
100
AcDbLine
 62
7
  6
BYLAYER
 10
540.3090975171
 20
1236.4019425651
 11
554.8090895115
 21
1236.4019425651
  0
LINE
  5
34E
100
AcDbEntity
  8
0
100
AcDbLine
 62
7
  6
BYLAYER
 10
558.3090975171
 20
1236.4019425651
 11
559.5590935143
 21
1236.4019425651
  0
LINE
  5
34F
100
AcDbEntity
  8
0
100
AcDbLine
 62
7
  6
BYLAYER
 10
571.5590935143
 20
1236.4019425651
 11
572.8090895115
 21
1236.4019425651
  0
LINE
  5
350
100
AcDbEntity
  8
0
100
AcDbLine
 62
7
  6
BYLAYER
 10
395.7832026258
 20
1237.6019425651
 11
399.2082026258
 21
1237.6019425651
  0
LINE
  5
351
100
AcDbEntity
  8
0
100
AcDbLine
 62
7
  6
BYLAYER
 10
400.6082026258
 20
1237.6019425651
 11
404.0332026258
 21
1237.6019425651
  0
LINE
  5
352
100
AcDbEntity
  8
0
100
AcDbLine
 62
7
  6
BYLAYER
 10
543.4323335143
 20
1237.6019425651
 11
549.9368695954
 21
1237.6019425651
  0
LINE
  5
353
100
AcDbEntity
  8
0
100
AcDbLine
 62
7
  6
BYLAYER
 10
550.9268190891
 20
1237.6019425651
 11
551.6823335143
 21
1237.6019425651
  0
LINE
  5
354
100
AcDbEntity
  8
0
100
AcDbLine
 62
7
  6
BYLAYER
 10
396.0832141516
 20
1237.9019425651
 11
403.733171861
 21
1237.9019425651
  0
LINE
  5
355
100
AcDbEntity
  8
0
100
AcDbLine
 62
7
  6
BYLAYER
 10
543.732311623
 20
1237.9019425651
 11
551.3823938822
 21
1237.9019425651
  0
LINE
  5
356
100
AcDbEntity
  8
0
100
AcDbLine
 62
7
  6
BYLAYER
 10
411.9099626258
 20
1239.9019416277
 11
423.9099626258
 21
1239.9019416277
  0
LINE
  5
357
100
AcDbEntity
  8
0
100
AcDbLine
 62
7
  6
BYLAYER
 10
559.5590935143
 20
1239.9019416277
 11
571.5590935143
 21
1239.9019416277
  0
LINE
  5
358
100
AcDbEntity
  8
0
100
AcDbLine
 62
7
  6
BYLAYER
 10
412.4099620615
 20
1240.4019425651
 11
423.4099573244
 21
1240.4019425651
  0
LINE
  5
359
100
AcDbEntity
  8
0
100
AcDbLine
 62
7
  6
BYLAYER
 10
560.05909295
 20
1240.4019425651
 11
571.0590882129
 21
1240.4019425651
  0
ARC
  5
35A
100
AcDbEntity
  8
0
100
AcDbCircle
 62
7
  6
BYLAYER
 10
390.7092348176
 20
97.3019425651
 40
1.0
100
AcDbArc
 50
270.0
 51
292.3676490041
  0
ARC
  5
35B
100
AcDbEntity
  8
0
100
AcDbCircle
 62
7
  6
BYLAYER
 10
385.1097098577
 20
97.3019425651
 40
1.0
100
AcDbArc
 50
180.0
 51
270.0
  0
ARC
  5
35C
100
AcDbEntity
  8
0
100
AcDbCircle
 62
7
  6
BYLAYER
 10
389.7097098577
 20
97.3019425651
 40
1.0
100
AcDbArc
 50
270.0
 51
292.3676490041
  0
ARC
  5
35D
100
AcDbEntity
  8
0
100
AcDbCircle
 62
7
  6
BYLAYER
 10
385.397829791
 20
97.4018324266
 40
1.0
100
AcDbArc
 50
180.0
 51
270.0
  0
ARC
  5
35E
100
AcDbEntity
  8
0
100
AcDbCircle
 62
7
  6
BYLAYER
 10
388.9092348147
 20
97.4018324266
 40
1.0
100
AcDbArc
 50
270.0
 51
360.0
  0
ARC
  5
35F
100
AcDbEntity
  8
0
100
AcDbCircle
 62
7
  6
BYLAYER
 10
384.9092348147
 20
97.4018324266
 40
1.0
100
AcDbArc
 50
180.0
 51
249.9315512354
  0
ARC
  5
360
100
AcDbEntity
  8
0
100
AcDbCircle
 62
7
  6
BYLAYER
 10
385.4170755778
 20
97.3131568587
 40
0.9113244322
100
AcDbArc
 50
268.9031685193
 51
269.9995120838
  0
ARC
  5
361
100
AcDbEntity
  8
0
100
AcDbCircle
 62
7
  6
BYLAYER
 10
384.4092348147
 20
99.4018324266
 40
0.5
100
AcDbArc
 50
180.0
 51
268.8357968818
  0
ARC
  5
362
100
AcDbEntity
  8
0
100
AcDbCircle
 62
7
  6
BYLAYER
 10
427.1092348147
 20
97.3019425651
 40
1.0
100
AcDbArc
 50
247.6323509959
 51
270.0
  0
ARC
  5
363
100
AcDbEntity
  8
0
100
AcDbCircle
 62
7
  6
BYLAYER
 10
428.1097098547
 20
97.3019425651
 40
1.0
100
AcDbArc
 50
247.6323509959
 51
270.0
  0
ARC
  5
364
100
AcDbEntity
  8
0
100
AcDbCircle
 62
7
  6
BYLAYER
 10
432.7097098547
 20
97.3019425651
 40
1.0
100
AcDbArc
 50
270.0
 51
360.0
  0
ARC
  5
365
100
AcDbEntity
  8
0
100
AcDbCircle
 62
7
  6
BYLAYER
 10
432.4206398385
 20
97.4018324266
 40
1.0
100
AcDbArc
 50
270.0
 51
360.0
  0
ARC
  5
366
100
AcDbEntity
  8
0
100
AcDbCircle
 62
7
  6
BYLAYER
 10
432.9092348147
 20
97.4018324266
 40
1.0
100
AcDbArc
 50
290.1402792355
 51
360.0
  0
ARC
  5
367
100
AcDbEntity
  8
0
100
AcDbCircle
 62
7
  6
BYLAYER
 10
428.9092348147
 20
97.4018324266
 40
1.0
100
AcDbArc
 50
180.0
 51
270.0
  0
ARC
  5
368
100
AcDbEntity
  8
0
100
AcDbCircle
 62
7
  6
BYLAYER
 10
432.401394125
 20
97.3123005958
 40
0.9104681692
100
AcDbArc
 50
270.0004837627
 51
271.0800850326
  0
ARC
  5
369
100
AcDbEntity
  8
0
100
AcDbCircle
 62
7
  6
BYLAYER
 10
433.4092348147
 20
99.4018324266
 40
0.5
100
AcDbArc
 50
271.1642031186
 51
360.0
  0
ARC
  5
36A
100
AcDbEntity
  8
0
100
AcDbCircle
 62
7
  6
BYLAYER
 10
433.7714809446
 20
98.9941481246
 40
0.3511956121
100
AcDbArc
 50
168.8863826972
 51
177.9822951692
  0
ARC
  5
36B
100
AcDbEntity
  8
0
100
AcDbCircle
 62
7
  6
BYLAYER
 10
390.7099626258
 20
1229.0019425651
 40
1.0
100
AcDbArc
 50
67.6076884452
 51
90.0
  0
ARC
  5
36C
100
AcDbEntity
  8
0
100
AcDbCircle
 62
7
  6
BYLAYER
 10
389.7099626258
 20
1229.0019425651
 40
1.0
100
AcDbArc
 50
67.6076884452
 51
90.0
  0
ARC
  5
36D
100
AcDbEntity
  8
0
100
AcDbCircle
 62
7
  6
BYLAYER
 10
385.1099626258
 20
1229.0019425651
 40
1.0
100
AcDbArc
 50
90.0
 51
180.0
  0
ARC
  5
36E
100
AcDbEntity
  8
0
100
AcDbCircle
 62
7
  6
BYLAYER
 10
385.398557602
 20
1228.9019425651
 40
1.0
100
AcDbArc
 50
90.0
 51
180.0
  0
ARC
  5
36F
100
AcDbEntity
  8
0
100
AcDbCircle
 62
7
  6
BYLAYER
 10
384.9099626258
 20
1228.9019425651
 40
1.0
100
AcDbArc
 50
110.1126910722
 51
179.9999999999
  0
ARC
  5
370
100
AcDbEntity
  8
0
100
AcDbCircle
 62
7
  6
BYLAYER
 10
388.9099626258
 20
1228.9019425651
 40
1.0
100
AcDbArc
 50
0.0
 51
90.0
  0
ARC
  5
371
100
AcDbEntity
  8
0
100
AcDbCircle
 62
7
  6
BYLAYER
 10
385.4178033155
 20
1228.9914743995
 40
0.9104681656
100
AcDbArc
 50
90.0004837609
 51
91.080085035
  0
ARC
  5
372
100
AcDbEntity
  8
0
100
AcDbCircle
 62
7
  6
BYLAYER
 10
384.4099626258
 20
1226.9019425651
 40
0.5
100
AcDbArc
 50
91.1642031186
 51
180.0
  0
ARC
  5
373
100
AcDbEntity
  8
0
100
AcDbCircle
 62
7
  6
BYLAYER
 10
391.9099804351
 20
1226.4019427795
 40
0.4999999534
100
AcDbArc
 50
102.1571959059
 51
282.1569625409
  0
ARC
  5
374
100
AcDbEntity
  8
0
100
AcDbCircle
 62
7
  6
BYLAYER
 10
407.9099448164
 20
1226.4019427795
 40
0.4999999534
100
AcDbArc
 50
257.8430374591
 51
77.8428040941
  0
ARC
  5
375
100
AcDbEntity
  8
0
100
AcDbCircle
 62
7
  6
BYLAYER
 10
384.0477164957
 20
1227.3096268672
 40
0.3511956123
100
AcDbArc
 50
348.8863826989
 51
357.9822949639
  0
ARC
  5
376
100
AcDbEntity
  8
0
100
AcDbCircle
 62
7
  6
BYLAYER
 10
403.7332026258
 20
1237.6019425651
 40
0.3
100
AcDbArc
 50
0.0
 51
90.0
  0
ARC
  5
377
100
AcDbEntity
  8
0
100
AcDbCircle
 62
7
  6
BYLAYER
 10
396.0832026258
 20
1237.6019425651
 40
0.3
100
AcDbArc
 50
90.0
 51
180.0
  0
ARC
  5
378
100
AcDbEntity
  8
0
100
AcDbCircle
 62
7
  6
BYLAYER
 10
427.1099626258
 20
1229.0019425651
 40
1.0
100
AcDbArc
 50
90.0
 51
112.3923115548
  0
ARC
  5
379
100
AcDbEntity
  8
0
100
AcDbCircle
 62
7
  6
BYLAYER
 10
432.7099626258
 20
1229.0019425651
 40
1.0
100
AcDbArc
 50
0.0
 51
90.0
  0
ARC
  5
37A
100
AcDbEntity
  8
0
100
AcDbCircle
 62
7
  6
BYLAYER
 10
428.1099626258
 20
1229.0019425651
 40
1.0
100
AcDbArc
 50
90.0
 51
112.3923115548
  0
ARC
  5
37B
100
AcDbEntity
  8
0
100
AcDbCircle
 62
7
  6
BYLAYER
 10
432.4213676495
 20
1228.9019425651
 40
1.0
100
AcDbArc
 50
0.0
 51
90.0
  0
ARC
  5
37C
100
AcDbEntity
  8
0
100
AcDbCircle
 62
7
  6
BYLAYER
 10
432.9099626258
 20
1228.9019425651
 40
1.0
100
AcDbArc
 50
0.0
 51
69.8873089278
  0
ARC
  5
37D
100
AcDbEntity
  8
0
100
AcDbCircle
 62
7
  6
BYLAYER
 10
428.9099626258
 20
1228.9019425651
 40
1.0
100
AcDbArc
 50
90.0
 51
180.0
  0
ARC
  5
37E
100
AcDbEntity
  8
0
100
AcDbCircle
 62
7
  6
BYLAYER
 10
432.4021218627
 20
1228.9906181319
 40
0.9113244332
100
AcDbArc
 50
88.9031685197
 51
89.999512083
  0
ARC
  5
37F
100
AcDbEntity
  8
0
100
AcDbCircle
 62
7
  6
BYLAYER
 10
433.4099626258
 20
1226.9019425651
 40
0.5
100
AcDbArc
 50
0.0
 51
88.8357968818
  0
ARC
  5
380
100
AcDbEntity
  8
0
100
AcDbCircle
 62
7
  6
BYLAYER
 10
409.9099804348
 20
1226.4019427799
 40
0.4999999532
100
AcDbArc
 50
102.180427063
 51
282.1801937463
  0
ARC
  5
381
100
AcDbEntity
  8
0
100
AcDbCircle
 62
7
  6
BYLAYER
 10
425.9099448167
 20
1226.4019427799
 40
0.4999999532
100
AcDbArc
 50
257.8198062537
 51
77.819572937
  0
ARC
  5
382
100
AcDbEntity
  8
0
100
AcDbCircle
 62
7
  6
BYLAYER
 10
538.3583657061
 20
97.3019425651
 40
1.0
100
AcDbArc
 50
270.0
 51
292.3676490041
  0
ARC
  5
383
100
AcDbEntity
  8
0
100
AcDbCircle
 62
7
  6
BYLAYER
 10
532.7588407462
 20
97.3019425651
 40
1.0
100
AcDbArc
 50
180.0
 51
270.0
  0
ARC
  5
384
100
AcDbEntity
  8
0
100
AcDbCircle
 62
7
  6
BYLAYER
 10
537.3588407462
 20
97.3019425651
 40
1.0
100
AcDbArc
 50
270.0
 51
292.3676490041
  0
ARC
  5
385
100
AcDbEntity
  8
0
100
AcDbCircle
 62
7
  6
BYLAYER
 10
533.0469606795
 20
97.4018324266
 40
1.0
100
AcDbArc
 50
180.0
 51
270.0
  0
ARC
  5
386
100
AcDbEntity
  8
0
100
AcDbCircle
 62
7
  6
BYLAYER
 10
536.5583657032
 20
97.4018324266
 40
1.0
100
AcDbArc
 50
270.0
 51
360.0
  0
ARC
  5
387
100
AcDbEntity
  8
0
100
AcDbCircle
 62
7
  6
BYLAYER
 10
532.5583657032
 20
97.4018324266
 40
1.0
100
AcDbArc
 50
180.0
 51
249.9315512353
  0
ARC
  5
388
100
AcDbEntity
  8
0
100
AcDbCircle
 62
7
  6
BYLAYER
 10
533.0662064663
 20
97.3131568585
 40
0.9113244319
100
AcDbArc
 50
268.9031685192
 51
269.999512084
  0
ARC
  5
389
100
AcDbEntity
  8
0
100
AcDbCircle
 62
7
  6
BYLAYER
 10
532.0583657032
 20
99.4018324266
 40
0.5
100
AcDbArc
 50
180.0
 51
268.8357968818
  0
ARC
  5
38A
100
AcDbEntity
  8
0
100
AcDbCircle
 62
7
  6
BYLAYER
 10
574.7583657032
 20
97.3019425651
 40
1.0
100
AcDbArc
 50
247.6323509959
 51
270.0
  0
ARC
  5
38B
100
AcDbEntity
  8
0
100
AcDbCircle
 62
7
  6
BYLAYER
 10
575.7588407432
 20
97.3019425651
 40
1.0
100
AcDbArc
 50
247.6323509959
 51
270.0
  0
ARC
  5
38C
100
AcDbEntity
  8
0
100
AcDbCircle
 62
7
  6
BYLAYER
 10
580.3588407432
 20
97.3019425651
 40
1.0
100
AcDbArc
 50
270.0
 51
360.0
  0
ARC
  5
38D
100
AcDbEntity
  8
0
100
AcDbCircle
 62
7
  6
BYLAYER
 10
580.069770727
 20
97.4018324266
 40
1.0
100
AcDbArc
 50
270.0
 51
360.0
  0
ARC
  5
38E
100
AcDbEntity
  8
0
100
AcDbCircle
 62
7
  6
BYLAYER
 10
580.5583657032
 20
97.4018324266
 40
1.0
100
AcDbArc
 50
290.1402792355
 51
360.0
  0
ARC
  5
38F
100
AcDbEntity
  8
0
100
AcDbCircle
 62
7
  6
BYLAYER
 10
576.5583657032
 20
97.4018324266
 40
1.0
100
AcDbArc
 50
180.0
 51
270.0
  0
ARC
  5
390
100
AcDbEntity
  8
0
100
AcDbCircle
 62
7
  6
BYLAYER
 10
580.0505250135
 20
97.3123005959
 40
0.9104681693
100
AcDbArc
 50
270.0004837627
 51
271.0800850325
  0
ARC
  5
391
100
AcDbEntity
  8
0
100
AcDbCircle
 62
7
  6
BYLAYER
 10
581.0583657032
 20
99.4018324266
 40
0.5
100
AcDbArc
 50
271.1642031186
 51
360.0
  0
ARC
  5
392
100
AcDbEntity
  8
0
100
AcDbCircle
 62
7
  6
BYLAYER
 10
581.420611833
 20
98.9941481246
 40
0.351195612
100
AcDbArc
 50
168.8863826964
 51
177.9822952332
  0
ARC
  5
393
100
AcDbEntity
  8
0
100
AcDbCircle
 62
7
  6
BYLAYER
 10
538.3590935143
 20
1229.0019425651
 40
1.0
100
AcDbArc
 50
67.6076884452
 51
90.0
  0
ARC
  5
394
100
AcDbEntity
  8
0
100
AcDbCircle
 62
7
  6
BYLAYER
 10
537.3590935143
 20
1229.0019425651
 40
1.0
100
AcDbArc
 50
67.6076884452
 51
90.0
  0
ARC
  5
395
100
AcDbEntity
  8
0
100
AcDbCircle
 62
7
  6
BYLAYER
 10
532.7590935143
 20
1229.0019425651
 40
1.0
100
AcDbArc
 50
90.0
 51
180.0
  0
ARC
  5
396
100
AcDbEntity
  8
0
100
AcDbCircle
 62
7
  6
BYLAYER
 10
533.0476884906
 20
1228.9019425651
 40
1.0
100
AcDbArc
 50
90.0
 51
180.0
  0
ARC
  5
397
100
AcDbEntity
  8
0
100
AcDbCircle
 62
7
  6
BYLAYER
 10
532.5590935143
 20
1228.9019425651
 40
1.0
100
AcDbArc
 50
110.1126910722
 51
180.0
  0
ARC
  5
398
100
AcDbEntity
  8
0
100
AcDbCircle
 62
7
  6
BYLAYER
 10
536.5590935143
 20
1228.9019425651
 40
1.0
100
AcDbArc
 50
0.0
 51
90.0
  0
ARC
  5
399
100
AcDbEntity
  8
0
100
AcDbCircle
 62
7
  6
BYLAYER
 10
533.066934204
 20
1228.9914743995
 40
0.9104681656
100
AcDbArc
 50
90.0004837608
 51
91.0800850351
  0
ARC
  5
39A
100
AcDbEntity
  8
0
100
AcDbCircle
 62
7
  6
BYLAYER
 10
532.0590935143
 20
1226.9019425651
 40
0.5
100
AcDbArc
 50
91.1642031186
 51
180.0
  0
ARC
  5
39B
100
AcDbEntity
  8
0
100
AcDbCircle
 62
7
  6
BYLAYER
 10
539.5591113236
 20
1226.4019427795
 40
0.4999999534
100
AcDbArc
 50
102.1571959059
 51
282.1569625409
  0
ARC
  5
39C
100
AcDbEntity
  8
0
100
AcDbCircle
 62
7
  6
BYLAYER
 10
555.5590757049
 20
1226.4019427795
 40
0.4999999534
100
AcDbArc
 50
257.8430374591
 51
77.8428040941
  0
ARC
  5
39D
100
AcDbEntity
  8
0
100
AcDbCircle
 62
7
  6
BYLAYER
 10
531.6968473842
 20
1227.3096268672
 40
0.3511956122
100
AcDbArc
 50
348.8863826986
 51
357.9822949899
  0
ARC
  5
39E
100
AcDbEntity
  8
0
100
AcDbCircle
 62
7
  6
BYLAYER
 10
551.3823335143
 20
1237.6019425651
 40
0.3
100
AcDbArc
 50
0.0
 51
90.0
  0
ARC
  5
39F
100
AcDbEntity
  8
0
100
AcDbCircle
 62
7
  6
BYLAYER
 10
543.7323335143
 20
1237.6019425651
 40
0.3
100
AcDbArc
 50
90.0
 51
180.0
  0
ARC
  5
3A0
100
AcDbEntity
  8
0
100
AcDbCircle
 62
7
  6
BYLAYER
 10
574.7590935143
 20
1229.0019425651
 40
1.0
100
AcDbArc
 50
90.0
 51
112.3923115548
  0
ARC
  5
3A1
100
AcDbEntity
  8
0
100
AcDbCircle
 62
7
  6
BYLAYER
 10
580.3590935143
 20
1229.0019425651
 40
1.0
100
AcDbArc
 50
0.0
 51
90.0
  0
ARC
  5
3A2
100
AcDbEntity
  8
0
100
AcDbCircle
 62
7
  6
BYLAYER
 10
575.7590935143
 20
1229.0019425651
 40
1.0
100
AcDbArc
 50
90.0
 51
112.3923115548
  0
ARC
  5
3A3
100
AcDbEntity
  8
0
100
AcDbCircle
 62
7
  6
BYLAYER
 10
580.070498538
 20
1228.9019425651
 40
1.0
100
AcDbArc
 50
0.0
 51
90.0
  0
ARC
  5
3A4
100
AcDbEntity
  8
0
100
AcDbCircle
 62
7
  6
BYLAYER
 10
580.5590935143
 20
1228.9019425651
 40
1.0
100
AcDbArc
 50
0.0
 51
69.8873089278
  0
ARC
  5
3A5
100
AcDbEntity
  8
0
100
AcDbCircle
 62
7
  6
BYLAYER
 10
576.5590935143
 20
1228.9019425651
 40
1.0
100
AcDbArc
 50
90.0
 51
180.0
  0
ARC
  5
3A6
100
AcDbEntity
  8
0
100
AcDbCircle
 62
7
  6
BYLAYER
 10
580.0512527512
 20
1228.9906181299
 40
0.9113244352
100
AcDbArc
 50
88.9031685215
 51
89.9995120824
  0
ARC
  5
3A7
100
AcDbEntity
  8
0
100
AcDbCircle
 62
7
  6
BYLAYER
 10
581.0590935143
 20
1226.9019425651
 40
0.5
100
AcDbArc
 50
0.0
 51
88.8357968818
  0
ARC
  5
3A8
100
AcDbEntity
  8
0
100
AcDbCircle
 62
7
  6
BYLAYER
 10
557.5591113233
 20
1226.4019427799
 40
0.4999999532
100
AcDbArc
 50
102.180427063
 51
282.1801937463
  0
ARC
  5
3A9
100
AcDbEntity
  8
0
100
AcDbCircle
 62
7
  6
BYLAYER
 10
573.5590757052
 20
1226.4019427799
 40
0.4999999532
100
AcDbArc
 50
257.8198062537
 51
77.819572937
  0
SPLINE
  5
3AA
100
AcDbEntity
  8
0
100
AcDbSpline
 62
7
  6
BYLAYER
 70
0
 71
3
 72
11
 73
7
 74
0
 42
0.0000001
 43
0.0000001
 44
0.0000000001
 40
0.0
 40
0.0
 40
0.0
 40
0.0
 40
0.288432907
 40
0.5554725908
 40
0.7902209526
 40
1.0
 40
1.0
 40
1.0
 40
1.0
 10
549.9368695954
 20
1237.6019425651
 30
0.0
 10
549.9368695954
 20
1237.6408842313
 30
0.0
 10
549.9264721119
 20
1237.7163746005
 30
0.0
 10
549.8808881212
 20
1237.814773554
 30
0.0
 10
549.8104390403
 20
1237.8841391057
 30
0.0
 10
549.7496819178
 20
1237.9019435305
 30
0.0
 10
549.7213594018
 20
1237.9019425651
 30
0.0
  0
SPLINE
  5
3AB
100
AcDbEntity
  8
0
100
AcDbSpline
 62
7
  6
BYLAYER
 70
0
 71
3
 72
11
 73
7
 74
0
 42
0.0000001
 43
0.0000001
 44
0.0000000001
 40
0.0
 40
0.0
 40
0.0
 40
0.0
 40
0.2883671583
 40
0.5553852791
 40
0.7902445524
 40
1.0
 40
1.0
 40
1.0
 40
1.0
 10
550.9268190891
 20
1237.6019425651
 30
0.0
 10
550.9268190891
 20
1237.6408632712
 30
0.0
 10
550.916379429
 20
1237.7163215953
 30
0.0
 10
550.8707071174
 20
1237.8146373779
 30
0.0
 10
550.8003465715
 20
1237.8840145166
 30
0.0
 10
550.7396194359
 20
1237.9019435301
 30
0.0
 10
550.7113088954
 20
1237.9019425651
 30
0.0
  0
SPLINE
  5
3AC
100
AcDbEntity
  8
0
100
AcDbSpline
 62
7
  6
BYLAYER
 70
0
 71
3
 72
8
 73
4
 74
0
 42
0.0000001
 43
0.0000001
 44
0.0000000001
 40
0.0
 40
0.0
 40
0.0
 40
0.0
 40
1.0
 40
1.0
 40
1.0
 40
1.0
 10
433.4268713459
 20
99.0618428986
 30
0.0
 10
433.4361681976
 20
99.1093756977
 30
0.0
 10
433.4553192104
 20
99.1558502361
 30
0.0
 10
433.4819734105
 20
99.1962897225
 30
0.0
  0
SPLINE
  5
3AD
100
AcDbEntity
  8
0
100
AcDbSpline
 62
7
  6
BYLAYER
 70
0
 71
3
 72
9
 73
5
 74
0
 42
0.0000001
 43
0.0000001
 44
0.0000000001
 40
0.0
 40
0.0
 40
0.0
 40
0.0
 40
0.2423551149
 40
1.0
 40
1.0
 40
1.0
 40
1.0
 10
433.4206438499
 20
99.0171449289
 30
0.0
 10
433.4206528685
 20
99.0486305984
 30
0.0
 10
433.4154478682
 20
99.1785318784
 30
0.0
 10
433.3904587164
 20
99.3073317733
 30
0.0
 10
433.362925733
 20
99.4018323225
 30
0.0
  0
SPLINE
  5
3AE
100
AcDbEntity
  8
0
100
AcDbSpline
 62
7
  6
BYLAYER
 70
0
 71
3
 72
11
 73
7
 74
0
 42
0.0000001
 43
0.0000001
 44
0.0000000001
 40
0.0
 40
0.0
 40
0.0
 40
0.0
 40
0.2455000837
 40
0.4935877931
 40
0.7454492783
 40
1.0
 40
1.0
 40
1.0
 40
1.0
 10
385.3996308675
 20
96.4019994065
 30
0.0
 10
385.2757789726
 20
96.4043696319
 30
0.0
 10
385.0249265237
 20
96.4605960955
 30
0.0
 10
384.7117512798
 20
96.6856642238
 30
0.0
 10
384.5037780373
 20
97.0152580716
 30
0.0
 10
384.4555438695
 20
97.2733910775
 30
0.0
 10
384.4555438695
 20
97.4018324266
 30
0.0
  0
SPLINE
  5
3AF
100
AcDbEntity
  8
0
100
AcDbSpline
 62
7
  6
BYLAYER
 70
0
 71
3
 72
11
 73
7
 74
0
 42
0.0000001
 43
0.0000001
 44
0.0000000001
 40
0.0
 40
0.0
 40
0.0
 40
0.0
 40
0.2370154222
 40
0.4817461593
 40
0.7371748139
 40
1.0
 40
1.0
 40
1.0
 40
1.0
 10
388.5675940282
 20
96.4018324266
 30
0.0
 10
388.6844803109
 20
96.4018324266
 30
0.0
 10
388.9250217606
 20
96.4561011619
 30
0.0
 10
389.2218103156
 20
96.6827481808
 30
0.0
 10
389.417093896
 20
97.0142505344
 30
0.0
 10
389.4620212192
 20
97.2722178272
 30
0.0
 10
389.4620212192
 20
97.4018324266
 30
0.0
  0
SPLINE
  5
3B0
100
AcDbEntity
  8
0
100
AcDbSpline
 62
7
  6
BYLAYER
 70
0
 71
3
 72
11
 73
7
 74
0
 42
0.0000001
 43
0.0000001
 44
0.0000000001
 40
0.0
 40
0.0
 40
0.0
 40
0.0
 40
0.2429770416
 40
0.4900484521
 40
0.7429376142
 40
1.0
 40
1.0
 40
1.0
 40
1.0
 10
388.9092339379
 20
96.4018324266
 30
0.0
 10
389.032326407
 20
96.4018395748
 30
0.0
 10
389.2834921002
 20
96.4545878135
 30
0.0
 10
389.5981890928
 20
96.6785119262
 30
0.0
 10
389.8077866718
 20
97.0106135719
 30
0.0
 10
389.8564664327
 20
97.2716043045
 30
0.0
 10
389.856467252
 20
97.4018324266
 30
0.0
  0
SPLINE
  5
3B1
100
AcDbEntity
  8
0
100
AcDbSpline
 62
7
  6
BYLAYER
 70
0
 71
3
 72
11
 73
7
 74
0
 42
0.0000001
 43
0.0000001
 44
0.0000000001
 40
0.0
 40
0.0
 40
0.0
 40
0.0
 40
0.2570642536
 40
0.5099515937
 40
0.7570212812
 40
1.0
 40
1.0
 40
1.0
 40
1.0
 10
427.9620022894
 20
97.4018324266
 30
0.0
 10
427.9620031207
 20
97.2716033433
 30
0.0
 10
428.0106830837
 20
97.0106124384
 30
0.0
 10
428.2202808958
 20
96.6785121027
 30
0.0
 10
428.5349765137
 20
96.4545879868
 30
0.0
 10
428.7861423477
 20
96.4018394866
 30
0.0
 10
428.9092356807
 20
96.4018324266
 30
0.0
  0
SPLINE
  5
3B2
100
AcDbEntity
  8
0
100
AcDbSpline
 62
7
  6
BYLAYER
 70
0
 71
3
 72
11
 73
7
 74
0
 42
0.0000001
 43
0.0000001
 44
0.0000000001
 40
0.0
 40
0.0
 40
0.0
 40
0.0
 40
0.2627344212
 40
0.5180975916
 40
0.762900959
 40
1.0
 40
1.0
 40
1.0
 40
1.0
 10
428.3564484102
 20
97.4018324266
 30
0.0
 10
428.3564484102
 20
97.2722626591
 30
0.0
 10
428.4013445121
 20
97.0143746353
 30
0.0
 10
428.596545212
 20
96.6828794982
 30
0.0
 10
428.8933275557
 20
96.4561415469
 30
0.0
 10
429.1339481447
 20
96.4018324266
 30
0.0
 10
429.2508756012
 20
96.4018324266
 30
0.0
  0
SPLINE
  5
3B3
100
AcDbEntity
  8
0
100
AcDbSpline
 62
7
  6
BYLAYER
 70
0
 71
3
 72
11
 73
7
 74
0
 42
0.0000001
 43
0.0000001
 44
0.0000000001
 40
0.0
 40
0.0
 40
0.0
 40
0.0
 40
0.2544641196
 40
0.5062554122
 40
0.7544085347
 40
1.0
 40
1.0
 40
1.0
 40
1.0
 10
433.3629257599
 20
97.4018324266
 30
0.0
 10
433.3629257599
 20
97.273411374
 30
0.0
 10
433.3147081791
 20
97.0153111531
 30
0.0
 10
433.1067458154
 20
96.6856853101
 30
0.0
 10
432.7934753158
 20
96.460537336
 30
0.0
 10
432.542477645
 20
96.4043295212
 30
0.0
 10
432.4185563803
 20
96.4019941946
 30
0.0
  0
SPLINE
  5
3B4
100
AcDbEntity
  8
0
100
AcDbSpline
 62
7
  6
BYLAYER
 70
0
 71
3
 72
9
 73
5
 74
0
 42
0.0000001
 43
0.0000001
 44
0.0000000001
 40
0.0
 40
0.0
 40
0.0
 40
0.0
 40
0.2703934266
 40
1.0
 40
1.0
 40
1.0
 40
1.0
 10
433.3629257599
 20
99.4018324266
 30
0.0
 10
433.3760900763
 20
99.3848950957
 30
0.0
 10
433.4227889561
 20
99.3208168958
 30
0.0
 10
433.4617934633
 20
99.2505413602
 30
0.0
 10
433.4819734104
 20
99.1962897226
 30
0.0
  0
SPLINE
  5
3B5
100
AcDbEntity
  8
0
100
AcDbSpline
 62
7
  6
BYLAYER
 70
0
 71
3
 72
11
 73
7
 74
0
 42
0.0000001
 43
0.0000001
 44
0.0000000001
 40
0.0
 40
0.0
 40
0.0
 40
0.0
 40
0.2454646712
 40
0.49351694
 40
0.7453862235
 40
1.0
 40
1.0
 40
1.0
 40
1.0
 10
431.3621559369
 20
96.4018324266
 30
0.0
 10
431.4874112538
 20
96.4018324266
 30
0.0
 10
431.7421612965
 20
96.4545695415
 30
0.0
 10
432.0616378355
 20
96.6786416482
 30
0.0
 10
432.2743074621
 20
97.0107623425
 30
0.0
 10
432.3236798845
 20
97.271908519
 30
0.0
 10
432.3236798845
 20
97.4018324266
 30
0.0
  0
SPLINE
  5
3B6
100
AcDbEntity
  8
0
100
AcDbSpline
 62
7
  6
BYLAYER
 70
0
 71
3
 72
9
 73
5
 74
0
 42
0.0000001
 43
0.0000001
 44
0.0000000001
 40
0.0
 40
0.0
 40
0.0
 40
0.0
 40
0.2799425407
 40
1.0
 40
1.0
 40
1.0
 40
1.0
 10
433.481973297
 20
99.1962895169
 30
0.0
 10
433.4869994383
 20
99.181357491
 30
0.0
 10
433.5024647646
 20
99.1274994763
 30
0.0
 10
433.5055770507
 20
99.068071407
 30
0.0
 10
433.4941430821
 20
99.0291928616
 30
0.0
  0
SPLINE
  5
3B7
100
AcDbEntity
  8
0
100
AcDbSpline
 62
7
  6
BYLAYER
 70
0
 71
3
 72
8
 73
4
 74
0
 42
0.0000001
 43
0.0000001
 44
0.0000000001
 40
0.0
 40
0.0
 40
0.0
 40
0.0
 40
1.0
 40
1.0
 40
1.0
 40
1.0
 10
433.4941430821
 20
99.0291928616
 30
0.0
 10
433.4891489782
 20
99.0122115749
 30
0.0
 10
433.4814630236
 20
98.9957773672
 30
0.0
 10
433.4714335778
 20
98.9811926016
 30
0.0
  0
SPLINE
  5
3B8
100
AcDbEntity
  8
0
100
AcDbSpline
 62
7
  6
BYLAYER
 70
0
 71
3
 72
8
 73
4
 74
0
 42
0.0000001
 43
0.0000001
 44
0.0000000001
 40
0.0
 40
0.0
 40
0.0
 40
0.0
 40
1.0
 40
1.0
 40
1.0
 40
1.0
 10
433.4714335778
 20
98.9811926016
 30
0.0
 10
433.4583936467
 20
98.9622300049
 30
0.0
 10
433.4408191281
 20
98.9458864218
 30
0.0
 10
433.4212467248
 20
98.9337810135
 30
0.0
  0
SPLINE
  5
3B9
100
AcDbEntity
  8
0
100
AcDbSpline
 62
7
  6
BYLAYER
 70
0
 71
3
 72
8
 73
4
 74
0
 42
0.0000001
 43
0.0000001
 44
0.0000000001
 40
0.0
 40
0.0
 40
0.0
 40
0.0
 40
1.0
 40
1.0
 40
1.0
 40
1.0
 10
433.5244742911
 20
99.4018324266
 30
0.0
 10
433.5244742911
 20
99.3318688424
 30
0.0
 10
433.5098058668
 20
99.2604789545
 30
0.0
 10
433.4819734104
 20
99.1962897226
 30
0.0
  0
SPLINE
  5
3BA
100
AcDbEntity
  8
0
100
AcDbSpline
 62
7
  6
BYLAYER
 70
0
 71
3
 72
9
 73
5
 74
0
 42
0.0000001
 43
0.0000001
 44
0.0000000001
 40
0.0
 40
0.0
 40
0.0
 40
0.0
 40
0.2581441243
 40
1.0
 40
1.0
 40
1.0
 40
1.0
 10
384.4555439073
 20
99.4018322808
 30
0.0
 10
384.4461643001
 20
99.3696389584
 30
0.0
 10
384.4137829313
 20
99.2438519949
 30
0.0
 10
384.3977993148
 20
99.1135225885
 30
0.0
 10
384.397825778
 20
99.017158505
 30
0.0
  0
SPLINE
  5
3BB
100
AcDbEntity
  8
0
100
AcDbSpline
 62
7
  6
BYLAYER
 70
0
 71
3
 72
8
 73
4
 74
0
 42
0.0000001
 43
0.0000001
 44
0.0000000001
 40
0.0
 40
0.0
 40
0.0
 40
0.0
 40
1.0
 40
1.0
 40
1.0
 40
1.0
 10
384.336496219
 20
99.1962897225
 30
0.0
 10
384.3712058394
 20
99.1436286328
 30
0.0
 10
384.3933096311
 20
99.0800945406
 30
0.0
 10
384.3974354878
 20
99.0171586571
 30
0.0
  0
SPLINE
  5
3BC
100
AcDbEntity
  8
0
100
AcDbSpline
 62
7
  6
BYLAYER
 70
0
 71
3
 72
9
 73
5
 74
0
 42
0.0000001
 43
0.0000001
 44
0.0000000001
 40
0.0
 40
0.0
 40
0.0
 40
0.0
 40
0.27038548
 40
1.0
 40
1.0
 40
1.0
 40
1.0
 10
384.4555438695
 20
99.4018324266
 30
0.0
 10
384.4423799209
 20
99.3848955762
 30
0.0
 10
384.3956767198
 20
99.3208203414
 30
0.0
 10
384.3566764171
 20
99.2505420123
 30
0.0
 10
384.336496219
 20
99.1962897226
 30
0.0
  0
SPLINE
  5
3BD
100
AcDbEntity
  8
0
100
AcDbSpline
 62
7
  6
BYLAYER
 70
0
 71
3
 72
8
 73
4
 74
0
 42
0.0000001
 43
0.0000001
 44
0.0000000001
 40
0.0
 40
0.0
 40
0.0
 40
0.0
 40
1.0
 40
1.0
 40
1.0
 40
1.0
 10
384.336496219
 20
99.1962897226
 30
0.0
 10
384.3086637627
 20
99.2604789545
 30
0.0
 10
384.2939953383
 20
99.3318688424
 30
0.0
 10
384.2939953383
 20
99.4018324266
 30
0.0
  0
SPLINE
  5
3BE
100
AcDbEntity
  8
0
100
AcDbSpline
 62
7
  6
BYLAYER
 70
0
 71
3
 72
9
 73
5
 74
0
 42
0.0000001
 43
0.0000001
 44
0.0000000001
 40
0.0
 40
0.0
 40
0.0
 40
0.0
 40
0.2666839678
 40
1.0
 40
1.0
 40
1.0
 40
1.0
 10
384.3977787567
 20
98.9334385904
 30
0.0
 10
384.3885473922
 20
98.9391028607
 30
0.0
 10
384.3557430704
 20
98.9632861122
 30
0.0
 10
384.3329546538
 20
99.0001580052
 30
0.0
 10
384.3244706296
 20
99.0287055292
 30
0.0
  0
SPLINE
  5
3BF
100
AcDbEntity
  8
0
100
AcDbSpline
 62
7
  6
BYLAYER
 70
0
 71
3
 72
9
 73
5
 74
0
 42
0.0000001
 43
0.0000001
 44
0.0000000001
 40
0.0
 40
0.0
 40
0.0
 40
0.0
 40
0.2268944865
 40
1.0
 40
1.0
 40
1.0
 40
1.0
 10
384.3244706296
 20
99.0287055292
 30
0.0
 10
384.3208152541
 20
99.0410053434
 30
0.0
 10
384.3106426239
 20
99.0970633801
 30
0.0
 10
384.3225486666
 20
99.1548527454
 30
0.0
 10
384.3364963384
 20
99.1962895062
 30
0.0
  0
SPLINE
  5
3C0
100
AcDbEntity
  8
0
100
AcDbSpline
 62
7
  6
BYLAYER
 70
0
 71
3
 72
11
 73
7
 74
0
 42
0.0000001
 43
0.0000001
 44
0.0000000001
 40
0.0
 40
0.0
 40
0.0
 40
0.0
 40
0.2545253123
 40
0.5063269197
 40
0.7544493833
 40
1.0
 40
1.0
 40
1.0
 40
1.0
 10
385.494789745
 20
97.4018324266
 30
0.0
 10
385.494789745
 20
97.2719536853
 30
0.0
 10
385.5441271366
 20
97.0108895692
 30
0.0
 10
385.7567076596
 20
96.6787720725
 30
0.0
 10
386.07618247
 20
96.4546079039
 30
0.0
 10
386.3310145436
 20
96.4018324266
 30
0.0
 10
386.4563136926
 20
96.4018324266
 30
0.0
  0
SPLINE
  5
3C1
100
AcDbEntity
  8
0
100
AcDbSpline
 62
7
  6
BYLAYER
 70
0
 71
3
 72
9
 73
5
 74
0
 42
0.0000001
 43
0.0000001
 44
0.0000000001
 40
0.0
 40
0.0
 40
0.0
 40
0.0
 40
0.2423551149
 40
1.0
 40
1.0
 40
1.0
 40
1.0
 10
581.0697747384
 20
99.0171449288
 30
0.0
 10
581.069783757
 20
99.0486305983
 30
0.0
 10
581.0645787567
 20
99.1785318783
 30
0.0
 10
581.039589605
 20
99.3073317733
 30
0.0
 10
581.0120566215
 20
99.4018323225
 30
0.0
  0
SPLINE
  5
3C2
100
AcDbEntity
  8
0
100
AcDbSpline
 62
7
  6
BYLAYER
 70
0
 71
3
 72
8
 73
4
 74
0
 42
0.0000001
 43
0.0000001
 44
0.0000000001
 40
0.0
 40
0.0
 40
0.0
 40
0.0
 40
1.0
 40
1.0
 40
1.0
 40
1.0
 10
581.0760022344
 20
99.0618428986
 30
0.0
 10
581.0852990862
 20
99.1093756977
 30
0.0
 10
581.1044500989
 20
99.1558502361
 30
0.0
 10
581.131104299
 20
99.1962897225
 30
0.0
  0
SPLINE
  5
3C3
100
AcDbEntity
  8
0
100
AcDbSpline
 62
7
  6
BYLAYER
 70
0
 71
3
 72
11
 73
7
 74
0
 42
0.0000001
 43
0.0000001
 44
0.0000000001
 40
0.0
 40
0.0
 40
0.0
 40
0.0
 40
0.2455000837
 40
0.4935877931
 40
0.7454492783
 40
1.0
 40
1.0
 40
1.0
 40
1.0
 10
533.048761756
 20
96.4019994065
 30
0.0
 10
532.9249098611
 20
96.4043696319
 30
0.0
 10
532.6740574122
 20
96.4605960955
 30
0.0
 10
532.3608821683
 20
96.6856642238
 30
0.0
 10
532.1529089258
 20
97.0152580716
 30
0.0
 10
532.1046747581
 20
97.2733910775
 30
0.0
 10
532.1046747581
 20
97.4018324266
 30
0.0
  0
SPLINE
  5
3C4
100
AcDbEntity
  8
0
100
AcDbSpline
 62
7
  6
BYLAYER
 70
0
 71
3
 72
11
 73
7
 74
0
 42
0.0000001
 43
0.0000001
 44
0.0000000001
 40
0.0
 40
0.0
 40
0.0
 40
0.0
 40
0.2370154222
 40
0.4817461593
 40
0.7371748139
 40
1.0
 40
1.0
 40
1.0
 40
1.0
 10
536.2167249167
 20
96.4018324266
 30
0.0
 10
536.3336111995
 20
96.4018324266
 30
0.0
 10
536.5741526491
 20
96.4561011619
 30
0.0
 10
536.8709412041
 20
96.6827481808
 30
0.0
 10
537.0662247845
 20
97.0142505344
 30
0.0
 10
537.1111521077
 20
97.2722178272
 30
0.0
 10
537.1111521077
 20
97.4018324266
 30
0.0
  0
SPLINE
  5
3C5
100
AcDbEntity
  8
0
100
AcDbSpline
 62
7
  6
BYLAYER
 70
0
 71
3
 72
11
 73
7
 74
0
 42
0.0000001
 43
0.0000001
 44
0.0000000001
 40
0.0
 40
0.0
 40
0.0
 40
0.0
 40
0.2429770416
 40
0.4900484521
 40
0.7429376142
 40
1.0
 40
1.0
 40
1.0
 40
1.0
 10
536.5583648264
 20
96.4018324266
 30
0.0
 10
536.6814572955
 20
96.4018395748
 30
0.0
 10
536.9326229887
 20
96.4545878135
 30
0.0
 10
537.2473199814
 20
96.6785119262
 30
0.0
 10
537.4569175604
 20
97.0106135719
 30
0.0
 10
537.5055973212
 20
97.2716043045
 30
0.0
 10
537.5055981405
 20
97.4018324266
 30
0.0
  0
SPLINE
  5
3C6
100
AcDbEntity
  8
0
100
AcDbSpline
 62
7
  6
BYLAYER
 70
0
 71
3
 72
11
 73
7
 74
0
 42
0.0000001
 43
0.0000001
 44
0.0000000001
 40
0.0
 40
0.0
 40
0.0
 40
0.0
 40
0.2570642536
 40
0.5099515937
 40
0.7570212812
 40
1.0
 40
1.0
 40
1.0
 40
1.0
 10
575.6111331779
 20
97.4018324266
 30
0.0
 10
575.6111340092
 20
97.2716033433
 30
0.0
 10
575.6598139722
 20
97.0106124384
 30
0.0
 10
575.8694117843
 20
96.6785121027
 30
0.0
 10
576.1841074022
 20
96.4545879868
 30
0.0
 10
576.4352732363
 20
96.4018394866
 30
0.0
 10
576.5583665692
 20
96.4018324266
 30
0.0
  0
SPLINE
  5
3C7
100
AcDbEntity
  8
0
100
AcDbSpline
 62
7
  6
BYLAYER
 70
0
 71
3
 72
11
 73
7
 74
0
 42
0.0000001
 43
0.0000001
 44
0.0000000001
 40
0.0
 40
0.0
 40
0.0
 40
0.0
 40
0.2627344212
 40
0.5180975916
 40
0.762900959
 40
1.0
 40
1.0
 40
1.0
 40
1.0
 10
576.0055792987
 20
97.4018324266
 30
0.0
 10
576.0055792987
 20
97.2722626591
 30
0.0
 10
576.0504754007
 20
97.0143746353
 30
0.0
 10
576.2456761005
 20
96.6828794982
 30
0.0
 10
576.5424584443
 20
96.4561415469
 30
0.0
 10
576.7830790332
 20
96.4018324266
 30
0.0
 10
576.9000064897
 20
96.4018324266
 30
0.0
  0
SPLINE
  5
3C8
100
AcDbEntity
  8
0
100
AcDbSpline
 62
7
  6
BYLAYER
 70
0
 71
3
 72
11
 73
7
 74
0
 42
0.0000001
 43
0.0000001
 44
0.0000000001
 40
0.0
 40
0.0
 40
0.0
 40
0.0
 40
0.2544641196
 40
0.5062554122
 40
0.7544085347
 40
1.0
 40
1.0
 40
1.0
 40
1.0
 10
581.0120566484
 20
97.4018324266
 30
0.0
 10
581.0120566484
 20
97.273411374
 30
0.0
 10
580.9638390676
 20
97.0153111531
 30
0.0
 10
580.7558767039
 20
96.6856853101
 30
0.0
 10
580.4426062043
 20
96.460537336
 30
0.0
 10
580.1916085335
 20
96.4043295212
 30
0.0
 10
580.0676872689
 20
96.4019941946
 30
0.0
  0
SPLINE
  5
3C9
100
AcDbEntity
  8
0
100
AcDbSpline
 62
7
  6
BYLAYER
 70
0
 71
3
 72
9
 73
5
 74
0
 42
0.0000001
 43
0.0000001
 44
0.0000000001
 40
0.0
 40
0.0
 40
0.0
 40
0.0
 40
0.2703934266
 40
1.0
 40
1.0
 40
1.0
 40
1.0
 10
581.0120566484
 20
99.4018324266
 30
0.0
 10
581.0252209649
 20
99.3848950957
 30
0.0
 10
581.0719198446
 20
99.3208168958
 30
0.0
 10
581.1109243518
 20
99.2505413602
 30
0.0
 10
581.131104299
 20
99.1962897226
 30
0.0
  0
SPLINE
  5
3CA
100
AcDbEntity
  8
0
100
AcDbSpline
 62
7
  6
BYLAYER
 70
0
 71
3
 72
9
 73
5
 74
0
 42
0.0000001
 43
0.0000001
 44
0.0000000001
 40
0.0
 40
0.0
 40
0.0
 40
0.0
 40
0.2799425407
 40
1.0
 40
1.0
 40
1.0
 40
1.0
 10
581.1311041855
 20
99.1962895169
 30
0.0
 10
581.1361303268
 20
99.181357491
 30
0.0
 10
581.1515956531
 20
99.1274994763
 30
0.0
 10
581.1547079392
 20
99.068071407
 30
0.0
 10
581.1432739707
 20
99.0291928616
 30
0.0
  0
SPLINE
  5
3CB
100
AcDbEntity
  8
0
100
AcDbSpline
 62
7
  6
BYLAYER
 70
0
 71
3
 72
8
 73
4
 74
0
 42
0.0000001
 43
0.0000001
 44
0.0000000001
 40
0.0
 40
0.0
 40
0.0
 40
0.0
 40
1.0
 40
1.0
 40
1.0
 40
1.0
 10
581.1432739707
 20
99.0291928616
 30
0.0
 10
581.1382798667
 20
99.0122115749
 30
0.0
 10
581.1305939121
 20
98.9957773672
 30
0.0
 10
581.1205644663
 20
98.9811926016
 30
0.0
  0
SPLINE
  5
3CC
100
AcDbEntity
  8
0
100
AcDbSpline
 62
7
  6
BYLAYER
 70
0
 71
3
 72
8
 73
4
 74
0
 42
0.0000001
 43
0.0000001
 44
0.0000000001
 40
0.0
 40
0.0
 40
0.0
 40
0.0
 40
1.0
 40
1.0
 40
1.0
 40
1.0
 10
581.1205644663
 20
98.9811926016
 30
0.0
 10
581.1075245352
 20
98.9622300049
 30
0.0
 10
581.0899500166
 20
98.9458864218
 30
0.0
 10
581.0703776134
 20
98.9337810135
 30
0.0
  0
SPLINE
  5
3CD
100
AcDbEntity
  8
0
100
AcDbSpline
 62
7
  6
BYLAYER
 70
0
 71
3
 72
8
 73
4
 74
0
 42
0.0000001
 43
0.0000001
 44
0.0000000001
 40
0.0
 40
0.0
 40
0.0
 40
0.0
 40
1.0
 40
1.0
 40
1.0
 40
1.0
 10
581.1736051797
 20
99.4018324266
 30
0.0
 10
581.1736051797
 20
99.3318688424
 30
0.0
 10
581.1589367553
 20
99.2604789545
 30
0.0
 10
581.131104299
 20
99.1962897226
 30
0.0
  0
SPLINE
  5
3CE
100
AcDbEntity
  8
0
100
AcDbSpline
 62
7
  6
BYLAYER
 70
0
 71
3
 72
11
 73
7
 74
0
 42
0.0000001
 43
0.0000001
 44
0.0000000001
 40
0.0
 40
0.0
 40
0.0
 40
0.0
 40
0.2454646712
 40
0.49351694
 40
0.7453862235
 40
1.0
 40
1.0
 40
1.0
 40
1.0
 10
579.0112868254
 20
96.4018324266
 30
0.0
 10
579.1365421423
 20
96.4018324266
 30
0.0
 10
579.391292185
 20
96.4545695415
 30
0.0
 10
579.710768724
 20
96.6786416482
 30
0.0
 10
579.9234383506
 20
97.0107623425
 30
0.0
 10
579.972810773
 20
97.271908519
 30
0.0
 10
579.972810773
 20
97.4018324266
 30
0.0
  0
SPLINE
  5
3CF
100
AcDbEntity
  8
0
100
AcDbSpline
 62
7
  6
BYLAYER
 70
0
 71
3
 72
9
 73
5
 74
0
 42
0.0000001
 43
0.0000001
 44
0.0000000001
 40
0.0
 40
0.0
 40
0.0
 40
0.0
 40
0.2581441243
 40
1.0
 40
1.0
 40
1.0
 40
1.0
 10
532.1046747958
 20
99.4018322808
 30
0.0
 10
532.0952951886
 20
99.3696389583
 30
0.0
 10
532.0629138196
 20
99.2438519944
 30
0.0
 10
532.0469302033
 20
99.1135225875
 30
0.0
 10
532.0469566665
 20
99.0171585037
 30
0.0
  0
SPLINE
  5
3D0
100
AcDbEntity
  8
0
100
AcDbSpline
 62
7
  6
BYLAYER
 70
0
 71
3
 72
8
 73
4
 74
0
 42
0.0000001
 43
0.0000001
 44
0.0000000001
 40
0.0
 40
0.0
 40
0.0
 40
0.0
 40
1.0
 40
1.0
 40
1.0
 40
1.0
 10
531.9856271075
 20
99.1962897225
 30
0.0
 10
532.0203367281
 20
99.1436286324
 30
0.0
 10
532.0424405199
 20
99.0800945397
 30
0.0
 10
532.0465663764
 20
99.0171586558
 30
0.0
  0
SPLINE
  5
3D1
100
AcDbEntity
  8
0
100
AcDbSpline
 62
7
  6
BYLAYER
 70
0
 71
3
 72
9
 73
5
 74
0
 42
0.0000001
 43
0.0000001
 44
0.0000000001
 40
0.0
 40
0.0
 40
0.0
 40
0.0
 40
0.27038548
 40
1.0
 40
1.0
 40
1.0
 40
1.0
 10
532.1046747581
 20
99.4018324266
 30
0.0
 10
532.0915108094
 20
99.3848955762
 30
0.0
 10
532.0448076084
 20
99.3208203414
 30
0.0
 10
532.0058073056
 20
99.2505420123
 30
0.0
 10
531.9856271075
 20
99.1962897226
 30
0.0
  0
SPLINE
  5
3D2
100
AcDbEntity
  8
0
100
AcDbSpline
 62
7
  6
BYLAYER
 70
0
 71
3
 72
8
 73
4
 74
0
 42
0.0000001
 43
0.0000001
 44
0.0000000001
 40
0.0
 40
0.0
 40
0.0
 40
0.0
 40
1.0
 40
1.0
 40
1.0
 40
1.0
 10
531.9856271075
 20
99.1962897226
 30
0.0
 10
531.9577946512
 20
99.2604789545
 30
0.0
 10
531.9431262268
 20
99.3318688424
 30
0.0
 10
531.9431262268
 20
99.4018324266
 30
0.0
  0
SPLINE
  5
3D3
100
AcDbEntity
  8
0
100
AcDbSpline
 62
7
  6
BYLAYER
 70
0
 71
3
 72
9
 73
5
 74
0
 42
0.0000001
 43
0.0000001
 44
0.0000000001
 40
0.0
 40
0.0
 40
0.0
 40
0.0
 40
0.2666839678
 40
1.0
 40
1.0
 40
1.0
 40
1.0
 10
532.0469096453
 20
98.9334385904
 30
0.0
 10
532.0376782807
 20
98.9391028607
 30
0.0
 10
532.0048739589
 20
98.9632861122
 30
0.0
 10
531.9820855423
 20
99.0001580052
 30
0.0
 10
531.9736015182
 20
99.0287055292
 30
0.0
  0
SPLINE
  5
3D4
100
AcDbEntity
  8
0
100
AcDbSpline
 62
7
  6
BYLAYER
 70
0
 71
3
 72
9
 73
5
 74
0
 42
0.0000001
 43
0.0000001
 44
0.0000000001
 40
0.0
 40
0.0
 40
0.0
 40
0.0
 40
0.2268944865
 40
1.0
 40
1.0
 40
1.0
 40
1.0
 10
531.9736015182
 20
99.0287055292
 30
0.0
 10
531.9699461426
 20
99.0410053434
 30
0.0
 10
531.9597735124
 20
99.0970633801
 30
0.0
 10
531.9716795552
 20
99.1548527454
 30
0.0
 10
531.9856272269
 20
99.1962895062
 30
0.0
  0
SPLINE
  5
3D5
100
AcDbEntity
  8
0
100
AcDbSpline
 62
7
  6
BYLAYER
 70
0
 71
3
 72
11
 73
7
 74
0
 42
0.0000001
 43
0.0000001
 44
0.0000000001
 40
0.0
 40
0.0
 40
0.0
 40
0.0
 40
0.2545253123
 40
0.5063269197
 40
0.7544493833
 40
1.0
 40
1.0
 40
1.0
 40
1.0
 10
533.1439206335
 20
97.4018324266
 30
0.0
 10
533.1439206335
 20
97.2719536853
 30
0.0
 10
533.1932580251
 20
97.0108895692
 30
0.0
 10
533.4058385481
 20
96.6787720725
 30
0.0
 10
533.7253133585
 20
96.4546079039
 30
0.0
 10
533.9801454321
 20
96.4018324266
 30
0.0
 10
534.1054445811
 20
96.4018324266
 30
0.0
  0
SPLINE
  5
3D6
100
AcDbEntity
  8
0
100
AcDbSpline
 62
7
  6
BYLAYER
 70
0
 71
3
 72
8
 73
4
 74
0
 42
0.0000001
 43
0.0000001
 44
0.0000000001
 40
0.0
 40
0.0
 40
0.0
 40
0.0
 40
1.0
 40
1.0
 40
1.0
 40
1.0
 10
384.3923260946
 20
1227.2419320931
 30
0.0
 10
384.3830292429
 20
1227.194399294
 30
0.0
 10
384.3638782301
 20
1227.1479247556
 30
0.0
 10
384.33722403
 20
1227.1074852692
 30
0.0
  0
SPLINE
  5
3D7
100
AcDbEntity
  8
0
100
AcDbSpline
 62
7
  6
BYLAYER
 70
0
 71
3
 72
9
 73
5
 74
0
 42
0.0000001
 43
0.0000001
 44
0.0000000001
 40
0.0
 40
0.0
 40
0.0
 40
0.0
 40
0.2581441241
 40
1.0
 40
1.0
 40
1.0
 40
1.0
 10
433.3636535332
 20
1226.9019427109
 30
0.0
 10
433.3730331402
 20
1226.9341360326
 30
0.0
 10
433.4054145084
 20
1227.0599229934
 30
0.0
 10
433.421398125
 20
1227.1902523971
 30
0.0
 10
433.4213716625
 20
1227.2866164786
 30
0.0
  0
SPLINE
  5
3D8
100
AcDbEntity
  8
0
100
AcDbSpline
 62
7
  6
BYLAYER
 70
0
 71
3
 72
8
 73
4
 74
0
 42
0.0000001
 43
0.0000001
 44
0.0000000001
 40
0.0
 40
0.0
 40
0.0
 40
0.0
 40
1.0
 40
1.0
 40
1.0
 40
1.0
 10
433.4827012215
 20
1227.1074852692
 30
0.0
 10
433.4479916025
 20
1227.1601463567
 30
0.0
 10
433.4258878113
 20
1227.2236804457
 30
0.0
 10
433.4217619532
 20
1227.2866163265
 30
0.0
  0
SPLINE
  5
3D9
100
AcDbEntity
  8
0
100
AcDbSpline
 62
7
  6
BYLAYER
 70
0
 71
3
 72
9
 73
5
 74
0
 42
0.0000001
 43
0.0000001
 44
0.0000000001
 40
0.0
 40
0.0
 40
0.0
 40
0.0
 40
0.27038548
 40
1.0
 40
1.0
 40
1.0
 40
1.0
 10
433.3636535709
 20
1226.9019425651
 30
0.0
 10
433.3768175196
 20
1226.9188794155
 30
0.0
 10
433.4235207207
 20
1226.9829546503
 30
0.0
 10
433.4625210233
 20
1227.0532329794
 30
0.0
 10
433.4827012215
 20
1227.1074852691
 30
0.0
  0
SPLINE
  5
3DA
100
AcDbEntity
  8
0
100
AcDbSpline
 62
7
  6
BYLAYER
 70
0
 71
3
 72
9
 73
5
 74
0
 42
0.0000001
 43
0.0000001
 44
0.0000000001
 40
0.0
 40
0.0
 40
0.0
 40
0.0
 40
0.2666839678
 40
1.0
 40
1.0
 40
1.0
 40
1.0
 10
433.4214186838
 20
1227.3703364013
 30
0.0
 10
433.4306500483
 20
1227.364672131
 30
0.0
 10
433.4634543701
 20
1227.3404888795
 30
0.0
 10
433.4862427867
 20
1227.3036169865
 30
0.0
 10
433.4947268109
 20
1227.2750694625
 30
0.0
  0
SPLINE
  5
3DB
100
AcDbEntity
  8
0
100
AcDbSpline
 62
7
  6
BYLAYER
 70
0
 71
3
 72
9
 73
5
 74
0
 42
0.0000001
 43
0.0000001
 44
0.0000000001
 40
0.0
 40
0.0
 40
0.0
 40
0.0
 40
0.2268944865
 40
1.0
 40
1.0
 40
1.0
 40
1.0
 10
433.4947268109
 20
1227.2750694625
 30
0.0
 10
433.4983821864
 20
1227.2627696483
 30
0.0
 10
433.5085548166
 20
1227.2067116116
 30
0.0
 10
433.4966487739
 20
1227.1489222464
 30
0.0
 10
433.4827011021
 20
1227.1074854855
 30
0.0
  0
SPLINE
  5
3DC
100
AcDbEntity
  8
0
100
AcDbSpline
 62
7
  6
BYLAYER
 70
0
 71
3
 72
8
 73
4
 74
0
 42
0.0000001
 43
0.0000001
 44
0.0000000001
 40
0.0
 40
0.0
 40
0.0
 40
0.0
 40
1.0
 40
1.0
 40
1.0
 40
1.0
 10
433.4827012215
 20
1227.1074852691
 30
0.0
 10
433.5105336778
 20
1227.0432960372
 30
0.0
 10
433.5252021022
 20
1226.9719061493
 30
0.0
 10
433.5252021022
 20
1226.9019425651
 30
0.0
  0
SPLINE
  5
3DD
100
AcDbEntity
  8
0
100
AcDbSpline
 62
7
  6
BYLAYER
 70
0
 71
3
 72
9
 73
5
 74
0
 42
0.0000001
 43
0.0000001
 44
0.0000000001
 40
0.0
 40
0.0
 40
0.0
 40
0.0
 40
0.242355115
 40
1.0
 40
1.0
 40
1.0
 40
1.0
 10
384.3985535906
 20
1227.2866300626
 30
0.0
 10
384.398544572
 20
1227.2551443931
 30
0.0
 10
384.4037495723
 20
1227.1252431132
 30
0.0
 10
384.4287387241
 20
1226.9964432183
 30
0.0
 10
384.4562717075
 20
1226.9019426692
 30
0.0
  0
SPLINE
  5
3DE
100
AcDbEntity
  8
0
100
AcDbSpline
 62
7
  6
BYLAYER
 70
0
 71
3
 72
11
 73
7
 74
0
 42
0.0000001
 43
0.0000001
 44
0.0000000001
 40
0.0
 40
0.0
 40
0.0
 40
0.0
 40
0.2545253123
 40
0.5063269197
 40
0.7544493833
 40
1.0
 40
1.0
 40
1.0
 40
1.0
 10
432.3244076955
 20
1228.9019425651
 30
0.0
 10
432.3244076955
 20
1229.0318213065
 30
0.0
 10
432.2750703039
 20
1229.2928854226
 30
0.0
 10
432.0624897809
 20
1229.6250029192
 30
0.0
 10
431.7430149705
 20
1229.8491670878
 30
0.0
 10
431.4881828969
 20
1229.9019425651
 30
0.0
 10
431.3628837479
 20
1229.9019425651
 30
0.0
  0
SPLINE
  5
3DF
100
AcDbEntity
  8
0
100
AcDbSpline
 62
7
  6
BYLAYER
 70
0
 71
3
 72
9
 73
5
 74
0
 42
0.0000001
 43
0.0000001
 44
0.0000000001
 40
0.0
 40
0.0
 40
0.0
 40
0.0
 40
0.2799425408
 40
1.0
 40
1.0
 40
1.0
 40
1.0
 10
384.3372241435
 20
1227.1074854748
 30
0.0
 10
384.3321980022
 20
1227.1224175007
 30
0.0
 10
384.3167326758
 20
1227.1762755155
 30
0.0
 10
384.3136203898
 20
1227.2357035847
 30
0.0
 10
384.3250543583
 20
1227.2745821301
 30
0.0
  0
SPLINE
  5
3E0
100
AcDbEntity
  8
0
100
AcDbSpline
 62
7
  6
BYLAYER
 70
0
 71
3
 72
8
 73
4
 74
0
 42
0.0000001
 43
0.0000001
 44
0.0000000001
 40
0.0
 40
0.0
 40
0.0
 40
0.0
 40
1.0
 40
1.0
 40
1.0
 40
1.0
 10
384.3250543583
 20
1227.2745821301
 30
0.0
 10
384.3300484623
 20
1227.2915634168
 30
0.0
 10
384.3377344169
 20
1227.3079976245
 30
0.0
 10
384.3477638627
 20
1227.3225823901
 30
0.0
  0
SPLINE
  5
3E1
100
AcDbEntity
  8
0
100
AcDbSpline
 62
7
  6
BYLAYER
 70
0
 71
3
 72
8
 73
4
 74
0
 42
0.0000001
 43
0.0000001
 44
0.0000000001
 40
0.0
 40
0.0
 40
0.0
 40
0.0
 40
1.0
 40
1.0
 40
1.0
 40
1.0
 10
384.3477638627
 20
1227.3225823901
 30
0.0
 10
384.3608037938
 20
1227.3415449868
 30
0.0
 10
384.3783783124
 20
1227.35788857
 30
0.0
 10
384.3979507156
 20
1227.3699939782
 30
0.0
  0
SPLINE
  5
3E2
100
AcDbEntity
  8
0
100
AcDbSpline
 62
7
  6
BYLAYER
 70
0
 71
3
 72
11
 73
7
 74
0
 42
0.0000001
 43
0.0000001
 44
0.0000000001
 40
0.0
 40
0.0
 40
0.0
 40
0.0
 40
0.2454646712
 40
0.49351694
 40
0.7453862235
 40
1.0
 40
1.0
 40
1.0
 40
1.0
 10
386.4570415036
 20
1229.9019425651
 30
0.0
 10
386.3317861867
 20
1229.9019425651
 30
0.0
 10
386.077036144
 20
1229.8492054502
 30
0.0
 10
385.757559605
 20
1229.6251333435
 30
0.0
 10
385.5448899784
 20
1229.2930126492
 30
0.0
 10
385.495517556
 20
1229.0318664727
 30
0.0
 10
385.495517556
 20
1228.9019425651
 30
0.0
  0
SPLINE
  5
3E3
100
AcDbEntity
  8
0
100
AcDbSpline
 62
7
  6
BYLAYER
 70
0
 71
3
 72
9
 73
5
 74
0
 42
0.0000001
 43
0.0000001
 44
0.0000000001
 40
0.0
 40
0.0
 40
0.0
 40
0.0
 40
0.2703934266
 40
1.0
 40
1.0
 40
1.0
 40
1.0
 10
384.4562716806
 20
1226.9019425651
 30
0.0
 10
384.4431073641
 20
1226.9188798961
 30
0.0
 10
384.3964084844
 20
1226.9829580959
 30
0.0
 10
384.3574039772
 20
1227.0532336315
 30
0.0
 10
384.3372240301
 20
1227.1074852691
 30
0.0
  0
SPLINE
  5
3E4
100
AcDbEntity
  8
0
100
AcDbSpline
 62
7
  6
BYLAYER
 70
0
 71
3
 72
11
 73
7
 74
0
 42
0.0000001
 43
0.0000001
 44
0.0000000001
 40
0.0
 40
0.0
 40
0.0
 40
0.0
 40
0.2544641196
 40
0.5062554122
 40
0.7544085347
 40
1.0
 40
1.0
 40
1.0
 40
1.0
 10
384.4562716806
 20
1228.9019425651
 30
0.0
 10
384.4562716806
 20
1229.0303636177
 30
0.0
 10
384.5044892614
 20
1229.2884638386
 30
0.0
 10
384.7124516251
 20
1229.6180896817
 30
0.0
 10
385.0257221247
 20
1229.8432376557
 30
0.0
 10
385.2767197955
 20
1229.8994454705
 30
0.0
 10
385.4006410601
 20
1229.9017807972
 30
0.0
  0
SPLINE
  5
3E5
100
AcDbEntity
  8
0
100
AcDbSpline
 62
7
  6
BYLAYER
 70
0
 71
3
 72
11
 73
7
 74
0
 42
0.0000001
 43
0.0000001
 44
0.0000000001
 40
0.0
 40
0.0
 40
0.0
 40
0.0
 40
0.2627344212
 40
0.5180975916
 40
0.762900959
 40
1.0
 40
1.0
 40
1.0
 40
1.0
 10
389.4627490303
 20
1228.9019425651
 30
0.0
 10
389.4627490303
 20
1229.0315123326
 30
0.0
 10
389.4178529284
 20
1229.2894003564
 30
0.0
 10
389.2226522285
 20
1229.6208954935
 30
0.0
 10
388.9258698848
 20
1229.8476334448
 30
0.0
 10
388.6852492958
 20
1229.9019425651
 30
0.0
 10
388.5683218393
 20
1229.9019425651
 30
0.0
  0
SPLINE
  5
3E6
100
AcDbEntity
  8
0
100
AcDbSpline
 62
7
  6
BYLAYER
 70
0
 71
3
 72
11
 73
7
 74
0
 42
0.0000001
 43
0.0000001
 44
0.0000000001
 40
0.0
 40
0.0
 40
0.0
 40
0.0
 40
0.2570642536
 40
0.5099515937
 40
0.7570212812
 40
1.0
 40
1.0
 40
1.0
 40
1.0
 10
389.8571951511
 20
1228.9019425651
 30
0.0
 10
389.8571943198
 20
1229.0321716484
 30
0.0
 10
389.8085143568
 20
1229.2931625533
 30
0.0
 10
389.5989165447
 20
1229.625262889
 30
0.0
 10
389.2842209268
 20
1229.8491870049
 30
0.0
 10
389.0330550928
 20
1229.9019355052
 30
0.0
 10
388.9099617598
 20
1229.9019425651
 30
0.0
  0
SPLINE
  5
3E7
100
AcDbEntity
  8
0
100
AcDbSpline
 62
7
  6
BYLAYER
 70
0
 71
3
 72
11
 73
7
 74
0
 42
0.0000001
 43
0.0000001
 44
0.0000000001
 40
0.0
 40
0.0
 40
0.0
 40
0.0
 40
0.2429770416
 40
0.4900484521
 40
0.7429376142
 40
1.0
 40
1.0
 40
1.0
 40
1.0
 10
428.9099635026
 20
1229.9019425651
 30
0.0
 10
428.7868710335
 20
1229.9019354169
 30
0.0
 10
428.5357053403
 20
1229.8491871782
 30
0.0
 10
428.2210083477
 20
1229.6252630655
 30
0.0
 10
428.0114107686
 20
1229.2931614198
 30
0.0
 10
427.9627310078
 20
1229.0321706872
 30
0.0
 10
427.9627301885
 20
1228.9019425651
 30
0.0
  0
SPLINE
  5
3E8
100
AcDbEntity
  8
0
100
AcDbSpline
 62
7
  6
BYLAYER
 70
0
 71
3
 72
11
 73
7
 74
0
 42
0.0000001
 43
0.0000001
 44
0.0000000001
 40
0.0
 40
0.0
 40
0.0
 40
0.0
 40
0.2370154222
 40
0.4817461593
 40
0.7371748139
 40
1.0
 40
1.0
 40
1.0
 40
1.0
 10
429.2516034123
 20
1229.9019425651
 30
0.0
 10
429.1347171296
 20
1229.9019425651
 30
0.0
 10
428.8941756799
 20
1229.8476738299
 30
0.0
 10
428.5973871249
 20
1229.6210268109
 30
0.0
 10
428.4021035445
 20
1229.2895244574
 30
0.0
 10
428.3571762213
 20
1229.0315571645
 30
0.0
 10
428.3571762213
 20
1228.9019425651
 30
0.0
  0
SPLINE
  5
3E9
100
AcDbEntity
  8
0
100
AcDbSpline
 62
7
  6
BYLAYER
 70
0
 71
3
 72
11
 73
7
 74
0
 42
0.0000001
 43
0.0000001
 44
0.0000000001
 40
0.0
 40
0.0
 40
0.0
 40
0.0
 40
0.2455000837
 40
0.4935877931
 40
0.7454492783
 40
1.0
 40
1.0
 40
1.0
 40
1.0
 10
432.419566573
 20
1229.9017755852
 30
0.0
 10
432.5434184679
 20
1229.8994053598
 30
0.0
 10
432.7942709168
 20
1229.8431788962
 30
0.0
 10
433.1074461607
 20
1229.6181107679
 30
0.0
 10
433.3154194032
 20
1229.2885169201
 30
0.0
 10
433.3636535709
 20
1229.0303839142
 30
0.0
 10
433.3636535709
 20
1228.9019425651
 30
0.0
  0
SPLINE
  5
3EA
100
AcDbEntity
  8
0
100
AcDbSpline
 62
7
  6
BYLAYER
 70
0
 71
3
 72
8
 73
4
 74
0
 42
0.0000001
 43
0.0000001
 44
0.0000000001
 40
0.0
 40
0.0
 40
0.0
 40
0.0
 40
1.0
 40
1.0
 40
1.0
 40
1.0
 10
384.2947231494
 20
1226.9019425651
 30
0.0
 10
384.2947231494
 20
1226.9719061493
 30
0.0
 10
384.3093915737
 20
1227.0432960372
 30
0.0
 10
384.3372240301
 20
1227.1074852691
 30
0.0
  0
SPLINE
  5
3EB
100
AcDbEntity
  8
0
100
AcDbSpline
 62
7
  6
BYLAYER
 70
0
 71
3
 72
8
 73
4
 74
0
 42
0.0000001
 43
0.0000001
 44
0.0000000001
 40
0.0
 40
0.0
 40
0.0
 40
0.0
 40
1.0
 40
1.0
 40
1.0
 40
1.0
 10
532.0414569831
 20
1227.2419320931
 30
0.0
 10
532.0321601314
 20
1227.194399294
 30
0.0
 10
532.0130091186
 20
1227.1479247556
 30
0.0
 10
531.9863549185
 20
1227.1074852692
 30
0.0
  0
SPLINE
  5
3EC
100
AcDbEntity
  8
0
100
AcDbSpline
 62
7
  6
BYLAYER
 70
0
 71
3
 72
9
 73
5
 74
0
 42
0.0000001
 43
0.0000001
 44
0.0000000001
 40
0.0
 40
0.0
 40
0.0
 40
0.0
 40
0.2581441241
 40
1.0
 40
1.0
 40
1.0
 40
1.0
 10
581.0127844217
 20
1226.9019427109
 30
0.0
 10
581.0221640288
 20
1226.9341360327
 30
0.0
 10
581.0545453971
 20
1227.0599229938
 30
0.0
 10
581.0705290136
 20
1227.1902523978
 30
0.0
 10
581.070502551
 20
1227.2866164796
 30
0.0
  0
SPLINE
  5
3ED
100
AcDbEntity
  8
0
100
AcDbSpline
 62
7
  6
BYLAYER
 70
0
 71
3
 72
8
 73
4
 74
0
 42
0.0000001
 43
0.0000001
 44
0.0000000001
 40
0.0
 40
0.0
 40
0.0
 40
0.0
 40
1.0
 40
1.0
 40
1.0
 40
1.0
 10
581.13183211
 20
1227.1074852692
 30
0.0
 10
581.0971224909
 20
1227.160146357
 30
0.0
 10
581.0750186996
 20
1227.2236804464
 30
0.0
 10
581.0708928417
 20
1227.2866163275
 30
0.0
  0
SPLINE
  5
3EE
100
AcDbEntity
  8
0
100
AcDbSpline
 62
7
  6
BYLAYER
 70
0
 71
3
 72
9
 73
5
 74
0
 42
0.0000001
 43
0.0000001
 44
0.0000000001
 40
0.0
 40
0.0
 40
0.0
 40
0.0
 40
0.27038548
 40
1.0
 40
1.0
 40
1.0
 40
1.0
 10
581.0127844595
 20
1226.9019425651
 30
0.0
 10
581.0259484081
 20
1226.9188794155
 30
0.0
 10
581.0726516092
 20
1226.9829546503
 30
0.0
 10
581.1116519119
 20
1227.0532329794
 30
0.0
 10
581.13183211
 20
1227.1074852691
 30
0.0
  0
SPLINE
  5
3EF
100
AcDbEntity
  8
0
100
AcDbSpline
 62
7
  6
BYLAYER
 70
0
 71
3
 72
9
 73
5
 74
0
 42
0.0000001
 43
0.0000001
 44
0.0000000001
 40
0.0
 40
0.0
 40
0.0
 40
0.0
 40
0.2666839678
 40
1.0
 40
1.0
 40
1.0
 40
1.0
 10
581.0705495723
 20
1227.3703364013
 30
0.0
 10
581.0797809368
 20
1227.364672131
 30
0.0
 10
581.1125852587
 20
1227.3404888795
 30
0.0
 10
581.1353736752
 20
1227.3036169865
 30
0.0
 10
581.1438576994
 20
1227.2750694625
 30
0.0
  0
SPLINE
  5
3F0
100
AcDbEntity
  8
0
100
AcDbSpline
 62
7
  6
BYLAYER
 70
0
 71
3
 72
9
 73
5
 74
0
 42
0.0000001
 43
0.0000001
 44
0.0000000001
 40
0.0
 40
0.0
 40
0.0
 40
0.0
 40
0.2268944865
 40
1.0
 40
1.0
 40
1.0
 40
1.0
 10
581.1438576994
 20
1227.2750694625
 30
0.0
 10
581.1475130749
 20
1227.2627696483
 30
0.0
 10
581.1576857051
 20
1227.2067116116
 30
0.0
 10
581.1457796624
 20
1227.1489222464
 30
0.0
 10
581.1318319906
 20
1227.1074854855
 30
0.0
  0
SPLINE
  5
3F1
100
AcDbEntity
  8
0
100
AcDbSpline
 62
7
  6
BYLAYER
 70
0
 71
3
 72
8
 73
4
 74
0
 42
0.0000001
 43
0.0000001
 44
0.0000000001
 40
0.0
 40
0.0
 40
0.0
 40
0.0
 40
1.0
 40
1.0
 40
1.0
 40
1.0
 10
581.13183211
 20
1227.1074852691
 30
0.0
 10
581.1596645664
 20
1227.0432960372
 30
0.0
 10
581.1743329907
 20
1226.9719061493
 30
0.0
 10
581.1743329907
 20
1226.9019425651
 30
0.0
  0
SPLINE
  5
3F2
100
AcDbEntity
  8
0
100
AcDbSpline
 62
7
  6
BYLAYER
 70
0
 71
3
 72
9
 73
5
 74
0
 42
0.0000001
 43
0.0000001
 44
0.0000000001
 40
0.0
 40
0.0
 40
0.0
 40
0.0
 40
0.242355115
 40
1.0
 40
1.0
 40
1.0
 40
1.0
 10
532.0476844791
 20
1227.2866300628
 30
0.0
 10
532.0476754605
 20
1227.2551443933
 30
0.0
 10
532.0528804608
 20
1227.1252431133
 30
0.0
 10
532.0778696126
 20
1226.9964432183
 30
0.0
 10
532.105402596
 20
1226.9019426692
 30
0.0
  0
SPLINE
  5
3F3
100
AcDbEntity
  8
0
100
AcDbSpline
 62
7
  6
BYLAYER
 70
0
 71
3
 72
11
 73
7
 74
0
 42
0.0000001
 43
0.0000001
 44
0.0000000001
 40
0.0
 40
0.0
 40
0.0
 40
0.0
 40
0.2545253123
 40
0.5063269197
 40
0.7544493833
 40
1.0
 40
1.0
 40
1.0
 40
1.0
 10
579.973538584
 20
1228.9019425651
 30
0.0
 10
579.973538584
 20
1229.0318213065
 30
0.0
 10
579.9242011924
 20
1229.2928854226
 30
0.0
 10
579.7116206694
 20
1229.6250029192
 30
0.0
 10
579.392145859
 20
1229.8491670878
 30
0.0
 10
579.1373137854
 20
1229.9019425651
 30
0.0
 10
579.0120146364
 20
1229.9019425651
 30
0.0
  0
SPLINE
  5
3F4
100
AcDbEntity
  8
0
100
AcDbSpline
 62
7
  6
BYLAYER
 70
0
 71
3
 72
11
 73
7
 74
0
 42
0.0000001
 43
0.0000001
 44
0.0000000001
 40
0.0
 40
0.0
 40
0.0
 40
0.0
 40
0.2454646712
 40
0.49351694
 40
0.7453862235
 40
1.0
 40
1.0
 40
1.0
 40
1.0
 10
534.1061723921
 20
1229.9019425651
 30
0.0
 10
533.9809170753
 20
1229.9019425651
 30
0.0
 10
533.7261670325
 20
1229.8492054502
 30
0.0
 10
533.4066904935
 20
1229.6251333435
 30
0.0
 10
533.1940208669
 20
1229.2930126492
 30
0.0
 10
533.1446484445
 20
1229.0318664727
 30
0.0
 10
533.1446484445
 20
1228.9019425651
 30
0.0
  0
SPLINE
  5
3F5
100
AcDbEntity
  8
0
100
AcDbSpline
 62
7
  6
BYLAYER
 70
0
 71
3
 72
9
 73
5
 74
0
 42
0.0000001
 43
0.0000001
 44
0.0000000001
 40
0.0
 40
0.0
 40
0.0
 40
0.0
 40
0.2703934266
 40
1.0
 40
1.0
 40
1.0
 40
1.0
 10
532.1054025691
 20
1226.9019425651
 30
0.0
 10
532.0922382527
 20
1226.9188798961
 30
0.0
 10
532.0455393729
 20
1226.9829580959
 30
0.0
 10
532.0065348657
 20
1227.0532336315
 30
0.0
 10
531.9863549186
 20
1227.1074852691
 30
0.0
  0
SPLINE
  5
3F6
100
AcDbEntity
  8
0
100
AcDbSpline
 62
7
  6
BYLAYER
 70
0
 71
3
 72
11
 73
7
 74
0
 42
0.0000001
 43
0.0000001
 44
0.0000000001
 40
0.0
 40
0.0
 40
0.0
 40
0.0
 40
0.2544641196
 40
0.5062554122
 40
0.7544085347
 40
1.0
 40
1.0
 40
1.0
 40
1.0
 10
532.1054025691
 20
1228.9019425651
 30
0.0
 10
532.1054025691
 20
1229.0303636177
 30
0.0
 10
532.1536201499
 20
1229.2884638386
 30
0.0
 10
532.3615825136
 20
1229.6180896817
 30
0.0
 10
532.6748530132
 20
1229.8432376557
 30
0.0
 10
532.925850684
 20
1229.8994454705
 30
0.0
 10
533.0497719487
 20
1229.9017807972
 30
0.0
  0
SPLINE
  5
3F7
100
AcDbEntity
  8
0
100
AcDbSpline
 62
7
  6
BYLAYER
 70
0
 71
3
 72
11
 73
7
 74
0
 42
0.0000001
 43
0.0000001
 44
0.0000000001
 40
0.0
 40
0.0
 40
0.0
 40
0.0
 40
0.2627344212
 40
0.5180975916
 40
0.762900959
 40
1.0
 40
1.0
 40
1.0
 40
1.0
 10
537.1118799188
 20
1228.9019425651
 30
0.0
 10
537.1118799188
 20
1229.0315123326
 30
0.0
 10
537.0669838169
 20
1229.2894003564
 30
0.0
 10
536.871783117
 20
1229.6208954935
 30
0.0
 10
536.5750007733
 20
1229.8476334448
 30
0.0
 10
536.3343801844
 20
1229.9019425651
 30
0.0
 10
536.2174527278
 20
1229.9019425651
 30
0.0
  0
SPLINE
  5
3F8
100
AcDbEntity
  8
0
100
AcDbSpline
 62
7
  6
BYLAYER
 70
0
 71
3
 72
11
 73
7
 74
0
 42
0.0000001
 43
0.0000001
 44
0.0000000001
 40
0.0
 40
0.0
 40
0.0
 40
0.0
 40
0.2570642536
 40
0.5099515937
 40
0.7570212812
 40
1.0
 40
1.0
 40
1.0
 40
1.0
 10
537.5063260396
 20
1228.9019425651
 30
0.0
 10
537.5063252083
 20
1229.0321716484
 30
0.0
 10
537.4576452453
 20
1229.2931625533
 30
0.0
 10
537.2480474332
 20
1229.625262889
 30
0.0
 10
536.9333518153
 20
1229.8491870049
 30
0.0
 10
536.6821859813
 20
1229.9019355052
 30
0.0
 10
536.5590926483
 20
1229.9019425651
 30
0.0
  0
SPLINE
  5
3F9
100
AcDbEntity
  8
0
100
AcDbSpline
 62
7
  6
BYLAYER
 70
0
 71
3
 72
11
 73
7
 74
0
 42
0.0000001
 43
0.0000001
 44
0.0000000001
 40
0.0
 40
0.0
 40
0.0
 40
0.0
 40
0.2429770416
 40
0.4900484521
 40
0.7429376142
 40
1.0
 40
1.0
 40
1.0
 40
1.0
 10
576.5590943911
 20
1229.9019425651
 30
0.0
 10
576.436001922
 20
1229.9019354169
 30
0.0
 10
576.1848362288
 20
1229.8491871782
 30
0.0
 10
575.8701392362
 20
1229.6252630655
 30
0.0
 10
575.6605416572
 20
1229.2931614198
 30
0.0
 10
575.6118618963
 20
1229.0321706872
 30
0.0
 10
575.6118610771
 20
1228.9019425651
 30
0.0
  0
SPLINE
  5
3FA
100
AcDbEntity
  8
0
100
AcDbSpline
 62
7
  6
BYLAYER
 70
0
 71
3
 72
11
 73
7
 74
0
 42
0.0000001
 43
0.0000001
 44
0.0000000001
 40
0.0
 40
0.0
 40
0.0
 40
0.0
 40
0.2370154222
 40
0.4817461593
 40
0.7371748139
 40
1.0
 40
1.0
 40
1.0
 40
1.0
 10
576.9007343008
 20
1229.9019425651
 30
0.0
 10
576.7838480181
 20
1229.9019425651
 30
0.0
 10
576.5433065684
 20
1229.8476738299
 30
0.0
 10
576.2465180134
 20
1229.6210268109
 30
0.0
 10
576.051234433
 20
1229.2895244574
 30
0.0
 10
576.0063071098
 20
1229.0315571645
 30
0.0
 10
576.0063071098
 20
1228.9019425651
 30
0.0
  0
SPLINE
  5
3FB
100
AcDbEntity
  8
0
100
AcDbSpline
 62
7
  6
BYLAYER
 70
0
 71
3
 72
11
 73
7
 74
0
 42
0.0000001
 43
0.0000001
 44
0.0000000001
 40
0.0
 40
0.0
 40
0.0
 40
0.0
 40
0.2455000837
 40
0.4935877931
 40
0.7454492783
 40
1.0
 40
1.0
 40
1.0
 40
1.0
 10
580.0686974615
 20
1229.9017755852
 30
0.0
 10
580.1925493565
 20
1229.8994053598
 30
0.0
 10
580.4434018053
 20
1229.8431788962
 30
0.0
 10
580.7565770492
 20
1229.6181107679
 30
0.0
 10
580.9645502917
 20
1229.2885169201
 30
0.0
 10
581.0127844595
 20
1229.0303839142
 30
0.0
 10
581.0127844595
 20
1228.9019425651
 30
0.0
  0
SPLINE
  5
3FC
100
AcDbEntity
  8
0
100
AcDbSpline
 62
7
  6
BYLAYER
 70
0
 71
3
 72
9
 73
5
 74
0
 42
0.0000001
 43
0.0000001
 44
0.0000000001
 40
0.0
 40
0.0
 40
0.0
 40
0.0
 40
0.2799425408
 40
1.0
 40
1.0
 40
1.0
 40
1.0
 10
531.986355032
 20
1227.1074854748
 30
0.0
 10
531.9813288907
 20
1227.1224175007
 30
0.0
 10
531.9658635644
 20
1227.1762755155
 30
0.0
 10
531.9627512783
 20
1227.2357035847
 30
0.0
 10
531.9741852469
 20
1227.2745821301
 30
0.0
  0
SPLINE
  5
3FD
100
AcDbEntity
  8
0
100
AcDbSpline
 62
7
  6
BYLAYER
 70
0
 71
3
 72
8
 73
4
 74
0
 42
0.0000001
 43
0.0000001
 44
0.0000000001
 40
0.0
 40
0.0
 40
0.0
 40
0.0
 40
1.0
 40
1.0
 40
1.0
 40
1.0
 10
531.9741852469
 20
1227.2745821301
 30
0.0
 10
531.9791793508
 20
1227.2915634168
 30
0.0
 10
531.9868653054
 20
1227.3079976245
 30
0.0
 10
531.9968947513
 20
1227.3225823901
 30
0.0
  0
SPLINE
  5
3FE
100
AcDbEntity
  8
0
100
AcDbSpline
 62
7
  6
BYLAYER
 70
0
 71
3
 72
8
 73
4
 74
0
 42
0.0000001
 43
0.0000001
 44
0.0000000001
 40
0.0
 40
0.0
 40
0.0
 40
0.0
 40
1.0
 40
1.0
 40
1.0
 40
1.0
 10
531.9968947513
 20
1227.3225823901
 30
0.0
 10
532.0099346823
 20
1227.3415449868
 30
0.0
 10
532.0275092009
 20
1227.35788857
 30
0.0
 10
532.0470816042
 20
1227.3699939782
 30
0.0
  0
SPLINE
  5
3FF
100
AcDbEntity
  8
0
100
AcDbSpline
 62
7
  6
BYLAYER
 70
0
 71
3
 72
8
 73
4
 74
0
 42
0.0000001
 43
0.0000001
 44
0.0000000001
 40
0.0
 40
0.0
 40
0.0
 40
0.0
 40
1.0
 40
1.0
 40
1.0
 40
1.0
 10
531.9438540379
 20
1226.9019425651
 30
0.0
 10
531.9438540379
 20
1226.9719061493
 30
0.0
 10
531.9585224622
 20
1227.0432960372
 30
0.0
 10
531.9863549186
 20
1227.1074852691
 30
0.0
  0
ENDSEC
  0
SECTION
  2
OBJECTS
  0
DICTIONARY
  5
C
100
AcDbDictionary
280
0
281
1
  3
ACAD_GROUP
350
D
  3
ACAD_MLINESTYLE
350
17
  3
ACAD_LAYOUT
350
1A
  3
ACAD_PLOTSETTINGS
350
19
  3
ACAD_PLOTSTYLENAME
350
E
  0
DICTIONARY
  5
D
102
{ACAD_REACTORS
330
C
102
}
100
AcDbDictionary
280
0
281
1
  0
ACDBDICTIONARYWDFLT
  5
E
102
{ACAD_REACTORS
330
C
102
}
100
AcDbDictionary
281
1
  3
Normal
350
F
100
AcDbDictionaryWithDefault
340
F
  0
DICTIONARY
  5
17
102
{ACAD_REACTORS
330
C
102
}
100
AcDbDictionary
280
0
281
1
  3
Standard
350
18
  0
DICTIONARY
  5
19
102
{ACAD_REACTORS
330
C
102
}
100
AcDbDictionary
281
1
  0
DICTIONARY
  5
1A
102
{ACAD_REACTORS
330
C
102
}
100
AcDbDictionary
281
1
  3
Model
350
400
  3
Layout1
350
401
  0
ACDBPLACEHOLDER
  5
F
102
{ACAD_REACTORS
330
E
102
}
  0
MLINESTYLE
  5
18
102
{ACAD_REACTORS
330
17
102
}
100
AcDbMlineStyle
  2
STANDARD
 70
0
  3

 62
256
 51
90.0
 52
90.0
 71
2
 49
0.5
 62
256
  6
BYLAYER
 49
-0.5
 62
256
  6
BYLAYER
  0
LAYOUT
  5
400
102
{ACAD_REACTORS
330
1A
102
}
100
AcDbPlotSettings
  1

  2
none_device
  4

  6

 40
0.0
 41
0.0
 42
0.0
 43
0.0
 44
210.0
 45
297.0
 46
0.0
 47
0.0
 48
0.0
 49
0.0
140
0.0
141
0.0
142
1.0
143
1.0
 70
1024
 72
1
 73
0
 74
0
  7

 75
0
147
1.0
148
0.0
149
0.0
100
AcDbLayout
  1
Model
 70
0
 71
0
 10
0.0
 20
0.0
 11
210.0
 21
297.0
 12
0.0
 22
0.0
 32
0.0
 14
0.0
 24
0.0
 34
0.0
 15
0.0
 25
0.0
 35
0.0
146
0.0
 13
0.0
 23
0.0
 33
0.0
 16
1.0
 26
0.0
 36
0.0
 17
0.0
 27
1.0
 37
0.0
 76
0
330
212
345
0
346
0
  0
LAYOUT
  5
401
102
{ACAD_REACTORS
330
1A
102
}
100
AcDbPlotSettings
  1

  2
none_device
  4

  6

 40
0.0
 41
0.0
 42
0.0
 43
0.0
 44
210.0
 45
297.0
 46
0.0
 47
0.0
 48
0.0
 49
0.0
140
0.0
141
0.0
142
1.0
143
1.0
 70
0
 72
1
 73
0
 74
0
  7

 75
0
147
1.0
148
0.0
149
0.0
100
AcDbLayout
  1
Layout1
 70
0
 71
1
 10
0.0
 20
0.0
 11
210.0
 21
297.0
 12
0.0
 22
0.0
 32
0.0
 14
0.0
 24
0.0
 34
0.0
 15
0.0
 25
0.0
 35
0.0
146
0.0
 13
0.0
 23
0.0
 33
0.0
 16
1.0
 26
0.0
 36
0.0
 17
0.0
 27
1.0
 37
0.0
 76
0
330
213
345
0
346
0
  0
ENDSEC
  0
EOF
