999
DXF file: C:\Users\sesa63760\Dev\_Creo\CAD\MCADID0005203_3D-CAD\drw0001_7.dxf
999
Pro/ENGINEER 2019471 by Parametric Technology Corporation
  0
SECTION
  2
HEADER
  9
$ACADVER
  1
AC1024
  9
$DWGCODEPAGE
  3
ANSI_1252
  9
$EXTMAX
 10
38.2091919192
 20
54.0387142857
 30
0.0
  9
$EXTMIN
 10
0.0
 20
0.0
 30
0.0
  9
$LIMMIN
 10
0.0
 20
0.0
  9
$LIMMAX
 10
38.2091919192
 20
54.0387142857
  9
$VIEWCTR
 10
19.1045959596
 20
27.0193571429
  9
$VIEWSIZE
 40
54.0387142857
  9
$CLAYER
  8
0
  9
$LTSCALE
 40
3.5225235979
  9
$CELTYPE
  6
BYLAYER
  9
$DIMSCALE
 40
1.0
  9
$DIMASZ
 40
0.4548713324
  9
$DIMEXO
 40
1.0
  9
$DIMDLI
 40
2.4337435767
  9
$DIMEXE
 40
1.0
  9
$DIMCEN
 40
0.5764129524
  9
$DIMLFAC
 40
1.0
  9
$DIMBLK
  1
_FILLED
  9
$DIMALT
 70
0
  9
$DIMALTF
 40
0.0393700787
  9
$DIMTXT
 40
0.6368198653
  9
$DIMTOL
 70
1
  9
$DIMLIM
 70
0
  9
$DIMTFAC
 40
1.0
  9
$DIMTP
 40
0.01
  9
$DIMTM
 40
0.01
  9
$DIMGAP
 40
0.625
  9
$DIMDSEP
 70
46
  9
$AUNITS
 70
0
  9
$PDMODE
 70
3
  9
$PDSIZE
 40
0.3125
  9
$HANDSEED
  5
2F1
  9
$TILEMODE
 70
1
  9
$MEASUREMENT
 70
1
  9
$INSUNITS
 70
4
  0
ENDSEC
  0
SECTION
  2
CLASSES
  0
CLASS
  1
ACDBDICTIONARYWDFLT
  2
AcDbDictionaryWithDefault
  3
AutoCAD 2000
 90
0
 91
1
280
0
281
0
  0
CLASS
  1
ACDBPLACEHOLDER
  2
AcDbPlaceHolder
  3
AutoCAD 2000
 90
0
 91
1
280
0
281
0
  0
CLASS
  1
LAYOUT
  2
AcDbLayout
  3
AutoCAD 2000
 90
0
 91
0
280
0
281
0
  0
ENDSEC
  0
SECTION
  2
TABLES
  0
TABLE
  2
VPORT
  5
8
100
AcDbSymbolTable
 70
2
  0
VPORT
  5
1F4
100
AcDbSymbolTableRecord
100
AcDbViewportTableRecord
  2
*ACTIVE
 70
0
 10
0.0
 20
0.0
 11
1.0
 21
1.0
 12
19.1045959596
 22
27.0193571429
 13
0.0
 23
0.0
 14
1.0
 24
1.0
 15
0.0
 25
0.0
 16
0.0
 26
0.0
 36
1.0
 17
0.0
 27
0.0
 37
0.0
 40
54.0387142857
 41
0.7070707071
 42
50.0
 43
0.0
 44
0.0
 50
0.0
 51
0.0
 71
0
 72
100
 73
1
 74
1
 75
0
 76
0
 77
0
 78
0
  0
ENDTAB
  0
TABLE
  2
LTYPE
  5
5
100
AcDbSymbolTable
 70
6
  0
LTYPE
  5
14
100
AcDbSymbolTableRecord
100
AcDbLinetypeTableRecord
  2
BYBLOCK
 70
0
  3

 72
65
 73
0
 40
0.0
  0
LTYPE
  5
15
100
AcDbSymbolTableRecord
100
AcDbLinetypeTableRecord
  2
BYLAYER
 70
0
  3

 72
65
 73
0
 40
0.0
  0
LTYPE
  5
16
100
AcDbSymbolTableRecord
100
AcDbLinetypeTableRecord
  2
CONTINUOUS
 70
64
  3
Solid line
 72
65
 73
0
 40
0.0
  0
LTYPE
  5
1F5
100
AcDbSymbolTableRecord
100
AcDbLinetypeTableRecord
  2
CENTER
 70
64
  3
____ _ ____ _ ____ _ ____ _ ____ _ ____ _ ____
 72
65
 73
4
 40
0.6
 49
0.375
 74
0
 49
-0.075
 74
0
 49
0.075
 74
0
 49
-0.075
 74
0
  0
LTYPE
  5
1F6
100
AcDbSymbolTableRecord
100
AcDbLinetypeTableRecord
  2
HIDDEN
 70
64
  3
- - - - - - - - - - - - - - - - - - - -
 72
65
 73
2
 40
0.2
 49
0.1
 74
0
 49
-0.1
 74
0
  0
LTYPE
  5
1F7
100
AcDbSymbolTableRecord
100
AcDbLinetypeTableRecord
  2
PHANTOM
 70
64
  3
_____ _ _ _____ _ _ _____ _ _ _____
 72
65
 73
6
 40
0.8
 49
0.45
 74
0
 49
-0.05
 74
0
 49
0.1
 74
0
 49
-0.05
 74
0
 49
0.1
 74
0
 49
-0.05
 74
0
  0
LTYPE
  5
1F8
100
AcDbSymbolTableRecord
100
AcDbLinetypeTableRecord
  2
DOT
 70
64
  3
. . . . . . . . . . . . . . . . . . . .
 72
65
 73
2
 40
0.2
 49
0.1
 74
0
 49
-0.1
 74
0
  0
LTYPE
  5
1F9
100
AcDbSymbolTableRecord
100
AcDbLinetypeTableRecord
  2
DASHED
 70
64
  3
- - - - - - - - - - - - - - - - - - - -
 72
65
 73
2
 40
0.2
 49
0.1
 74
0
 49
-0.1
 74
0
  0
ENDTAB
  0
TABLE
  2
LAYER
  5
2
100
AcDbSymbolTable
 70
36
  0
LAYER
  5
10
100
AcDbSymbolTableRecord
100
AcDbLayerTableRecord
  2
0
 70
0
 62
7
  6
CONTINUOUS
370
-3
390
F
  0
LAYER
  5
1FA
100
AcDbSymbolTableRecord
100
AcDbLayerTableRecord
  2
DEFAULT_1
 70
0
 62
7
  6
CENTER
370
-3
390
F
  0
LAYER
  5
1FB
100
AcDbSymbolTableRecord
100
AcDbLayerTableRecord
  2
DEFAULT_2
 70
0
 62
7
  6
HIDDEN
370
-3
390
F
  0
LAYER
  5
1FC
100
AcDbSymbolTableRecord
100
AcDbLayerTableRecord
  2
DEFAULT_3
 70
0
 62
7
  6
PHANTOM
370
-3
390
F
  0
LAYER
  5
1FD
100
AcDbSymbolTableRecord
100
AcDbLayerTableRecord
  2
00_COMPONENTS
 70
0
 62
7
  6
CONTINUOUS
370
-3
390
F
  0
LAYER
  5
1FE
100
AcDbSymbolTableRecord
100
AcDbLayerTableRecord
  2
01_1_DEFAULT_DATUMS
 70
0
 62
7
  6
CONTINUOUS
370
-3
390
F
  0
LAYER
  5
1FF
100
AcDbSymbolTableRecord
100
AcDbLayerTableRecord
  2
01_PLANES
 70
0
 62
7
  6
CONTINUOUS
370
-3
390
F
  0
LAYER
  5
200
100
AcDbSymbolTableRecord
100
AcDbLayerTableRecord
  2
02_COORD_SYS
 70
0
 62
7
  6
CONTINUOUS
370
-3
390
F
  0
LAYER
  5
201
100
AcDbSymbolTableRecord
100
AcDbLayerTableRecord
  2
03_AXES
 70
0
 62
7
  6
CONTINUOUS
370
-3
390
F
  0
LAYER
  5
202
100
AcDbSymbolTableRecord
100
AcDbLayerTableRecord
  2
04_POINTS
 70
0
 62
7
  6
CONTINUOUS
370
-3
390
F
  0
LAYER
  5
203
100
AcDbSymbolTableRecord
100
AcDbLayerTableRecord
  2
05_CURVES
 70
0
 62
7
  6
CONTINUOUS
370
-3
390
F
  0
LAYER
  5
204
100
AcDbSymbolTableRecord
100
AcDbLayerTableRecord
  2
06_SURFS
 70
0
 62
7
  6
CONTINUOUS
370
-3
390
F
  0
LAYER
  5
205
100
AcDbSymbolTableRecord
100
AcDbLayerTableRecord
  2
07_COSMETICS
 70
0
 62
7
  6
CONTINUOUS
370
-3
390
F
  0
LAYER
  5
206
100
AcDbSymbolTableRecord
100
AcDbLayerTableRecord
  2
10_NOTES
 70
0
 62
7
  6
CONTINUOUS
370
-3
390
F
  0
LAYER
  5
207
100
AcDbSymbolTableRecord
100
AcDbLayerTableRecord
  2
11_NOTES_PUB
 70
0
 62
7
  6
CONTINUOUS
370
-3
390
F
  0
LAYER
  5
208
100
AcDbSymbolTableRecord
100
AcDbLayerTableRecord
  2
13_REF_GTOL
 70
0
 62
7
  6
CONTINUOUS
370
-3
390
F
  0
LAYER
  5
209
100
AcDbSymbolTableRecord
100
AcDbLayerTableRecord
  2
16_MISC
 70
0
 62
7
  6
CONTINUOUS
370
-3
390
F
  0
LAYER
  5
20A
100
AcDbSymbolTableRecord
100
AcDbLayerTableRecord
  2
17_NO_PRINT
 70
0
 62
7
  6
CONTINUOUS
370
-3
390
F
  0
LAYER
  5
20B
100
AcDbSymbolTableRecord
100
AcDbLayerTableRecord
  2
18_DATUM_CAMS_JOINTS
 70
0
 62
7
  6
CONTINUOUS
370
-3
390
F
  0
LAYER
  5
20C
100
AcDbSymbolTableRecord
100
AcDbLayerTableRecord
  2
19_DATUM_FUNCTIONAL
 70
0
 62
7
  6
CONTINUOUS
370
-3
390
F
  0
LAYER
  5
20D
100
AcDbSymbolTableRecord
100
AcDbLayerTableRecord
  2
20_DATUM_KINEMATIC_SCHEME
 70
0
 62
7
  6
CONTINUOUS
370
-3
390
F
  0
ENDTAB
  0
TABLE
  2
STYLE
  5
3
100
AcDbSymbolTable
 70
1
  0
STYLE
  5
11
100
AcDbSymbolTableRecord
100
AcDbTextStyleTableRecord
  2
STANDARD
 70
0
 40
0.0
 41
1.0
 50
0.0
 71
0
 42
0.2
  3
ARIAL.TTF
  4

  0
STYLE
  5
20E
100
AcDbSymbolTableRecord
100
AcDbTextStyleTableRecord
  2
TEXTSTYLE_1
 70
0
 40
0.0
 41
0.8
 50
0.0
 71
0
 42
0.2
  3
gdt
  4

  0
ENDTAB
  0
TABLE
  2
VIEW
  5
6
100
AcDbSymbolTable
 70
0
  0
ENDTAB
  0
TABLE
  2
UCS
  5
7
100
AcDbSymbolTable
 70
0
  0
ENDTAB
  0
TABLE
  2
APPID
  5
9
100
AcDbSymbolTable
 70
1
  0
APPID
  5
20F
100
AcDbSymbolTableRecord
100
AcDbRegAppTableRecord
  2
ACAD
 70
0
  0
ENDTAB
  0
TABLE
  2
BLOCK_RECORD
  5
1
100
AcDbSymbolTable
 70
0
  0
BLOCK_RECORD
  5
210
100
AcDbSymbolTableRecord
100
AcDbBlockTableRecord
  2
*Model_Space
  0
BLOCK_RECORD
  5
211
100
AcDbSymbolTableRecord
100
AcDbBlockTableRecord
  2
*Paper_Space
  0
BLOCK_RECORD
  5
212
100
AcDbSymbolTableRecord
100
AcDbBlockTableRecord
  2
_FILLED
  0
ENDTAB
  0
TABLE
  2
DIMSTYLE
  5
A
100
AcDbSymbolTable
 70
1
100
AcDbDimStyleTable
 71
0
  0
DIMSTYLE
105
213
100
AcDbSymbolTableRecord
100
AcDbDimStyleTableRecord
  2
STANDARD
 70
0
  3

  4

 40
1.0
 41
0.4548713324
 42
1.0
 43
0.38
 44
1.0
 45
0.0
 46
0.0
 47
0.01
 48
0.01
140
0.6368198653
141
0.09
142
0.0
143
25.4
144
1.0
145
0.0
146
1.0
147
0.625
 71
1
 72
0
 73
0
 74
0
 75
0
 76
0
 77
1
 78
8
 79
2
170
0
171
1
172
0
173
0
174
0
175
0
176
0
177
0
178
0
270
2
179
2
271
2
272
2
273
2
274
2
275
0
280
0
281
0
282
0
283
1
284
8
285
0
286
0
287
3
288
0
340
11
278
46
341
212
342
212
343
212
344
212
  0
ENDTAB
  0
ENDSEC
  0
SECTION
  2
BLOCKS
  0
BLOCK
  5
20
100
AcDbEntity
  8
0
100
AcDbBlockBegin
  2
*Model_Space
 70
0
 10
0.0
 20
0.0
 30
0.0
  3
*Model_Space
  1

  0
ENDBLK
  5
21
100
AcDbEntity
  8
0
100
AcDbBlockEnd
  0
BLOCK
  5
1C
100
AcDbEntity
  8
0
100
AcDbBlockBegin
  2
*Paper_Space
 70
0
 10
0.0
 20
0.0
 30
0.0
  3
*Paper_Space
  1

  0
ENDBLK
  5
1D
100
AcDbEntity
  8
0
100
AcDbBlockEnd
  0
BLOCK
  5
214
100
AcDbEntity
  8
0
100
AcDbBlockBegin
  2
_FILLED
 70
64
 10
0.0
 20
0.0
  3
_FILLED
  1

  0
SOLID
  5
215
100
AcDbEntity
  8
0
  6
BYBLOCK
 62
0
100
AcDbTrace
 10
0.0
 20
0.0
 11
-1.0
 21
0.25
 12
-1.0
 22
-0.25
 13
-1.0
 23
-0.25
  0
ENDBLK
  5
216
100
AcDbEntity
  8
0
  6
BYBLOCK
 62
0
100
AcDbBlockEnd
  0
ENDSEC
  0
SECTION
  2
ENTITIES
  0
LINE
  5
217
100
AcDbEntity
  8
0
100
AcDbLine
 62
7
  6
BYLAYER
 10
22.1207388167
 20
4.0016428571
 11
16.2207388167
 21
4.0016428571
  0
LINE
  5
218
100
AcDbEntity
  8
0
100
AcDbLine
 62
7
  6
BYLAYER
 10
24.3405677182
 20
4.7174315077
 11
14.0009399233
 21
4.7174315077
  0
LINE
  5
219
100
AcDbEntity
  8
0
100
AcDbLine
 62
7
  6
BYLAYER
 10
15.4207389801
 20
6.5016428571
 11
22.9207389801
 21
6.5016428571
  0
LINE
  5
21A
100
AcDbEntity
  8
0
100
AcDbLine
 62
7
  6
BYLAYER
 10
19.9271715628
 20
6.9407553297
 11
18.4141481465
 21
6.9407553297
  0
LINE
  5
21B
100
AcDbEntity
  8
0
100
AcDbLine
 62
7
  6
BYLAYER
 10
22.1628795569
 20
7.14999353
 11
16.1628795569
 21
7.14999353
  0
LINE
  5
21C
100
AcDbEntity
  8
0
100
AcDbLine
 62
7
  6
BYLAYER
 10
25.9088782017
 20
7.5016428571
 11
23.4207388167
 21
7.5016428571
  0
LINE
  5
21D
100
AcDbEntity
  8
0
100
AcDbLine
 62
7
  6
BYLAYER
 10
14.9207388167
 20
7.5016428571
 11
12.4326028005
 21
7.5016428571
  0
LINE
  5
21E
100
AcDbEntity
  8
0
100
AcDbLine
 62
7
  6
BYLAYER
 10
16.1628795569
 20
7.5841139741
 11
22.1628795569
 21
7.5841139741
  0
LINE
  5
21F
100
AcDbEntity
  8
0
100
AcDbLine
 62
7
  6
BYLAYER
 10
15.6013924714
 20
8.0931924983
 11
14.9207388167
 21
8.4264763934
  0
LINE
  5
220
100
AcDbEntity
  8
0
100
AcDbLine
 62
7
  6
BYLAYER
 10
23.4128800823
 20
10.0088062529
 11
23.1406344596
 21
9.938057908
  0
LINE
  5
221
100
AcDbEntity
  8
0
100
AcDbLine
 62
7
  6
BYLAYER
 10
23.1023699944
 20
10.3622345832
 11
23.4128800823
 21
10.4429266971
  0
LINE
  5
222
100
AcDbEntity
  8
0
100
AcDbLine
 62
7
  6
BYLAYER
 10
27.8207388167
 20
9.6016428571
 11
25.9187130618
 21
9.6016428571
  0
LINE
  5
223
100
AcDbEntity
  8
0
100
AcDbLine
 62
7
  6
BYLAYER
 10
12.4207388167
 20
10.6016428571
 11
10.5207388167
 21
10.6016428571
  0
LINE
  5
224
100
AcDbEntity
  8
0
100
AcDbLine
 62
7
  6
BYLAYER
 10
15.2189847243
 20
9.9288401839
 11
14.9207388167
 21
10.0067529878
  0
LINE
  5
225
100
AcDbEntity
  8
0
100
AcDbLine
 62
7
  6
BYLAYER
 10
14.9207388167
 20
10.440873432
 11
15.2548261588
 21
10.3535975267
  0
LINE
  5
226
100
AcDbEntity
  8
0
100
AcDbLine
 62
7
  6
BYLAYER
 10
4.2207388167
 20
12.1016428571
 11
4.2207388167
 21
42.3516433768
  0
LINE
  5
227
100
AcDbEntity
  8
0
100
AcDbLine
 62
7
  6
BYLAYER
 10
4.5057388167
 20
18.1016415413
 11
4.5057388167
 21
50.2016428571
  0
LINE
  5
228
100
AcDbEntity
  8
0
100
AcDbLine
 62
7
  6
BYLAYER
 10
10.3778455979
 20
40.3479632007
 11
7.5457388167
 21
37.5158564195
  0
LINE
  5
229
100
AcDbEntity
  8
0
100
AcDbLine
 62
7
  6
BYLAYER
 10
33.1207388167
 20
11.1016428571
 11
25.9194365457
 21
11.1016428571
  0
LINE
  5
22A
100
AcDbEntity
  8
0
100
AcDbLine
 62
7
  6
BYLAYER
 10
12.4207388167
 20
11.1016428571
 11
5.2207390075
 21
11.1016420942
  0
LINE
  5
22B
100
AcDbEntity
  8
0
100
AcDbLine
 62
7
  6
BYLAYER
 10
15.4377336021
 20
12.7383276363
 11
14.9207388167
 21
12.6039764415
  0
LINE
  5
22C
100
AcDbEntity
  8
0
100
AcDbLine
 62
7
  6
BYLAYER
 10
34.1207388167
 20
14.2016428571
 11
26.1222918169
 21
14.2016428571
  0
LINE
  5
22D
100
AcDbEntity
  8
0
100
AcDbLine
 62
7
  6
BYLAYER
 10
23.6596989497
 20
14.2016428571
 11
22.7560216142
 21
14.2016428571
  0
LINE
  5
22E
100
AcDbEntity
  8
0
100
AcDbLine
 62
7
  6
BYLAYER
 10
15.5697374996
 20
14.2016428571
 11
14.6817711154
 21
14.2016428571
  0
LINE
  5
22F
100
AcDbEntity
  8
0
100
AcDbLine
 62
7
  6
BYLAYER
 10
12.219191731
 20
14.2016428571
 11
4.2207388167
 21
14.2016428571
  0
LINE
  5
230
100
AcDbEntity
  8
0
100
AcDbLine
 62
7
  6
BYLAYER
 10
30.0357400586
 20
14.3016428571
 11
26.4207388167
 21
14.3016428571
  0
LINE
  5
231
100
AcDbEntity
  8
0
100
AcDbLine
 62
7
  6
BYLAYER
 10
11.9207388167
 20
14.3016428571
 11
8.3057400586
 21
14.3016428571
  0
LINE
  5
232
100
AcDbEntity
  8
0
100
AcDbLine
 62
7
  6
BYLAYER
 10
23.4128798317
 20
12.6019339879
 11
22.8880255117
 21
12.7383276363
  0
LINE
  5
233
100
AcDbEntity
  8
0
100
AcDbLine
 62
7
  6
BYLAYER
 10
16.1628795569
 20
7.14999353
 11
15.1628795569
 21
8.8298166151
  0
LINE
  5
234
100
AcDbEntity
  8
0
100
AcDbLine
 62
7
  6
BYLAYER
 10
7.0057388167
 20
50.2016428571
 11
7.0057388167
 21
17.8016425109
  0
LINE
  5
235
100
AcDbEntity
  8
0
100
AcDbLine
 62
7
  6
BYLAYER
 10
7.0457388167
 20
36.6016428571
 11
7.0457388167
 21
20.1016425984
  0
LINE
  5
236
100
AcDbEntity
  8
0
100
AcDbLine
 62
7
  6
BYLAYER
 10
22.6495005244
 20
15.3824711123
 11
15.6762585894
 21
15.3824711123
  0
LINE
  5
237
100
AcDbEntity
  8
0
100
AcDbLine
 62
7
  6
BYLAYER
 10
22.6508702657
 20
15.9016431917
 11
15.690616908
 21
15.9016431917
  0
LINE
  5
238
100
AcDbEntity
  8
0
100
AcDbLine
 62
7
  6
BYLAYER
 10
15.1628795569
 20
9.2639370593
 11
16.1628795569
 21
7.5841139741
  0
LINE
  5
239
100
AcDbEntity
  8
0
100
AcDbLine
 62
7
  6
BYLAYER
 10
8.4707388167
 20
24.9178259719
 11
8.4707373306
 21
23.992569241
  0
LINE
  5
23A
100
AcDbEntity
  8
0
100
AcDbLine
 62
7
  6
BYLAYER
 10
9.6207388167
 20
43.8416428571
 11
9.6207388167
 21
40.9416428571
  0
LINE
  5
23B
100
AcDbEntity
  8
0
100
AcDbLine
 62
7
  6
BYLAYER
 10
10.1207388167
 20
21.4016428571
 11
10.1207388167
 21
33.0101890819
  0
LINE
  5
23C
100
AcDbEntity
  8
0
100
AcDbLine
 62
7
  6
BYLAYER
 10
8.0057391435
 20
16.8016428571
 11
11.1207388167
 21
16.8016428571
  0
LINE
  5
23D
100
AcDbEntity
  8
0
100
AcDbLine
 62
7
  6
BYLAYER
 10
27.2207400586
 20
16.8016428571
 11
30.3357391435
 21
16.8016428571
  0
LINE
  5
23E
100
AcDbEntity
  8
0
100
AcDbLine
 62
7
  6
BYLAYER
 10
15.5566599109
 20
18.7326036075
 11
15.1707405552
 21
18.9058097295
  0
LINE
  5
23F
100
AcDbEntity
  8
0
100
AcDbLine
 62
7
  6
BYLAYER
 10
10.5207388167
 20
10.6016428571
 11
10.5207388167
 21
11.1016428571
  0
LINE
  5
240
100
AcDbEntity
  8
0
100
AcDbLine
 62
7
  6
BYLAYER
 10
10.5707388167
 20
43.8516428571
 11
10.5707388167
 21
44.6016428571
  0
LINE
  5
241
100
AcDbEntity
  8
0
100
AcDbLine
 62
7
  6
BYLAYER
 10
10.6707388167
 20
42.8516406941
 11
10.6707388167
 21
41.0550699819
  0
LINE
  5
242
100
AcDbEntity
  8
0
100
AcDbLine
 62
7
  6
BYLAYER
 10
11.9207414833
 20
35.8384770868
 11
11.9207388167
 21
35.1710456299
  0
LINE
  5
243
100
AcDbEntity
  8
0
100
AcDbLine
 62
7
  6
BYLAYER
 10
13.7707388167
 20
33.6016428571
 11
15.0707388167
 21
34.5016428571
  0
LINE
  5
244
100
AcDbEntity
  8
0
100
AcDbLine
 62
7
  6
BYLAYER
 10
27.7083028721
 20
19.3016428571
 11
30.4957390782
 21
19.3016428571
  0
LINE
  5
245
100
AcDbEntity
  8
0
100
AcDbLine
 62
7
  6
BYLAYER
 10
7.8457390782
 20
19.3016428571
 11
10.6331722482
 21
19.3016455391
  0
LINE
  5
246
100
AcDbEntity
  8
0
100
AcDbLine
 62
7
  6
BYLAYER
 10
15.1707388167
 20
19.9016428571
 11
13.7707388167
 21
21.0016428571
  0
LINE
  5
247
100
AcDbEntity
  8
0
100
AcDbLine
 62
7
  6
BYLAYER
 10
12.1707388167
 20
47.9606704709
 11
12.1707388167
 21
49.8016428571
  0
LINE
  5
248
100
AcDbEntity
  8
0
100
AcDbLine
 62
7
  6
BYLAYER
 10
12.4207388167
 20
7.8016415408
 11
12.4207388167
 21
13.8016428571
  0
LINE
  5
249
100
AcDbEntity
  8
0
100
AcDbLine
 62
7
  6
BYLAYER
 10
10.6713270724
 20
20.3016428571
 11
11.0781496143
 21
20.3016428571
  0
LINE
  5
24A
100
AcDbEntity
  8
0
100
AcDbLine
 62
7
  6
BYLAYER
 10
27.2633280192
 20
20.3016428571
 11
27.6701507245
 21
20.3016428571
  0
LINE
  5
24B
100
AcDbEntity
  8
0
100
AcDbLine
 62
7
  6
BYLAYER
 10
27.8207388167
 20
21.0016428571
 11
24.5707388167
 21
21.0016428571
  0
LINE
  5
24C
100
AcDbEntity
  8
0
100
AcDbLine
 62
7
  6
BYLAYER
 10
13.7707388167
 20
21.0016428571
 11
10.5207389475
 21
21.0016428571
  0
LINE
  5
24D
100
AcDbEntity
  8
0
100
AcDbLine
 62
7
  6
BYLAYER
 10
10.1035875142
 20
48.3388532775
 11
10.5707388167
 21
44.6016428571
  0
LINE
  5
24E
100
AcDbEntity
  8
0
100
AcDbLine
 62
7
  6
BYLAYER
 10
14.9207388167
 20
13.0016428571
 11
14.9207388167
 21
7.0016428571
  0
LINE
  5
24F
100
AcDbEntity
  8
0
100
AcDbLine
 62
7
  6
BYLAYER
 10
15.0707388167
 20
34.5016428571
 11
15.0707344219
 21
37.6016428571
  0
LINE
  5
250
100
AcDbEntity
  8
0
100
AcDbLine
 62
7
  6
BYLAYER
 10
15.1628795569
 20
8.8298166151
 11
15.1628795569
 21
9.2639370593
  0
LINE
  5
251
100
AcDbEntity
  8
0
100
AcDbLine
 62
7
  6
BYLAYER
 10
15.1707405552
 20
18.9058097295
 11
15.1707388167
 21
19.9016428571
  0
LINE
  5
252
100
AcDbEntity
  8
0
100
AcDbLine
 62
7
  6
BYLAYER
 10
17.2146549812
 20
11.4170747537
 11
17.1753508509
 21
11.9860602349
  0
LINE
  5
253
100
AcDbEntity
  8
0
100
AcDbLine
 62
7
  6
BYLAYER
 10
17.1753508509
 20
11.9860602349
 11
17.1707390273
 21
12.1197404921
  0
LINE
  5
254
100
AcDbEntity
  8
0
100
AcDbLine
 62
7
  6
BYLAYER
 10
15.8456820254
 20
19.3850970573
 11
15.8456820375
 21
18.9124076673
  0
LINE
  5
255
100
AcDbEntity
  8
0
100
AcDbLine
 62
7
  6
BYLAYER
 10
16.1628795569
 20
7.14999353
 11
16.1628795569
 21
7.5841139741
  0
LINE
  5
256
100
AcDbEntity
  8
0
100
AcDbLine
 62
7
  6
BYLAYER
 10
17.1957344219
 20
37.6016428571
 11
17.1957388167
 21
35.8016428571
  0
LINE
  5
257
100
AcDbEntity
  8
0
100
AcDbLine
 62
7
  6
BYLAYER
 10
15.2548261588
 20
10.3535975267
 11
15.1628795569
 21
9.2639370593
  0
LINE
  5
258
100
AcDbEntity
  8
0
100
AcDbLine
 62
7
  6
BYLAYER
 10
15.6762585894
 20
15.3824711123
 11
15.4377336021
 21
12.7383276363
  0
LINE
  5
259
100
AcDbEntity
  8
0
100
AcDbLine
 62
7
  6
BYLAYER
 10
26.3207388167
 20
45.8016428571
 11
25.3207388167
 21
44.0695920496
  0
LINE
  5
25A
100
AcDbEntity
  8
0
100
AcDbLine
 62
7
  6
BYLAYER
 10
29.8707388167
 20
24.9178259719
 11
29.6018182154
 21
24.9178260481
  0
LINE
  5
25B
100
AcDbEntity
  8
0
100
AcDbLine
 62
7
  6
BYLAYER
 10
8.7396585923
 20
24.9178296615
 11
8.4707388167
 21
24.9178259719
  0
LINE
  5
25C
100
AcDbEntity
  8
0
100
AcDbLine
 62
7
  6
BYLAYER
 10
17.5957955959
 20
18.7388381473
 11
17.5957987018
 21
19.2798437885
  0
LINE
  5
25D
100
AcDbEntity
  8
0
100
AcDbLine
 62
7
  6
BYLAYER
 10
34.1207388167
 20
27.3016428571
 11
33.8357388167
 21
27.3016428571
  0
LINE
  5
25E
100
AcDbEntity
  8
0
100
AcDbLine
 62
7
  6
BYLAYER
 10
31.3357388167
 20
27.3016428571
 11
31.2951869499
 21
27.3016428571
  0
LINE
  5
25F
100
AcDbEntity
  8
0
100
AcDbLine
 62
7
  6
BYLAYER
 10
7.0457388167
 20
27.3016428571
 11
7.0057388167
 21
27.3016428571
  0
LINE
  5
260
100
AcDbEntity
  8
0
100
AcDbLine
 62
7
  6
BYLAYER
 10
4.5057388167
 20
27.3016428571
 11
4.2207388167
 21
27.3016428571
  0
LINE
  5
261
100
AcDbEntity
  8
0
100
AcDbLine
 62
7
  6
BYLAYER
 10
20.7456820016
 20
19.2798447233
 11
20.7456820375
 21
18.7388381473
  0
LINE
  5
262
100
AcDbEntity
  8
0
100
AcDbLine
 62
7
  6
BYLAYER
 10
21.1457388167
 20
35.8016428571
 11
21.1457344219
 21
37.6016428571
  0
LINE
  5
263
100
AcDbEntity
  8
0
100
AcDbLine
 62
7
  6
BYLAYER
 10
23.1628795569
 20
9.6914622384
 11
23.1023699944
 21
10.3622345832
  0
LINE
  5
264
100
AcDbEntity
  8
0
100
AcDbLine
 62
7
  6
BYLAYER
 10
22.8880255117
 20
12.7383276363
 11
22.6495005244
 21
15.3824711123
  0
LINE
  5
265
100
AcDbEntity
  8
0
100
AcDbLine
 62
7
  6
BYLAYER
 10
22.1628795569
 20
7.14999353
 11
22.1628795569
 21
7.5841139741
  0
LINE
  5
266
100
AcDbEntity
  8
0
100
AcDbLine
 62
7
  6
BYLAYER
 10
22.495795608
 20
18.9121145826
 11
22.495795608
 21
19.3850803789
  0
LINE
  5
267
100
AcDbEntity
  8
0
100
AcDbLine
 62
7
  6
BYLAYER
 10
21.1707386062
 20
12.1197404921
 11
21.1661267825
 21
11.9860602349
  0
LINE
  5
268
100
AcDbEntity
  8
0
100
AcDbLine
 62
7
  6
BYLAYER
 10
21.1268226523
 20
11.4170747537
 11
21.1661267825
 21
11.9860602349
  0
LINE
  5
269
100
AcDbEntity
  8
0
100
AcDbLine
 62
7
  6
BYLAYER
 10
13.5933885475
 20
43.8516428571
 11
12.2763309825
 21
46.1328534762
  0
LINE
  5
26A
100
AcDbEntity
  8
0
100
AcDbLine
 62
7
  6
BYLAYER
 10
23.1628795569
 20
8.8298166151
 11
23.1628795569
 21
9.6914622384
  0
LINE
  5
26B
100
AcDbEntity
  8
0
100
AcDbLine
 62
7
  6
BYLAYER
 10
23.1707388167
 20
19.9016428571
 11
23.1707341698
 21
18.9058083438
  0
LINE
  5
26C
100
AcDbEntity
  8
0
100
AcDbLine
 62
7
  6
BYLAYER
 10
23.2707344219
 20
37.6016428571
 11
23.2707388167
 21
34.5016428571
  0
LINE
  5
26D
100
AcDbEntity
  8
0
100
AcDbLine
 62
7
  6
BYLAYER
 10
23.4128800823
 20
10.0088062529
 11
23.4128800823
 21
10.4429266971
  0
LINE
  5
26E
100
AcDbEntity
  8
0
100
AcDbLine
 62
7
  6
BYLAYER
 10
23.4207388167
 20
7.0016428571
 11
23.4207388167
 21
13.0016428571
  0
LINE
  5
26F
100
AcDbEntity
  8
0
100
AcDbLine
 62
7
  6
BYLAYER
 10
25.3207388167
 20
43.8516428571
 11
25.3207388167
 21
44.0695920496
  0
LINE
  5
270
100
AcDbEntity
  8
0
100
AcDbLine
 62
7
  6
BYLAYER
 10
26.1707388167
 20
45.2916388332
 11
26.1707388167
 21
44.3416428571
  0
LINE
  5
271
100
AcDbEntity
  8
0
100
AcDbLine
 62
7
  6
BYLAYER
 10
26.4207362793
 20
35.1710479677
 11
26.4207417298
 21
35.8384723483
  0
LINE
  5
272
100
AcDbEntity
  8
0
100
AcDbLine
 62
7
  6
BYLAYER
 10
25.9207388167
 20
13.8016428571
 11
25.9177724758
 21
7.6515249308
  0
LINE
  5
273
100
AcDbEntity
  8
0
100
AcDbLine
 62
7
  6
BYLAYER
 10
10.6290925592
 20
33.6016428571
 11
13.7707388167
 21
33.6016428571
  0
LINE
  5
274
100
AcDbEntity
  8
0
100
AcDbLine
 62
7
  6
BYLAYER
 10
24.5707388167
 20
33.6016428571
 11
27.7123913188
 21
33.601635384
  0
LINE
  5
275
100
AcDbEntity
  8
0
100
AcDbLine
 62
7
  6
BYLAYER
 10
27.8207388167
 20
11.1016428571
 11
27.8207388167
 21
9.6016428571
  0
LINE
  5
276
100
AcDbEntity
  8
0
100
AcDbLine
 62
7
  6
BYLAYER
 10
28.2207388167
 20
33.0101890819
 11
28.2207388167
 21
21.4016428571
  0
LINE
  5
277
100
AcDbEntity
  8
0
100
AcDbLine
 62
7
  6
BYLAYER
 10
24.5707388167
 20
21.0016428571
 11
23.1707388167
 21
19.9016428571
  0
LINE
  5
278
100
AcDbEntity
  8
0
100
AcDbLine
 62
7
  6
BYLAYER
 10
23.1707341698
 20
18.9058083438
 11
22.7628155952
 21
18.7236885648
  0
LINE
  5
279
100
AcDbEntity
  8
0
100
AcDbLine
 62
7
  6
BYLAYER
 10
17.1957388167
 20
35.8016428571
 11
21.1457388167
 21
35.8016428571
  0
LINE
  5
27A
100
AcDbEntity
  8
0
100
AcDbLine
 62
7
  6
BYLAYER
 10
7.0057388167
 20
36.3174836243
 11
7.0457388167
 21
36.3174836243
  0
LINE
  5
27B
100
AcDbEntity
  8
0
100
AcDbLine
 62
7
  6
BYLAYER
 10
23.2707388167
 20
34.5016428571
 11
24.5707388167
 21
33.6016428571
  0
LINE
  5
27C
100
AcDbEntity
  8
0
100
AcDbLine
 62
7
  6
BYLAYER
 10
28.7207399856
 20
43.2916330006
 11
28.7207388167
 21
45.7916428571
  0
LINE
  5
27D
100
AcDbEntity
  8
0
100
AcDbLine
 62
7
  6
BYLAYER
 10
29.8707391566
 20
23.9925655345
 11
29.8707388167
 21
24.9178259719
  0
LINE
  5
27E
100
AcDbEntity
  8
0
100
AcDbLine
 62
7
  6
BYLAYER
 10
23.5696023063
 20
37.6016428571
 11
14.7718753272
 21
37.6016428571
  0
LINE
  5
27F
100
AcDbEntity
  8
0
100
AcDbLine
 62
7
  6
BYLAYER
 10
31.2943548707
 20
38.1574695471
 11
31.3357388167
 21
38.1574695471
  0
LINE
  5
280
100
AcDbEntity
  8
0
100
AcDbLine
 62
7
  6
BYLAYER
 10
31.2957388168
 20
20.1016425986
 11
31.2943426375
 21
38.3170704466
  0
LINE
  5
281
100
AcDbEntity
  8
0
100
AcDbLine
 62
7
  6
BYLAYER
 10
31.3357388167
 20
17.8016428571
 11
31.3357388167
 21
50.2016428571
  0
LINE
  5
282
100
AcDbEntity
  8
0
100
AcDbLine
 62
7
  6
BYLAYER
 10
22.1628795569
 20
7.5841139741
 11
23.1628795569
 21
9.2639370593
  0
LINE
  5
283
100
AcDbEntity
  8
0
100
AcDbLine
 62
7
  6
BYLAYER
 10
23.1628795569
 20
8.8298166151
 11
22.1628795569
 21
7.14999353
  0
LINE
  5
284
100
AcDbEntity
  8
0
100
AcDbLine
 62
7
  6
BYLAYER
 10
33.8357388167
 20
50.2016428571
 11
33.8357388167
 21
18.1016428571
  0
LINE
  5
285
100
AcDbEntity
  8
0
100
AcDbLine
 62
7
  6
BYLAYER
 10
34.1207388167
 20
44.3016428571
 11
34.1207388167
 21
12.1016428572
  0
LINE
  5
286
100
AcDbEntity
  8
0
100
AcDbLine
 62
7
  6
BYLAYER
 10
11.5290267152
 20
43.84164322
 11
9.6207388167
 21
43.8416428571
  0
LINE
  5
287
100
AcDbEntity
  8
0
100
AcDbLine
 62
7
  6
BYLAYER
 10
25.7535539315
 20
43.8516428571
 11
11.6682705878
 21
43.8516428571
  0
LINE
  5
288
100
AcDbEntity
  8
0
100
AcDbLine
 62
7
  6
BYLAYER
 10
7.0057388167
 20
43.8516428571
 11
11.5290267152
 21
43.8516428571
  0
LINE
  5
289
100
AcDbEntity
  8
0
100
AcDbLine
 62
7
  6
BYLAYER
 10
31.0064198292
 20
38.9667013105
 11
26.4642343183
 21
43.5551575502
  0
LINE
  5
28A
100
AcDbEntity
  8
0
100
AcDbLine
 62
7
  6
BYLAYER
 10
23.4207388167
 20
8.4272973101
 11
22.7187913075
 21
8.0838269219
  0
LINE
  5
28B
100
AcDbEntity
  8
0
100
AcDbLine
 62
7
  6
BYLAYER
 10
28.7207388167
 20
45.7916428571
 11
26.6683629537
 21
45.7916428571
  0
LINE
  5
28C
100
AcDbEntity
  8
0
100
AcDbLine
 62
7
  6
BYLAYER
 10
26.3207388167
 20
45.8016428571
 11
31.3357388167
 21
45.8016428571
  0
LINE
  5
28D
100
AcDbEntity
  8
0
100
AcDbLine
 62
7
  6
BYLAYER
 10
7.0057388167
 20
48.6016428571
 11
9.8059041512
 21
48.6016428571
  0
LINE
  5
28E
100
AcDbEntity
  8
0
100
AcDbLine
 62
7
  6
BYLAYER
 10
4.5057388167
 20
49.7016428571
 11
7.0057388167
 21
49.7016428571
  0
LINE
  5
28F
100
AcDbEntity
  8
0
100
AcDbLine
 62
7
  6
BYLAYER
 10
31.3357388167
 20
49.7016428571
 11
33.8357388167
 21
49.7016428571
  0
LINE
  5
290
100
AcDbEntity
  8
0
100
AcDbLine
 62
7
  6
BYLAYER
 10
33.8357388167
 20
50.2016428571
 11
31.3357388167
 21
50.2016428571
  0
LINE
  5
291
100
AcDbEntity
  8
0
100
AcDbLine
 62
7
  6
BYLAYER
 10
7.0057388167
 20
50.2016428571
 11
4.5057388167
 21
50.2016428571
  0
LINE
  5
292
100
AcDbEntity
  8
0
100
AcDbLine
 62
7
  6
BYLAYER
 10
11.6707389801
 20
50.3016428571
 11
6.6707389801
 21
50.3016428571
  0
ARC
  5
293
100
AcDbEntity
  8
0
100
AcDbCircle
 62
7
  6
BYLAYER
 10
19.168321957
 20
27.3100771302
 40
8.1836848192
100
AcDbArc
 50
281.1129922037
 51
290.9076430849
  0
ARC
  5
294
100
AcDbEntity
  8
0
100
AcDbCircle
 62
7
  6
BYLAYER
 10
19.1690996319
 20
11.3065545676
 40
4.454912012
100
AcDbArc
 50
270.0745454812
 51
291.0675277909
  0
ARC
  5
295
100
AcDbEntity
  8
0
100
AcDbCircle
 62
7
  6
BYLAYER
 10
19.1690996319
 20
11.3065545676
 40
4.454912012
100
AcDbArc
 50
248.9326535941
 51
264.9378562299
  0
ARC
  5
296
100
AcDbEntity
  8
0
100
AcDbCircle
 62
7
  6
BYLAYER
 10
16.2207831065
 20
7.8016871469
 40
3.80004429
100
AcDbArc
 50
180.0000003132
 51
269.999332214
  0
ARC
  5
297
100
AcDbEntity
  8
0
100
AcDbCircle
 62
7
  6
BYLAYER
 10
11.1207388167
 20
13.0016428571
 40
3.8
100
AcDbArc
 50
0.0
 51
90.0
  0
ARC
  5
298
100
AcDbEntity
  8
0
100
AcDbCircle
 62
7
  6
BYLAYER
 10
8.3057388167
 20
18.1016428571
 40
3.8
100
AcDbArc
 50
180.0
 51
270.000018724
  0
ARC
  5
299
100
AcDbEntity
  8
0
100
AcDbCircle
 62
7
  6
BYLAYER
 10
19.1706598546
 20
10.1073655106
 40
3.2557226544
100
AcDbArc
 50
245.9248659443
 51
269.9999974975
  0
ARC
  5
29A
100
AcDbEntity
  8
0
100
AcDbCircle
 62
7
  6
BYLAYER
 10
19.1706598546
 20
10.1073655106
 40
3.2557226544
100
AcDbArc
 50
270.0684512691
 51
294.0748914023
  0
ARC
  5
29B
100
AcDbEntity
  8
0
100
AcDbCircle
 62
7
  6
BYLAYER
 10
19.167947536
 20
9.2476753433
 40
2.7569989222
100
AcDbArc
 50
232.9325750076
 51
267.9669189819
  0
ARC
  5
29C
100
AcDbEntity
  8
0
100
AcDbCircle
 62
7
  6
BYLAYER
 10
19.1451180225
 20
9.212873908
 40
2.7154148796
100
AcDbArc
 50
229.6726723191
 51
232.8746423564
  0
ARC
  5
29D
100
AcDbEntity
  8
0
100
AcDbCircle
 62
7
  6
BYLAYER
 10
19.1705705913
 20
9.2943506572
 40
2.5698631305
100
AcDbArc
 50
270.0037506298
 51
287.9993391308
  0
ARC
  5
29E
100
AcDbEntity
  8
0
100
AcDbCircle
 62
7
  6
BYLAYER
 10
19.1617757751
 20
8.8825937386
 40
2.5662019496
100
AcDbArc
 50
233.0642040392
 51
251.0921800881
  0
ARC
  5
29F
100
AcDbEntity
  8
0
100
AcDbCircle
 62
7
  6
BYLAYER
 10
19.1610622798
 20
8.8774107474
 40
2.5619787235
100
AcDbArc
 50
226.7670507616
 51
250.759189926
  0
ARC
  5
2A0
100
AcDbEntity
  8
0
100
AcDbCircle
 62
7
  6
BYLAYER
 10
19.1686336781
 20
9.2845783143
 40
2.5598683264
100
AcDbArc
 50
248.6761574168
 51
251.9628082041
  0
ARC
  5
2A1
100
AcDbEntity
  8
0
100
AcDbCircle
 62
7
  6
BYLAYER
 10
19.1492497993
 20
8.8647268252
 40
2.5443937554
100
AcDbArc
 50
226.6779182266
 51
233.0478905426
  0
ARC
  5
2A2
100
AcDbEntity
  8
0
100
AcDbCircle
 62
7
  6
BYLAYER
 10
19.147078086
 20
8.8625560394
 40
2.5413244822
100
AcDbArc
 50
223.2957927227
 51
226.6799600975
  0
ARC
  5
2A3
100
AcDbEntity
  8
0
100
AcDbCircle
 62
7
  6
BYLAYER
 10
19.1453089306
 20
8.8589022154
 40
2.5377036447
100
AcDbArc
 50
223.4681723305
 51
226.7399523164
  0
ARC
  5
2A4
100
AcDbEntity
  8
0
100
AcDbCircle
 62
7
  6
BYLAYER
 10
14.1707757818
 20
14.601644563
 40
1.999978262
100
AcDbArc
 50
23.1840956756
 51
56.5001534143
  0
ARC
  5
2A5
100
AcDbEntity
  8
0
100
AcDbCircle
 62
7
  6
BYLAYER
 10
8.0057388167
 20
17.8016428571
 40
1.0
100
AcDbArc
 50
180.0
 51
270.000018724
  0
ARC
  5
2A6
100
AcDbEntity
  8
0
100
AcDbCircle
 62
7
  6
BYLAYER
 10
5.2207298679
 20
12.1016331453
 40
0.9999910512
100
AcDbArc
 50
180.0000000205
 51
270.0005236658
  0
ARC
  5
2A7
100
AcDbEntity
  8
0
100
AcDbCircle
 62
7
  6
BYLAYER
 10
7.845738558
 20
20.1016425984
 40
0.7999997412
100
AcDbArc
 50
180.0000000001
 51
270.000037258
  0
ARC
  5
2A8
100
AcDbEntity
  8
0
100
AcDbCircle
 62
7
  6
BYLAYER
 10
10.6713270724
 20
20.8016428571
 40
0.5
100
AcDbArc
 50
217.4072486806
 51
270.0
  0
ARC
  5
2A9
100
AcDbEntity
  8
0
100
AcDbCircle
 62
7
  6
BYLAYER
 10
15.4207388167
 20
7.0016428571
 40
0.5
100
AcDbArc
 50
180.0
 51
270.000018724
  0
ARC
  5
2AA
100
AcDbEntity
  8
0
100
AcDbCircle
 62
7
  6
BYLAYER
 10
11.9207388167
 20
13.8016428571
 40
0.5
100
AcDbArc
 50
0.0
 51
90.0
  0
ARC
  5
2AB
100
AcDbEntity
  8
0
100
AcDbCircle
 62
7
  6
BYLAYER
 10
10.5207388167
 20
21.4016428571
 40
0.4
100
AcDbArc
 50
180.0
 51
270.000018724
  0
ARC
  5
2AC
100
AcDbEntity
  8
0
100
AcDbCircle
 62
7
  6
BYLAYER
 10
16.145595081
 20
19.3850970272
 40
0.2999130615
100
AcDbArc
 50
69.075655802
 51
179.9999942517
  0
ARC
  5
2AD
100
AcDbEntity
  8
0
100
AcDbCircle
 62
7
  6
BYLAYER
 10
15.6452413651
 20
18.9124087125
 40
0.2004408886
100
AcDbArc
 50
243.7727171847
 51
359.9997012132
  0
ARC
  5
2AE
100
AcDbEntity
  8
0
100
AcDbCircle
 62
7
  6
BYLAYER
 10
7.6207388167
 20
40.9516428571
 40
2.0
100
AcDbArc
 50
0.0
 51
107.9086332946
  0
ARC
  5
2AF
100
AcDbEntity
  8
0
100
AcDbCircle
 62
7
  6
BYLAYER
 10
7.6207388167
 20
40.9516428571
 40
2.0
100
AcDbArc
 50
252.0913667054
 51
359.713526415
  0
ARC
  5
2B0
100
AcDbEntity
  8
0
100
AcDbCircle
 62
7
  6
BYLAYER
 10
7.6207388167
 20
40.9416428571
 40
2.0
100
AcDbArc
 50
252.0913708126
 51
360.0
  0
ARC
  5
2B1
100
AcDbEntity
  8
0
100
AcDbCircle
 62
7
  6
BYLAYER
 10
5.7207388167
 20
42.3516428571
 40
1.5
100
AcDbArc
 50
144.0959314167
 51
180.0
  0
ARC
  5
2B2
100
AcDbEntity
  8
0
100
AcDbCircle
 62
7
  6
BYLAYER
 10
7.6207388167
 20
40.9516428571
 40
1.275
100
AcDbArc
 50
241.0404307452
 51
118.9137186596
  0
ARC
  5
2B3
100
AcDbEntity
  8
0
100
AcDbCircle
 62
7
  6
BYLAYER
 10
8.2540767908
 20
36.5346171962
 40
1.2101954796
100
AcDbArc
 50
125.8248030645
 51
176.8250968091
  0
ARC
  5
2B4
100
AcDbEntity
  8
0
100
AcDbCircle
 62
7
  6
BYLAYER
 10
11.6707440387
 20
42.8516406941
 40
1.000005222
100
AcDbArc
 50
90.1417177037
 51
179.999999999
  0
ARC
  5
2B5
100
AcDbEntity
  8
0
100
AcDbCircle
 62
7
  6
BYLAYER
 10
9.6707388167
 20
41.0550699819
 40
1.0
100
AcDbArc
 50
315.0000000009
 51
360.0
  0
ARC
  5
2B6
100
AcDbEntity
  8
0
100
AcDbCircle
 62
7
  6
BYLAYER
 10
7.6207388167
 20
40.9516428571
 40
0.95
100
AcDbArc
 50
231.888457221
 51
128.2622923504
  0
ARC
  5
2B7
100
AcDbEntity
  8
0
100
AcDbCircle
 62
7
  6
BYLAYER
 10
12.2408758259
 20
46.9619493933
 40
0.65
100
AcDbArc
 50
119.613182176
 51
249.7753534009
  0
ARC
  5
2B8
100
AcDbEntity
  8
0
100
AcDbCircle
 62
7
  6
BYLAYER
 10
11.8433182807
 20
45.8828534763
 40
0.5
100
AcDbArc
 50
29.999999999
 51
69.7753056528
  0
ARC
  5
2B9
100
AcDbEntity
  8
0
100
AcDbCircle
 62
7
  6
BYLAYER
 10
11.6707388167
 20
47.9606704709
 40
0.5
100
AcDbArc
 50
299.8603008628
 51
360.0
  0
ARC
  5
2BA
100
AcDbEntity
  8
0
100
AcDbCircle
 62
7
  6
BYLAYER
 10
11.6707388167
 20
49.8016428571
 40
0.5
100
AcDbArc
 50
0.0
 51
89.9999812761
  0
ARC
  5
2BB
100
AcDbEntity
  8
0
100
AcDbCircle
 62
7
  6
BYLAYER
 10
6.6707388167
 20
49.8016428571
 40
0.5
100
AcDbArc
 50
89.999981276
 51
121.2522709551
  0
ARC
  5
2BC
100
AcDbEntity
  8
0
100
AcDbCircle
 62
7
  6
BYLAYER
 10
9.8059041512
 20
48.3016428571
 40
0.3
100
AcDbArc
 50
7.1250163495
 51
90.0
  0
ARC
  5
2BD
100
AcDbEntity
  8
0
100
AcDbCircle
 62
7
  6
BYLAYER
 10
22.1207388167
 20
7.8016428571
 40
3.8
100
AcDbArc
 50
270.0
 51
357.7359572725
  0
ARC
  5
2BE
100
AcDbEntity
  8
0
100
AcDbCircle
 62
7
  6
BYLAYER
 10
19.1735193376
 20
9.2477176843
 40
2.7570418803
100
AcDbArc
 50
272.033273264
 51
307.0067414486
  0
ARC
  5
2BF
100
AcDbEntity
  8
0
100
AcDbCircle
 62
7
  6
BYLAYER
 10
19.1963596109
 20
9.212873908
 40
2.7154148797
100
AcDbArc
 50
307.0641844034
 51
310.3273276809
  0
ARC
  5
2C0
100
AcDbEntity
  8
0
100
AcDbCircle
 62
7
  6
BYLAYER
 10
19.1709574713
 20
9.2946960121
 40
2.5702084892
100
AcDbArc
 50
251.9833882931
 51
269.995125693
  0
ARC
  5
2C1
100
AcDbEntity
  8
0
100
AcDbCircle
 62
7
  6
BYLAYER
 10
19.1797019209
 20
8.8825936011
 40
2.5662017992
100
AcDbArc
 50
288.9078195871
 51
306.9360268191
  0
ARC
  5
2C2
100
AcDbEntity
  8
0
100
AcDbCircle
 62
7
  6
BYLAYER
 10
19.1803980341
 20
8.8774444808
 40
2.5620162724
100
AcDbArc
 50
289.2408602135
 51
313.182753848
  0
ARC
  5
2C3
100
AcDbEntity
  8
0
100
AcDbCircle
 62
7
  6
BYLAYER
 10
19.172933938
 20
9.2843644606
 40
2.5596355064
100
AcDbArc
 50
288.0180996861
 51
291.4904156319
  0
ARC
  5
2C4
100
AcDbEntity
  8
0
100
AcDbCircle
 62
7
  6
BYLAYER
 10
19.1922379807
 20
8.8647140793
 40
2.5443774701
100
AcDbArc
 50
306.9523315103
 51
313.2730034294
  0
ARC
  5
2C5
100
AcDbEntity
  8
0
100
AcDbCircle
 62
7
  6
BYLAYER
 10
19.1943453265
 20
8.8626095985
 40
2.5414006744
100
AcDbArc
 50
313.2709342529
 51
316.7041667241
  0
ARC
  5
2C6
100
AcDbEntity
  8
0
100
AcDbCircle
 62
7
  6
BYLAYER
 10
19.1960875859
 20
8.8589824616
 40
2.5378177226
100
AcDbArc
 50
313.2097025665
 51
316.5318229752
  0
ARC
  5
2C7
100
AcDbEntity
  8
0
100
AcDbCircle
 62
7
  6
BYLAYER
 10
24.1707375166
 20
14.6016431758
 40
1.9999990166
100
AcDbArc
 50
123.5006773395
 51
156.8127908172
  0
ARC
  5
2C8
100
AcDbEntity
  8
0
100
AcDbCircle
 62
7
  6
BYLAYER
 10
22.9207388167
 20
7.0016428571
 40
0.5
100
AcDbArc
 50
270.0000187239
 51
360.0
  0
ARC
  5
2C9
100
AcDbEntity
  8
0
100
AcDbCircle
 62
7
  6
BYLAYER
 10
19.1707388167
 20
27.3016428571
 40
11.7
100
AcDbArc
 50
289.4509936377
 51
316.8617802706
  0
ARC
  5
2CA
100
AcDbEntity
  8
0
100
AcDbCircle
 62
7
  6
BYLAYER
 10
19.1707377903
 20
27.3016416343
 40
11.6999984149
100
AcDbArc
 50
223.1382007978
 51
250.5490090975
  0
ARC
  5
2CB
100
AcDbEntity
  8
0
100
AcDbCircle
 62
7
  6
BYLAYER
 10
19.1707388167
 20
27.3016428571
 40
11.2
100
AcDbArc
 50
197.1847033015
 51
217.4072691195
  0
ARC
  5
2CC
100
AcDbEntity
  8
0
100
AcDbCircle
 62
7
  6
BYLAYER
 10
19.1707388167
 20
27.3016428571
 40
11.2
100
AcDbArc
 50
322.5927314715
 51
342.8152768506
  0
ARC
  5
2CD
100
AcDbEntity
  8
0
100
AcDbCircle
 62
7
  6
BYLAYER
 10
19.1707388167
 20
27.3016428571
 40
11.2
100
AcDbArc
 50
49.6600282732
 51
66.8739258128
  0
ARC
  5
2CE
100
AcDbEntity
  8
0
100
AcDbCircle
 62
7
  6
BYLAYER
 10
19.1707388167
 20
27.3016428571
 40
11.2
100
AcDbArc
 50
113.1260741872
 51
130.3399342789
  0
ARC
  5
2CF
100
AcDbEntity
  8
0
100
AcDbCircle
 62
7
  6
BYLAYER
 10
19.1707388167
 20
27.3016428571
 40
10.7
100
AcDbArc
 50
220.8594423205
 51
319.1405576795
  0
ARC
  5
2D0
100
AcDbEntity
  8
0
100
AcDbCircle
 62
7
  6
BYLAYER
 10
19.1707388167
 20
27.3016428571
 40
10.7
100
AcDbArc
 50
347.1272426252
 51
47.3459663302
  0
ARC
  5
2D1
100
AcDbEntity
  8
0
100
AcDbCircle
 62
7
  6
BYLAYER
 10
19.1707388167
 20
27.3016428571
 40
10.7
100
AcDbArc
 50
132.6540521448
 51
192.8727375269
  0
ARC
  5
2D2
100
AcDbEntity
  8
0
100
AcDbCircle
 62
7
  6
BYLAYER
 10
19.1707386266
 20
27.3016480757
 40
9.3000052185
100
AcDbArc
 50
265.8260523099
 51
274.1739577941
  0
ARC
  5
2D3
100
AcDbEntity
  8
0
100
AcDbCircle
 62
7
  6
BYLAYER
 10
19.1707456113
 20
27.3016710308
 40
8.1749721756
100
AcDbArc
 50
249.0871113112
 51
258.8922491496
  0
ARC
  5
2D4
100
AcDbEntity
  8
0
100
AcDbCircle
 62
7
  6
BYLAYER
 10
19.1707361416
 20
19.8016453336
 40
1.9000036027
100
AcDbArc
 50
290.8709138267
 51
325.9876807837
  0
ARC
  5
2D5
100
AcDbEntity
  8
0
100
AcDbCircle
 62
7
  6
BYLAYER
 10
19.1707388167
 20
19.8016428571
 40
1.9
100
AcDbArc
 50
214.012302438
 51
249.1291715996
  0
ARC
  5
2D6
100
AcDbEntity
  8
0
100
AcDbCircle
 62
7
  6
BYLAYER
 10
22.195871081
 20
19.3850803633
 40
0.2999245301
100
AcDbArc
 50
0.000002985
 51
110.9211603955
  0
ARC
  5
2D7
100
AcDbEntity
  8
0
100
AcDbCircle
 62
7
  6
BYLAYER
 10
22.6958011711
 20
18.9121329666
 40
0.2000055639
100
AcDbArc
 50
180.0052664931
 51
289.5763567539
  0
ARC
  5
2D8
100
AcDbEntity
  8
0
100
AcDbCircle
 62
7
  6
BYLAYER
 10
27.2207388167
 20
13.0016428571
 40
3.8
100
AcDbArc
 50
89.999981276
 51
180.0
  0
ARC
  5
2D9
100
AcDbEntity
  8
0
100
AcDbCircle
 62
7
  6
BYLAYER
 10
33.1207347638
 20
12.1016469101
 40
1.0000040529
100
AcDbArc
 50
270.0002322146
 51
359.9999999964
  0
ARC
  5
2DA
100
AcDbEntity
  8
0
100
AcDbCircle
 62
7
  6
BYLAYER
 10
26.4207388167
 20
13.8016428571
 40
0.5
100
AcDbArc
 50
90.0
 51
180.0
  0
ARC
  5
2DB
100
AcDbEntity
  8
0
100
AcDbCircle
 62
7
  6
BYLAYER
 10
30.0357388167
 20
18.1016428571
 40
3.8
100
AcDbArc
 50
270.000018724
 51
360.0
  0
ARC
  5
2DC
100
AcDbEntity
  8
0
100
AcDbCircle
 62
7
  6
BYLAYER
 10
30.3357388167
 20
17.8016428571
 40
1.0
100
AcDbArc
 50
270.0000187239
 51
360.0
  0
ARC
  5
2DD
100
AcDbEntity
  8
0
100
AcDbCircle
 62
7
  6
BYLAYER
 10
30.4957390755
 20
20.1016425984
 40
0.7999997412
100
AcDbArc
 50
270.00000019
 51
360.0
  0
ARC
  5
2DE
100
AcDbEntity
  8
0
100
AcDbCircle
 62
7
  6
BYLAYER
 10
27.6701505611
 20
20.8016428571
 40
0.5
100
AcDbArc
 50
270.000018724
 51
322.5927645581
  0
ARC
  5
2DF
100
AcDbEntity
  8
0
100
AcDbCircle
 62
7
  6
BYLAYER
 10
27.8207388167
 20
21.4016428571
 40
0.4
100
AcDbArc
 50
270.0
 51
360.0
  0
ARC
  5
2E0
100
AcDbEntity
  8
0
100
AcDbCircle
 62
7
  6
BYLAYER
 10
30.7207388167
 20
43.3016428571
 40
2.0
100
AcDbArc
 50
180.1432391504
 51
287.9086332946
  0
ARC
  5
2E1
100
AcDbEntity
  8
0
100
AcDbCircle
 62
7
  6
BYLAYER
 10
30.7207388167
 20
43.2916428571
 40
2.0
100
AcDbArc
 50
180.0002823689
 51
287.9086332946
  0
ARC
  5
2E2
100
AcDbEntity
  8
0
100
AcDbCircle
 62
7
  6
BYLAYER
 10
30.7207388167
 20
43.3016428571
 40
2.0
100
AcDbArc
 50
69.5824399245
 51
179.9997326829
  0
ARC
  5
2E3
100
AcDbEntity
  8
0
100
AcDbCircle
 62
7
  6
BYLAYER
 10
32.6207388167
 20
44.3016428571
 40
1.5
100
AcDbArc
 50
0.0
 51
34.588498332
  0
ARC
  5
2E4
100
AcDbEntity
  8
0
100
AcDbCircle
 62
7
  6
BYLAYER
 10
30.7207388167
 20
43.3016428571
 40
1.275
100
AcDbArc
 50
61.0404307452
 51
298.9137186596
  0
ARC
  5
2E5
100
AcDbEntity
  8
0
100
AcDbCircle
 62
7
  6
BYLAYER
 10
30.2951306828
 20
38.2628303964
 40
1.0006830235
100
AcDbArc
 50
3.107127462
 51
44.6996597626
  0
ARC
  5
2E6
100
AcDbEntity
  8
0
100
AcDbCircle
 62
7
  6
BYLAYER
 10
25.7535536047
 20
42.8516428571
 40
1.0
100
AcDbArc
 50
44.7096729232
 51
89.999981276
  0
ARC
  5
2E7
100
AcDbEntity
  8
0
100
AcDbCircle
 62
7
  6
BYLAYER
 10
30.7207388167
 20
43.3016428571
 40
0.95
100
AcDbArc
 50
51.888457221
 51
308.2622923504
  0
ARC
  5
2E8
100
AcDbEntity
  8
0
100
AcDbCircle
 62
7
  6
BYLAYER
 10
26.6707485317
 20
45.2916388331
 40
0.500009715
100
AcDbArc
 50
90.2733628237
 51
179.9999999893
  0
ARC
  5
2E9
100
AcDbEntity
  8
0
100
AcDbCircle
 62
7
  6
BYLAYER
 10
25.6707388167
 20
44.3416428571
 40
0.5
100
AcDbArc
 50
281.4039503572
 51
360.0
  0
SPLINE
  5
2EA
100
AcDbEntity
  8
0
100
AcDbSpline
 62
7
  6
BYLAYER
 70
0
 71
3
 72
27
 73
23
 74
0
 42
0.0000001
 43
0.0000001
 44
0.0000000001
 40
0.0
 40
0.0
 40
0.0
 40
0.0
 40
0.0620001991
 40
0.0930845178
 40
0.1241771217
 40
0.1863848968
 40
0.248775301
 40
0.2800776738
 40
0.3114251927
 40
0.3741727473
 40
0.4370511631
 40
0.5
 40
0.5629488369
 40
0.6258272527
 40
0.6885748073
 40
0.7199223262
 40
0.751224699
 40
0.8136151032
 40
0.8758228783
 40
0.9069154822
 40
0.9379998009
 40
1.0
 40
1.0
 40
1.0
 40
1.0
 10
17.1707390273
 20
12.1197404921
 30
0.0
 10
17.1707390273
 20
12.2484404512
 30
0.0
 10
17.1901924336
 20
12.4423728559
 30
0.0
 10
17.2537968666
 20
12.6924818223
 30
0.0
 10
17.3421073338
 20
12.9355249623
 30
0.0
 10
17.4974012383
 20
13.2215064555
 30
0.0
 10
17.7060868419
 20
13.4717590736
 30
0.0
 10
17.9000416723
 20
13.6447928366
 30
0.0
 10
18.1105129947
 20
13.7985605972
 30
0.0
 10
18.4008646329
 20
13.951333436
 30
0.0
 10
18.7782590479
 20
14.0639755044
 30
0.0
 10
19.1707388167
 20
14.1020262039
 30
0.0
 10
19.5632185856
 20
14.0639755044
 30
0.0
 10
19.9406130005
 20
13.951333436
 30
0.0
 10
20.2309646388
 20
13.7985605972
 30
0.0
 10
20.4414359612
 20
13.6447928366
 30
0.0
 10
20.6353907916
 20
13.4717590736
 30
0.0
 10
20.8440763952
 20
13.2215064555
 30
0.0
 10
20.9993702997
 20
12.9355249623
 30
0.0
 10
21.0876807669
 20
12.6924818223
 30
0.0
 10
21.1512851999
 20
12.4423728559
 30
0.0
 10
21.1707386062
 20
12.2484404512
 30
0.0
 10
21.1707386062
 20
12.1197404921
 30
0.0
  0
SPLINE
  5
2EB
100
AcDbEntity
  8
0
100
AcDbSpline
 62
7
  6
BYLAYER
 70
0
 71
3
 72
27
 73
23
 74
0
 42
0.0000001
 43
0.0000001
 44
0.0000000001
 40
0.0
 40
0.0
 40
0.0
 40
0.0
 40
0.062037194
 40
0.0931092069
 40
0.1241993792
 40
0.1864257286
 40
0.2488262435
 40
0.2801269112
 40
0.3114706389
 40
0.3742100394
 40
0.4370705551
 40
0.4999948083
 40
0.5629187572
 40
0.6257787227
 40
0.6885182853
 40
0.7198625643
 40
0.7511642457
 40
0.8135674067
 40
0.8757962759
 40
0.9068879232
 40
0.9379613876
 40
1.0
 40
1.0
 40
1.0
 40
1.0
 10
21.1267984619
 20
11.4170763663
 30
0.0
 10
21.118442511
 20
11.2965292807
 30
0.0
 10
21.0885842762
 20
11.1161810155
 30
0.0
 10
21.0152802563
 20
10.8853631557
 30
0.0
 10
20.9203201497
 20
10.6621008879
 30
0.0
 10
20.7621731436
 20
10.4010329612
 30
0.0
 10
20.5575818398
 20
10.1739939539
 30
0.0
 10
20.3705499984
 20
10.0174879264
 30
0.0
 10
20.169192604
 20
9.8787425039
 30
0.0
 10
19.894015832
 20
9.7412387656
 30
0.0
 10
19.5388685359
 20
9.6400841938
 30
0.0
 10
19.170770836
 20
9.6059472147
 30
0.0
 10
18.8026730335
 20
9.6400738989
 30
0.0
 10
18.4475249168
 20
9.7412179229
 30
0.0
 10
18.1723395346
 20
9.8787065522
 30
0.0
 10
17.9709794512
 20
10.0174539243
 30
0.0
 10
17.7839328288
 20
10.1739549574
 30
0.0
 10
17.5793316137
 20
10.4010019889
 30
0.0
 10
17.4211701219
 20
10.662076087
 30
0.0
 10
17.3262038015
 20
10.8853474048
 30
0.0
 10
17.2528949228
 20
11.1161726087
 30
0.0
 10
17.2230356899
 20
11.296526513
 30
0.0
 10
17.214679312
 20
11.4170763384
 30
0.0
  0
SPLINE
  5
2EC
100
AcDbEntity
  8
0
100
AcDbSpline
 62
7
  6
BYLAYER
 70
0
 71
3
 72
27
 73
23
 74
0
 42
0.0000001
 43
0.0000001
 44
0.0000000001
 40
0.0
 40
0.0
 40
0.0
 40
0.0
 40
0.0620365406
 40
0.0931082608
 40
0.1241982719
 40
0.1864245383
 40
0.2488266425
 40
0.2801287115
 40
0.311473432
 40
0.3742135082
 40
0.4370745545
 40
0.5
 40
0.5629254455
 40
0.6257864918
 40
0.688526568
 40
0.7198712885
 40
0.7511733575
 40
0.8135754617
 40
0.8758017281
 40
0.9068917392
 40
0.9379634594
 40
1.0
 40
1.0
 40
1.0
 40
1.0
 10
21.1661023393
 20
11.986061878
 30
0.0
 10
21.1575789249
 20
11.8630935663
 30
0.0
 10
21.127121299
 20
11.6791228652
 30
0.0
 10
21.0523456105
 20
11.4436683917
 30
0.0
 10
20.9554791944
 20
11.2159198672
 30
0.0
 10
20.7941560671
 20
10.9496010322
 30
0.0
 10
20.5854477777
 20
10.7179963291
 30
0.0
 10
20.3946512377
 20
10.5583403569
 30
0.0
 10
20.1892435213
 20
10.4168014519
 30
0.0
 10
19.908530442
 20
10.276536818
 30
0.0
 10
19.5462407864
 20
10.1733514416
 30
0.0
 10
19.1707388167
 20
10.1385329555
 30
0.0
 10
18.7952368471
 20
10.1733514416
 30
0.0
 10
18.4329471914
 20
10.276536818
 30
0.0
 10
18.1522341122
 20
10.4168014519
 30
0.0
 10
17.9468263958
 20
10.5583403569
 30
0.0
 10
17.7560298558
 20
10.7179963291
 30
0.0
 10
17.5473215664
 20
10.9496010322
 30
0.0
 10
17.3859984391
 20
11.2159198672
 30
0.0
 10
17.2891320229
 20
11.4436683917
 30
0.0
 10
17.2143563345
 20
11.6791228652
 30
0.0
 10
17.1838987086
 20
11.8630935663
 30
0.0
 10
17.1753752942
 20
11.986061878
 30
0.0
  0
SPLINE
  5
2ED
100
AcDbEntity
  8
0
100
AcDbSpline
 62
7
  6
BYLAYER
 70
0
 71
3
 72
27
 73
23
 74
0
 42
0.0000001
 43
0.0000001
 44
0.0000000001
 40
0.0
 40
0.0
 40
0.0
 40
0.0
 40
0.0619922822
 40
0.1241035701
 40
0.1863080513
 40
0.248699414
 40
0.2800020624
 40
0.3113505154
 40
0.3427412036
 40
0.3741717484
 40
0.4370499284
 40
0.5
 40
0.5629500716
 40
0.6258282516
 40
0.6572587964
 40
0.6886494846
 40
0.7199979376
 40
0.751300586
 40
0.8136919487
 40
0.8758964299
 40
0.9380077178
 40
1.0
 40
1.0
 40
1.0
 40
1.0
 10
17.5707382921
 20
12.3066273538
 30
0.0
 10
17.5707382921
 20
12.4095734798
 30
0.0
 10
17.5914451588
 20
12.6162391346
 30
0.0
 10
17.6831036099
 20
12.9137950043
 30
0.0
 10
17.832065573
 20
13.1880111048
 30
0.0
 10
17.9990113217
 20
13.3882570313
 30
0.0
 10
18.1541765836
 20
13.5266615419
 30
0.0
 10
18.2804921929
 20
13.6189276821
 30
0.0
 10
18.4153858154
 20
13.6985469162
 30
0.0
 10
18.6048668919
 20
13.7867672831
 30
0.0
 10
18.8567906918
 20
13.8620452559
 30
0.0
 10
19.1707388167
 20
13.8924635771
 30
0.0
 10
19.4846869417
 20
13.8620452559
 30
0.0
 10
19.7366107415
 20
13.7867672831
 30
0.0
 10
19.9260918181
 20
13.6985469162
 30
0.0
 10
20.0609854406
 20
13.6189276821
 30
0.0
 10
20.1873010499
 20
13.5266615419
 30
0.0
 10
20.3424663118
 20
13.3882570313
 30
0.0
 10
20.5094120605
 20
13.1880111048
 30
0.0
 10
20.6583740235
 20
12.9137950043
 30
0.0
 10
20.7500324747
 20
12.6162391346
 30
0.0
 10
20.7707393414
 20
12.4095734798
 30
0.0
 10
20.7707393414
 20
12.3066273538
 30
0.0
  0
SPLINE
  5
2EE
100
AcDbEntity
  8
0
100
AcDbSpline
 62
7
  6
BYLAYER
 70
0
 71
3
 72
27
 73
23
 74
0
 42
0.0000001
 43
0.0000001
 44
0.0000000001
 40
0.0
 40
0.0
 40
0.0
 40
0.0
 40
0.0619922822
 40
0.1241035701
 40
0.1863080513
 40
0.248699414
 40
0.2800020624
 40
0.3113505154
 40
0.3427412036
 40
0.3741717484
 40
0.4370499284
 40
0.5
 40
0.5629500716
 40
0.6258282516
 40
0.6572587964
 40
0.6886494846
 40
0.7199979376
 40
0.751300586
 40
0.8136919487
 40
0.8758964299
 40
0.9380077178
 40
1.0
 40
1.0
 40
1.0
 40
1.0
 10
20.7707393414
 20
12.3066273538
 30
0.0
 10
20.7707393414
 20
12.2036812278
 30
0.0
 10
20.7500324747
 20
11.997015573
 30
0.0
 10
20.6583740235
 20
11.6994597033
 30
0.0
 10
20.5094120605
 20
11.4252436028
 30
0.0
 10
20.3424663118
 20
11.2249976763
 30
0.0
 10
20.1873010499
 20
11.0865931657
 30
0.0
 10
20.0609854406
 20
10.9943270255
 30
0.0
 10
19.9260918181
 20
10.9147077914
 30
0.0
 10
19.7366107415
 20
10.8264874245
 30
0.0
 10
19.4846869417
 20
10.7512094518
 30
0.0
 10
19.1707388167
 20
10.7207911305
 30
0.0
 10
18.8567906918
 20
10.7512094518
 30
0.0
 10
18.6048668919
 20
10.8264874245
 30
0.0
 10
18.4153858154
 20
10.9147077914
 30
0.0
 10
18.2804921929
 20
10.9943270255
 30
0.0
 10
18.1541765836
 20
11.0865931657
 30
0.0
 10
17.9990113217
 20
11.2249976763
 30
0.0
 10
17.832065573
 20
11.4252436028
 30
0.0
 10
17.6831036099
 20
11.6994597033
 30
0.0
 10
17.5914451588
 20
11.997015573
 30
0.0
 10
17.5707382921
 20
12.2036812278
 30
0.0
 10
17.5707382921
 20
12.3066273538
 30
0.0
  0
ENDSEC
  0
SECTION
  2
OBJECTS
  0
DICTIONARY
  5
C
100
AcDbDictionary
280
0
281
1
  3
ACAD_GROUP
350
D
  3
ACAD_MLINESTYLE
350
17
  3
ACAD_LAYOUT
350
1A
  3
ACAD_PLOTSETTINGS
350
19
  3
ACAD_PLOTSTYLENAME
350
E
  0
DICTIONARY
  5
D
102
{ACAD_REACTORS
330
C
102
}
100
AcDbDictionary
280
0
281
1
  0
ACDBDICTIONARYWDFLT
  5
E
102
{ACAD_REACTORS
330
C
102
}
100
AcDbDictionary
281
1
  3
Normal
350
F
100
AcDbDictionaryWithDefault
340
F
  0
DICTIONARY
  5
17
102
{ACAD_REACTORS
330
C
102
}
100
AcDbDictionary
280
0
281
1
  3
Standard
350
18
  0
DICTIONARY
  5
19
102
{ACAD_REACTORS
330
C
102
}
100
AcDbDictionary
281
1
  0
DICTIONARY
  5
1A
102
{ACAD_REACTORS
330
C
102
}
100
AcDbDictionary
281
1
  3
Model
350
2EF
  3
Layout1
350
2F0
  0
ACDBPLACEHOLDER
  5
F
102
{ACAD_REACTORS
330
E
102
}
  0
MLINESTYLE
  5
18
102
{ACAD_REACTORS
330
17
102
}
100
AcDbMlineStyle
  2
STANDARD
 70
0
  3

 62
256
 51
90.0
 52
90.0
 71
2
 49
0.5
 62
256
  6
BYLAYER
 49
-0.5
 62
256
  6
BYLAYER
  0
LAYOUT
  5
2EF
102
{ACAD_REACTORS
330
1A
102
}
100
AcDbPlotSettings
  1

  2
none_device
  4

  6

 40
0.0
 41
0.0
 42
0.0
 43
0.0
 44
210.0
 45
297.0
 46
0.0
 47
0.0
 48
0.0
 49
0.0
140
0.0
141
0.0
142
1.0
143
1.0
 70
1024
 72
1
 73
0
 74
0
  7

 75
0
147
1.0
148
0.0
149
0.0
100
AcDbLayout
  1
Model
 70
0
 71
0
 10
0.0
 20
0.0
 11
210.0
 21
297.0
 12
0.0
 22
0.0
 32
0.0
 14
0.0
 24
0.0
 34
0.0
 15
0.0
 25
0.0
 35
0.0
146
0.0
 13
0.0
 23
0.0
 33
0.0
 16
1.0
 26
0.0
 36
0.0
 17
0.0
 27
1.0
 37
0.0
 76
0
330
210
345
0
346
0
  0
LAYOUT
  5
2F0
102
{ACAD_REACTORS
330
1A
102
}
100
AcDbPlotSettings
  1

  2
none_device
  4

  6

 40
0.0
 41
0.0
 42
0.0
 43
0.0
 44
210.0
 45
297.0
 46
0.0
 47
0.0
 48
0.0
 49
0.0
140
0.0
141
0.0
142
1.0
143
1.0
 70
0
 72
1
 73
0
 74
0
  7

 75
0
147
1.0
148
0.0
149
0.0
100
AcDbLayout
  1
Layout1
 70
0
 71
1
 10
0.0
 20
0.0
 11
210.0
 21
297.0
 12
0.0
 22
0.0
 32
0.0
 14
0.0
 24
0.0
 34
0.0
 15
0.0
 25
0.0
 35
0.0
146
0.0
 13
0.0
 23
0.0
 33
0.0
 16
1.0
 26
0.0
 36
0.0
 17
0.0
 27
1.0
 37
0.0
 76
0
330
211
345
0
346
0
  0
ENDSEC
  0
EOF
