999
DXF file: C:\Users\sesa63760\Dev\_Creo\CAD\MCADID0000524_3D-CAD\drw0001_6.dxf
999
Pro/ENGINEER 2019471 by Parametric Technology Corporation
  0
SECTION
  2
HEADER
  9
$ACADVER
  1
AC1024
  9
$DWGCODEPAGE
  3
ANSI_1252
  9
$EXTMAX
 10
110.0924830138
 20
155.7022259767
 30
0.0
  9
$EXTMIN
 10
0.0
 20
0.0
 30
0.0
  9
$LIMMIN
 10
0.0
 20
0.0
  9
$LIMMAX
 10
110.0924830138
 20
155.7022259767
  9
$VIEWCTR
 10
55.0462415069
 20
77.8511129883
  9
$VIEWSIZE
 40
155.7022259767
  9
$CLAYER
  8
0
  9
$LTSCALE
 40
10.149478434
  9
$CELTYPE
  6
BYLAYER
  9
$DIMSCALE
 40
1.0
  9
$DIMASZ
 40
1.3106247978
  9
$DIMEXO
 40
1.0
  9
$DIMDLI
 40
7.0123669181
  9
$DIMEXE
 40
1.0
  9
$DIMCEN
 40
1.6608237438
  9
$DIMLFAC
 40
1.0
  9
$DIMBLK
  1
_FILLED
  9
$DIMALT
 70
0
  9
$DIMALTF
 40
0.0393700787
  9
$DIMTXT
 40
1.8348747169
  9
$DIMTOL
 70
1
  9
$DIMLIM
 70
0
  9
$DIMTFAC
 40
1.0
  9
$DIMTP
 40
0.01
  9
$DIMTM
 40
0.01
  9
$DIMGAP
 40
0.625
  9
$DIMDSEP
 70
46
  9
$AUNITS
 70
0
  9
$PDMODE
 70
3
  9
$PDSIZE
 40
0.3125
  9
$HANDSEED
  5
31E
  9
$TILEMODE
 70
1
  9
$MEASUREMENT
 70
1
  9
$INSUNITS
 70
4
  0
ENDSEC
  0
SECTION
  2
CLASSES
  0
CLASS
  1
ACDBDICTIONARYWDFLT
  2
AcDbDictionaryWithDefault
  3
AutoCAD 2000
 90
0
 91
1
280
0
281
0
  0
CLASS
  1
ACDBPLACEHOLDER
  2
AcDbPlaceHolder
  3
AutoCAD 2000
 90
0
 91
1
280
0
281
0
  0
CLASS
  1
LAYOUT
  2
AcDbLayout
  3
AutoCAD 2000
 90
0
 91
0
280
0
281
0
  0
ENDSEC
  0
SECTION
  2
TABLES
  0
TABLE
  2
VPORT
  5
8
100
AcDbSymbolTable
 70
2
  0
VPORT
  5
1F4
100
AcDbSymbolTableRecord
100
AcDbViewportTableRecord
  2
*ACTIVE
 70
0
 10
0.0
 20
0.0
 11
1.0
 21
1.0
 12
55.0462415069
 22
77.8511129883
 13
0.0
 23
0.0
 14
1.0
 24
1.0
 15
0.0
 25
0.0
 16
0.0
 26
0.0
 36
1.0
 17
0.0
 27
0.0
 37
0.0
 40
155.7022259767
 41
0.7070707071
 42
50.0
 43
0.0
 44
0.0
 50
0.0
 51
0.0
 71
0
 72
100
 73
1
 74
1
 75
0
 76
0
 77
0
 78
0
  0
ENDTAB
  0
TABLE
  2
LTYPE
  5
5
100
AcDbSymbolTable
 70
6
  0
LTYPE
  5
14
100
AcDbSymbolTableRecord
100
AcDbLinetypeTableRecord
  2
BYBLOCK
 70
0
  3

 72
65
 73
0
 40
0.0
  0
LTYPE
  5
15
100
AcDbSymbolTableRecord
100
AcDbLinetypeTableRecord
  2
BYLAYER
 70
0
  3

 72
65
 73
0
 40
0.0
  0
LTYPE
  5
16
100
AcDbSymbolTableRecord
100
AcDbLinetypeTableRecord
  2
CONTINUOUS
 70
64
  3
Solid line
 72
65
 73
0
 40
0.0
  0
LTYPE
  5
1F5
100
AcDbSymbolTableRecord
100
AcDbLinetypeTableRecord
  2
CENTER
 70
64
  3
____ _ ____ _ ____ _ ____ _ ____ _ ____ _ ____
 72
65
 73
4
 40
0.6
 49
0.375
 74
0
 49
-0.075
 74
0
 49
0.075
 74
0
 49
-0.075
 74
0
  0
LTYPE
  5
1F6
100
AcDbSymbolTableRecord
100
AcDbLinetypeTableRecord
  2
HIDDEN
 70
64
  3
- - - - - - - - - - - - - - - - - - - -
 72
65
 73
2
 40
0.2
 49
0.1
 74
0
 49
-0.1
 74
0
  0
LTYPE
  5
1F7
100
AcDbSymbolTableRecord
100
AcDbLinetypeTableRecord
  2
PHANTOM
 70
64
  3
_____ _ _ _____ _ _ _____ _ _ _____
 72
65
 73
6
 40
0.8
 49
0.45
 74
0
 49
-0.05
 74
0
 49
0.1
 74
0
 49
-0.05
 74
0
 49
0.1
 74
0
 49
-0.05
 74
0
  0
LTYPE
  5
1F8
100
AcDbSymbolTableRecord
100
AcDbLinetypeTableRecord
  2
DOT
 70
64
  3
. . . . . . . . . . . . . . . . . . . .
 72
65
 73
2
 40
0.2
 49
0.1
 74
0
 49
-0.1
 74
0
  0
LTYPE
  5
1F9
100
AcDbSymbolTableRecord
100
AcDbLinetypeTableRecord
  2
DASHED
 70
64
  3
- - - - - - - - - - - - - - - - - - - -
 72
65
 73
2
 40
0.2
 49
0.1
 74
0
 49
-0.1
 74
0
  0
ENDTAB
  0
TABLE
  2
LAYER
  5
2
100
AcDbSymbolTable
 70
36
  0
LAYER
  5
10
100
AcDbSymbolTableRecord
100
AcDbLayerTableRecord
  2
0
 70
0
 62
7
  6
CONTINUOUS
370
-3
390
F
  0
LAYER
  5
1FA
100
AcDbSymbolTableRecord
100
AcDbLayerTableRecord
  2
DEFAULT_1
 70
0
 62
7
  6
CENTER
370
-3
390
F
  0
LAYER
  5
1FB
100
AcDbSymbolTableRecord
100
AcDbLayerTableRecord
  2
DEFAULT_2
 70
0
 62
8
  6
HIDDEN
370
-3
390
F
  0
LAYER
  5
1FC
100
AcDbSymbolTableRecord
100
AcDbLayerTableRecord
  2
DEFAULT_3
 70
0
 62
7
  6
PHANTOM
370
-3
390
F
  0
LAYER
  5
1FD
100
AcDbSymbolTableRecord
100
AcDbLayerTableRecord
  2
00_COMPONENTS
 70
0
 62
7
  6
CONTINUOUS
370
-3
390
F
  0
LAYER
  5
1FE
100
AcDbSymbolTableRecord
100
AcDbLayerTableRecord
  2
01_1_DEFAULT_DATUMS
 70
0
 62
7
  6
CONTINUOUS
370
-3
390
F
  0
LAYER
  5
1FF
100
AcDbSymbolTableRecord
100
AcDbLayerTableRecord
  2
01_PLANES
 70
0
 62
7
  6
CONTINUOUS
370
-3
390
F
  0
LAYER
  5
200
100
AcDbSymbolTableRecord
100
AcDbLayerTableRecord
  2
02_COORD_SYS
 70
0
 62
7
  6
CONTINUOUS
370
-3
390
F
  0
LAYER
  5
201
100
AcDbSymbolTableRecord
100
AcDbLayerTableRecord
  2
03_AXES
 70
0
 62
7
  6
CONTINUOUS
370
-3
390
F
  0
LAYER
  5
202
100
AcDbSymbolTableRecord
100
AcDbLayerTableRecord
  2
04_POINTS
 70
0
 62
7
  6
CONTINUOUS
370
-3
390
F
  0
LAYER
  5
203
100
AcDbSymbolTableRecord
100
AcDbLayerTableRecord
  2
05_CURVES
 70
0
 62
7
  6
CONTINUOUS
370
-3
390
F
  0
LAYER
  5
204
100
AcDbSymbolTableRecord
100
AcDbLayerTableRecord
  2
06_SURFS
 70
0
 62
7
  6
CONTINUOUS
370
-3
390
F
  0
LAYER
  5
205
100
AcDbSymbolTableRecord
100
AcDbLayerTableRecord
  2
07_COSMETICS
 70
0
 62
7
  6
CONTINUOUS
370
-3
390
F
  0
LAYER
  5
206
100
AcDbSymbolTableRecord
100
AcDbLayerTableRecord
  2
10_NOTES
 70
0
 62
7
  6
CONTINUOUS
370
-3
390
F
  0
LAYER
  5
207
100
AcDbSymbolTableRecord
100
AcDbLayerTableRecord
  2
11_NOTES_PUB
 70
0
 62
7
  6
CONTINUOUS
370
-3
390
F
  0
LAYER
  5
208
100
AcDbSymbolTableRecord
100
AcDbLayerTableRecord
  2
13_REF_GTOL
 70
0
 62
7
  6
CONTINUOUS
370
-3
390
F
  0
LAYER
  5
209
100
AcDbSymbolTableRecord
100
AcDbLayerTableRecord
  2
16_MISC
 70
0
 62
7
  6
CONTINUOUS
370
-3
390
F
  0
LAYER
  5
20A
100
AcDbSymbolTableRecord
100
AcDbLayerTableRecord
  2
17_NO_PRINT
 70
0
 62
7
  6
CONTINUOUS
370
-3
390
F
  0
LAYER
  5
20B
100
AcDbSymbolTableRecord
100
AcDbLayerTableRecord
  2
18_DATUM_CAMS_JOINTS
 70
0
 62
7
  6
CONTINUOUS
370
-3
390
F
  0
LAYER
  5
20C
100
AcDbSymbolTableRecord
100
AcDbLayerTableRecord
  2
19_DATUM_FUNCTIONAL
 70
0
 62
7
  6
CONTINUOUS
370
-3
390
F
  0
LAYER
  5
20D
100
AcDbSymbolTableRecord
100
AcDbLayerTableRecord
  2
20_DATUM_KINEMATIC_SCHEME
 70
0
 62
7
  6
CONTINUOUS
370
-3
390
F
  0
ENDTAB
  0
TABLE
  2
STYLE
  5
3
100
AcDbSymbolTable
 70
1
  0
STYLE
  5
11
100
AcDbSymbolTableRecord
100
AcDbTextStyleTableRecord
  2
STANDARD
 70
0
 40
0.0
 41
0.8
 50
0.0
 71
0
 42
0.2
  3
txt
  4

  0
STYLE
  5
20E
100
AcDbSymbolTableRecord
100
AcDbTextStyleTableRecord
  2
TEXTSTYLE_1
 70
0
 40
0.0
 41
0.8
 50
0.0
 71
0
 42
0.2
  3
gdt
  4

  0
ENDTAB
  0
TABLE
  2
VIEW
  5
6
100
AcDbSymbolTable
 70
0
  0
ENDTAB
  0
TABLE
  2
UCS
  5
7
100
AcDbSymbolTable
 70
0
  0
ENDTAB
  0
TABLE
  2
APPID
  5
9
100
AcDbSymbolTable
 70
1
  0
APPID
  5
20F
100
AcDbSymbolTableRecord
100
AcDbRegAppTableRecord
  2
ACAD
 70
0
  0
ENDTAB
  0
TABLE
  2
BLOCK_RECORD
  5
1
100
AcDbSymbolTable
 70
0
  0
BLOCK_RECORD
  5
210
100
AcDbSymbolTableRecord
100
AcDbBlockTableRecord
  2
*Model_Space
  0
BLOCK_RECORD
  5
211
100
AcDbSymbolTableRecord
100
AcDbBlockTableRecord
  2
*Paper_Space
  0
BLOCK_RECORD
  5
212
100
AcDbSymbolTableRecord
100
AcDbBlockTableRecord
  2
_FILLED
  0
ENDTAB
  0
TABLE
  2
DIMSTYLE
  5
A
100
AcDbSymbolTable
 70
1
100
AcDbDimStyleTable
 71
0
  0
DIMSTYLE
105
213
100
AcDbSymbolTableRecord
100
AcDbDimStyleTableRecord
  2
STANDARD
 70
0
  3

  4

 40
1.0
 41
1.3106247978
 42
1.0
 43
0.38
 44
1.0
 45
0.0
 46
0.0
 47
0.01
 48
0.01
140
1.8348747169
141
0.09
142
0.0
143
25.4
144
1.0
145
0.0
146
1.0
147
0.625
 71
1
 72
0
 73
0
 74
0
 75
0
 76
0
 77
1
 78
8
 79
2
170
0
171
1
172
0
173
0
174
0
175
0
176
0
177
0
178
0
270
2
179
2
271
2
272
2
273
2
274
2
275
0
280
0
281
0
282
0
283
1
284
8
285
0
286
0
287
3
288
0
340
11
278
46
341
212
342
212
343
212
344
212
  0
ENDTAB
  0
ENDSEC
  0
SECTION
  2
BLOCKS
  0
BLOCK
  5
20
100
AcDbEntity
  8
0
100
AcDbBlockBegin
  2
*Model_Space
 70
0
 10
0.0
 20
0.0
 30
0.0
  3
*Model_Space
  1

  0
ENDBLK
  5
21
100
AcDbEntity
  8
0
100
AcDbBlockEnd
  0
BLOCK
  5
1C
100
AcDbEntity
  8
0
100
AcDbBlockBegin
  2
*Paper_Space
 70
0
 10
0.0
 20
0.0
 30
0.0
  3
*Paper_Space
  1

  0
ENDBLK
  5
1D
100
AcDbEntity
  8
0
100
AcDbBlockEnd
  0
BLOCK
  5
214
100
AcDbEntity
  8
0
100
AcDbBlockBegin
  2
_FILLED
 70
64
 10
0.0
 20
0.0
  3
_FILLED
  1

  0
SOLID
  5
215
100
AcDbEntity
  8
0
  6
BYBLOCK
 62
0
100
AcDbTrace
 10
0.0
 20
0.0
 11
-1.0
 21
0.25
 12
-1.0
 22
-0.25
 13
-1.0
 23
-0.25
  0
ENDBLK
  5
216
100
AcDbEntity
  8
0
  6
BYBLOCK
 62
0
100
AcDbBlockEnd
  0
ENDSEC
  0
SECTION
  2
ENTITIES
  0
LINE
  5
217
100
AcDbEntity
  8
0
100
AcDbLine
 62
7
  6
CONTINUOUS
 10
12.4520585133
 20
79.2302348864
 11
12.4783098435
 21
77.7262971868
  0
LINE
  5
218
100
AcDbEntity
  8
0
100
AcDbLine
 62
7
  6
CONTINUOUS
 10
14.2888078701
 20
79.2611129883
 11
14.2861375362
 21
78.9551230329
  0
LINE
  5
219
100
AcDbEntity
  8
0
100
AcDbLine
 62
7
  6
CONTINUOUS
 10
15.5297667626
 20
77.268578649
 11
15.5297667626
 21
78.768578649
  0
LINE
  5
21A
100
AcDbEntity
  8
0
100
AcDbLine
 62
7
  6
CONTINUOUS
 10
16.5756045002
 20
85.1292129883
 11
16.5756045002
 21
92.5206129883
  0
LINE
  5
21B
100
AcDbEntity
  8
0
100
AcDbLine
 62
7
  6
CONTINUOUS
 10
16.7635645002
 20
86.9199129883
 11
16.7635645002
 21
90.7299129883
  0
LINE
  5
21C
100
AcDbEntity
  8
0
100
AcDbLine
 62
7
  6
CONTINUOUS
 10
17.4010068021
 20
84.8244129883
 11
17.4010068021
 21
86.9233466171
  0
LINE
  5
21D
100
AcDbEntity
  8
0
100
AcDbLine
 62
7
  6
CONTINUOUS
 10
17.4010068021
 20
90.7299129883
 11
17.4010068021
 21
92.8254129883
  0
LINE
  5
21E
100
AcDbEntity
  8
0
100
AcDbLine
 62
7
  6
CONTINUOUS
 10
18.294050854
 20
78.6603265407
 11
18.2967281881
 21
78.3535344351
  0
LINE
  5
21F
100
AcDbEntity
  8
0
100
AcDbLine
 62
7
  6
CONTINUOUS
 10
19.5738331796
 20
76.6619686864
 11
19.5999474031
 21
78.1580515529
  0
LINE
  5
220
100
AcDbEntity
  8
0
100
AcDbLine
 62
7
  6
CONTINUOUS
 10
24.6462045002
 20
98.0511129883
 11
22.6462045002
 21
96.0511129883
  0
LINE
  5
221
100
AcDbEntity
  8
0
100
AcDbLine
 62
7
  6
CONTINUOUS
 10
23.5054178585
 20
96.7603263466
 11
24.7962045002
 21
98.0511129883
  0
LINE
  5
222
100
AcDbEntity
  8
0
100
AcDbLine
 62
7
  6
CONTINUOUS
 10
22.6636595652
 20
76.7011129883
 11
22.6462045002
 21
77.7011129884
  0
LINE
  5
223
100
AcDbEntity
  8
0
100
AcDbLine
 62
7
  6
CONTINUOUS
 10
22.6462045002
 20
82.5511129883
 11
22.6462045002
 21
96.0511129883
  0
LINE
  5
224
100
AcDbEntity
  8
0
100
AcDbLine
 62
7
  6
CONTINUOUS
 10
23.3462045002
 20
76.4511129883
 11
23.3462045002
 21
75.9511129883
  0
LINE
  5
225
100
AcDbEntity
  8
0
100
AcDbLine
 62
7
  6
CONTINUOUS
 10
22.7535531495
 20
83.8511129883
 11
22.6462045002
 21
77.7011129884
  0
LINE
  5
226
100
AcDbEntity
  8
0
100
AcDbLine
 62
7
  6
CONTINUOUS
 10
23.5054178585
 20
96.7603263466
 11
22.7962045002
 21
76.4511129883
  0
LINE
  5
227
100
AcDbEntity
  8
0
100
AcDbLine
 62
7
  6
CONTINUOUS
 10
22.7836657328
 20
75.9511129883
 11
22.5462045002
 21
69.1511129883
  0
LINE
  5
228
100
AcDbEntity
  8
0
100
AcDbLine
 62
7
  6
CONTINUOUS
 10
27.5462045002
 20
69.1511129883
 11
27.5462045002
 21
76.4511129883
  0
LINE
  5
229
100
AcDbEntity
  8
0
100
AcDbLine
 62
7
  6
CONTINUOUS
 10
27.7962045002
 20
76.4511129883
 11
27.7962045002
 21
98.0511129883
  0
LINE
  5
22A
100
AcDbEntity
  8
0
100
AcDbLine
 62
7
  6
CONTINUOUS
 10
29.0462045002
 20
81.4511129883
 11
29.0462045002
 21
79.9511129883
  0
LINE
  5
22B
100
AcDbEntity
  8
0
100
AcDbLine
 62
7
  6
CONTINUOUS
 10
29.6462045002
 20
94.0511129883
 11
29.6462045002
 21
85.5511129883
  0
LINE
  5
22C
100
AcDbEntity
  8
0
100
AcDbLine
 62
7
  6
CONTINUOUS
 10
29.9909370124
 20
76.4511129883
 11
29.8630724008
 21
69.1511129883
  0
LINE
  5
22D
100
AcDbEntity
  8
0
100
AcDbLine
 62
7
  6
CONTINUOUS
 10
33.101471988
 20
76.4511129883
 11
33.2293365997
 21
69.1511129883
  0
LINE
  5
22E
100
AcDbEntity
  8
0
100
AcDbLine
 62
7
  6
CONTINUOUS
 10
33.2462045002
 20
85.5511129883
 11
33.2462045002
 21
94.0511129883
  0
LINE
  5
22F
100
AcDbEntity
  8
0
100
AcDbLine
 62
7
  6
CONTINUOUS
 10
33.7462044993
 20
68.6511129882
 11
33.746204499
 21
69.1511129883
  0
LINE
  5
230
100
AcDbEntity
  8
0
100
AcDbLine
 62
7
  6
CONTINUOUS
 10
32.0462045002
 20
69.1511129883
 11
32.5462045013
 21
68.6511129872
  0
LINE
  5
231
100
AcDbEntity
  8
0
100
AcDbLine
 62
7
  6
CONTINUOUS
 10
35.0293534741
 20
71.63366324
 11
34.8785848067
 21
75.9511129883
  0
LINE
  5
232
100
AcDbEntity
  8
0
100
AcDbLine
 62
7
  6
CONTINUOUS
 10
34.0462045002
 20
79.9511129883
 11
34.0462045002
 21
81.4511129883
  0
LINE
  5
233
100
AcDbEntity
  8
0
100
AcDbLine
 62
7
  6
CONTINUOUS
 10
36.2462045002
 20
94.0511129883
 11
36.2462045002
 21
81.9511129883
  0
LINE
  5
234
100
AcDbEntity
  8
0
100
AcDbLine
 62
7
  6
CONTINUOUS
 10
36.0630555263
 20
71.63366324
 11
36.2138241938
 21
75.9511129883
  0
LINE
  5
235
100
AcDbEntity
  8
0
100
AcDbLine
 62
7
  6
CONTINUOUS
 10
53.56927996
 20
57.1511129883
 11
87.5231290405
 21
57.1511129883
  0
LINE
  5
236
100
AcDbEntity
  8
0
100
AcDbLine
 62
7
  6
CONTINUOUS
 10
52.3880314002
 20
57.9016678717
 11
88.7043776002
 21
57.9016678717
  0
LINE
  5
237
100
AcDbEntity
  8
0
100
AcDbLine
 62
7
  6
CONTINUOUS
 10
88.9734433803
 20
58.4591867136
 11
52.1189656201
 21
58.4591867136
  0
LINE
  5
238
100
AcDbEntity
  8
0
100
AcDbLine
 62
7
  6
CONTINUOUS
 10
37.346204499
 20
69.1511129883
 11
37.3462044993
 21
68.6511129872
  0
LINE
  5
239
100
AcDbEntity
  8
0
100
AcDbLine
 62
7
  6
CONTINUOUS
 10
39.8462045002
 20
81.9511129883
 11
39.8462045002
 21
94.0511129883
  0
LINE
  5
23A
100
AcDbEntity
  8
0
100
AcDbLine
 62
7
  6
CONTINUOUS
 10
51.3860868853
 20
58.8692344427
 11
52.8746215895
 21
57.431773188
  0
LINE
  5
23B
100
AcDbEntity
  8
0
100
AcDbLine
 62
7
  6
CONTINUOUS
 10
41.0293534741
 20
71.63366324
 11
40.8785848067
 21
75.9511129883
  0
LINE
  5
23C
100
AcDbEntity
  8
0
100
AcDbLine
 62
7
  6
CONTINUOUS
 10
42.0630555263
 20
71.63366324
 11
42.2138241938
 21
75.9511129883
  0
LINE
  5
23D
100
AcDbEntity
  8
0
100
AcDbLine
 62
7
  6
CONTINUOUS
 10
44.5462045002
 20
76.4511129883
 11
44.5462045002
 21
69.1511129883
  0
LINE
  5
23E
100
AcDbEntity
  8
0
100
AcDbLine
 62
7
  6
CONTINUOUS
 10
45.3462045002
 20
94.0511129883
 11
45.3462045002
 21
88.0511129883
  0
LINE
  5
23F
100
AcDbEntity
  8
0
100
AcDbLine
 62
7
  6
CONTINUOUS
 10
45.5462045002
 20
65.8511129883
 11
45.5462045002
 21
67.942364122
  0
LINE
  5
240
100
AcDbEntity
  8
0
100
AcDbLine
 62
7
  6
CONTINUOUS
 10
45.5462045002
 20
67.9511129883
 11
45.5462045002
 21
83.2511129883
  0
LINE
  5
241
100
AcDbEntity
  8
0
100
AcDbLine
 62
7
  6
CONTINUOUS
 10
46.0462045002
 20
67.4511129883
 11
46.0462045002
 21
67.9511129883
  0
LINE
  5
242
100
AcDbEntity
  8
0
100
AcDbLine
 62
7
  6
CONTINUOUS
 10
44.7813923731
 20
83.186012485
 11
44.5462045002
 21
76.4511129883
  0
LINE
  5
243
100
AcDbEntity
  8
0
100
AcDbLine
 62
7
  6
CONTINUOUS
 10
45.5462045002
 20
65.8511129883
 11
55.5462045002
 21
65.8511129883
  0
LINE
  5
244
100
AcDbEntity
  8
0
100
AcDbLine
 62
7
  6
CONTINUOUS
 10
46.0462045002
 20
67.4511129883
 11
55.0462045002
 21
67.4511129883
  0
LINE
  5
245
100
AcDbEntity
  8
0
100
AcDbLine
 62
7
  6
CONTINUOUS
 10
45.5563065517
 20
67.9511129883
 11
55.5361024488
 21
67.9511129883
  0
LINE
  5
246
100
AcDbEntity
  8
0
100
AcDbLine
 62
7
  6
CONTINUOUS
 10
48.8462045002
 20
88.0511129883
 11
48.8462045002
 21
94.0511129883
  0
LINE
  5
247
100
AcDbEntity
  8
0
100
AcDbLine
 62
7
  6
CONTINUOUS
 10
32.5462030427
 20
68.6511129883
 11
38.5462059586
 21
68.6511129883
  0
LINE
  5
248
100
AcDbEntity
  8
0
100
AcDbLine
 62
7
  6
CONTINUOUS
 10
22.5462045002
 20
69.1511129883
 11
29.8630724008
 21
69.1511129883
  0
LINE
  5
249
100
AcDbEntity
  8
0
100
AcDbLine
 62
7
  6
CONTINUOUS
 10
29.8705012018
 20
69.1511129883
 11
33.2219077986
 21
69.1511129883
  0
LINE
  5
24A
100
AcDbEntity
  8
0
100
AcDbLine
 62
7
  6
CONTINUOUS
 10
33.2293365997
 20
69.1511129883
 11
45.5462045002
 21
69.1511129883
  0
LINE
  5
24B
100
AcDbEntity
  8
0
100
AcDbLine
 62
7
  6
CONTINUOUS
 10
55.5462045002
 20
69.1511129883
 11
80.8630724008
 21
69.1511129883
  0
LINE
  5
24C
100
AcDbEntity
  8
0
100
AcDbLine
 62
7
  6
CONTINUOUS
 10
80.8705012018
 20
69.1511129883
 11
84.2219077986
 21
69.1511129883
  0
LINE
  5
24D
100
AcDbEntity
  8
0
100
AcDbLine
 62
7
  6
CONTINUOUS
 10
84.2293365997
 20
69.1511129883
 11
99.5462045002
 21
69.1511129883
  0
LINE
  5
24E
100
AcDbEntity
  8
0
100
AcDbLine
 62
7
  6
CONTINUOUS
 10
35.5290488876
 20
71.1511129883
 11
35.5633601128
 21
71.1511129883
  0
LINE
  5
24F
100
AcDbEntity
  8
0
100
AcDbLine
 62
7
  6
CONTINUOUS
 10
41.5290488876
 20
71.1511129883
 11
41.5633601128
 21
71.1511129883
  0
LINE
  5
250
100
AcDbEntity
  8
0
100
AcDbLine
 62
7
  6
CONTINUOUS
 10
89.0290488876
 20
71.1511129883
 11
89.0633601128
 21
71.1511129883
  0
LINE
  5
251
100
AcDbEntity
  8
0
100
AcDbLine
 62
7
  6
CONTINUOUS
 10
95.0290488876
 20
71.1511129883
 11
95.0633601128
 21
71.1511129883
  0
LINE
  5
252
100
AcDbEntity
  8
0
100
AcDbLine
 62
7
  6
CONTINUOUS
 10
18.4858514788
 20
76.5218097153
 11
17.5958408917
 21
76.6553113034
  0
LINE
  5
253
100
AcDbEntity
  8
0
100
AcDbLine
 62
7
  6
CONTINUOUS
 10
16.5079787731
 20
76.8184906212
 11
15.617968186
 21
76.9519922092
  0
LINE
  5
254
100
AcDbEntity
  8
0
100
AcDbLine
 62
7
  6
CONTINUOUS
 10
14.5301060673
 20
77.115171527
 11
13.6400954802
 21
77.2486731151
  0
LINE
  5
255
100
AcDbEntity
  8
0
100
AcDbLine
 62
7
  6
CONTINUOUS
 10
12.4783098435
 20
77.7262971868
 11
22.6462045002
 21
76.2011129883
  0
LINE
  5
256
100
AcDbEntity
  8
0
100
AcDbLine
 62
7
  6
CONTINUOUS
 10
51.0813544288
 20
59.5536747463
 11
50.8614430396
 21
65.8511129883
  0
LINE
  5
257
100
AcDbEntity
  8
0
100
AcDbLine
 62
7
  6
CONTINUOUS
 10
51.8608338666
 20
65.8511129883
 11
52.1189656201
 21
58.4591867136
  0
LINE
  5
258
100
AcDbEntity
  8
0
100
AcDbLine
 62
7
  6
CONTINUOUS
 10
52.2462045002
 20
94.0511129883
 11
52.2462045002
 21
88.0511129883
  0
LINE
  5
259
100
AcDbEntity
  8
0
100
AcDbLine
 62
7
  6
CONTINUOUS
 10
38.5462045001
 20
68.6511129882
 11
39.0462045002
 21
69.1511129883
  0
LINE
  5
25A
100
AcDbEntity
  8
0
100
AcDbLine
 62
7
  6
CONTINUOUS
 10
22.6462045002
 20
77.7011129883
 11
12.4520585133
 21
79.2302348864
  0
LINE
  5
25B
100
AcDbEntity
  8
0
100
AcDbLine
 62
7
  6
CONTINUOUS
 10
18.294050854
 20
78.6603265407
 11
14.2888078701
 21
79.2611129883
  0
LINE
  5
25C
100
AcDbEntity
  8
0
100
AcDbLine
 62
7
  6
CONTINUOUS
 10
55.0462045002
 20
67.9511129883
 11
55.0462045002
 21
67.4511129883
  0
LINE
  5
25D
100
AcDbEntity
  8
0
100
AcDbLine
 62
7
  6
CONTINUOUS
 10
55.5462045002
 20
83.2511129883
 11
55.5462045002
 21
67.9511129883
  0
LINE
  5
25E
100
AcDbEntity
  8
0
100
AcDbLine
 62
7
  6
CONTINUOUS
 10
55.5462045002
 20
65.8511129883
 11
55.5462045002
 21
67.942364122
  0
LINE
  5
25F
100
AcDbEntity
  8
0
100
AcDbLine
 62
7
  6
CONTINUOUS
 10
55.7462045002
 20
88.0511129883
 11
55.7462045002
 21
94.0511129883
  0
LINE
  5
260
100
AcDbEntity
  8
0
100
AcDbLine
 62
7
  6
CONTINUOUS
 10
22.7836657328
 20
75.9511129883
 11
29.9805937528
 21
75.9511129883
  0
LINE
  5
261
100
AcDbEntity
  8
0
100
AcDbLine
 62
7
  6
CONTINUOUS
 10
33.1118152477
 20
75.9511129883
 11
34.8785848067
 21
75.9511129883
  0
LINE
  5
262
100
AcDbEntity
  8
0
100
AcDbLine
 62
7
  6
CONTINUOUS
 10
36.2138241938
 20
75.9511129883
 11
40.8785848067
 21
75.9511129883
  0
LINE
  5
263
100
AcDbEntity
  8
0
100
AcDbLine
 62
7
  6
CONTINUOUS
 10
42.2138241938
 20
75.9511129883
 11
44.5462045002
 21
75.9511129883
  0
LINE
  5
264
100
AcDbEntity
  8
0
100
AcDbLine
 62
7
  6
CONTINUOUS
 10
56.5462045002
 20
75.9511129883
 11
80.9805937528
 21
75.9511129883
  0
LINE
  5
265
100
AcDbEntity
  8
0
100
AcDbLine
 62
7
  6
CONTINUOUS
 10
84.1118152477
 20
75.9511129883
 11
88.3785848067
 21
75.9511129883
  0
LINE
  5
266
100
AcDbEntity
  8
0
100
AcDbLine
 62
7
  6
CONTINUOUS
 10
89.7138241938
 20
75.9511129883
 11
94.3785848067
 21
75.9511129883
  0
LINE
  5
267
100
AcDbEntity
  8
0
100
AcDbLine
 62
7
  6
CONTINUOUS
 10
95.7138241938
 20
75.9511129883
 11
99.3087432677
 21
75.9511129883
  0
LINE
  5
268
100
AcDbEntity
  8
0
100
AcDbLine
 62
7
  6
CONTINUOUS
 10
23.3462045002
 20
76.2011129883
 11
22.6462045002
 21
76.2011129883
  0
LINE
  5
269
100
AcDbEntity
  8
0
100
AcDbLine
 62
7
  6
CONTINUOUS
 10
22.7962045002
 20
76.4511129883
 11
44.5462045002
 21
76.4511129883
  0
LINE
  5
26A
100
AcDbEntity
  8
0
100
AcDbLine
 62
7
  6
CONTINUOUS
 10
56.5462045002
 20
76.4511129883
 11
99.2962045002
 21
76.4511129883
  0
LINE
  5
26B
100
AcDbEntity
  8
0
100
AcDbLine
 62
7
  6
CONTINUOUS
 10
22.8049346926
 20
76.7011129883
 11
22.6636595652
 21
76.7011129883
  0
LINE
  5
26C
100
AcDbEntity
  8
0
100
AcDbLine
 62
7
  6
CONTINUOUS
 10
22.6592957989
 20
76.9511129883
 11
22.813664885
 21
76.9511129883
  0
LINE
  5
26D
100
AcDbEntity
  8
0
100
AcDbLine
 62
7
  6
CONTINUOUS
 10
56.3110166274
 20
83.186012485
 11
56.5462045002
 21
76.4511129883
  0
LINE
  5
26E
100
AcDbEntity
  8
0
100
AcDbLine
 62
7
  6
CONTINUOUS
 10
56.5462045002
 20
69.1511129883
 11
56.5462045002
 21
76.4511129883
  0
LINE
  5
26F
100
AcDbEntity
  8
0
100
AcDbLine
 62
7
  6
CONTINUOUS
 10
29.5462045002
 20
79.4511129883
 11
33.5462045002
 21
79.4511129883
  0
LINE
  5
270
100
AcDbEntity
  8
0
100
AcDbLine
 62
7
  6
CONTINUOUS
 10
80.6462045002
 20
79.4511129883
 11
84.4462045002
 21
79.4511129883
  0
LINE
  5
271
100
AcDbEntity
  8
0
100
AcDbLine
 62
7
  6
CONTINUOUS
 10
37.2462045002
 20
80.9511129883
 11
38.8462045002
 21
80.9511129883
  0
LINE
  5
272
100
AcDbEntity
  8
0
100
AcDbLine
 62
7
  6
CONTINUOUS
 10
61.8462045002
 20
80.9511129883
 11
63.4462045002
 21
80.9511129883
  0
LINE
  5
273
100
AcDbEntity
  8
0
100
AcDbLine
 62
7
  6
CONTINUOUS
 10
68.4462045002
 20
80.9511129883
 11
70.0462045002
 21
80.9511129883
  0
LINE
  5
274
100
AcDbEntity
  8
0
100
AcDbLine
 62
7
  6
CONTINUOUS
 10
75.0462045002
 20
80.9511129883
 11
76.6462045002
 21
80.9511129883
  0
LINE
  5
275
100
AcDbEntity
  8
0
100
AcDbLine
 62
7
  6
CONTINUOUS
 10
88.2462045002
 20
80.9511129883
 11
89.8462045002
 21
80.9511129883
  0
LINE
  5
276
100
AcDbEntity
  8
0
100
AcDbLine
 62
7
  6
CONTINUOUS
 10
60.8462045002
 20
94.0511129883
 11
60.8462045002
 21
81.9511129883
  0
LINE
  5
277
100
AcDbEntity
  8
0
100
AcDbLine
 62
7
  6
CONTINUOUS
 10
29.5462045002
 20
81.9511129883
 11
33.5462045002
 21
81.9511129883
  0
LINE
  5
278
100
AcDbEntity
  8
0
100
AcDbLine
 62
7
  6
CONTINUOUS
 10
80.6462045002
 20
81.9511129883
 11
84.4462045002
 21
81.9511129883
  0
LINE
  5
279
100
AcDbEntity
  8
0
100
AcDbLine
 62
7
  6
CONTINUOUS
 10
22.7308615651
 20
82.5511129883
 11
22.6462045002
 21
82.5511129883
  0
LINE
  5
27A
100
AcDbEntity
  8
0
100
AcDbLine
 62
7
  6
CONTINUOUS
 10
45.9462045002
 20
83.6511129883
 11
55.1462045002
 21
83.6511129883
  0
LINE
  5
27B
100
AcDbEntity
  8
0
100
AcDbLine
 62
7
  6
CONTINUOUS
 10
23.0546181945
 20
83.8511129883
 11
22.7535531495
 21
83.8511129883
  0
LINE
  5
27C
100
AcDbEntity
  8
0
100
AcDbLine
 62
7
  6
CONTINUOUS
 10
23.0616023484
 20
84.0511129883
 11
22.6462045002
 21
84.0511129883
  0
LINE
  5
27D
100
AcDbEntity
  8
0
100
AcDbLine
 62
7
  6
CONTINUOUS
 10
55.3116258003
 20
84.1511129883
 11
45.7807832001
 21
84.1511129883
  0
LINE
  5
27E
100
AcDbEntity
  8
0
100
AcDbLine
 62
7
  6
CONTINUOUS
 10
30.6462045002
 20
84.5511129883
 11
32.2462045002
 21
84.5511129883
  0
LINE
  5
27F
100
AcDbEntity
  8
0
100
AcDbLine
 62
7
  6
CONTINUOUS
 10
81.6462045002
 20
84.5511129883
 11
83.2462045002
 21
84.5511129883
  0
LINE
  5
280
100
AcDbEntity
  8
0
100
AcDbLine
 62
7
  6
CONTINUOUS
 10
64.4462045002
 20
81.9511129883
 11
64.4462045002
 21
94.0511129883
  0
LINE
  5
281
100
AcDbEntity
  8
0
100
AcDbLine
 62
7
  6
CONTINUOUS
 10
17.4010068021
 20
84.8244129883
 11
22.6462045002
 21
84.8244129883
  0
LINE
  5
282
100
AcDbEntity
  8
0
100
AcDbLine
 62
7
  6
CONTINUOUS
 10
22.6462045002
 20
86.9199129883
 11
16.7635645002
 21
86.9199129883
  0
LINE
  5
283
100
AcDbEntity
  8
0
100
AcDbLine
 62
7
  6
CONTINUOUS
 10
46.3462045002
 20
87.0511129883
 11
47.8462045002
 21
87.0511129883
  0
LINE
  5
284
100
AcDbEntity
  8
0
100
AcDbLine
 62
7
  6
CONTINUOUS
 10
53.2462045002
 20
87.0511129883
 11
54.7462045002
 21
87.0511129883
  0
LINE
  5
285
100
AcDbEntity
  8
0
100
AcDbLine
 62
7
  6
CONTINUOUS
 10
87.2462045002
 20
87.498878748
 11
90.8462045002
 21
87.498878748
  0
LINE
  5
286
100
AcDbEntity
  8
0
100
AcDbLine
 62
7
  6
CONTINUOUS
 10
67.4462045002
 20
94.0511129883
 11
67.4462045002
 21
81.9511129883
  0
LINE
  5
287
100
AcDbEntity
  8
0
100
AcDbLine
 62
7
  6
CONTINUOUS
 10
89.8462045002
 20
89.1111129883
 11
88.2462045002
 21
89.1111129883
  0
LINE
  5
288
100
AcDbEntity
  8
0
100
AcDbLine
 62
7
  6
CONTINUOUS
 10
16.7635645002
 20
90.7299129883
 11
22.6462045002
 21
90.7299129883
  0
LINE
  5
289
100
AcDbEntity
  8
0
100
AcDbLine
 62
7
  6
CONTINUOUS
 10
71.0462045002
 20
81.9511129883
 11
71.0462045002
 21
94.0511129883
  0
LINE
  5
28A
100
AcDbEntity
  8
0
100
AcDbLine
 62
7
  6
CONTINUOUS
 10
22.6462045002
 20
92.8254129883
 11
17.4010068021
 21
92.8254129883
  0
LINE
  5
28B
100
AcDbEntity
  8
0
100
AcDbLine
 62
7
  6
CONTINUOUS
 10
95.9657652722
 20
93.9511129883
 11
96.0045378336
 21
93.9511129883
  0
LINE
  5
28C
100
AcDbEntity
  8
0
100
AcDbLine
 62
7
  6
CONTINUOUS
 10
74.0462045002
 20
94.0511129883
 11
74.0462045002
 21
81.9511129883
  0
LINE
  5
28D
100
AcDbEntity
  8
0
100
AcDbLine
 62
7
  6
CONTINUOUS
 10
83.2462045002
 20
95.0511129883
 11
81.6462045002
 21
95.0511129883
  0
LINE
  5
28E
100
AcDbEntity
  8
0
100
AcDbLine
 62
7
  6
CONTINUOUS
 10
76.6462045002
 20
95.0511129883
 11
75.0462045002
 21
95.0511129883
  0
LINE
  5
28F
100
AcDbEntity
  8
0
100
AcDbLine
 62
7
  6
CONTINUOUS
 10
70.0462045002
 20
95.0511129883
 11
68.4462045002
 21
95.0511129883
  0
LINE
  5
290
100
AcDbEntity
  8
0
100
AcDbLine
 62
7
  6
CONTINUOUS
 10
63.4462045002
 20
95.0511129883
 11
61.8462045002
 21
95.0511129883
  0
LINE
  5
291
100
AcDbEntity
  8
0
100
AcDbLine
 62
7
  6
CONTINUOUS
 10
54.7462045002
 20
95.0511129883
 11
53.2462045002
 21
95.0511129883
  0
LINE
  5
292
100
AcDbEntity
  8
0
100
AcDbLine
 62
7
  6
CONTINUOUS
 10
47.8462045002
 20
95.0511129883
 11
46.3462045002
 21
95.0511129883
  0
LINE
  5
293
100
AcDbEntity
  8
0
100
AcDbLine
 62
7
  6
CONTINUOUS
 10
38.8462045002
 20
95.0511129883
 11
37.2462045002
 21
95.0511129883
  0
LINE
  5
294
100
AcDbEntity
  8
0
100
AcDbLine
 62
7
  6
CONTINUOUS
 10
32.2462045002
 20
95.0511129883
 11
30.6462045002
 21
95.0511129883
  0
LINE
  5
295
100
AcDbEntity
  8
0
100
AcDbLine
 62
7
  6
CONTINUOUS
 10
23.4631911975
 20
95.5511129883
 11
22.6462045002
 21
95.5511129883
  0
LINE
  5
296
100
AcDbEntity
  8
0
100
AcDbLine
 62
7
  6
CONTINUOUS
 10
23.8311039965
 20
97.086012485
 11
89.3543703274
 21
97.086012485
  0
LINE
  5
297
100
AcDbEntity
  8
0
100
AcDbLine
 62
7
  6
CONTINUOUS
 10
77.6462045002
 20
81.9511129883
 11
77.6462045002
 21
94.0511129883
  0
LINE
  5
298
100
AcDbEntity
  8
0
100
AcDbLine
 62
7
  6
CONTINUOUS
 10
24.6462045002
 20
98.0511129883
 11
93.6295378336
 21
98.0511129883
  0
LINE
  5
299
100
AcDbEntity
  8
0
100
AcDbLine
 62
7
  6
CONTINUOUS
 10
46.0462182524
 20
98.5511129883
 11
47.0462045002
 21
98.5511129883
  0
LINE
  5
29A
100
AcDbEntity
  8
0
100
AcDbLine
 62
7
  6
CONTINUOUS
 10
48.0462182524
 20
98.5511129883
 11
49.0462045002
 21
98.5511129883
  0
LINE
  5
29B
100
AcDbEntity
  8
0
100
AcDbLine
 62
7
  6
CONTINUOUS
 10
50.0462182524
 20
98.5511129883
 11
51.0462045002
 21
98.5511129883
  0
LINE
  5
29C
100
AcDbEntity
  8
0
100
AcDbLine
 62
7
  6
CONTINUOUS
 10
52.0462182524
 20
98.5511129883
 11
53.0462045002
 21
98.5511129883
  0
LINE
  5
29D
100
AcDbEntity
  8
0
100
AcDbLine
 62
7
  6
CONTINUOUS
 10
54.0462182524
 20
98.5511129883
 11
55.0462045002
 21
98.5511129883
  0
LINE
  5
29E
100
AcDbEntity
  8
0
100
AcDbLine
 62
7
  6
CONTINUOUS
 10
80.1462045002
 20
81.4511129883
 11
80.1462045002
 21
79.9511129883
  0
LINE
  5
29F
100
AcDbEntity
  8
0
100
AcDbLine
 62
7
  6
CONTINUOUS
 10
80.6462045002
 20
94.0511129883
 11
80.6462045002
 21
85.5511129883
  0
LINE
  5
2A0
100
AcDbEntity
  8
0
100
AcDbLine
 62
7
  6
CONTINUOUS
 10
80.9909370124
 20
76.4511129883
 11
80.8630724008
 21
69.1511129883
  0
LINE
  5
2A1
100
AcDbEntity
  8
0
100
AcDbLine
 62
7
  6
CONTINUOUS
 10
84.101471988
 20
76.4511129883
 11
84.2293365997
 21
69.1511129883
  0
LINE
  5
2A2
100
AcDbEntity
  8
0
100
AcDbLine
 62
7
  6
CONTINUOUS
 10
84.2462045002
 20
85.5511129883
 11
84.2462045002
 21
94.0511129883
  0
LINE
  5
2A3
100
AcDbEntity
  8
0
100
AcDbLine
 62
7
  6
CONTINUOUS
 10
84.9462045002
 20
79.9511129883
 11
84.9462045002
 21
81.4511129883
  0
LINE
  5
2A4
100
AcDbEntity
  8
0
100
AcDbLine
 62
7
  6
CONTINUOUS
 10
88.5293534741
 20
71.63366324
 11
88.3785848067
 21
75.9511129883
  0
LINE
  5
2A5
100
AcDbEntity
  8
0
100
AcDbLine
 62
7
  6
CONTINUOUS
 10
87.2462045002
 20
88.1111129883
 11
87.2462045002
 21
81.9511129883
  0
LINE
  5
2A6
100
AcDbEntity
  8
0
100
AcDbLine
 62
7
  6
CONTINUOUS
 10
89.3543704429
 20
98.0511129883
 11
89.3543704429
 21
97.086012485
  0
LINE
  5
2A7
100
AcDbEntity
  8
0
100
AcDbLine
 62
7
  6
CONTINUOUS
 10
90.8462045002
 20
81.9511129883
 11
90.8462045002
 21
88.1111129883
  0
LINE
  5
2A8
100
AcDbEntity
  8
0
100
AcDbLine
 62
7
  6
CONTINUOUS
 10
88.9734433803
 20
58.4591867136
 11
89.3468136732
 21
69.1511129883
  0
LINE
  5
2A9
100
AcDbEntity
  8
0
100
AcDbLine
 62
7
  6
CONTINUOUS
 10
89.5630555263
 20
71.63366324
 11
89.7138241938
 21
75.9511129883
  0
LINE
  5
2AA
100
AcDbEntity
  8
0
100
AcDbLine
 62
7
  6
CONTINUOUS
 10
90.3462045002
 20
69.1511129883
 11
90.0110545717
 21
59.5536747463
  0
LINE
  5
2AB
100
AcDbEntity
  8
0
100
AcDbLine
 62
7
  6
CONTINUOUS
 10
94.2992503651
 20
76.4511129883
 11
93.9650872774
 21
86.0202918067
  0
LINE
  5
2AC
100
AcDbEntity
  8
0
100
AcDbLine
 62
7
  6
CONTINUOUS
 10
94.5293534741
 20
71.6336632399
 11
94.3785848067
 21
75.9511129883
  0
LINE
  5
2AD
100
AcDbEntity
  8
0
100
AcDbLine
 62
7
  6
CONTINUOUS
 10
94.5462045002
 20
76.4511129883
 11
94.5462045002
 21
69.1511129883
  0
LINE
  5
2AE
100
AcDbEntity
  8
0
100
AcDbLine
 62
7
  6
CONTINUOUS
 10
88.217787411
 20
57.431773188
 11
89.7063221151
 21
58.8692344427
  0
LINE
  5
2AF
100
AcDbEntity
  8
0
100
AcDbLine
 62
7
  6
CONTINUOUS
 10
93.9650872774
 20
86.0202918067
 11
89.3543703274
 21
97.086012485
  0
LINE
  5
2B0
100
AcDbEntity
  8
0
100
AcDbLine
 62
7
  6
CONTINUOUS
 10
95.7138241938
 20
75.9511129883
 11
95.5630555263
 21
71.63366324
  0
LINE
  5
2B1
100
AcDbEntity
  8
0
100
AcDbLine
 62
7
  6
CONTINUOUS
 10
99.5462045002
 20
69.1511129883
 11
99.3087432677
 21
75.9511129883
  0
LINE
  5
2B2
100
AcDbEntity
  8
0
100
AcDbLine
 62
7
  6
CONTINUOUS
 10
99.1236719778
 20
81.3917980001
 11
99.2962045002
 21
76.4511129883
  0
LINE
  5
2B3
100
AcDbEntity
  8
0
100
AcDbLine
 62
7
  6
CONTINUOUS
 10
99.1006481911
 20
82.0511129883
 11
98.9620414125
 21
86.0202918066
  0
LINE
  5
2B4
100
AcDbEntity
  8
0
100
AcDbLine
 62
7
  6
CONTINUOUS
 10
98.7462045002
 20
75.9511129883
 11
98.7462045002
 21
76.4511129883
  0
LINE
  5
2B5
100
AcDbEntity
  8
0
100
AcDbLine
 62
7
  6
CONTINUOUS
 10
94.5526147566
 20
97.435728373
 11
95.5898015041
 21
94.946480179
  0
LINE
  5
2B6
100
AcDbEntity
  8
0
100
AcDbLine
 62
7
  6
CONTINUOUS
 10
98.5804718928
 20
87.7688712463
 11
95.6290842011
 21
94.8522017062
  0
ARC
  5
2B7
100
AcDbEntity
  8
0
100
AcDbCircle
 62
7
  6
CONTINUOUS
 10
41.5633601128
 20
71.6511129883
 40
0.5
100
AcDbArc
 50
270.0
 51
358.0
  0
ARC
  5
2B8
100
AcDbEntity
  8
0
100
AcDbCircle
 62
7
  6
CONTINUOUS
 10
41.5290488876
 20
71.6511129883
 40
0.5
100
AcDbArc
 50
182.0
 51
270.0
  0
ARC
  5
2B9
100
AcDbEntity
  8
0
100
AcDbCircle
 62
7
  6
CONTINUOUS
 10
35.5633601128
 20
71.6511129883
 40
0.5
100
AcDbArc
 50
270.0
 51
358.0
  0
ARC
  5
2BA
100
AcDbEntity
  8
0
100
AcDbCircle
 62
7
  6
CONTINUOUS
 10
35.5290488876
 20
71.6511129883
 40
0.5
100
AcDbArc
 50
182.0
 51
270.0
  0
ARC
  5
2BB
100
AcDbEntity
  8
0
100
AcDbCircle
 62
7
  6
CONTINUOUS
 10
14.5746303883
 20
77.4118491051
 40
0.3
100
AcDbArc
 50
261.4692343901
 51
351.4692343901
  0
ARC
  5
2BC
100
AcDbEntity
  8
0
100
AcDbCircle
 62
7
  6
CONTINUOUS
 10
13.6845876707
 20
77.5453555128
 40
0.3
100
AcDbArc
 50
171.4692343901
 51
261.4692343901
  0
ARC
  5
2BD
100
AcDbEntity
  8
0
100
AcDbCircle
 62
7
  6
CONTINUOUS
 10
16.5525030941
 20
77.1151681993
 40
0.3
100
AcDbArc
 50
261.4692343901
 51
351.4692343901
  0
ARC
  5
2BE
100
AcDbEntity
  8
0
100
AcDbCircle
 62
7
  6
CONTINUOUS
 10
15.6624603765
 20
77.2486746069
 40
0.3
100
AcDbArc
 50
171.4692343901
 51
261.4692343901
  0
ARC
  5
2BF
100
AcDbEntity
  8
0
100
AcDbCircle
 62
7
  6
CONTINUOUS
 10
18.5303757998
 20
76.8184872934
 40
0.3
100
AcDbArc
 50
261.4692343901
 51
351.46923439
  0
ARC
  5
2C0
100
AcDbEntity
  8
0
100
AcDbCircle
 62
7
  6
CONTINUOUS
 10
17.6403330822
 20
76.951993701
 40
0.3
100
AcDbArc
 50
171.4692343901
 51
261.4692343901
  0
ARC
  5
2C1
100
AcDbEntity
  8
0
100
AcDbCircle
 62
7
  6
CONTINUOUS
 10
17.4010068021
 20
91.5554129883
 40
1.27
100
AcDbArc
 50
90.0
 51
130.5358021113
  0
ARC
  5
2C2
100
AcDbEntity
  8
0
100
AcDbCircle
 62
7
  6
CONTINUOUS
 10
17.4010068021
 20
86.0944129883
 40
1.27
100
AcDbArc
 50
229.4641978887
 51
269.9999999999
  0
ARC
  5
2C3
100
AcDbEntity
  8
0
100
AcDbCircle
 62
7
  6
CONTINUOUS
 10
37.2462045002
 20
94.0511129883
 40
1.0
100
AcDbArc
 50
90.0
 51
180.0
  0
ARC
  5
2C4
100
AcDbEntity
  8
0
100
AcDbCircle
 62
7
  6
CONTINUOUS
 10
37.2462045002
 20
81.9511129883
 40
1.0
100
AcDbArc
 50
180.0
 51
270.0
  0
ARC
  5
2C5
100
AcDbEntity
  8
0
100
AcDbCircle
 62
7
  6
CONTINUOUS
 10
38.8462045002
 20
81.9511129883
 40
1.0
100
AcDbArc
 50
270.0
 51
360.0
  0
ARC
  5
2C6
100
AcDbEntity
  8
0
100
AcDbCircle
 62
7
  6
CONTINUOUS
 10
38.8462045002
 20
94.0511129883
 40
1.0
100
AcDbArc
 50
0.0
 51
90.0
  0
ARC
  5
2C7
100
AcDbEntity
  8
0
100
AcDbCircle
 62
7
  6
CONTINUOUS
 10
30.6462045002
 20
94.0511129883
 40
1.0
100
AcDbArc
 50
90.0
 51
180.0
  0
ARC
  5
2C8
100
AcDbEntity
  8
0
100
AcDbCircle
 62
7
  6
CONTINUOUS
 10
30.6462045002
 20
85.5511129883
 40
1.0
100
AcDbArc
 50
180.0
 51
270.0
  0
ARC
  5
2C9
100
AcDbEntity
  8
0
100
AcDbCircle
 62
7
  6
CONTINUOUS
 10
32.2462045002
 20
85.5511129883
 40
1.0
100
AcDbArc
 50
270.0
 51
360.0
  0
ARC
  5
2CA
100
AcDbEntity
  8
0
100
AcDbCircle
 62
7
  6
CONTINUOUS
 10
32.2462045002
 20
94.0511129883
 40
1.0
100
AcDbArc
 50
0.0
 51
90.0
  0
ARC
  5
2CB
100
AcDbEntity
  8
0
100
AcDbCircle
 62
7
  6
CONTINUOUS
 10
33.5462045002
 20
79.9511129883
 40
0.5
100
AcDbArc
 50
270.0
 51
360.0
  0
ARC
  5
2CC
100
AcDbEntity
  8
0
100
AcDbCircle
 62
7
  6
CONTINUOUS
 10
33.5462045002
 20
81.4511129883
 40
0.5
100
AcDbArc
 50
0.0
 51
90.0
  0
ARC
  5
2CD
100
AcDbEntity
  8
0
100
AcDbCircle
 62
7
  6
CONTINUOUS
 10
29.5462045002
 20
81.4511129883
 40
0.5
100
AcDbArc
 50
90.0
 51
180.0
  0
ARC
  5
2CE
100
AcDbEntity
  8
0
100
AcDbCircle
 62
7
  6
CONTINUOUS
 10
29.5462045002
 20
79.9511129883
 40
0.5
100
AcDbArc
 50
180.0
 51
270.0
  0
ARC
  5
2CF
100
AcDbEntity
  8
0
100
AcDbCircle
 62
7
  6
CONTINUOUS
 10
53.56927996
 20
58.1511129883
 40
1.0
100
AcDbArc
 50
226.0
 51
270.0
  0
ARC
  5
2D0
100
AcDbEntity
  8
0
100
AcDbCircle
 62
7
  6
CONTINUOUS
 10
52.0807452558
 20
59.588574243
 40
1.0
100
AcDbArc
 50
182.0
 51
225.9999999998
  0
ARC
  5
2D1
100
AcDbEntity
  8
0
100
AcDbCircle
 62
7
  6
CONTINUOUS
 10
68.4462045002
 20
94.0511129883
 40
1.0
100
AcDbArc
 50
90.0
 51
180.0
  0
ARC
  5
2D2
100
AcDbEntity
  8
0
100
AcDbCircle
 62
7
  6
CONTINUOUS
 10
68.4462045002
 20
81.9511129883
 40
1.0
100
AcDbArc
 50
180.0
 51
270.0
  0
ARC
  5
2D3
100
AcDbEntity
  8
0
100
AcDbCircle
 62
7
  6
CONTINUOUS
 10
70.0462045002
 20
81.9511129883
 40
1.0
100
AcDbArc
 50
270.0
 51
360.0
  0
ARC
  5
2D4
100
AcDbEntity
  8
0
100
AcDbCircle
 62
7
  6
CONTINUOUS
 10
70.0462045002
 20
94.0511129883
 40
1.0
100
AcDbArc
 50
0.0
 51
90.0
  0
ARC
  5
2D5
100
AcDbEntity
  8
0
100
AcDbCircle
 62
7
  6
CONTINUOUS
 10
75.0462045002
 20
94.0511129883
 40
1.0
100
AcDbArc
 50
90.0
 51
180.0
  0
ARC
  5
2D6
100
AcDbEntity
  8
0
100
AcDbCircle
 62
7
  6
CONTINUOUS
 10
75.0462045002
 20
81.9511129883
 40
1.0
100
AcDbArc
 50
180.0
 51
270.0
  0
ARC
  5
2D7
100
AcDbEntity
  8
0
100
AcDbCircle
 62
7
  6
CONTINUOUS
 10
76.6462045002
 20
81.9511129883
 40
1.0
100
AcDbArc
 50
270.0
 51
360.0
  0
ARC
  5
2D8
100
AcDbEntity
  8
0
100
AcDbCircle
 62
7
  6
CONTINUOUS
 10
76.6462045002
 20
94.0511129883
 40
1.0
100
AcDbArc
 50
0.0
 51
90.0
  0
ARC
  5
2D9
100
AcDbEntity
  8
0
100
AcDbCircle
 62
7
  6
CONTINUOUS
 10
61.8462045002
 20
94.0511129883
 40
1.0
100
AcDbArc
 50
90.0
 51
180.0
  0
ARC
  5
2DA
100
AcDbEntity
  8
0
100
AcDbCircle
 62
7
  6
CONTINUOUS
 10
61.8462045002
 20
81.9511129883
 40
1.0
100
AcDbArc
 50
180.0
 51
270.0
  0
ARC
  5
2DB
100
AcDbEntity
  8
0
100
AcDbCircle
 62
7
  6
CONTINUOUS
 10
63.4462045002
 20
81.9511129883
 40
1.0
100
AcDbArc
 50
270.0
 51
360.0
  0
ARC
  5
2DC
100
AcDbEntity
  8
0
100
AcDbCircle
 62
7
  6
CONTINUOUS
 10
63.4462045002
 20
94.0511129883
 40
1.0
100
AcDbArc
 50
0.0
 51
90.0
  0
ARC
  5
2DD
100
AcDbEntity
  8
0
100
AcDbCircle
 62
7
  6
CONTINUOUS
 10
47.8462045002
 20
94.0511129883
 40
1.0
100
AcDbArc
 50
0.0
 51
90.0
  0
ARC
  5
2DE
100
AcDbEntity
  8
0
100
AcDbCircle
 62
7
  6
CONTINUOUS
 10
46.3462045002
 20
94.0511129883
 40
1.0
100
AcDbArc
 50
90.0
 51
180.0
  0
ARC
  5
2DF
100
AcDbEntity
  8
0
100
AcDbCircle
 62
7
  6
CONTINUOUS
 10
46.3462045002
 20
88.0511129883
 40
1.0
100
AcDbArc
 50
180.0
 51
270.0
  0
ARC
  5
2E0
100
AcDbEntity
  8
0
100
AcDbCircle
 62
7
  6
CONTINUOUS
 10
47.8462045002
 20
88.0511129883
 40
1.0
100
AcDbArc
 50
270.0
 51
360.0
  0
ARC
  5
2E1
100
AcDbEntity
  8
0
100
AcDbCircle
 62
7
  6
CONTINUOUS
 10
54.7462045002
 20
94.0511129883
 40
1.0
100
AcDbArc
 50
0.0
 51
90.0
  0
ARC
  5
2E2
100
AcDbEntity
  8
0
100
AcDbCircle
 62
7
  6
CONTINUOUS
 10
53.2462045002
 20
94.0511129883
 40
1.0
100
AcDbArc
 50
90.0
 51
180.0
  0
ARC
  5
2E3
100
AcDbEntity
  8
0
100
AcDbCircle
 62
7
  6
CONTINUOUS
 10
53.2462045002
 20
88.0511129883
 40
1.0
100
AcDbArc
 50
180.0
 51
270.0
  0
ARC
  5
2E4
100
AcDbEntity
  8
0
100
AcDbCircle
 62
7
  6
CONTINUOUS
 10
54.7462045002
 20
88.0511129883
 40
1.0
100
AcDbArc
 50
270.0
 51
360.0
  0
ARC
  5
2E5
100
AcDbEntity
  8
0
100
AcDbCircle
 62
7
  6
CONTINUOUS
 10
55.3116258003
 20
83.1511129883
 40
1.0
100
AcDbArc
 50
2.0
 51
90.0
  0
ARC
  5
2E6
100
AcDbEntity
  8
0
100
AcDbCircle
 62
7
  6
CONTINUOUS
 10
45.7807832001
 20
83.1511129883
 40
1.0
100
AcDbArc
 50
90.0
 51
178.0
  0
ARC
  5
2E7
100
AcDbEntity
  8
0
100
AcDbCircle
 62
7
  6
CONTINUOUS
 10
52.0462045002
 20
98.0511129883
 40
0.5
100
AcDbArc
 50
90.0
 51
179.9999999999
  0
ARC
  5
2E8
100
AcDbEntity
  8
0
100
AcDbCircle
 62
7
  6
CONTINUOUS
 10
53.0462045002
 20
98.0511129883
 40
0.5
100
AcDbArc
 50
0.0000000001
 51
90.0
  0
ARC
  5
2E9
100
AcDbEntity
  8
0
100
AcDbCircle
 62
7
  6
CONTINUOUS
 10
48.0462045002
 20
98.0511129883
 40
0.5
100
AcDbArc
 50
90.0
 51
179.9999999999
  0
ARC
  5
2EA
100
AcDbEntity
  8
0
100
AcDbCircle
 62
7
  6
CONTINUOUS
 10
49.0462045002
 20
98.0511129883
 40
0.5
100
AcDbArc
 50
0.0000000001
 51
90.0
  0
ARC
  5
2EB
100
AcDbEntity
  8
0
100
AcDbCircle
 62
7
  6
CONTINUOUS
 10
54.0462045002
 20
98.0511129883
 40
0.5
100
AcDbArc
 50
90.0
 51
179.9999999999
  0
ARC
  5
2EC
100
AcDbEntity
  8
0
100
AcDbCircle
 62
7
  6
CONTINUOUS
 10
55.0462045002
 20
98.0511129883
 40
0.5
100
AcDbArc
 50
0.0000000001
 51
90.0
  0
ARC
  5
2ED
100
AcDbEntity
  8
0
100
AcDbCircle
 62
7
  6
CONTINUOUS
 10
50.0462045002
 20
98.0511129883
 40
0.5
100
AcDbArc
 50
90.0
 51
179.9999999999
  0
ARC
  5
2EE
100
AcDbEntity
  8
0
100
AcDbCircle
 62
7
  6
CONTINUOUS
 10
51.0462045002
 20
98.0511129883
 40
0.5
100
AcDbArc
 50
0.0000000001
 51
90.0
  0
ARC
  5
2EF
100
AcDbEntity
  8
0
100
AcDbCircle
 62
7
  6
CONTINUOUS
 10
46.0462045002
 20
98.0511129883
 40
0.5
100
AcDbArc
 50
90.0
 51
179.9999999999
  0
ARC
  5
2F0
100
AcDbEntity
  8
0
100
AcDbCircle
 62
7
  6
CONTINUOUS
 10
47.0462045002
 20
98.0511129883
 40
0.5
100
AcDbArc
 50
0.0000000001
 51
90.0
  0
ARC
  5
2F1
100
AcDbEntity
  8
0
100
AcDbCircle
 62
7
  6
CONTINUOUS
 10
55.1462045002
 20
83.2511129883
 40
0.4
100
AcDbArc
 50
0.0
 51
90.0
  0
ARC
  5
2F2
100
AcDbEntity
  8
0
100
AcDbCircle
 62
7
  6
CONTINUOUS
 10
45.9462045002
 20
83.2511129883
 40
0.4
100
AcDbArc
 50
90.0
 51
180.0
  0
ARC
  5
2F3
100
AcDbEntity
  8
0
100
AcDbCircle
 62
7
  6
CONTINUOUS
 10
144.887897396
 20
-660.8949994371
 40
760.0126229627
100
AcDbArc
 50
93.9937609486
 51
94.1902921261
  0
ARC
  5
2F4
100
AcDbEntity
  8
0
100
AcDbCircle
 62
7
  6
CONTINUOUS
 10
121.1792015216
 20
-320.6512219498
 40
418.9438226899
100
AcDbArc
 50
93.8785205323
 51
94.0000689505
  0
ARC
  5
2F5
100
AcDbEntity
  8
0
100
AcDbCircle
 62
7
  6
CONTINUOUS
 10
93.9650872774
 20
85.8457943231
 40
5.0
100
AcDbArc
 50
1.9999999991
 51
22.6198649488
  0
ARC
  5
2F6
100
AcDbEntity
  8
0
100
AcDbCircle
 62
7
  6
CONTINUOUS
 10
93.9650872774
 20
85.8457943231
 40
4.9854538071
100
AcDbArc
 50
2.1528608194
 51
22.7610532311
  0
ARC
  5
2F7
100
AcDbEntity
  8
0
100
AcDbCircle
 62
7
  6
CONTINUOUS
 10
81.6462045002
 20
94.0511129883
 40
1.0
100
AcDbArc
 50
90.0
 51
180.0
  0
ARC
  5
2F8
100
AcDbEntity
  8
0
100
AcDbCircle
 62
7
  6
CONTINUOUS
 10
81.6462045002
 20
85.5511129883
 40
1.0
100
AcDbArc
 50
180.0
 51
270.0
  0
ARC
  5
2F9
100
AcDbEntity
  8
0
100
AcDbCircle
 62
7
  6
CONTINUOUS
 10
83.2462045002
 20
85.5511129883
 40
1.0
100
AcDbArc
 50
270.0
 51
360.0
  0
ARC
  5
2FA
100
AcDbEntity
  8
0
100
AcDbCircle
 62
7
  6
CONTINUOUS
 10
83.2462045002
 20
94.0511129883
 40
1.0
100
AcDbArc
 50
0.0
 51
90.0
  0
ARC
  5
2FB
100
AcDbEntity
  8
0
100
AcDbCircle
 62
7
  6
CONTINUOUS
 10
88.2462045002
 20
88.1111129883
 40
1.0
100
AcDbArc
 50
90.0
 51
180.0
  0
ARC
  5
2FC
100
AcDbEntity
  8
0
100
AcDbCircle
 62
7
  6
CONTINUOUS
 10
88.2462045002
 20
81.9511129883
 40
1.0
100
AcDbArc
 50
180.0
 51
270.0
  0
ARC
  5
2FD
100
AcDbEntity
  8
0
100
AcDbCircle
 62
7
  6
CONTINUOUS
 10
89.8462045002
 20
81.9511129883
 40
1.0
100
AcDbArc
 50
270.0
 51
360.0
  0
ARC
  5
2FE
100
AcDbEntity
  8
0
100
AcDbCircle
 62
7
  6
CONTINUOUS
 10
89.8462045002
 20
88.1111129883
 40
1.0
100
AcDbArc
 50
0.0
 51
90.0
  0
ARC
  5
2FF
100
AcDbEntity
  8
0
100
AcDbCircle
 62
7
  6
CONTINUOUS
 10
89.0116637446
 20
59.588574243
 40
1.0
100
AcDbArc
 50
314.0000000001
 51
358.0
  0
ARC
  5
300
100
AcDbEntity
  8
0
100
AcDbCircle
 62
7
  6
CONTINUOUS
 10
87.5231290405
 20
58.1511129883
 40
1.0
100
AcDbArc
 50
270.0
 51
314.0
  0
ARC
  5
301
100
AcDbEntity
  8
0
100
AcDbCircle
 62
7
  6
CONTINUOUS
 10
93.6295378336
 20
97.0511129883
 40
1.0
100
AcDbArc
 50
22.6198649528
 51
90.0
  0
ARC
  5
302
100
AcDbEntity
  8
0
100
AcDbCircle
 62
7
  6
CONTINUOUS
 10
80.6462045002
 20
79.9511129883
 40
0.5
100
AcDbArc
 50
180.0
 51
270.0
  0
ARC
  5
303
100
AcDbEntity
  8
0
100
AcDbCircle
 62
7
  6
CONTINUOUS
 10
84.4462045002
 20
79.9511129883
 40
0.5
100
AcDbArc
 50
270.0
 51
360.0
  0
ARC
  5
304
100
AcDbEntity
  8
0
100
AcDbCircle
 62
7
  6
CONTINUOUS
 10
84.4462045002
 20
81.4511129883
 40
0.5
100
AcDbArc
 50
0.0
 51
90.0
  0
ARC
  5
305
100
AcDbEntity
  8
0
100
AcDbCircle
 62
7
  6
CONTINUOUS
 10
80.6462045002
 20
81.4511129883
 40
0.5
100
AcDbArc
 50
90.0
 51
180.0
  0
ARC
  5
306
100
AcDbEntity
  8
0
100
AcDbCircle
 62
7
  6
CONTINUOUS
 10
89.0633601128
 20
71.6511129883
 40
0.5
100
AcDbArc
 50
270.0
 51
358.0
  0
ARC
  5
307
100
AcDbEntity
  8
0
100
AcDbCircle
 62
7
  6
CONTINUOUS
 10
89.0290488876
 20
71.6511129883
 40
0.5
100
AcDbArc
 50
182.0
 51
270.0
  0
ARC
  5
308
100
AcDbEntity
  8
0
100
AcDbCircle
 62
7
  6
CONTINUOUS
 10
95.0290488876
 20
71.6511129883
 40
0.5
100
AcDbArc
 50
182.0
 51
270.0
  0
ARC
  5
309
100
AcDbEntity
  8
0
100
AcDbCircle
 62
7
  6
CONTINUOUS
 10
95.0633601128
 20
71.6511129883
 40
0.5
100
AcDbArc
 50
270.0
 51
358.0
  0
SPLINE
  5
30A
100
AcDbEntity
  8
0
100
AcDbSpline
 62
7
  6
CONTINUOUS
 70
0
 71
3
 72
11
 73
7
 74
0
 42
0.0000001
 43
0.0000001
 44
0.0000000001
 40
0.0
 40
0.0
 40
0.0
 40
0.0
 40
0.1760732714
 40
0.4152871894
 40
0.6973151241
 40
1.0
 40
1.0
 40
1.0
 40
1.0
 10
95.5898015041
 20
94.946480179
 30
0.0
 10
95.6138228295
 20
94.888828998
 30
0.0
 10
95.663288865
 20
94.7499707905
 30
0.0
 10
95.7450098531
 20
94.5165656068
 30
0.0
 10
95.8467288668
 20
94.2425348515
 30
0.0
 10
95.9240867823
 20
94.0500594659
 30
0.0
 10
95.9657652722
 20
93.9511129883
 30
0.0
  0
SPLINE
  5
30B
100
AcDbEntity
  8
0
100
AcDbSpline
 62
7
  6
CONTINUOUS
 70
0
 71
3
 72
9
 73
5
 74
0
 42
0.0000001
 43
0.0000001
 44
0.0000000001
 40
0.0
 40
0.0
 40
0.0
 40
0.0
 40
0.5269375763
 40
1.0
 40
1.0
 40
1.0
 40
1.0
 10
99.0947668293
 20
82.0511129883
 30
0.0
 10
99.0990083666
 20
81.9352734041
 30
0.0
 10
99.1089025446
 20
81.7155110371
 30
0.0
 10
99.1200401406
 20
81.4958002099
 30
0.0
 10
99.1236719778
 20
81.3917980001
 30
0.0
  0
SPLINE
  5
30C
100
AcDbEntity
  8
0
100
AcDbSpline
 62
7
  6
CONTINUOUS
 70
0
 71
3
 72
9
 73
5
 74
0
 42
0.0000001
 43
0.0000001
 44
0.0000000001
 40
0.0
 40
0.0
 40
0.0
 40
0.0
 40
0.237132237
 40
1.0
 40
1.0
 40
1.0
 40
1.0
 10
93.3349151132
 20
97.3661910698
 30
0.0
 10
93.2958962538
 20
97.3636104658
 30
0.0
 10
93.1313541388
 20
97.3526884017
 30
0.0
 10
92.9668225628
 20
97.3416079453
 30
0.0
 10
92.8413107221
 20
97.333096554
 30
0.0
  0
LINE
  5
30D
100
AcDbEntity
  8
0
100
AcDbLine
 62
7
  6
CONTINUOUS
 10
93.3926396991
 20
97.3700030389
 11
93.3349151132
 21
97.3661910698
  0
SPLINE
  5
30E
100
AcDbEntity
  8
0
100
AcDbSpline
 62
7
  6
CONTINUOUS
 70
0
 71
3
 72
10
 73
6
 74
0
 42
0.0000001
 43
0.0000001
 44
0.0000000001
 40
0.0
 40
0.0
 40
0.0
 40
0.0
 40
0.1469617498
 40
0.3657835927
 40
1.0
 40
1.0
 40
1.0
 40
1.0
 10
94.4667819133
 20
97.4348948741
 30
0.0
 10
94.4141110427
 20
97.4327173604
 30
0.0
 10
94.2830799605
 20
97.425806379
 30
0.0
 10
93.9249919082
 20
97.4048146806
 30
0.0
 10
93.6196440273
 20
97.3849574583
 30
0.0
 10
93.3926396991
 20
97.3700030389
 30
0.0
  0
SPLINE
  5
30F
100
AcDbEntity
  8
0
100
AcDbSpline
 62
7
  6
CONTINUOUS
 70
0
 71
3
 72
14
 73
10
 74
0
 42
0.0000001
 43
0.0000001
 44
0.0000000001
 40
0.0
 40
0.0
 40
0.0
 40
0.0
 40
0.0197087614
 40
0.0688281309
 40
0.1482072044
 40
0.2579899295
 40
0.3981456005
 40
0.5686074194
 40
1.0
 40
1.0
 40
1.0
 40
1.0
 10
94.5526147565
 20
97.4357283733
 30
0.0
 10
94.5523899707
 20
97.4362466111
 30
0.0
 10
94.5498906538
 20
97.4363177643
 30
0.0
 10
94.5461274977
 20
97.4368651045
 30
0.0
 10
94.5390392923
 20
97.4368718464
 30
0.0
 10
94.5297124233
 20
97.4369007957
 30
0.0
 10
94.5176215266
 20
97.4366602313
 30
0.0
 10
94.4963830845
 20
97.4360765531
 30
0.0
 10
94.4791358474
 20
97.4354056092
 30
0.0
 10
94.4667819133
 20
97.4348948741
 30
0.0
  0
SPLINE
  5
310
100
AcDbEntity
  8
0
100
AcDbSpline
 62
7
  6
CONTINUOUS
 70
0
 71
3
 72
20
 73
16
 74
0
 42
0.0000001
 43
0.0000001
 44
0.0000000001
 40
0.0
 40
0.0
 40
0.0
 40
0.0
 40
0.1867740368
 40
0.3667608911
 40
0.5336526478
 40
0.6818246206
 40
0.7472748728
 40
0.8062118096
 40
0.8581437962
 40
0.9026304478
 40
0.9393045707
 40
0.9678714699
 40
0.9881228645
 40
0.9951017443
 40
1.0
 40
1.0
 40
1.0
 40
1.0
 10
93.9650872771
 20
86.0202918065
 30
0.0
 10
94.2481206326
 20
86.1380787349
 30
0.0
 10
94.8045845181
 20
86.3677368292
 30
0.0
 10
95.6162866867
 20
86.6969528428
 30
0.0
 10
96.3713400421
 20
86.9972130889
 30
0.0
 10
96.953556523
 20
87.2232997064
 30
0.0
 10
97.3719502825
 20
87.3816921816
 30
0.0
 10
97.6432920026
 20
87.4823375286
 30
0.0
 10
97.8831046553
 20
87.569028891
 30
0.0
 10
98.0893529215
 20
87.6410256025
 30
0.0
 10
98.2602826561
 20
87.6978550523
 30
0.0
 10
98.3944386023
 20
87.7389291405
 30
0.0
 10
98.4830071154
 20
87.7626665913
 30
0.0
 10
98.5348066013
 20
87.7725025267
 30
0.0
 10
98.554265848
 20
87.7746420534
 30
0.0
 10
98.5623056099
 20
87.7746108684
 30
0.0
  0
SPLINE
  5
311
100
AcDbEntity
  8
0
100
AcDbSpline
 62
7
  6
CONTINUOUS
 70
0
 71
3
 72
20
 73
16
 74
0
 42
0.0000001
 43
0.0000001
 44
0.0000000001
 40
0.0
 40
0.0
 40
0.0
 40
0.0
 40
0.1860537615
 40
0.3656492649
 40
0.5324791231
 40
0.68081485
 40
0.7464062768
 40
0.8054980329
 40
0.8575931207
 40
0.9022324245
 40
0.9390423728
 40
0.9677256058
 40
0.9880583769
 40
0.9950713829
 40
1.0
 40
1.0
 40
1.0
 40
1.0
 10
93.9650872774
 20
86.0202918066
 30
0.0
 10
94.2741266042
 20
86.0310705535
 30
0.0
 10
94.881547845
 20
86.0503034309
 30
0.0
 10
95.7662750213
 20
86.0724468023
 30
0.0
 10
96.5884633999
 20
86.086953978
 30
0.0
 10
97.2212811987
 20
86.0925818689
 30
0.0
 10
97.6750506474
 20
86.0924642147
 30
0.0
 10
97.9688557811
 20
86.0902591014
 30
0.0
 10
98.227815606
 20
86.0860009213
 30
0.0
 10
98.449681413
 20
86.0797206542
 30
0.0
 10
98.6325756381
 20
86.0716074414
 30
0.0
 10
98.7748478867
 20
86.0616353387
 30
0.0
 10
98.8675540732
 20
86.0515667963
 30
0.0
 10
98.9202429216
 20
86.0415624962
 30
0.0
 10
98.9394548116
 20
86.0362125071
 30
0.0
 10
98.9470221575
 20
86.0330762294
 30
0.0
  0
SPLINE
  5
312
100
AcDbEntity
  8
0
100
AcDbSpline
 62
7
  6
CONTINUOUS
 70
0
 71
3
 72
9
 73
5
 74
0
 42
0.0000001
 43
0.0000001
 44
0.0000000001
 40
0.0
 40
0.0
 40
0.0
 40
0.0
 40
0.238073274
 40
1.0
 40
1.0
 40
1.0
 40
1.0
 10
16.5756045002
 20
89.8972745816
 30
0.0
 10
16.5902175405
 20
89.8951045844
 30
0.0
 10
16.6516594011
 20
89.886404776
 30
0.0
 10
16.7133144056
 20
89.8792411031
 30
0.0
 10
16.7603529159
 20
89.8744663665
 30
0.0
  0
SPLINE
  5
313
100
AcDbEntity
  8
0
100
AcDbSpline
 62
7
  6
CONTINUOUS
 70
0
 71
3
 72
9
 73
5
 74
0
 42
0.0000001
 43
0.0000001
 44
0.0000000001
 40
0.0
 40
0.0
 40
0.0
 40
0.0
 40
0.2613694366
 40
1.0
 40
1.0
 40
1.0
 40
1.0
 10
16.760227236
 20
86.9534793568
 30
0.0
 10
16.7441023089
 20
86.9551165866
 30
0.0
 10
16.6824413144
 20
86.961695221
 30
0.0
 10
16.6209110508
 20
86.9695466806
 30
0.0
 10
16.5756045002
 20
86.9762745816
 30
0.0
  0
SPLINE
  5
314
100
AcDbEntity
  8
0
100
AcDbSpline
 62
7
  6
CONTINUOUS
 70
0
 71
3
 72
9
 73
5
 74
0
 42
0.0000001
 43
0.0000001
 44
0.0000000001
 40
0.0
 40
0.0
 40
0.0
 40
0.0
 40
0.4988435663
 40
1.0
 40
1.0
 40
1.0
 40
1.0
 10
89.121952674
 20
58.3049154144
 30
0.0
 10
89.0970536118
 20
58.3303692775
 30
0.0
 10
89.0482092123
 20
58.3824293273
 30
0.0
 10
88.9983009091
 20
58.4334622165
 30
0.0
 10
88.9734433803
 20
58.4591867136
 30
0.0
  0
SPLINE
  5
315
100
AcDbEntity
  8
0
100
AcDbSpline
 62
7
  6
CONTINUOUS
 70
0
 71
3
 72
9
 73
5
 74
0
 42
0.0000001
 43
0.0000001
 44
0.0000000001
 40
0.0
 40
0.0
 40
0.0
 40
0.0
 40
0.4988838787
 40
1.0
 40
1.0
 40
1.0
 40
1.0
 10
51.970471018
 20
58.3049012899
 30
0.0
 10
51.9953721395
 20
58.3303571746
 30
0.0
 10
52.0441920888
 20
58.3824406704
 30
0.0
 10
52.0941100855
 20
58.4334642802
 30
0.0
 10
52.1189656201
 20
58.4591867136
 30
0.0
  0
ELLIPSE
  5
316
100
AcDbEntity
  8
0
100
AcDbEllipse
 62
7
  6
CONTINUOUS
 10
94.3462045002
 20
74.9320249995
 30
0.0
 11
-5.0030440106
 21
143.2684354724
 31
0.0
 40
0.0348782627
 41
-1.5223033128
 42
-1.4944523382
  0
ELLIPSE
  5
317
100
AcDbEntity
  8
0
100
AcDbEllipse
 62
7
  6
CONTINUOUS
 10
98.5124911622
 20
74.9320249995
 30
0.0
 11
-59.6898477247
 21
143.2556345392
 31
0.0
 40
0.0322178226
 41
-1.4944591728
 42
-1.4510752578
  0
ELLIPSE
  5
318
100
AcDbEntity
  8
0
100
AcDbEllipse
 62
7
  6
CONTINUOUS
 10
55.0462045002
 20
67.942364122
 30
0.0
 11
0.5
 21
0.0
 31
0.0
 40
0.0874886635
 41
-0.0
 42
0.2013579208
  0
ELLIPSE
  5
319
100
AcDbEntity
  8
0
100
AcDbEllipse
 62
7
  6
CONTINUOUS
 10
46.0462045002
 20
67.942364122
 30
0.0
 11
0.5
 21
0.0
 31
0.0
 40
0.0874886635
 41
2.9402347328
 42
3.1415926536
  0
ELLIPSE
  5
31A
100
AcDbEntity
  8
0
100
AcDbEllipse
 62
7
  6
CONTINUOUS
 10
55.0462045002
 20
66.9764743865
 30
0.0
 11
0.5
 21
0.0
 31
0.0
 40
0.9492772036
 41
-0.0
 42
1.5707963268
  0
ELLIPSE
  5
31B
100
AcDbEntity
  8
0
100
AcDbEllipse
 62
7
  6
CONTINUOUS
 10
46.0462045002
 20
66.9764743865
 30
0.0
 11
0.5
 21
0.0
 31
0.0
 40
0.9492772036
 41
1.5707963268
 42
3.1415926536
  0
ENDSEC
  0
SECTION
  2
OBJECTS
  0
DICTIONARY
  5
C
100
AcDbDictionary
280
0
281
1
  3
ACAD_GROUP
350
D
  3
ACAD_MLINESTYLE
350
17
  3
ACAD_LAYOUT
350
1A
  3
ACAD_PLOTSETTINGS
350
19
  3
ACAD_PLOTSTYLENAME
350
E
  0
DICTIONARY
  5
D
102
{ACAD_REACTORS
330
C
102
}
100
AcDbDictionary
280
0
281
1
  0
ACDBDICTIONARYWDFLT
  5
E
102
{ACAD_REACTORS
330
C
102
}
100
AcDbDictionary
281
1
  3
Normal
350
F
100
AcDbDictionaryWithDefault
340
F
  0
DICTIONARY
  5
17
102
{ACAD_REACTORS
330
C
102
}
100
AcDbDictionary
280
0
281
1
  3
Standard
350
18
  0
DICTIONARY
  5
19
102
{ACAD_REACTORS
330
C
102
}
100
AcDbDictionary
281
1
  0
DICTIONARY
  5
1A
102
{ACAD_REACTORS
330
C
102
}
100
AcDbDictionary
281
1
  3
Model
350
31C
  3
Layout1
350
31D
  0
ACDBPLACEHOLDER
  5
F
102
{ACAD_REACTORS
330
E
102
}
  0
MLINESTYLE
  5
18
102
{ACAD_REACTORS
330
17
102
}
100
AcDbMlineStyle
  2
STANDARD
 70
0
  3

 62
256
 51
90.0
 52
90.0
 71
2
 49
0.5
 62
256
  6
BYLAYER
 49
-0.5
 62
256
  6
BYLAYER
  0
LAYOUT
  5
31C
102
{ACAD_REACTORS
330
1A
102
}
100
AcDbPlotSettings
  1

  2
none_device
  4

  6

 40
0.0
 41
0.0
 42
0.0
 43
0.0
 44
210.0
 45
297.0
 46
0.0
 47
0.0
 48
0.0
 49
0.0
140
0.0
141
0.0
142
1.0
143
1.0
 70
1024
 72
1
 73
0
 74
0
  7

 75
0
147
1.0
148
0.0
149
0.0
100
AcDbLayout
  1
Model
 70
0
 71
0
 10
0.0
 20
0.0
 11
210.0
 21
297.0
 12
0.0
 22
0.0
 32
0.0
 14
0.0
 24
0.0
 34
0.0
 15
0.0
 25
0.0
 35
0.0
146
0.0
 13
0.0
 23
0.0
 33
0.0
 16
1.0
 26
0.0
 36
0.0
 17
0.0
 27
1.0
 37
0.0
 76
0
330
210
345
0
346
0
  0
LAYOUT
  5
31D
102
{ACAD_REACTORS
330
1A
102
}
100
AcDbPlotSettings
  1

  2
none_device
  4

  6

 40
0.0
 41
0.0
 42
0.0
 43
0.0
 44
210.0
 45
297.0
 46
0.0
 47
0.0
 48
0.0
 49
0.0
140
0.0
141
0.0
142
1.0
143
1.0
 70
0
 72
1
 73
0
 74
0
  7

 75
0
147
1.0
148
0.0
149
0.0
100
AcDbLayout
  1
Layout1
 70
0
 71
1
 10
0.0
 20
0.0
 11
210.0
 21
297.0
 12
0.0
 22
0.0
 32
0.0
 14
0.0
 24
0.0
 34
0.0
 15
0.0
 25
0.0
 35
0.0
146
0.0
 13
0.0
 23
0.0
 33
0.0
 16
1.0
 26
0.0
 36
0.0
 17
0.0
 27
1.0
 37
0.0
 76
0
330
211
345
0
346
0
  0
ENDSEC
  0
EOF
