999
DXF file: C:\Users\sesa63760\Dev\_Creo\CAD\MCADUE0002048_3D-CAD\drw0001_1.dxf
999
Pro/ENGINEER 2019471 by Parametric Technology Corporation
  0
SECTION
  2
HEADER
  9
$ACADVER
  1
AC1024
  9
$DWGCODEPAGE
  3
ANSI_1252
  9
$EXTMAX
 10
402.2488986277
 20
568.8948709163
 30
0.0
  9
$EXTMIN
 10
0.0
 20
0.0
 30
0.0
  9
$LIMMIN
 10
0.0
 20
0.0
  9
$LIMMAX
 10
402.2488986277
 20
568.8948709163
  9
$VIEWCTR
 10
201.1244493139
 20
284.4474354582
  9
$VIEWSIZE
 40
568.8948709163
  9
$CLAYER
  8
0
  9
$LTSCALE
 40
37.0835175116
  9
$CELTYPE
  6
BYLAYER
  9
$DIMSCALE
 40
1.0
  9
$DIMASZ
 40
4.7886773646
  9
$DIMEXO
 40
1.0
  9
$DIMDLI
 40
25.6213393716
  9
$DIMEXE
 40
1.0
  9
$DIMCEN
 40
6.0682119564
  9
$DIMLFAC
 40
1.0
  9
$DIMBLK
  1
_FILLED
  9
$DIMALT
 70
0
  9
$DIMALTF
 40
0.0393700787
  9
$DIMTXT
 40
6.7041483105
  9
$DIMTOL
 70
1
  9
$DIMLIM
 70
0
  9
$DIMTFAC
 40
1.0
  9
$DIMTP
 40
0.01
  9
$DIMTM
 40
0.01
  9
$DIMGAP
 40
0.625
  9
$DIMDSEP
 70
46
  9
$AUNITS
 70
0
  9
$PDMODE
 70
3
  9
$PDSIZE
 40
0.3125
  9
$HANDSEED
  5
282
  9
$TILEMODE
 70
1
  9
$MEASUREMENT
 70
1
  9
$INSUNITS
 70
4
  0
ENDSEC
  0
SECTION
  2
CLASSES
  0
CLASS
  1
ACDBDICTIONARYWDFLT
  2
AcDbDictionaryWithDefault
  3
AutoCAD 2000
 90
0
 91
1
280
0
281
0
  0
CLASS
  1
ACDBPLACEHOLDER
  2
AcDbPlaceHolder
  3
AutoCAD 2000
 90
0
 91
1
280
0
281
0
  0
CLASS
  1
LAYOUT
  2
AcDbLayout
  3
AutoCAD 2000
 90
0
 91
0
280
0
281
0
  0
ENDSEC
  0
SECTION
  2
TABLES
  0
TABLE
  2
VPORT
  5
8
100
AcDbSymbolTable
 70
2
  0
VPORT
  5
1F4
100
AcDbSymbolTableRecord
100
AcDbViewportTableRecord
  2
*ACTIVE
 70
0
 10
0.0
 20
0.0
 11
1.0
 21
1.0
 12
201.1244493139
 22
284.4474354582
 13
0.0
 23
0.0
 14
1.0
 24
1.0
 15
0.0
 25
0.0
 16
0.0
 26
0.0
 36
1.0
 17
0.0
 27
0.0
 37
0.0
 40
568.8948709163
 41
0.7070707071
 42
50.0
 43
0.0
 44
0.0
 50
0.0
 51
0.0
 71
0
 72
100
 73
1
 74
1
 75
0
 76
0
 77
0
 78
0
  0
ENDTAB
  0
TABLE
  2
LTYPE
  5
5
100
AcDbSymbolTable
 70
6
  0
LTYPE
  5
14
100
AcDbSymbolTableRecord
100
AcDbLinetypeTableRecord
  2
BYBLOCK
 70
0
  3

 72
65
 73
0
 40
0.0
  0
LTYPE
  5
15
100
AcDbSymbolTableRecord
100
AcDbLinetypeTableRecord
  2
BYLAYER
 70
0
  3

 72
65
 73
0
 40
0.0
  0
LTYPE
  5
16
100
AcDbSymbolTableRecord
100
AcDbLinetypeTableRecord
  2
CONTINUOUS
 70
64
  3
Solid line
 72
65
 73
0
 40
0.0
  0
LTYPE
  5
1F5
100
AcDbSymbolTableRecord
100
AcDbLinetypeTableRecord
  2
CENTER
 70
64
  3
____ _ ____ _ ____ _ ____ _ ____ _ ____ _ ____
 72
65
 73
4
 40
0.6
 49
0.375
 74
0
 49
-0.075
 74
0
 49
0.075
 74
0
 49
-0.075
 74
0
  0
LTYPE
  5
1F6
100
AcDbSymbolTableRecord
100
AcDbLinetypeTableRecord
  2
HIDDEN
 70
64
  3
- - - - - - - - - - - - - - - - - - - -
 72
65
 73
2
 40
0.2
 49
0.1
 74
0
 49
-0.1
 74
0
  0
LTYPE
  5
1F7
100
AcDbSymbolTableRecord
100
AcDbLinetypeTableRecord
  2
PHANTOM
 70
64
  3
_____ _ _ _____ _ _ _____ _ _ _____
 72
65
 73
6
 40
0.8
 49
0.45
 74
0
 49
-0.05
 74
0
 49
0.1
 74
0
 49
-0.05
 74
0
 49
0.1
 74
0
 49
-0.05
 74
0
  0
LTYPE
  5
1F8
100
AcDbSymbolTableRecord
100
AcDbLinetypeTableRecord
  2
DOT
 70
64
  3
. . . . . . . . . . . . . . . . . . . .
 72
65
 73
2
 40
0.2
 49
0.1
 74
0
 49
-0.1
 74
0
  0
LTYPE
  5
1F9
100
AcDbSymbolTableRecord
100
AcDbLinetypeTableRecord
  2
DASHED
 70
64
  3
- - - - - - - - - - - - - - - - - - - -
 72
65
 73
2
 40
0.2
 49
0.1
 74
0
 49
-0.1
 74
0
  0
ENDTAB
  0
TABLE
  2
LAYER
  5
2
100
AcDbSymbolTable
 70
36
  0
LAYER
  5
10
100
AcDbSymbolTableRecord
100
AcDbLayerTableRecord
  2
0
 70
0
 62
7
  6
CONTINUOUS
370
-3
390
F
  0
LAYER
  5
1FA
100
AcDbSymbolTableRecord
100
AcDbLayerTableRecord
  2
DEFAULT_1
 70
0
 62
7
  6
CENTER
370
-3
390
F
  0
LAYER
  5
1FB
100
AcDbSymbolTableRecord
100
AcDbLayerTableRecord
  2
DEFAULT_2
 70
0
 62
8
  6
HIDDEN
370
-3
390
F
  0
LAYER
  5
1FC
100
AcDbSymbolTableRecord
100
AcDbLayerTableRecord
  2
DEFAULT_3
 70
0
 62
7
  6
PHANTOM
370
-3
390
F
  0
LAYER
  5
1FD
100
AcDbSymbolTableRecord
100
AcDbLayerTableRecord
  2
00_COMPONENTS
 70
0
 62
7
  6
CONTINUOUS
370
-3
390
F
  0
LAYER
  5
1FE
100
AcDbSymbolTableRecord
100
AcDbLayerTableRecord
  2
01_1_DEFAULT_DATUMS
 70
0
 62
7
  6
CONTINUOUS
370
-3
390
F
  0
LAYER
  5
1FF
100
AcDbSymbolTableRecord
100
AcDbLayerTableRecord
  2
01_PLANES
 70
0
 62
7
  6
CONTINUOUS
370
-3
390
F
  0
LAYER
  5
200
100
AcDbSymbolTableRecord
100
AcDbLayerTableRecord
  2
02_COORD_SYS
 70
0
 62
7
  6
CONTINUOUS
370
-3
390
F
  0
LAYER
  5
201
100
AcDbSymbolTableRecord
100
AcDbLayerTableRecord
  2
03_AXES
 70
0
 62
7
  6
CONTINUOUS
370
-3
390
F
  0
LAYER
  5
202
100
AcDbSymbolTableRecord
100
AcDbLayerTableRecord
  2
04_POINTS
 70
0
 62
7
  6
CONTINUOUS
370
-3
390
F
  0
LAYER
  5
203
100
AcDbSymbolTableRecord
100
AcDbLayerTableRecord
  2
05_CURVES
 70
0
 62
7
  6
CONTINUOUS
370
-3
390
F
  0
LAYER
  5
204
100
AcDbSymbolTableRecord
100
AcDbLayerTableRecord
  2
06_SURFS
 70
0
 62
7
  6
CONTINUOUS
370
-3
390
F
  0
LAYER
  5
205
100
AcDbSymbolTableRecord
100
AcDbLayerTableRecord
  2
07_COSMETICS
 70
0
 62
7
  6
CONTINUOUS
370
-3
390
F
  0
LAYER
  5
206
100
AcDbSymbolTableRecord
100
AcDbLayerTableRecord
  2
10_NOTES
 70
0
 62
7
  6
CONTINUOUS
370
-3
390
F
  0
LAYER
  5
207
100
AcDbSymbolTableRecord
100
AcDbLayerTableRecord
  2
11_NOTES_PUB
 70
0
 62
7
  6
CONTINUOUS
370
-3
390
F
  0
LAYER
  5
208
100
AcDbSymbolTableRecord
100
AcDbLayerTableRecord
  2
13_REF_GTOL
 70
0
 62
7
  6
CONTINUOUS
370
-3
390
F
  0
LAYER
  5
209
100
AcDbSymbolTableRecord
100
AcDbLayerTableRecord
  2
16_MISC
 70
0
 62
7
  6
CONTINUOUS
370
-3
390
F
  0
LAYER
  5
20A
100
AcDbSymbolTableRecord
100
AcDbLayerTableRecord
  2
17_NO_PRINT
 70
0
 62
7
  6
CONTINUOUS
370
-3
390
F
  0
LAYER
  5
20B
100
AcDbSymbolTableRecord
100
AcDbLayerTableRecord
  2
18_DATUM_CAMS_JOINTS
 70
0
 62
7
  6
CONTINUOUS
370
-3
390
F
  0
LAYER
  5
20C
100
AcDbSymbolTableRecord
100
AcDbLayerTableRecord
  2
19_DATUM_FUNCTIONAL
 70
0
 62
7
  6
CONTINUOUS
370
-3
390
F
  0
LAYER
  5
20D
100
AcDbSymbolTableRecord
100
AcDbLayerTableRecord
  2
20_DATUM_KINEMATIC_SCHEME
 70
0
 62
7
  6
CONTINUOUS
370
-3
390
F
  0
ENDTAB
  0
TABLE
  2
STYLE
  5
3
100
AcDbSymbolTable
 70
1
  0
STYLE
  5
11
100
AcDbSymbolTableRecord
100
AcDbTextStyleTableRecord
  2
STANDARD
 70
0
 40
0.0
 41
0.8
 50
0.0
 71
0
 42
0.2
  3
txt
  4

  0
STYLE
  5
20E
100
AcDbSymbolTableRecord
100
AcDbTextStyleTableRecord
  2
TEXTSTYLE_1
 70
0
 40
0.0
 41
0.8
 50
0.0
 71
0
 42
0.2
  3
gdt
  4

  0
ENDTAB
  0
TABLE
  2
VIEW
  5
6
100
AcDbSymbolTable
 70
0
  0
ENDTAB
  0
TABLE
  2
UCS
  5
7
100
AcDbSymbolTable
 70
0
  0
ENDTAB
  0
TABLE
  2
APPID
  5
9
100
AcDbSymbolTable
 70
1
  0
APPID
  5
20F
100
AcDbSymbolTableRecord
100
AcDbRegAppTableRecord
  2
ACAD
 70
0
  0
ENDTAB
  0
TABLE
  2
BLOCK_RECORD
  5
1
100
AcDbSymbolTable
 70
0
  0
BLOCK_RECORD
  5
210
100
AcDbSymbolTableRecord
100
AcDbBlockTableRecord
  2
*Model_Space
  0
BLOCK_RECORD
  5
211
100
AcDbSymbolTableRecord
100
AcDbBlockTableRecord
  2
*Paper_Space
  0
BLOCK_RECORD
  5
212
100
AcDbSymbolTableRecord
100
AcDbBlockTableRecord
  2
_FILLED
  0
ENDTAB
  0
TABLE
  2
DIMSTYLE
  5
A
100
AcDbSymbolTable
 70
1
100
AcDbDimStyleTable
 71
0
  0
DIMSTYLE
105
213
100
AcDbSymbolTableRecord
100
AcDbDimStyleTableRecord
  2
STANDARD
 70
0
  3

  4

 40
1.0
 41
4.7886773646
 42
1.0
 43
0.38
 44
1.0
 45
0.0
 46
0.0
 47
0.01
 48
0.01
140
6.7041483105
141
0.09
142
0.0
143
25.4
144
1.0
145
0.0
146
1.0
147
0.625
 71
1
 72
0
 73
0
 74
0
 75
0
 76
0
 77
1
 78
8
 79
2
170
0
171
1
172
0
173
0
174
0
175
0
176
0
177
0
178
0
270
2
179
2
271
2
272
2
273
2
274
2
275
0
280
0
281
0
282
0
283
1
284
8
285
0
286
0
287
3
288
0
340
11
278
46
341
212
342
212
343
212
344
212
  0
ENDTAB
  0
ENDSEC
  0
SECTION
  2
BLOCKS
  0
BLOCK
  5
20
100
AcDbEntity
  8
0
100
AcDbBlockBegin
  2
*Model_Space
 70
0
 10
0.0
 20
0.0
 30
0.0
  3
*Model_Space
  1

  0
ENDBLK
  5
21
100
AcDbEntity
  8
0
100
AcDbBlockEnd
  0
BLOCK
  5
1C
100
AcDbEntity
  8
0
100
AcDbBlockBegin
  2
*Paper_Space
 70
0
 10
0.0
 20
0.0
 30
0.0
  3
*Paper_Space
  1

  0
ENDBLK
  5
1D
100
AcDbEntity
  8
0
100
AcDbBlockEnd
  0
BLOCK
  5
214
100
AcDbEntity
  8
0
100
AcDbBlockBegin
  2
_FILLED
 70
64
 10
0.0
 20
0.0
  3
_FILLED
  1

  0
SOLID
  5
215
100
AcDbEntity
  8
0
  6
BYBLOCK
 62
0
100
AcDbTrace
 10
0.0
 20
0.0
 11
-1.0
 21
0.25
 12
-1.0
 22
-0.25
 13
-1.0
 23
-0.25
  0
ENDBLK
  5
216
100
AcDbEntity
  8
0
  6
BYBLOCK
 62
0
100
AcDbBlockEnd
  0
ENDSEC
  0
SECTION
  2
ENTITIES
  0
LINE
  5
217
100
AcDbEntity
  8
0
100
AcDbLine
 62
7
  6
CONTINUOUS
 10
53.9879042938
 20
318.2088974599
 11
53.9879042938
 21
319.4336510856
  0
LINE
  5
218
100
AcDbEntity
  8
0
100
AcDbLine
 62
7
  6
CONTINUOUS
 10
53.9877570954
 20
339.8457737954
 11
110.5560640725
 21
372.5053061051
  0
LINE
  5
219
100
AcDbEntity
  8
0
100
AcDbLine
 62
7
  6
CONTINUOUS
 10
262.5852732121
 20
197.7778748764
 11
53.9879042938
 21
318.2088974599
  0
LINE
  5
21A
100
AcDbEntity
  8
0
100
AcDbLine
 62
7
  6
CONTINUOUS
 10
262.5852732121
 20
199.0026285021
 11
53.9879042938
 21
319.4336510856
  0
LINE
  5
21B
100
AcDbEntity
  8
0
100
AcDbLine
 62
7
  6
CONTINUOUS
 10
145.9114031316
 20
372.5053910889
 11
354.5087720499
 21
252.0743685054
  0
LINE
  5
21C
100
AcDbEntity
  8
0
100
AcDbLine
 62
7
  6
CONTINUOUS
 10
262.5852732121
 20
199.0026285021
 11
262.5852732121
 21
197.7778748764
  0
LINE
  5
21D
100
AcDbEntity
  8
0
100
AcDbLine
 62
7
  6
CONTINUOUS
 10
297.9406122711
 20
197.7779598602
 11
297.9406122711
 21
199.0027134859
  0
LINE
  5
21E
100
AcDbEntity
  8
0
100
AcDbLine
 62
7
  6
CONTINUOUS
 10
354.5089192483
 20
231.6622457956
 11
297.9406122711
 21
199.0027134859
  0
LINE
  5
21F
100
AcDbEntity
  8
0
100
AcDbLine
 62
7
  6
CONTINUOUS
 10
354.5089192483
 20
230.4374921699
 11
297.9406122711
 21
197.7779598602
  0
LINE
  5
220
100
AcDbEntity
  8
0
100
AcDbLine
 62
7
  6
CONTINUOUS
 10
354.5089192483
 20
231.6622457956
 11
354.5089192483
 21
230.4374921699
  0
ARC
  5
221
100
AcDbEntity
  8
0
100
AcDbCircle
 62
7
  6
CONTINUOUS
 10
274.4851888164
 20
219.6165099776
 40
23.8021028666
100
AcDbArc
 50
240.0031570593
 51
240.9643696329
  0
ARC
  5
222
100
AcDbEntity
  8
0
100
AcDbCircle
 62
7
  6
CONTINUOUS
 10
286.0406833037
 20
219.6162749665
 40
23.8018324157
100
AcDbArc
 50
299.0360035223
 51
299.9972559089
  0
ARC
  5
223
100
AcDbEntity
  8
0
100
AcDbCircle
 62
7
  6
CONTINUOUS
 10
65.3530536872
 20
337.9029840403
 40
22.738154432
100
AcDbArc
 50
237.8165964973
 51
240.0114278268
  0
ARC
  5
224
100
AcDbEntity
  8
0
100
AcDbCircle
 62
7
  6
CONTINUOUS
 10
343.1437702152
 20
250.1312503568
 40
22.7378698225
100
AcDbArc
 50
299.9889849933
 51
302.1838453194
  0
ARC
  5
225
100
AcDbEntity
  8
0
100
AcDbCircle
 62
7
  6
CONTINUOUS
 10
353.4425773498
 20
241.8709200149
 40
8.3885565099
100
AcDbArc
 50
352.3878842342
 51
359.9818633027
  0
ARC
  5
226
100
AcDbEntity
  8
0
100
AcDbCircle
 62
7
  6
CONTINUOUS
 10
55.0540858107
 20
329.642409257
 40
8.3885433264
100
AcDbArc
 50
180.0181296794
 51
187.6120392678
  0
ARC
  5
227
100
AcDbEntity
  8
0
100
AcDbCircle
 62
7
  6
CONTINUOUS
 10
161.9078318756
 20
356.8038956894
 40
2.0603277892
100
AcDbArc
 50
48.7811282178
 51
50.2684992641
  0
ARC
  5
228
100
AcDbEntity
  8
0
100
AcDbCircle
 62
7
  6
CONTINUOUS
 10
248.8830169566
 20
211.0615486013
 40
2.0603277895
100
AcDbArc
 50
48.7811282179
 51
50.2684992639
  0
ARC
  5
229
100
AcDbEntity
  8
0
100
AcDbCircle
 62
7
  6
CONTINUOUS
 10
79.1766829222
 20
309.0393296872
 40
2.0603277882
100
AcDbArc
 50
48.7811282175
 51
50.2684992644
  0
ARC
  5
22A
100
AcDbEntity
  8
0
100
AcDbCircle
 62
7
  6
CONTINUOUS
 10
88.0152100424
 20
351.7006873965
 40
2.0603277883
100
AcDbArc
 50
48.7811282174
 51
50.2684992643
  0
ARC
  5
22B
100
AcDbEntity
  8
0
100
AcDbCircle
 62
7
  6
CONTINUOUS
 10
322.7756387912
 20
216.1647568958
 40
2.0603277883
100
AcDbArc
 50
48.7811282175
 51
50.2684992644
  0
ARC
  5
22C
100
AcDbEntity
  8
0
100
AcDbCircle
 62
7
  6
CONTINUOUS
 10
246.7609988935
 20
307.8150051473
 40
2.0603277887
100
AcDbArc
 50
48.7811282176
 51
50.2684992642
  0
ARC
  5
22D
100
AcDbEntity
  8
0
100
AcDbCircle
 62
7
  6
CONTINUOUS
 10
164.0298499395
 20
260.0504391443
 40
2.0603277887
100
AcDbArc
 50
48.7811282176
 51
50.2684992642
  0
ARC
  5
22E
100
AcDbEntity
  8
0
100
AcDbCircle
 62
7
  6
CONTINUOUS
 10
331.6141659115
 20
258.8261146054
 40
2.0603277881
100
AcDbArc
 50
48.7811282174
 51
50.2684992644
  0
SPLINE
  5
22F
100
AcDbEntity
  8
0
100
AcDbSpline
 62
7
  6
CONTINUOUS
 70
0
 71
3
 72
11
 73
7
 74
0
 42
0.0000001
 43
0.0000001
 44
0.0000000001
 40
0.0
 40
0.0
 40
0.0
 40
0.0
 40
0.2898017708
 40
0.5490515988
 40
0.7822294074
 40
1.0
 40
1.0
 40
1.0
 40
1.0
 10
53.9877570954
 20
339.8457737954
 30
0.0
 10
52.8904067145
 20
339.2122220394
 30
0.0
 10
50.8998897258
 20
337.8420413442
 30
0.0
 10
48.5221335725
 20
335.3415335638
 30
0.0
 10
47.0169822898
 20
332.5769392691
 30
0.0
 10
46.6655429684
 20
330.5919199842
 30
0.0
 10
46.6655429043
 20
329.6397549324
 30
0.0
  0
SPLINE
  5
230
100
AcDbEntity
  8
0
100
AcDbSpline
 62
7
  6
CONTINUOUS
 70
0
 71
3
 72
13
 73
9
 74
0
 42
0.0000001
 43
0.0000001
 44
0.0000000001
 40
0.0
 40
0.0
 40
0.0
 40
0.0
 40
0.1142569126
 40
0.2375387748
 40
0.5000005406
 40
0.7624620106
 40
0.8857435248
 40
1.0
 40
1.0
 40
1.0
 40
1.0
 10
145.9114031316
 20
372.5053910889
 30
0.0
 10
144.7012188681
 20
373.2040754928
 30
0.0
 10
142.0548174698
 20
374.4366059232
 30
0.0
 10
136.1894735083
 20
376.2176752304
 30
0.0
 10
128.2337053549
 20
377.0833278025
 30
0.0
 10
120.277945061
 20
376.2176382394
 30
0.0
 10
114.4126235268
 20
374.4365401221
 30
0.0
 10
111.7662386647
 20
373.203996561
 30
0.0
 10
110.5560640725
 20
372.5053061051
 30
0.0
  0
SPLINE
  5
231
100
AcDbEntity
  8
0
100
AcDbSpline
 62
7
  6
CONTINUOUS
 70
0
 71
3
 72
13
 73
9
 74
0
 42
0.0000001
 43
0.0000001
 44
0.0000000001
 40
0.0
 40
0.0
 40
0.0
 40
0.0
 40
0.2699040481
 40
0.5613092475
 40
0.6954524627
 40
0.8131377821
 40
0.9128550148
 40
1.0
 40
1.0
 40
1.0
 40
1.0
 10
249.8572598879
 20
211.658113988
 30
0.0
 10
249.3931464712
 20
211.3901595814
 30
0.0
 10
248.2837598128
 20
211.0898777857
 30
0.0
 10
246.8810716815
 20
211.1610146277
 30
0.0
 10
245.8510322589
 20
211.5040938237
 30
0.0
 10
245.2486203188
 20
211.8712692621
 30
0.0
 10
244.8403396326
 20
212.3353468749
 30
0.0
 10
244.7361905231
 20
212.7098046601
 30
0.0
 10
244.7360595122
 20
212.8828363786
 30
0.0
  0
SPLINE
  5
232
100
AcDbEntity
  8
0
100
AcDbSpline
 62
7
  6
CONTINUOUS
 70
0
 71
3
 72
13
 73
9
 74
0
 42
0.0000001
 43
0.0000001
 44
0.0000000001
 40
0.0
 40
0.0
 40
0.0
 40
0.0
 40
0.2699040481
 40
0.5613092475
 40
0.6954524627
 40
0.8131377821
 40
0.9128550148
 40
1.0
 40
1.0
 40
1.0
 40
1.0
 10
332.5884088419
 20
259.422679991
 30
0.0
 10
332.1242954252
 20
259.1547255844
 30
0.0
 10
331.0149087668
 20
258.8544437886
 30
0.0
 10
329.6122206356
 20
258.9255806307
 30
0.0
 10
328.582181213
 20
259.2686598267
 30
0.0
 10
327.9797692728
 20
259.6358352651
 30
0.0
 10
327.5714885867
 20
260.0999128779
 30
0.0
 10
327.4673394771
 20
260.4743706631
 30
0.0
 10
327.4672084663
 20
260.6474023816
 30
0.0
  0
SPLINE
  5
233
100
AcDbEntity
  8
0
100
AcDbSpline
 62
7
  6
CONTINUOUS
 70
0
 71
3
 72
13
 73
9
 74
0
 42
0.0000001
 43
0.0000001
 44
0.0000000001
 40
0.0
 40
0.0
 40
0.0
 40
0.0
 40
0.2699040481
 40
0.5613092475
 40
0.6954524627
 40
0.8131377821
 40
0.9128550148
 40
1.0
 40
1.0
 40
1.0
 40
1.0
 10
247.7352418243
 20
308.4115705334
 30
0.0
 10
247.2711284075
 20
308.1436161268
 30
0.0
 10
246.1617417492
 20
307.8433343311
 30
0.0
 10
244.7590536179
 20
307.9144711731
 30
0.0
 10
243.7290141953
 20
308.2575503691
 30
0.0
 10
243.1266022551
 20
308.6247258075
 30
0.0
 10
242.718321569
 20
309.0888034203
 30
0.0
 10
242.6141724595
 20
309.4632612055
 30
0.0
 10
242.6140414486
 20
309.636292924
 30
0.0
  0
SPLINE
  5
234
100
AcDbEntity
  8
0
100
AcDbSpline
 62
7
  6
CONTINUOUS
 70
0
 71
3
 72
13
 73
9
 74
0
 42
0.0000001
 43
0.0000001
 44
0.0000000001
 40
0.0
 40
0.0
 40
0.0
 40
0.0
 40
0.2699040481
 40
0.5613092475
 40
0.6954524627
 40
0.8131377821
 40
0.9128550148
 40
1.0
 40
1.0
 40
1.0
 40
1.0
 10
165.0040928703
 20
260.6470045305
 30
0.0
 10
164.5399794535
 20
260.3790501238
 30
0.0
 10
163.4305927952
 20
260.0787683281
 30
0.0
 10
162.0279046639
 20
260.1499051701
 30
0.0
 10
160.9978652413
 20
260.4929843662
 30
0.0
 10
160.3954533011
 20
260.8601598046
 30
0.0
 10
159.987172615
 20
261.3242374173
 30
0.0
 10
159.8830235055
 20
261.6986952026
 30
0.0
 10
159.8828924946
 20
261.8717269211
 30
0.0
  0
SPLINE
  5
235
100
AcDbEntity
  8
0
100
AcDbSpline
 62
7
  6
CONTINUOUS
 70
0
 71
3
 72
13
 73
9
 74
0
 42
0.0000001
 43
0.0000001
 44
0.0000000001
 40
0.0
 40
0.0
 40
0.0
 40
0.0
 40
0.2699040481
 40
0.5613092475
 40
0.6954524627
 40
0.8131377821
 40
0.9128550148
 40
1.0
 40
1.0
 40
1.0
 40
1.0
 10
323.7498817217
 20
216.7613222816
 30
0.0
 10
323.2857683049
 20
216.4933678749
 30
0.0
 10
322.1763816466
 20
216.1930860792
 30
0.0
 10
320.7736935153
 20
216.2642229212
 30
0.0
 10
319.7436540927
 20
216.6073021173
 30
0.0
 10
319.1412421525
 20
216.9744775557
 30
0.0
 10
318.7329614664
 20
217.4385551685
 30
0.0
 10
318.6288123569
 20
217.8130129537
 30
0.0
 10
318.628681346
 20
217.9860446722
 30
0.0
  0
SPLINE
  5
236
100
AcDbEntity
  8
0
100
AcDbSpline
 62
7
  6
CONTINUOUS
 70
0
 71
3
 72
13
 73
9
 74
0
 42
0.0000001
 43
0.0000001
 44
0.0000000001
 40
0.0
 40
0.0
 40
0.0
 40
0.0
 40
0.2699040481
 40
0.5613092475
 40
0.6954524627
 40
0.8131377821
 40
0.9128550148
 40
1.0
 40
1.0
 40
1.0
 40
1.0
 10
88.9894529729
 20
352.2972527823
 30
0.0
 10
88.5253395561
 20
352.0292983757
 30
0.0
 10
87.4159528978
 20
351.72901658
 30
0.0
 10
86.0132647665
 20
351.800153422
 30
0.0
 10
84.9832253439
 20
352.143232618
 30
0.0
 10
84.3808134037
 20
352.5104080564
 30
0.0
 10
83.9725327176
 20
352.9744856692
 30
0.0
 10
83.8683836081
 20
353.3489434544
 30
0.0
 10
83.8682525972
 20
353.5219751729
 30
0.0
  0
SPLINE
  5
237
100
AcDbEntity
  8
0
100
AcDbSpline
 62
7
  6
CONTINUOUS
 70
0
 71
3
 72
13
 73
9
 74
0
 42
0.0000001
 43
0.0000001
 44
0.0000000001
 40
0.0
 40
0.0
 40
0.0
 40
0.0
 40
0.2699040481
 40
0.5613092475
 40
0.6954524627
 40
0.8131377821
 40
0.9128550148
 40
1.0
 40
1.0
 40
1.0
 40
1.0
 10
80.1509258526
 20
309.6358950729
 30
0.0
 10
79.6868124359
 20
309.3679406663
 30
0.0
 10
78.5774257776
 20
309.0676588705
 30
0.0
 10
77.1747376463
 20
309.1387957126
 30
0.0
 10
76.1446982237
 20
309.4818749086
 30
0.0
 10
75.5422862835
 20
309.849050347
 30
0.0
 10
75.1340055974
 20
310.3131279598
 30
0.0
 10
75.0298564878
 20
310.687585745
 30
0.0
 10
75.029725477
 20
310.8606174635
 30
0.0
  0
SPLINE
  5
238
100
AcDbEntity
  8
0
100
AcDbSpline
 62
7
  6
CONTINUOUS
 70
0
 71
3
 72
13
 73
9
 74
0
 42
0.0000001
 43
0.0000001
 44
0.0000000001
 40
0.0
 40
0.0
 40
0.0
 40
0.0
 40
0.2699040481
 40
0.5613092475
 40
0.6954524627
 40
0.8131377821
 40
0.9128550148
 40
1.0
 40
1.0
 40
1.0
 40
1.0
 10
162.8820748067
 20
357.4004610759
 30
0.0
 10
162.4179613899
 20
357.1325066692
 30
0.0
 10
161.3085747316
 20
356.8322248735
 30
0.0
 10
159.9058866003
 20
356.9033617155
 30
0.0
 10
158.8758471777
 20
357.2464409116
 30
0.0
 10
158.2734352375
 20
357.61361635
 30
0.0
 10
157.8651545514
 20
358.0776939627
 30
0.0
 10
157.7610054419
 20
358.452151748
 30
0.0
 10
157.760874431
 20
358.6251834665
 30
0.0
  0
SPLINE
  5
239
100
AcDbEntity
  8
0
100
AcDbSpline
 62
7
  6
CONTINUOUS
 70
0
 71
3
 72
9
 73
5
 74
0
 42
0.0000001
 43
0.0000001
 44
0.0000000001
 40
0.0
 40
0.0
 40
0.0
 40
0.0
 40
0.4491683742
 40
1.0
 40
1.0
 40
1.0
 40
1.0
 10
81.0294678774
 20
310.8606172094
 30
0.0
 10
81.0296447753
 20
310.6269806102
 30
0.0
 10
80.8253099657
 20
310.1054939074
 30
0.0
 10
80.3990573963
 20
309.7791530313
 30
0.0
 10
80.1509258526
 20
309.6358950729
 30
0.0
  0
SPLINE
  5
23A
100
AcDbEntity
  8
0
100
AcDbSpline
 62
7
  6
CONTINUOUS
 70
0
 71
3
 72
9
 73
5
 74
0
 42
0.0000001
 43
0.0000001
 44
0.0000000001
 40
0.0
 40
0.0
 40
0.0
 40
0.0
 40
0.2407341648
 40
1.0
 40
1.0
 40
1.0
 40
1.0
 10
80.7871266847
 20
310.3178000675
 30
0.0
 10
80.769371541
 20
310.341721009
 30
0.0
 10
80.692676468
 20
310.4388939794
 30
0.0
 10
80.6049788937
 20
310.5271862772
 30
0.0
 10
80.5343096508
 20
310.5891039484
 30
0.0
  0
SPLINE
  5
23B
100
AcDbEntity
  8
0
100
AcDbSpline
 62
7
  6
CONTINUOUS
 70
0
 71
3
 72
11
 73
7
 74
0
 42
0.0000001
 43
0.0000001
 44
0.0000000001
 40
0.0
 40
0.0
 40
0.0
 40
0.0
 40
0.2253720354
 40
0.4875920429
 40
0.7566893094
 40
1.0
 40
1.0
 40
1.0
 40
1.0
 10
80.4936253459
 20
310.6238211664
 30
0.0
 10
80.2158277653
 20
310.8547494947
 30
0.0
 10
79.4945119963
 20
311.206743508
 30
0.0
 10
78.2884127548
 20
311.4124596656
 30
0.0
 10
77.0387462972
 20
311.3255564398
 30
0.0
 10
76.2460185322
 20
311.0555854587
 30
0.0
 10
75.9082675018
 20
310.8605859743
 30
0.0
  0
SPLINE
  5
23C
100
AcDbEntity
  8
0
100
AcDbSpline
 62
7
  6
CONTINUOUS
 70
0
 71
3
 72
9
 73
5
 74
0
 42
0.0000001
 43
0.0000001
 44
0.0000000001
 40
0.0
 40
0.0
 40
0.0
 40
0.0
 40
0.4491683742
 40
1.0
 40
1.0
 40
1.0
 40
1.0
 10
163.7606168314
 20
358.6251832123
 30
0.0
 10
163.7607937293
 20
358.3915466132
 30
0.0
 10
163.5564589197
 20
357.8700599103
 30
0.0
 10
163.1302063503
 20
357.5437190342
 30
0.0
 10
162.8820748067
 20
357.4004610759
 30
0.0
  0
SPLINE
  5
23D
100
AcDbEntity
  8
0
100
AcDbSpline
 62
7
  6
CONTINUOUS
 70
0
 71
3
 72
9
 73
5
 74
0
 42
0.0000001
 43
0.0000001
 44
0.0000000001
 40
0.0
 40
0.0
 40
0.0
 40
0.0
 40
0.2407341648
 40
1.0
 40
1.0
 40
1.0
 40
1.0
 10
163.5182756387
 20
358.0823660704
 30
0.0
 10
163.500520495
 20
358.106287012
 30
0.0
 10
163.4238254221
 20
358.2034599824
 30
0.0
 10
163.3361278477
 20
358.2917522802
 30
0.0
 10
163.2654586048
 20
358.3536699513
 30
0.0
  0
SPLINE
  5
23E
100
AcDbEntity
  8
0
100
AcDbSpline
 62
7
  6
CONTINUOUS
 70
0
 71
3
 72
11
 73
7
 74
0
 42
0.0000001
 43
0.0000001
 44
0.0000000001
 40
0.0
 40
0.0
 40
0.0
 40
0.0
 40
0.2253720354
 40
0.4875920429
 40
0.7566893094
 40
1.0
 40
1.0
 40
1.0
 40
1.0
 10
163.2247742999
 20
358.3883871693
 30
0.0
 10
162.9469767193
 20
358.6193154976
 30
0.0
 10
162.2256609503
 20
358.971309511
 30
0.0
 10
161.0195617089
 20
359.1770256686
 30
0.0
 10
159.7698952512
 20
359.0901224428
 30
0.0
 10
158.9771674862
 20
358.8201514616
 30
0.0
 10
158.6394164558
 20
358.6251519773
 30
0.0
  0
SPLINE
  5
23F
100
AcDbEntity
  8
0
100
AcDbSpline
 62
7
  6
CONTINUOUS
 70
0
 71
3
 72
11
 73
7
 74
0
 42
0.0000001
 43
0.0000001
 44
0.0000000001
 40
0.0
 40
0.0
 40
0.0
 40
0.0
 40
0.2873355996
 40
0.545642853
 40
0.7798405294
 40
1.0
 40
1.0
 40
1.0
 40
1.0
 10
53.2420045154
 20
318.6586042132
 30
0.0
 10
52.2490266972
 20
319.2837819156
 30
0.0
 10
50.4504626236
 20
320.6233569441
 30
0.0
 10
48.3178341021
 20
323.0248162111
 30
0.0
 10
46.9765192784
 20
325.6489208259
 30
0.0
 10
46.6655429255
 20
327.5159352893
 30
0.0
 10
46.6655429043
 20
328.4150013067
 30
0.0
  0
SPLINE
  5
240
100
AcDbEntity
  8
0
100
AcDbSpline
 62
7
  6
CONTINUOUS
 70
0
 71
3
 72
13
 73
9
 74
0
 42
0.0000001
 43
0.0000001
 44
0.0000000001
 40
0.0
 40
0.0
 40
0.0
 40
0.0
 40
0.1142564875
 40
0.2375380158
 40
0.4999994955
 40
0.7624612515
 40
0.8857430997
 40
1.0
 40
1.0
 40
1.0
 40
1.0
 10
297.9406122711
 20
197.7779598602
 30
0.0
 10
296.7304375485
 20
197.079269329
 30
0.0
 10
294.0840523676
 20
195.8467256788
 30
0.0
 10
288.2187303843
 20
194.0656275197
 30
0.0
 10
280.2629698827
 20
193.1999381628
 30
0.0
 10
272.307201937
 20
194.0655909411
 30
0.0
 10
266.4418584246
 20
195.8466602064
 30
0.0
 10
263.7954573452
 20
197.0791905478
 30
0.0
 10
262.5852732121
 20
197.7778748764
 30
0.0
  0
SPLINE
  5
241
100
AcDbEntity
  8
0
100
AcDbSpline
 62
7
  6
CONTINUOUS
 70
0
 71
3
 72
9
 73
5
 74
0
 42
0.0000001
 43
0.0000001
 44
0.0000000001
 40
0.0
 40
0.0
 40
0.0
 40
0.0
 40
0.4491683742
 40
1.0
 40
1.0
 40
1.0
 40
1.0
 10
89.8679949977
 20
353.5219749188
 30
0.0
 10
89.8681718955
 20
353.2883383197
 30
0.0
 10
89.663837086
 20
352.7668516168
 30
0.0
 10
89.2375845165
 20
352.4405107407
 30
0.0
 10
88.9894529729
 20
352.2972527823
 30
0.0
  0
SPLINE
  5
242
100
AcDbEntity
  8
0
100
AcDbSpline
 62
7
  6
CONTINUOUS
 70
0
 71
3
 72
9
 73
5
 74
0
 42
0.0000001
 43
0.0000001
 44
0.0000000001
 40
0.0
 40
0.0
 40
0.0
 40
0.0
 40
0.2407341648
 40
1.0
 40
1.0
 40
1.0
 40
1.0
 10
89.6256538049
 20
352.9791577769
 30
0.0
 10
89.6078986612
 20
353.0030787184
 30
0.0
 10
89.5312035883
 20
353.1002516888
 30
0.0
 10
89.4435060139
 20
353.1885439866
 30
0.0
 10
89.372836771
 20
353.2504616578
 30
0.0
  0
SPLINE
  5
243
100
AcDbEntity
  8
0
100
AcDbSpline
 62
7
  6
CONTINUOUS
 70
0
 71
3
 72
11
 73
7
 74
0
 42
0.0000001
 43
0.0000001
 44
0.0000000001
 40
0.0
 40
0.0
 40
0.0
 40
0.0
 40
0.2253720354
 40
0.4875920429
 40
0.7566893094
 40
1.0
 40
1.0
 40
1.0
 40
1.0
 10
89.3321524661
 20
353.2851788758
 30
0.0
 10
89.0543548855
 20
353.5161072041
 30
0.0
 10
88.3330391165
 20
353.8681012174
 30
0.0
 10
87.1269398751
 20
354.073817375
 30
0.0
 10
85.8772734174
 20
353.9869141492
 30
0.0
 10
85.0845456525
 20
353.7169431681
 30
0.0
 10
84.746794622
 20
353.5219436837
 30
0.0
  0
SPLINE
  5
244
100
AcDbEntity
  8
0
100
AcDbSpline
 62
7
  6
CONTINUOUS
 70
0
 71
3
 72
9
 73
5
 74
0
 42
0.0000001
 43
0.0000001
 44
0.0000000001
 40
0.0
 40
0.0
 40
0.0
 40
0.0
 40
0.2638216937
 40
1.0
 40
1.0
 40
1.0
 40
1.0
 10
328.3457504911
 20
260.6473708924
 30
0.0
 10
328.2979575579
 20
260.6197777943
 30
0.0
 10
328.1200427458
 20
260.5098433641
 30
0.0
 10
327.9550946981
 20
260.3776534121
 30
0.0
 10
327.8479393367
 20
260.267055028
 30
0.0
  0
SPLINE
  5
245
100
AcDbEntity
  8
0
100
AcDbSpline
 62
7
  6
CONTINUOUS
 70
0
 71
3
 72
8
 73
4
 74
0
 42
0.0000001
 43
0.0000001
 44
0.0000000001
 40
0.0
 40
0.0
 40
0.0
 40
0.0
 40
1.0
 40
1.0
 40
1.0
 40
1.0
 10
327.8479393367
 20
260.267055028
 30
0.0
 10
327.7788569425
 20
260.1957529385
 30
0.0
 10
327.7153393436
 20
260.1182850017
 30
0.0
 10
327.6609593239
 20
260.0352237074
 30
0.0
  0
SPLINE
  5
246
100
AcDbEntity
  8
0
100
AcDbSpline
 62
7
  6
CONTINUOUS
 70
0
 71
3
 72
9
 73
5
 74
0
 42
0.0000001
 43
0.0000001
 44
0.0000000001
 40
0.0
 40
0.0
 40
0.0
 40
0.0
 40
0.2638216937
 40
1.0
 40
1.0
 40
1.0
 40
1.0
 10
245.614601537
 20
212.8828048894
 30
0.0
 10
245.5668086038
 20
212.8552117913
 30
0.0
 10
245.3888937918
 20
212.7452773612
 30
0.0
 10
245.223945744
 20
212.6130874091
 30
0.0
 10
245.1167903827
 20
212.502489025
 30
0.0
  0
SPLINE
  5
247
100
AcDbEntity
  8
0
100
AcDbSpline
 62
7
  6
CONTINUOUS
 70
0
 71
3
 72
8
 73
4
 74
0
 42
0.0000001
 43
0.0000001
 44
0.0000000001
 40
0.0
 40
0.0
 40
0.0
 40
0.0
 40
1.0
 40
1.0
 40
1.0
 40
1.0
 10
245.1167903827
 20
212.502489025
 30
0.0
 10
245.0477079885
 20
212.4311869355
 30
0.0
 10
244.9841903896
 20
212.3537189988
 30
0.0
 10
244.9298103699
 20
212.2706577044
 30
0.0
  0
SPLINE
  5
248
100
AcDbEntity
  8
0
100
AcDbSpline
 62
7
  6
CONTINUOUS
 70
0
 71
3
 72
9
 73
5
 74
0
 42
0.0000001
 43
0.0000001
 44
0.0000000001
 40
0.0
 40
0.0
 40
0.0
 40
0.0
 40
0.2407341648
 40
1.0
 40
1.0
 40
1.0
 40
1.0
 10
324.3860825537
 20
217.4432272761
 30
0.0
 10
324.36832741
 20
217.4671482177
 30
0.0
 10
324.2916323371
 20
217.5643211881
 30
0.0
 10
324.2039347627
 20
217.6526134859
 30
0.0
 10
324.1332655198
 20
217.714531157
 30
0.0
  0
SPLINE
  5
249
100
AcDbEntity
  8
0
100
AcDbSpline
 62
7
  6
CONTINUOUS
 70
0
 71
3
 72
11
 73
7
 74
0
 42
0.0000001
 43
0.0000001
 44
0.0000000001
 40
0.0
 40
0.0
 40
0.0
 40
0.0
 40
0.2253720354
 40
0.4875920429
 40
0.7566893094
 40
1.0
 40
1.0
 40
1.0
 40
1.0
 10
324.0925812149
 20
217.7492483751
 30
0.0
 10
323.8147836343
 20
217.9801767034
 30
0.0
 10
323.0934678653
 20
218.3321707167
 30
0.0
 10
321.8873686239
 20
218.5378868743
 30
0.0
 10
320.6377021662
 20
218.4509836485
 30
0.0
 10
319.8449744013
 20
218.1810126674
 30
0.0
 10
319.5072233708
 20
217.986013183
 30
0.0
  0
SPLINE
  5
24A
100
AcDbEntity
  8
0
100
AcDbSpline
 62
7
  6
CONTINUOUS
 70
0
 71
3
 72
9
 73
5
 74
0
 42
0.0000001
 43
0.0000001
 44
0.0000000001
 40
0.0
 40
0.0
 40
0.0
 40
0.0
 40
0.2638216937
 40
1.0
 40
1.0
 40
1.0
 40
1.0
 10
160.7614345194
 20
261.8716954319
 30
0.0
 10
160.7136415862
 20
261.8441023337
 30
0.0
 10
160.5357267742
 20
261.7341679036
 30
0.0
 10
160.3707787264
 20
261.6019779515
 30
0.0
 10
160.2636233651
 20
261.4913795675
 30
0.0
  0
SPLINE
  5
24B
100
AcDbEntity
  8
0
100
AcDbSpline
 62
7
  6
CONTINUOUS
 70
0
 71
3
 72
8
 73
4
 74
0
 42
0.0000001
 43
0.0000001
 44
0.0000000001
 40
0.0
 40
0.0
 40
0.0
 40
0.0
 40
1.0
 40
1.0
 40
1.0
 40
1.0
 10
160.2636233651
 20
261.4913795675
 30
0.0
 10
160.1945409709
 20
261.420077478
 30
0.0
 10
160.1310233719
 20
261.3426095412
 30
0.0
 10
160.0766433523
 20
261.2595482469
 30
0.0
  0
SPLINE
  5
24C
100
AcDbEntity
  8
0
100
AcDbSpline
 62
7
  6
CONTINUOUS
 70
0
 71
3
 72
9
 73
5
 74
0
 42
0.0000001
 43
0.0000001
 44
0.0000000001
 40
0.0
 40
0.0
 40
0.0
 40
0.0
 40
0.4491683742
 40
1.0
 40
1.0
 40
1.0
 40
1.0
 10
324.6284237465
 20
217.9860444181
 30
0.0
 10
324.6286006443
 20
217.7524078189
 30
0.0
 10
324.4242658348
 20
217.230921116
 30
0.0
 10
323.9980132653
 20
216.9045802399
 30
0.0
 10
323.7498817217
 20
216.7613222816
 30
0.0
  0
SPLINE
  5
24D
100
AcDbEntity
  8
0
100
AcDbSpline
 62
7
  6
CONTINUOUS
 70
0
 71
3
 72
9
 73
5
 74
0
 42
0.0000001
 43
0.0000001
 44
0.0000000001
 40
0.0
 40
0.0
 40
0.0
 40
0.0
 40
0.2638216937
 40
1.0
 40
1.0
 40
1.0
 40
1.0
 10
243.4925834734
 20
309.6362614348
 30
0.0
 10
243.4447905402
 20
309.6086683367
 30
0.0
 10
243.2668757282
 20
309.4987339066
 30
0.0
 10
243.1019276804
 20
309.3665439545
 30
0.0
 10
242.9947723191
 20
309.2559455704
 30
0.0
  0
SPLINE
  5
24E
100
AcDbEntity
  8
0
100
AcDbSpline
 62
7
  6
CONTINUOUS
 70
0
 71
3
 72
8
 73
4
 74
0
 42
0.0000001
 43
0.0000001
 44
0.0000000001
 40
0.0
 40
0.0
 40
0.0
 40
0.0
 40
1.0
 40
1.0
 40
1.0
 40
1.0
 10
242.9947723191
 20
309.2559455704
 30
0.0
 10
242.9256899249
 20
309.1846434809
 30
0.0
 10
242.862172326
 20
309.1071755442
 30
0.0
 10
242.8077923063
 20
309.0241142498
 30
0.0
  0
SPLINE
  5
24F
100
AcDbEntity
  8
0
100
AcDbSpline
 62
7
  6
CONTINUOUS
 70
0
 71
3
 72
9
 73
5
 74
0
 42
0.0000001
 43
0.0000001
 44
0.0000000001
 40
0.0
 40
0.0
 40
0.0
 40
0.0
 40
0.2638216937
 40
1.0
 40
1.0
 40
1.0
 40
1.0
 10
319.5072233708
 20
217.986013183
 30
0.0
 10
319.4594304376
 20
217.9584200849
 30
0.0
 10
319.2815156256
 20
217.8484856547
 30
0.0
 10
319.1165675778
 20
217.7162957026
 30
0.0
 10
319.0094122165
 20
217.6056973186
 30
0.0
  0
SPLINE
  5
250
100
AcDbEntity
  8
0
100
AcDbSpline
 62
7
  6
CONTINUOUS
 70
0
 71
3
 72
8
 73
4
 74
0
 42
0.0000001
 43
0.0000001
 44
0.0000000001
 40
0.0
 40
0.0
 40
0.0
 40
0.0
 40
1.0
 40
1.0
 40
1.0
 40
1.0
 10
319.0094122165
 20
217.6056973186
 30
0.0
 10
318.9403298223
 20
217.5343952291
 30
0.0
 10
318.8768122234
 20
217.4569272923
 30
0.0
 10
318.8224322037
 20
217.373865998
 30
0.0
  0
SPLINE
  5
251
100
AcDbEntity
  8
0
100
AcDbSpline
 62
7
  6
CONTINUOUS
 70
0
 71
3
 72
9
 73
5
 74
0
 42
0.0000001
 43
0.0000001
 44
0.0000000001
 40
0.0
 40
0.0
 40
0.0
 40
0.0
 40
0.2407341648
 40
1.0
 40
1.0
 40
1.0
 40
1.0
 10
248.3714426563
 20
309.093475528
 30
0.0
 10
248.3536875127
 20
309.1173964695
 30
0.0
 10
248.2769924397
 20
309.2145694399
 30
0.0
 10
248.1892948653
 20
309.3028617377
 30
0.0
 10
248.1186256225
 20
309.3647794089
 30
0.0
  0
SPLINE
  5
252
100
AcDbEntity
  8
0
100
AcDbSpline
 62
7
  6
CONTINUOUS
 70
0
 71
3
 72
11
 73
7
 74
0
 42
0.0000001
 43
0.0000001
 44
0.0000000001
 40
0.0
 40
0.0
 40
0.0
 40
0.0
 40
0.2253720354
 40
0.4875920429
 40
0.7566893094
 40
1.0
 40
1.0
 40
1.0
 40
1.0
 10
248.0779413175
 20
309.3994966269
 30
0.0
 10
247.8001437369
 20
309.6304249552
 30
0.0
 10
247.0788279679
 20
309.9824189686
 30
0.0
 10
245.8727287265
 20
310.1881351261
 30
0.0
 10
244.6230622688
 20
310.1012319003
 30
0.0
 10
243.8303345039
 20
309.8312609192
 30
0.0
 10
243.4925834734
 20
309.6362614348
 30
0.0
  0
SPLINE
  5
253
100
AcDbEntity
  8
0
100
AcDbSpline
 62
7
  6
CONTINUOUS
 70
0
 71
3
 72
9
 73
5
 74
0
 42
0.0000001
 43
0.0000001
 44
0.0000000001
 40
0.0
 40
0.0
 40
0.0
 40
0.0
 40
0.2638216937
 40
1.0
 40
1.0
 40
1.0
 40
1.0
 10
84.746794622
 20
353.5219436837
 30
0.0
 10
84.6990016888
 20
353.4943505856
 30
0.0
 10
84.5210868768
 20
353.3844161555
 30
0.0
 10
84.356138829
 20
353.2522262034
 30
0.0
 10
84.2489834677
 20
353.1416278193
 30
0.0
  0
SPLINE
  5
254
100
AcDbEntity
  8
0
100
AcDbSpline
 62
7
  6
CONTINUOUS
 70
0
 71
3
 72
8
 73
4
 74
0
 42
0.0000001
 43
0.0000001
 44
0.0000000001
 40
0.0
 40
0.0
 40
0.0
 40
0.0
 40
1.0
 40
1.0
 40
1.0
 40
1.0
 10
84.2489834677
 20
353.1416278193
 30
0.0
 10
84.1799010735
 20
353.0703257298
 30
0.0
 10
84.1163834746
 20
352.9928577931
 30
0.0
 10
84.0620034549
 20
352.9097964987
 30
0.0
  0
SPLINE
  5
255
100
AcDbEntity
  8
0
100
AcDbSpline
 62
7
  6
CONTINUOUS
 70
0
 71
3
 72
9
 73
5
 74
0
 42
0.0000001
 43
0.0000001
 44
0.0000000001
 40
0.0
 40
0.0
 40
0.0
 40
0.0
 40
0.4491683742
 40
1.0
 40
1.0
 40
1.0
 40
1.0
 10
248.6137838491
 20
309.6362926699
 30
0.0
 10
248.6139607469
 20
309.4026560708
 30
0.0
 10
248.4096259374
 20
308.8811693679
 30
0.0
 10
247.9833733679
 20
308.5548284918
 30
0.0
 10
247.7352418243
 20
308.4115705334
 30
0.0
  0
SPLINE
  5
256
100
AcDbEntity
  8
0
100
AcDbSpline
 62
7
  6
CONTINUOUS
 70
0
 71
3
 72
9
 73
5
 74
0
 42
0.0000001
 43
0.0000001
 44
0.0000000001
 40
0.0
 40
0.0
 40
0.0
 40
0.0
 40
0.2638216937
 40
1.0
 40
1.0
 40
1.0
 40
1.0
 10
158.6394164558
 20
358.6251519773
 30
0.0
 10
158.5916235226
 20
358.5975588791
 30
0.0
 10
158.4137087106
 20
358.487624449
 30
0.0
 10
158.2487606628
 20
358.3554344969
 30
0.0
 10
158.1416053015
 20
358.2448361129
 30
0.0
  0
SPLINE
  5
257
100
AcDbEntity
  8
0
100
AcDbSpline
 62
7
  6
CONTINUOUS
 70
0
 71
3
 72
8
 73
4
 74
0
 42
0.0000001
 43
0.0000001
 44
0.0000000001
 40
0.0
 40
0.0
 40
0.0
 40
0.0
 40
1.0
 40
1.0
 40
1.0
 40
1.0
 10
158.1416053015
 20
358.2448361129
 30
0.0
 10
158.0725229073
 20
358.1735340234
 30
0.0
 10
158.0090053083
 20
358.0960660866
 30
0.0
 10
157.9546252887
 20
358.0130047923
 30
0.0
  0
SPLINE
  5
258
100
AcDbEntity
  8
0
100
AcDbSpline
 62
7
  6
CONTINUOUS
 70
0
 71
3
 72
9
 73
5
 74
0
 42
0.0000001
 43
0.0000001
 44
0.0000000001
 40
0.0
 40
0.0
 40
0.0
 40
0.0
 40
0.2638216937
 40
1.0
 40
1.0
 40
1.0
 40
1.0
 10
75.9082675018
 20
310.8605859743
 30
0.0
 10
75.8604745686
 20
310.8329928762
 30
0.0
 10
75.6825597565
 20
310.723058446
 30
0.0
 10
75.5176117088
 20
310.590868494
 30
0.0
 10
75.4104563474
 20
310.4802701099
 30
0.0
  0
SPLINE
  5
259
100
AcDbEntity
  8
0
100
AcDbSpline
 62
7
  6
CONTINUOUS
 70
0
 71
3
 72
8
 73
4
 74
0
 42
0.0000001
 43
0.0000001
 44
0.0000000001
 40
0.0
 40
0.0
 40
0.0
 40
0.0
 40
1.0
 40
1.0
 40
1.0
 40
1.0
 10
75.4104563474
 20
310.4802701099
 30
0.0
 10
75.3413739532
 20
310.4089680204
 30
0.0
 10
75.2778563543
 20
310.3315000836
 30
0.0
 10
75.2234763346
 20
310.2484387893
 30
0.0
  0
SPLINE
  5
25A
100
AcDbEntity
  8
0
100
AcDbSpline
 62
7
  6
CONTINUOUS
 70
0
 71
3
 72
9
 73
5
 74
0
 42
0.0000001
 43
0.0000001
 44
0.0000000001
 40
0.0
 40
0.0
 40
0.0
 40
0.0
 40
0.2407341648
 40
1.0
 40
1.0
 40
1.0
 40
1.0
 10
165.6402937023
 20
261.328909525
 30
0.0
 10
165.6225385586
 20
261.3528304666
 30
0.0
 10
165.5458434857
 20
261.450003437
 30
0.0
 10
165.4581459113
 20
261.5382957348
 30
0.0
 10
165.3874766684
 20
261.6002134059
 30
0.0
  0
SPLINE
  5
25B
100
AcDbEntity
  8
0
100
AcDbSpline
 62
7
  6
CONTINUOUS
 70
0
 71
3
 72
11
 73
7
 74
0
 42
0.0000001
 43
0.0000001
 44
0.0000000001
 40
0.0
 40
0.0
 40
0.0
 40
0.0
 40
0.2253720354
 40
0.4875920429
 40
0.7566893094
 40
1.0
 40
1.0
 40
1.0
 40
1.0
 10
165.3467923635
 20
261.6349306239
 30
0.0
 10
165.0689947829
 20
261.8658589522
 30
0.0
 10
164.3476790139
 20
262.2178529656
 30
0.0
 10
163.1415797725
 20
262.4235691232
 30
0.0
 10
161.8919133148
 20
262.3366658974
 30
0.0
 10
161.0991855498
 20
262.0666949162
 30
0.0
 10
160.7614345194
 20
261.8716954319
 30
0.0
  0
SPLINE
  5
25C
100
AcDbEntity
  8
0
100
AcDbSpline
 62
7
  6
CONTINUOUS
 70
0
 71
3
 72
11
 73
7
 74
0
 42
0.0000001
 43
0.0000001
 44
0.0000000001
 40
0.0
 40
0.0
 40
0.0
 40
0.0
 40
0.2177701422
 40
0.4509477659
 40
0.7101977596
 40
1.0
 40
1.0
 40
1.0
 40
1.0
 10
361.8311334394
 20
241.8682646586
 30
0.0
 10
361.8311335035
 20
242.8204400071
 30
0.0
 10
361.4796859088
 20
244.805482278
 30
0.0
 10
359.974502073
 20
247.570103337
 30
0.0
 10
357.5966976266
 20
250.0706296178
 30
0.0
 10
355.6061429144
 20
251.4408154743
 30
0.0
 10
354.5087720499
 20
252.0743685054
 30
0.0
  0
SPLINE
  5
25D
100
AcDbEntity
  8
0
100
AcDbSpline
 62
7
  6
CONTINUOUS
 70
0
 71
3
 72
11
 73
7
 74
0
 42
0.0000001
 43
0.0000001
 44
0.0000000001
 40
0.0
 40
0.0
 40
0.0
 40
0.0
 40
0.2201599612
 40
0.4543578553
 40
0.7126649308
 40
1.0
 40
1.0
 40
1.0
 40
1.0
 10
361.8311334394
 20
240.6435110329
 30
0.0
 10
361.8311334607
 20
239.7444554601
 30
0.0
 10
361.5201647378
 20
237.8774641328
 30
0.0
 10
360.1788813361
 20
235.2533875278
 30
0.0
 10
358.046300215
 20
232.8519486866
 30
0.0
 10
356.2477736018
 20
231.5123803534
 30
0.0
 10
355.2548161893
 20
230.8872047977
 30
0.0
  0
SPLINE
  5
25E
100
AcDbEntity
  8
0
100
AcDbSpline
 62
7
  6
CONTINUOUS
 70
0
 71
3
 72
9
 73
5
 74
0
 42
0.0000001
 43
0.0000001
 44
0.0000000001
 40
0.0
 40
0.0
 40
0.0
 40
0.0
 40
0.4491683742
 40
1.0
 40
1.0
 40
1.0
 40
1.0
 10
165.8826348951
 20
261.8717266669
 30
0.0
 10
165.8828117929
 20
261.6380900678
 30
0.0
 10
165.6784769834
 20
261.1166033649
 30
0.0
 10
165.2522244139
 20
260.7902624888
 30
0.0
 10
165.0040928703
 20
260.6470045305
 30
0.0
  0
SPLINE
  5
25F
100
AcDbEntity
  8
0
100
AcDbSpline
 62
7
  6
CONTINUOUS
 70
0
 71
3
 72
9
 73
5
 74
0
 42
0.0000001
 43
0.0000001
 44
0.0000000001
 40
0.0
 40
0.0
 40
0.0
 40
0.0
 40
0.4491683742
 40
1.0
 40
1.0
 40
1.0
 40
1.0
 10
333.4669508667
 20
260.6474021275
 30
0.0
 10
333.4671277646
 20
260.4137655283
 30
0.0
 10
333.262792955
 20
259.8922788254
 30
0.0
 10
332.8365403856
 20
259.5659379494
 30
0.0
 10
332.5884088419
 20
259.422679991
 30
0.0
  0
SPLINE
  5
260
100
AcDbEntity
  8
0
100
AcDbSpline
 62
7
  6
CONTINUOUS
 70
0
 71
3
 72
9
 73
5
 74
0
 42
0.0000001
 43
0.0000001
 44
0.0000000001
 40
0.0
 40
0.0
 40
0.0
 40
0.0
 40
0.2407341648
 40
1.0
 40
1.0
 40
1.0
 40
1.0
 10
333.224609674
 20
260.1045849856
 30
0.0
 10
333.2068545303
 20
260.1285059271
 30
0.0
 10
333.1301594573
 20
260.2256788975
 30
0.0
 10
333.042461883
 20
260.3139711953
 30
0.0
 10
332.9717926401
 20
260.3758888665
 30
0.0
  0
SPLINE
  5
261
100
AcDbEntity
  8
0
100
AcDbSpline
 62
7
  6
CONTINUOUS
 70
0
 71
3
 72
11
 73
7
 74
0
 42
0.0000001
 43
0.0000001
 44
0.0000000001
 40
0.0
 40
0.0
 40
0.0
 40
0.0
 40
0.2253720354
 40
0.4875920429
 40
0.7566893094
 40
1.0
 40
1.0
 40
1.0
 40
1.0
 10
332.9311083351
 20
260.4106060845
 30
0.0
 10
332.6533107546
 20
260.6415344128
 30
0.0
 10
331.9319949856
 20
260.9935284261
 30
0.0
 10
330.7258957441
 20
261.1992445837
 30
0.0
 10
329.4762292865
 20
261.1123413579
 30
0.0
 10
328.6835015215
 20
260.8423703768
 30
0.0
 10
328.3457504911
 20
260.6473708924
 30
0.0
  0
SPLINE
  5
262
100
AcDbEntity
  8
0
100
AcDbSpline
 62
7
  6
CONTINUOUS
 70
0
 71
3
 72
9
 73
5
 74
0
 42
0.0000001
 43
0.0000001
 44
0.0000000001
 40
0.0
 40
0.0
 40
0.0
 40
0.0
 40
0.2407341648
 40
1.0
 40
1.0
 40
1.0
 40
1.0
 10
250.49346072
 20
212.3400189826
 30
0.0
 10
250.4757055763
 20
212.3639399241
 30
0.0
 10
250.3990105033
 20
212.4611128945
 30
0.0
 10
250.311312929
 20
212.5494051923
 30
0.0
 10
250.2406436861
 20
212.6113228635
 30
0.0
  0
SPLINE
  5
263
100
AcDbEntity
  8
0
100
AcDbSpline
 62
7
  6
CONTINUOUS
 70
0
 71
3
 72
11
 73
7
 74
0
 42
0.0000001
 43
0.0000001
 44
0.0000000001
 40
0.0
 40
0.0
 40
0.0
 40
0.0
 40
0.2253720354
 40
0.4875920429
 40
0.7566893094
 40
1.0
 40
1.0
 40
1.0
 40
1.0
 10
250.1999593811
 20
212.6460400815
 30
0.0
 10
249.9221618006
 20
212.8769684098
 30
0.0
 10
249.2008460315
 20
213.2289624232
 30
0.0
 10
247.9947467901
 20
213.4346785807
 30
0.0
 10
246.7450803325
 20
213.3477753549
 30
0.0
 10
245.9523525675
 20
213.0778043738
 30
0.0
 10
245.614601537
 20
212.8828048894
 30
0.0
  0
SPLINE
  5
264
100
AcDbEntity
  8
0
100
AcDbSpline
 62
7
  6
CONTINUOUS
 70
0
 71
3
 72
9
 73
5
 74
0
 42
0.0000001
 43
0.0000001
 44
0.0000000001
 40
0.0
 40
0.0
 40
0.0
 40
0.0
 40
0.4491683742
 40
1.0
 40
1.0
 40
1.0
 40
1.0
 10
250.7358019127
 20
212.8828361245
 30
0.0
 10
250.7359788105
 20
212.6491995254
 30
0.0
 10
250.531644001
 20
212.1277128225
 30
0.0
 10
250.1053914315
 20
211.8013719464
 30
0.0
 10
249.8572598879
 20
211.658113988
 30
0.0
  0
SPLINE
  5
265
100
AcDbEntity
  8
0
100
AcDbSpline
 62
7
  6
CONTINUOUS
 70
0
 71
3
 72
13
 73
9
 74
0
 42
0.0000001
 43
0.0000001
 44
0.0000000001
 40
0.0
 40
0.0
 40
0.0
 40
0.0
 40
0.2699040481
 40
0.5613092475
 40
0.6954524627
 40
0.8131377821
 40
0.9128550148
 40
1.0
 40
1.0
 40
1.0
 40
1.0
 10
160.7614345194
 20
263.0964490576
 30
0.0
 10
161.2255479361
 20
263.3644034642
 30
0.0
 10
162.3349345945
 20
263.6646852599
 30
0.0
 10
163.7376227258
 20
263.5935484179
 30
0.0
 10
164.7676621484
 20
263.2504692219
 30
0.0
 10
165.3700740885
 20
262.8832937835
 30
0.0
 10
165.7783547747
 20
262.4192161707
 30
0.0
 10
165.8825038842
 20
262.0447583855
 30
0.0
 10
165.8826348951
 20
261.8717266669
 30
0.0
  0
SPLINE
  5
266
100
AcDbEntity
  8
0
100
AcDbSpline
 62
7
  6
CONTINUOUS
 70
0
 71
3
 72
9
 73
5
 74
0
 42
0.0000001
 43
0.0000001
 44
0.0000000001
 40
0.0
 40
0.0
 40
0.0
 40
0.0
 40
0.2445040774
 40
1.0
 40
1.0
 40
1.0
 40
1.0
 10
242.6140414486
 20
309.636292924
 30
0.0
 10
242.6140090803
 20
309.6790431112
 30
0.0
 10
242.6249448912
 20
309.8538853226
 30
0.0
 10
242.6826353782
 20
310.0244526766
 30
0.0
 10
242.7442778782
 20
310.1412820958
 30
0.0
  0
SPLINE
  5
267
100
AcDbEntity
  8
0
100
AcDbSpline
 62
7
  6
CONTINUOUS
 70
0
 71
3
 72
9
 73
5
 74
0
 42
0.0000001
 43
0.0000001
 44
0.0000000001
 40
0.0
 40
0.0
 40
0.0
 40
0.0
 40
0.2258973245
 40
1.0
 40
1.0
 40
1.0
 40
1.0
 10
242.7442778782
 20
310.1412820958
 30
0.0
 10
242.7810457858
 20
310.2109673503
 30
0.0
 10
242.9729599784
 20
310.5042611333
 30
0.0
 10
243.2587581212
 20
310.7260167363
 30
0.0
 10
243.4925834734
 20
310.8610150605
 30
0.0
  0
SPLINE
  5
268
100
AcDbEntity
  8
0
100
AcDbSpline
 62
7
  6
CONTINUOUS
 70
0
 71
3
 72
11
 73
7
 74
0
 42
0.0000001
 43
0.0000001
 44
0.0000000001
 40
0.0
 40
0.0
 40
0.0
 40
0.0
 40
0.2869358045
 40
0.5466089977
 40
0.7818318861
 40
1.0
 40
1.0
 40
1.0
 40
1.0
 10
354.5089192483
 20
231.6622457956
 30
0.0
 10
355.5042594763
 20
232.236902314
 30
0.0
 10
357.3260888456
 20
233.4720236265
 30
0.0
 10
359.5688752784
 20
235.6880581972
 30
0.0
 10
361.1145774048
 20
238.1234160403
 30
0.0
 10
361.641599885
 20
239.8935328087
 30
0.0
 10
361.7572101345
 20
240.7597215743
 30
0.0
  0
SPLINE
  5
269
100
AcDbEntity
  8
0
100
AcDbSpline
 62
7
  6
CONTINUOUS
 70
0
 71
3
 72
13
 73
9
 74
0
 42
0.0000001
 43
0.0000001
 44
0.0000000001
 40
0.0
 40
0.0
 40
0.0
 40
0.0
 40
0.2699040481
 40
0.5613092475
 40
0.6954524627
 40
0.8131377821
 40
0.9128550148
 40
1.0
 40
1.0
 40
1.0
 40
1.0
 10
319.5072233708
 20
219.2107668087
 30
0.0
 10
319.9713367876
 20
219.4787212153
 30
0.0
 10
321.0807234459
 20
219.779003011
 30
0.0
 10
322.4834115772
 20
219.707866169
 30
0.0
 10
323.5134509998
 20
219.364786973
 30
0.0
 10
324.1158629399
 20
218.9976115346
 30
0.0
 10
324.5241436261
 20
218.5335339218
 30
0.0
 10
324.6282927356
 20
218.1590761366
 30
0.0
 10
324.6284237465
 20
217.9860444181
 30
0.0
  0
SPLINE
  5
26A
100
AcDbEntity
  8
0
100
AcDbSpline
 62
7
  6
CONTINUOUS
 70
0
 71
3
 72
9
 73
5
 74
0
 42
0.0000001
 43
0.0000001
 44
0.0000000001
 40
0.0
 40
0.0
 40
0.0
 40
0.0
 40
0.2445040774
 40
1.0
 40
1.0
 40
1.0
 40
1.0
 10
157.760874431
 20
358.6251834665
 30
0.0
 10
157.7608420627
 20
358.6679336536
 30
0.0
 10
157.7717778736
 20
358.842775865
 30
0.0
 10
157.8294683606
 20
359.013343219
 30
0.0
 10
157.8911108605
 20
359.1301726383
 30
0.0
  0
SPLINE
  5
26B
100
AcDbEntity
  8
0
100
AcDbSpline
 62
7
  6
CONTINUOUS
 70
0
 71
3
 72
9
 73
5
 74
0
 42
0.0000001
 43
0.0000001
 44
0.0000000001
 40
0.0
 40
0.0
 40
0.0
 40
0.0
 40
0.2258973245
 40
1.0
 40
1.0
 40
1.0
 40
1.0
 10
157.8911108605
 20
359.1301726383
 30
0.0
 10
157.9278787682
 20
359.1998578927
 30
0.0
 10
158.1197929608
 20
359.4931516757
 30
0.0
 10
158.4055911036
 20
359.7149072788
 30
0.0
 10
158.6394164558
 20
359.849905603
 30
0.0
  0
SPLINE
  5
26C
100
AcDbEntity
  8
0
100
AcDbSpline
 62
7
  6
CONTINUOUS
 70
0
 71
3
 72
13
 73
9
 74
0
 42
0.0000001
 43
0.0000001
 44
0.0000000001
 40
0.0
 40
0.0
 40
0.0
 40
0.0
 40
0.2699040481
 40
0.5613092475
 40
0.6954524627
 40
0.8131377821
 40
0.9128550148
 40
1.0
 40
1.0
 40
1.0
 40
1.0
 10
328.3457504911
 20
261.8721245181
 30
0.0
 10
328.8098639078
 20
262.1400789247
 30
0.0
 10
329.9192505661
 20
262.4403607205
 30
0.0
 10
331.3219386974
 20
262.3692238784
 30
0.0
 10
332.35197812
 20
262.0261446824
 30
0.0
 10
332.9543900602
 20
261.658969244
 30
0.0
 10
333.3626707463
 20
261.1948916312
 30
0.0
 10
333.4668198559
 20
260.820433846
 30
0.0
 10
333.4669508667
 20
260.6474021275
 30
0.0
  0
SPLINE
  5
26D
100
AcDbEntity
  8
0
100
AcDbSpline
 62
7
  6
CONTINUOUS
 70
0
 71
3
 72
13
 73
9
 74
0
 42
0.0000001
 43
0.0000001
 44
0.0000000001
 40
0.0
 40
0.0
 40
0.0
 40
0.0
 40
0.2699040481
 40
0.5613092475
 40
0.6954524627
 40
0.8131377821
 40
0.9128550148
 40
1.0
 40
1.0
 40
1.0
 40
1.0
 10
84.746794622
 20
354.7466973094
 30
0.0
 10
85.2109080388
 20
355.0146517161
 30
0.0
 10
86.3202946971
 20
355.3149335118
 30
0.0
 10
87.7229828284
 20
355.2437966698
 30
0.0
 10
88.753022251
 20
354.9007174737
 30
0.0
 10
89.3554341911
 20
354.5335420353
 30
0.0
 10
89.7637148773
 20
354.0694644225
 30
0.0
 10
89.8678639868
 20
353.6950066373
 30
0.0
 10
89.8679949977
 20
353.5219749188
 30
0.0
  0
SPLINE
  5
26E
100
AcDbEntity
  8
0
100
AcDbSpline
 62
7
  6
CONTINUOUS
 70
0
 71
3
 72
9
 73
5
 74
0
 42
0.0000001
 43
0.0000001
 44
0.0000000001
 40
0.0
 40
0.0
 40
0.0
 40
0.0
 40
0.2445040774
 40
1.0
 40
1.0
 40
1.0
 40
1.0
 10
159.8828924946
 20
261.8717269211
 30
0.0
 10
159.8828601263
 20
261.9144771082
 30
0.0
 10
159.8937959372
 20
262.0893193196
 30
0.0
 10
159.9514864242
 20
262.2598866736
 30
0.0
 10
160.0131289242
 20
262.3767160929
 30
0.0
  0
SPLINE
  5
26F
100
AcDbEntity
  8
0
100
AcDbSpline
 62
7
  6
CONTINUOUS
 70
0
 71
3
 72
9
 73
5
 74
0
 42
0.0000001
 43
0.0000001
 44
0.0000000001
 40
0.0
 40
0.0
 40
0.0
 40
0.0
 40
0.2258973245
 40
1.0
 40
1.0
 40
1.0
 40
1.0
 10
160.0131289242
 20
262.3767160929
 30
0.0
 10
160.0498968318
 20
262.4464013473
 30
0.0
 10
160.2418110244
 20
262.7396951303
 30
0.0
 10
160.5276091672
 20
262.9614507334
 30
0.0
 10
160.7614345194
 20
263.0964490576
 30
0.0
  0
SPLINE
  5
270
100
AcDbEntity
  8
0
100
AcDbSpline
 62
7
  6
CONTINUOUS
 70
0
 71
3
 72
11
 73
7
 74
0
 42
0.0000001
 43
0.0000001
 44
0.0000000001
 40
0.0
 40
0.0
 40
0.0
 40
0.0
 40
0.2378465802
 40
0.5000004914
 40
0.7621541366
 40
1.0
 40
1.0
 40
1.0
 40
1.0
 10
262.9327566966
 20
198.8059017935
 30
0.0
 10
265.4181631411
 20
197.4260509731
 30
0.0
 10
271.1401441017
 20
195.4102062414
 30
0.0
 10
280.2629631351
 20
194.4422613651
 30
0.0
 10
289.3857694185
 20
195.410244882
 30
0.0
 10
295.1077297299
 20
197.4261156233
 30
0.0
 10
297.5931196925
 20
198.8059784807
 30
0.0
  0
SPLINE
  5
271
100
AcDbEntity
  8
0
100
AcDbSpline
 62
7
  6
CONTINUOUS
 70
0
 71
3
 72
13
 73
9
 74
0
 42
0.0000001
 43
0.0000001
 44
0.0000000001
 40
0.0
 40
0.0
 40
0.0
 40
0.0
 40
0.2699040481
 40
0.5613092475
 40
0.6954524627
 40
0.8131377821
 40
0.9128550148
 40
1.0
 40
1.0
 40
1.0
 40
1.0
 10
75.9082675018
 20
312.0853396
 30
0.0
 10
76.3723809185
 20
312.3532940066
 30
0.0
 10
77.4817675768
 20
312.6535758024
 30
0.0
 10
78.8844557081
 20
312.5824389603
 30
0.0
 10
79.9144951307
 20
312.2393597643
 30
0.0
 10
80.5169070709
 20
311.8721843259
 30
0.0
 10
80.925187757
 20
311.4081067131
 30
0.0
 10
81.0293368666
 20
311.0336489279
 30
0.0
 10
81.0294678774
 20
310.8606172094
 30
0.0
  0
SPLINE
  5
272
100
AcDbEntity
  8
0
100
AcDbSpline
 62
7
  6
CONTINUOUS
 70
0
 71
3
 72
11
 73
7
 74
0
 42
0.0000001
 43
0.0000001
 44
0.0000000001
 40
0.0
 40
0.0
 40
0.0
 40
0.0
 40
0.2181676669
 40
0.4533903692
 40
0.7130637122
 40
1.0
 40
1.0
 40
1.0
 40
1.0
 10
46.7394646097
 20
328.531223664
 30
0.0
 10
46.8550751935
 20
327.6650234675
 30
0.0
 10
47.3821063007
 20
325.8948821094
 30
0.0
 10
48.9278409394
 20
323.4594950529
 30
0.0
 10
51.1706756319
 20
321.2434387945
 30
0.0
 10
52.9925432499
 20
320.0083100517
 30
0.0
 10
53.9879042938
 20
319.4336510856
 30
0.0
  0
SPLINE
  5
273
100
AcDbEntity
  8
0
100
AcDbSpline
 62
7
  6
CONTINUOUS
 70
0
 71
3
 72
13
 73
9
 74
0
 42
0.0000001
 43
0.0000001
 44
0.0000000001
 40
0.0
 40
0.0
 40
0.0
 40
0.0
 40
0.2699040481
 40
0.5613092475
 40
0.6954524627
 40
0.8131377821
 40
0.9128550148
 40
1.0
 40
1.0
 40
1.0
 40
1.0
 10
243.4925834734
 20
310.8610150605
 30
0.0
 10
243.9566968902
 20
311.1289694672
 30
0.0
 10
245.0660835485
 20
311.4292512629
 30
0.0
 10
246.4687716798
 20
311.3581144209
 30
0.0
 10
247.4988111024
 20
311.0150352248
 30
0.0
 10
248.1012230426
 20
310.6478597864
 30
0.0
 10
248.5095037287
 20
310.1837821737
 30
0.0
 10
248.6136528382
 20
309.8093243884
 30
0.0
 10
248.6137838491
 20
309.6362926699
 30
0.0
  0
SPLINE
  5
274
100
AcDbEntity
  8
0
100
AcDbSpline
 62
7
  6
CONTINUOUS
 70
0
 71
3
 72
13
 73
9
 74
0
 42
0.0000001
 43
0.0000001
 44
0.0000000001
 40
0.0
 40
0.0
 40
0.0
 40
0.0
 40
0.2699040481
 40
0.5613092475
 40
0.6954524627
 40
0.8131377821
 40
0.9128550148
 40
1.0
 40
1.0
 40
1.0
 40
1.0
 10
158.6394164558
 20
359.849905603
 30
0.0
 10
159.1035298725
 20
360.1178600096
 30
0.0
 10
160.2129165309
 20
360.4181418053
 30
0.0
 10
161.6156046622
 20
360.3470049633
 30
0.0
 10
162.6456440847
 20
360.0039257673
 30
0.0
 10
163.2480560249
 20
359.6367503289
 30
0.0
 10
163.656336711
 20
359.1726727161
 30
0.0
 10
163.7604858206
 20
358.7982149309
 30
0.0
 10
163.7606168314
 20
358.6251832123
 30
0.0
  0
SPLINE
  5
275
100
AcDbEntity
  8
0
100
AcDbSpline
 62
7
  6
CONTINUOUS
 70
0
 71
3
 72
13
 73
9
 74
0
 42
0.0000001
 43
0.0000001
 44
0.0000000001
 40
0.0
 40
0.0
 40
0.0
 40
0.0
 40
0.2699040481
 40
0.5613092475
 40
0.6954524627
 40
0.8131377821
 40
0.9128550148
 40
1.0
 40
1.0
 40
1.0
 40
1.0
 10
245.614601537
 20
214.1075585151
 30
0.0
 10
246.0787149538
 20
214.3755129218
 30
0.0
 10
247.1881016121
 20
214.6757947175
 30
0.0
 10
248.5907897434
 20
214.6046578755
 30
0.0
 10
249.620829166
 20
214.2615786794
 30
0.0
 10
250.2232411062
 20
213.894403241
 30
0.0
 10
250.6315217923
 20
213.4303256283
 30
0.0
 10
250.7356709018
 20
213.055867843
 30
0.0
 10
250.7358019127
 20
212.8828361245
 30
0.0
  0
SPLINE
  5
276
100
AcDbEntity
  8
0
100
AcDbSpline
 62
7
  6
CONTINUOUS
 70
0
 71
3
 72
9
 73
5
 74
0
 42
0.0000001
 43
0.0000001
 44
0.0000000001
 40
0.0
 40
0.0
 40
0.0
 40
0.0
 40
0.2445040774
 40
1.0
 40
1.0
 40
1.0
 40
1.0
 10
83.8682525972
 20
353.5219751729
 30
0.0
 10
83.8682202289
 20
353.5647253601
 30
0.0
 10
83.8791560398
 20
353.7395675715
 30
0.0
 10
83.9368465268
 20
353.9101349255
 30
0.0
 10
83.9984890268
 20
354.0269643447
 30
0.0
  0
SPLINE
  5
277
100
AcDbEntity
  8
0
100
AcDbSpline
 62
7
  6
CONTINUOUS
 70
0
 71
3
 72
9
 73
5
 74
0
 42
0.0000001
 43
0.0000001
 44
0.0000000001
 40
0.0
 40
0.0
 40
0.0
 40
0.0
 40
0.2258973245
 40
1.0
 40
1.0
 40
1.0
 40
1.0
 10
83.9984890268
 20
354.0269643447
 30
0.0
 10
84.0352569344
 20
354.0966495992
 30
0.0
 10
84.227171127
 20
354.3899433822
 30
0.0
 10
84.5129692698
 20
354.6116989852
 30
0.0
 10
84.746794622
 20
354.7466973094
 30
0.0
  0
SPLINE
  5
278
100
AcDbEntity
  8
0
100
AcDbSpline
 62
7
  6
CONTINUOUS
 70
0
 71
3
 72
9
 73
5
 74
0
 42
0.0000001
 43
0.0000001
 44
0.0000000001
 40
0.0
 40
0.0
 40
0.0
 40
0.0
 40
0.2445040774
 40
1.0
 40
1.0
 40
1.0
 40
1.0
 10
75.029725477
 20
310.8606174635
 30
0.0
 10
75.0296931087
 20
310.9033676507
 30
0.0
 10
75.0406289195
 20
311.078209862
 30
0.0
 10
75.0983194066
 20
311.2487772161
 30
0.0
 10
75.1599619065
 20
311.3656066353
 30
0.0
  0
SPLINE
  5
279
100
AcDbEntity
  8
0
100
AcDbSpline
 62
7
  6
CONTINUOUS
 70
0
 71
3
 72
9
 73
5
 74
0
 42
0.0000001
 43
0.0000001
 44
0.0000000001
 40
0.0
 40
0.0
 40
0.0
 40
0.0
 40
0.2258973245
 40
1.0
 40
1.0
 40
1.0
 40
1.0
 10
75.1599619065
 20
311.3656066353
 30
0.0
 10
75.1967298141
 20
311.4352918898
 30
0.0
 10
75.3886440068
 20
311.7285856727
 30
0.0
 10
75.6744421495
 20
311.9503412758
 30
0.0
 10
75.9082675018
 20
312.0853396
 30
0.0
  0
SPLINE
  5
27A
100
AcDbEntity
  8
0
100
AcDbSpline
 62
7
  6
CONTINUOUS
 70
0
 71
3
 72
9
 73
5
 74
0
 42
0.0000001
 43
0.0000001
 44
0.0000000001
 40
0.0
 40
0.0
 40
0.0
 40
0.0
 40
0.2445040774
 40
1.0
 40
1.0
 40
1.0
 40
1.0
 10
244.7360595122
 20
212.8828363786
 30
0.0
 10
244.736027144
 20
212.9255865658
 30
0.0
 10
244.7469629548
 20
213.1004287772
 30
0.0
 10
244.8046534419
 20
213.2709961312
 30
0.0
 10
244.8662959418
 20
213.3878255504
 30
0.0
  0
SPLINE
  5
27B
100
AcDbEntity
  8
0
100
AcDbSpline
 62
7
  6
CONTINUOUS
 70
0
 71
3
 72
9
 73
5
 74
0
 42
0.0000001
 43
0.0000001
 44
0.0000000001
 40
0.0
 40
0.0
 40
0.0
 40
0.0
 40
0.2258973245
 40
1.0
 40
1.0
 40
1.0
 40
1.0
 10
244.8662959418
 20
213.3878255504
 30
0.0
 10
244.9030638494
 20
213.4575108049
 30
0.0
 10
245.0949780421
 20
213.7508045879
 30
0.0
 10
245.3807761848
 20
213.9725601909
 30
0.0
 10
245.614601537
 20
214.1075585151
 30
0.0
  0
SPLINE
  5
27C
100
AcDbEntity
  8
0
100
AcDbSpline
 62
7
  6
CONTINUOUS
 70
0
 71
3
 72
9
 73
5
 74
0
 42
0.0000001
 43
0.0000001
 44
0.0000000001
 40
0.0
 40
0.0
 40
0.0
 40
0.0
 40
0.2445040774
 40
1.0
 40
1.0
 40
1.0
 40
1.0
 10
327.4672084663
 20
260.6474023816
 30
0.0
 10
327.467176098
 20
260.6901525688
 30
0.0
 10
327.4781119088
 20
260.8649947801
 30
0.0
 10
327.5358023959
 20
261.0355621342
 30
0.0
 10
327.5974448958
 20
261.1523915534
 30
0.0
  0
SPLINE
  5
27D
100
AcDbEntity
  8
0
100
AcDbSpline
 62
7
  6
CONTINUOUS
 70
0
 71
3
 72
9
 73
5
 74
0
 42
0.0000001
 43
0.0000001
 44
0.0000000001
 40
0.0
 40
0.0
 40
0.0
 40
0.0
 40
0.2258973245
 40
1.0
 40
1.0
 40
1.0
 40
1.0
 10
327.5974448958
 20
261.1523915534
 30
0.0
 10
327.6342128034
 20
261.2220768079
 30
0.0
 10
327.8261269961
 20
261.5153705908
 30
0.0
 10
328.1119251388
 20
261.7371261939
 30
0.0
 10
328.3457504911
 20
261.8721245181
 30
0.0
  0
SPLINE
  5
27E
100
AcDbEntity
  8
0
100
AcDbSpline
 62
7
  6
CONTINUOUS
 70
0
 71
3
 72
9
 73
5
 74
0
 42
0.0000001
 43
0.0000001
 44
0.0000000001
 40
0.0
 40
0.0
 40
0.0
 40
0.0
 40
0.2445040774
 40
1.0
 40
1.0
 40
1.0
 40
1.0
 10
318.628681346
 20
217.9860446722
 30
0.0
 10
318.6286489777
 20
218.0287948593
 30
0.0
 10
318.6395847886
 20
218.2036370707
 30
0.0
 10
318.6972752756
 20
218.3742044247
 30
0.0
 10
318.7589177756
 20
218.491033844
 30
0.0
  0
SPLINE
  5
27F
100
AcDbEntity
  8
0
100
AcDbSpline
 62
7
  6
CONTINUOUS
 70
0
 71
3
 72
9
 73
5
 74
0
 42
0.0000001
 43
0.0000001
 44
0.0000000001
 40
0.0
 40
0.0
 40
0.0
 40
0.0
 40
0.2258973245
 40
1.0
 40
1.0
 40
1.0
 40
1.0
 10
318.7589177756
 20
218.491033844
 30
0.0
 10
318.7956856832
 20
218.5607190984
 30
0.0
 10
318.9875998758
 20
218.8540128814
 30
0.0
 10
319.2733980186
 20
219.0757684845
 30
0.0
 10
319.5072233708
 20
219.2107668087
 30
0.0
  0
ENDSEC
  0
SECTION
  2
OBJECTS
  0
DICTIONARY
  5
C
100
AcDbDictionary
280
0
281
1
  3
ACAD_GROUP
350
D
  3
ACAD_MLINESTYLE
350
17
  3
ACAD_LAYOUT
350
1A
  3
ACAD_PLOTSETTINGS
350
19
  3
ACAD_PLOTSTYLENAME
350
E
  0
DICTIONARY
  5
D
102
{ACAD_REACTORS
330
C
102
}
100
AcDbDictionary
280
0
281
1
  0
ACDBDICTIONARYWDFLT
  5
E
102
{ACAD_REACTORS
330
C
102
}
100
AcDbDictionary
281
1
  3
Normal
350
F
100
AcDbDictionaryWithDefault
340
F
  0
DICTIONARY
  5
17
102
{ACAD_REACTORS
330
C
102
}
100
AcDbDictionary
280
0
281
1
  3
Standard
350
18
  0
DICTIONARY
  5
19
102
{ACAD_REACTORS
330
C
102
}
100
AcDbDictionary
281
1
  0
DICTIONARY
  5
1A
102
{ACAD_REACTORS
330
C
102
}
100
AcDbDictionary
281
1
  3
Model
350
280
  3
Layout1
350
281
  0
ACDBPLACEHOLDER
  5
F
102
{ACAD_REACTORS
330
E
102
}
  0
MLINESTYLE
  5
18
102
{ACAD_REACTORS
330
17
102
}
100
AcDbMlineStyle
  2
STANDARD
 70
0
  3

 62
256
 51
90.0
 52
90.0
 71
2
 49
0.5
 62
256
  6
BYLAYER
 49
-0.5
 62
256
  6
BYLAYER
  0
LAYOUT
  5
280
102
{ACAD_REACTORS
330
1A
102
}
100
AcDbPlotSettings
  1

  2
none_device
  4

  6

 40
0.0
 41
0.0
 42
0.0
 43
0.0
 44
210.0
 45
297.0
 46
0.0
 47
0.0
 48
0.0
 49
0.0
140
0.0
141
0.0
142
1.0
143
1.0
 70
1024
 72
1
 73
0
 74
0
  7

 75
0
147
1.0
148
0.0
149
0.0
100
AcDbLayout
  1
Model
 70
0
 71
0
 10
0.0
 20
0.0
 11
210.0
 21
297.0
 12
0.0
 22
0.0
 32
0.0
 14
0.0
 24
0.0
 34
0.0
 15
0.0
 25
0.0
 35
0.0
146
0.0
 13
0.0
 23
0.0
 33
0.0
 16
1.0
 26
0.0
 36
0.0
 17
0.0
 27
1.0
 37
0.0
 76
0
330
210
345
0
346
0
  0
LAYOUT
  5
281
102
{ACAD_REACTORS
330
1A
102
}
100
AcDbPlotSettings
  1

  2
none_device
  4

  6

 40
0.0
 41
0.0
 42
0.0
 43
0.0
 44
210.0
 45
297.0
 46
0.0
 47
0.0
 48
0.0
 49
0.0
140
0.0
141
0.0
142
1.0
143
1.0
 70
0
 72
1
 73
0
 74
0
  7

 75
0
147
1.0
148
0.0
149
0.0
100
AcDbLayout
  1
Layout1
 70
0
 71
1
 10
0.0
 20
0.0
 11
210.0
 21
297.0
 12
0.0
 22
0.0
 32
0.0
 14
0.0
 24
0.0
 34
0.0
 15
0.0
 25
0.0
 35
0.0
146
0.0
 13
0.0
 23
0.0
 33
0.0
 16
1.0
 26
0.0
 36
0.0
 17
0.0
 27
1.0
 37
0.0
 76
0
330
211
345
0
346
0
  0
ENDSEC
  0
EOF
