999
DXF file: C:\Users\sesa63760\Dev\_Creo\CAD\MCADID0004321_3D-CAD\drw0001_4.dxf
999
Pro/ENGINEER 2019471 by Parametric Technology Corporation
  0
SECTION
  2
HEADER
  9
$ACADVER
  1
AC1024
  9
$DWGCODEPAGE
  3
ANSI_1252
  9
$EXTMAX
 10
79.5744160318
 20
112.5409598164
 30
0.0
  9
$EXTMIN
 10
0.0
 20
0.0
 30
0.0
  9
$LIMMIN
 10
0.0
 20
0.0
  9
$LIMMAX
 10
79.5744160318
 20
112.5409598164
  9
$VIEWCTR
 10
39.7872080159
 20
56.2704799082
  9
$VIEWSIZE
 40
112.5409598164
  9
$CLAYER
  8
0
  9
$LTSCALE
 40
7.3360033066
  9
$CELTYPE
  6
BYLAYER
  9
$DIMSCALE
 40
1.0
  9
$DIMASZ
 40
0.9473144766
  9
$DIMEXO
 40
1.0
  9
$DIMDLI
 40
5.0685113754
  9
$DIMEXE
 40
1.0
  9
$DIMCEN
 40
1.2004369047
  9
$DIMLFAC
 40
1.0
  9
$DIMBLK
  1
_FILLED
  9
$DIMALT
 70
0
  9
$DIMALTF
 40
0.0393700787
  9
$DIMTXT
 40
1.3262402672
  9
$DIMTOL
 70
1
  9
$DIMLIM
 70
0
  9
$DIMTFAC
 40
1.0
  9
$DIMTP
 40
0.01
  9
$DIMTM
 40
0.01
  9
$DIMGAP
 40
0.625
  9
$DIMDSEP
 70
46
  9
$AUNITS
 70
0
  9
$PDMODE
 70
3
  9
$PDSIZE
 40
0.3125
  9
$HANDSEED
  5
34D
  9
$TILEMODE
 70
1
  9
$MEASUREMENT
 70
1
  9
$INSUNITS
 70
4
  0
ENDSEC
  0
SECTION
  2
CLASSES
  0
CLASS
  1
ACDBDICTIONARYWDFLT
  2
AcDbDictionaryWithDefault
  3
AutoCAD 2000
 90
0
 91
1
280
0
281
0
  0
CLASS
  1
ACDBPLACEHOLDER
  2
AcDbPlaceHolder
  3
AutoCAD 2000
 90
0
 91
1
280
0
281
0
  0
CLASS
  1
LAYOUT
  2
AcDbLayout
  3
AutoCAD 2000
 90
0
 91
0
280
0
281
0
  0
ENDSEC
  0
SECTION
  2
TABLES
  0
TABLE
  2
VPORT
  5
8
100
AcDbSymbolTable
 70
2
  0
VPORT
  5
1F4
100
AcDbSymbolTableRecord
100
AcDbViewportTableRecord
  2
*ACTIVE
 70
0
 10
0.0
 20
0.0
 11
1.0
 21
1.0
 12
39.7872080159
 22
56.2704799082
 13
0.0
 23
0.0
 14
1.0
 24
1.0
 15
0.0
 25
0.0
 16
0.0
 26
0.0
 36
1.0
 17
0.0
 27
0.0
 37
0.0
 40
112.5409598164
 41
0.7070707071
 42
50.0
 43
0.0
 44
0.0
 50
0.0
 51
0.0
 71
0
 72
100
 73
1
 74
1
 75
0
 76
0
 77
0
 78
0
  0
ENDTAB
  0
TABLE
  2
LTYPE
  5
5
100
AcDbSymbolTable
 70
6
  0
LTYPE
  5
14
100
AcDbSymbolTableRecord
100
AcDbLinetypeTableRecord
  2
BYBLOCK
 70
0
  3

 72
65
 73
0
 40
0.0
  0
LTYPE
  5
15
100
AcDbSymbolTableRecord
100
AcDbLinetypeTableRecord
  2
BYLAYER
 70
0
  3

 72
65
 73
0
 40
0.0
  0
LTYPE
  5
16
100
AcDbSymbolTableRecord
100
AcDbLinetypeTableRecord
  2
CONTINUOUS
 70
64
  3
Solid line
 72
65
 73
0
 40
0.0
  0
LTYPE
  5
1F5
100
AcDbSymbolTableRecord
100
AcDbLinetypeTableRecord
  2
CENTER
 70
64
  3
____ _ ____ _ ____ _ ____ _ ____ _ ____ _ ____
 72
65
 73
4
 40
0.6
 49
0.375
 74
0
 49
-0.075
 74
0
 49
0.075
 74
0
 49
-0.075
 74
0
  0
LTYPE
  5
1F6
100
AcDbSymbolTableRecord
100
AcDbLinetypeTableRecord
  2
HIDDEN
 70
64
  3
- - - - - - - - - - - - - - - - - - - -
 72
65
 73
2
 40
0.2
 49
0.1
 74
0
 49
-0.1
 74
0
  0
LTYPE
  5
1F7
100
AcDbSymbolTableRecord
100
AcDbLinetypeTableRecord
  2
PHANTOM
 70
64
  3
_____ _ _ _____ _ _ _____ _ _ _____
 72
65
 73
6
 40
0.8
 49
0.45
 74
0
 49
-0.05
 74
0
 49
0.1
 74
0
 49
-0.05
 74
0
 49
0.1
 74
0
 49
-0.05
 74
0
  0
LTYPE
  5
1F8
100
AcDbSymbolTableRecord
100
AcDbLinetypeTableRecord
  2
DOT
 70
64
  3
. . . . . . . . . . . . . . . . . . . .
 72
65
 73
2
 40
0.2
 49
0.1
 74
0
 49
-0.1
 74
0
  0
LTYPE
  5
1F9
100
AcDbSymbolTableRecord
100
AcDbLinetypeTableRecord
  2
DASHED
 70
64
  3
- - - - - - - - - - - - - - - - - - - -
 72
65
 73
2
 40
0.2
 49
0.1
 74
0
 49
-0.1
 74
0
  0
ENDTAB
  0
TABLE
  2
LAYER
  5
2
100
AcDbSymbolTable
 70
36
  0
LAYER
  5
10
100
AcDbSymbolTableRecord
100
AcDbLayerTableRecord
  2
0
 70
0
 62
7
  6
CONTINUOUS
370
-3
390
F
  0
LAYER
  5
1FA
100
AcDbSymbolTableRecord
100
AcDbLayerTableRecord
  2
DEFAULT_1
 70
0
 62
7
  6
CENTER
370
-3
390
F
  0
LAYER
  5
1FB
100
AcDbSymbolTableRecord
100
AcDbLayerTableRecord
  2
DEFAULT_2
 70
0
 62
7
  6
HIDDEN
370
-3
390
F
  0
LAYER
  5
1FC
100
AcDbSymbolTableRecord
100
AcDbLayerTableRecord
  2
DEFAULT_3
 70
0
 62
7
  6
PHANTOM
370
-3
390
F
  0
LAYER
  5
1FD
100
AcDbSymbolTableRecord
100
AcDbLayerTableRecord
  2
00_COMPONENTS
 70
0
 62
7
  6
CONTINUOUS
370
-3
390
F
  0
LAYER
  5
1FE
100
AcDbSymbolTableRecord
100
AcDbLayerTableRecord
  2
01_1_DEFAULT_DATUMS
 70
0
 62
7
  6
CONTINUOUS
370
-3
390
F
  0
LAYER
  5
1FF
100
AcDbSymbolTableRecord
100
AcDbLayerTableRecord
  2
01_PLANES
 70
0
 62
7
  6
CONTINUOUS
370
-3
390
F
  0
LAYER
  5
200
100
AcDbSymbolTableRecord
100
AcDbLayerTableRecord
  2
02_COORD_SYS
 70
0
 62
7
  6
CONTINUOUS
370
-3
390
F
  0
LAYER
  5
201
100
AcDbSymbolTableRecord
100
AcDbLayerTableRecord
  2
03_AXES
 70
0
 62
7
  6
CONTINUOUS
370
-3
390
F
  0
LAYER
  5
202
100
AcDbSymbolTableRecord
100
AcDbLayerTableRecord
  2
04_POINTS
 70
0
 62
7
  6
CONTINUOUS
370
-3
390
F
  0
LAYER
  5
203
100
AcDbSymbolTableRecord
100
AcDbLayerTableRecord
  2
05_CURVES
 70
0
 62
7
  6
CONTINUOUS
370
-3
390
F
  0
LAYER
  5
204
100
AcDbSymbolTableRecord
100
AcDbLayerTableRecord
  2
06_SURFS
 70
0
 62
7
  6
CONTINUOUS
370
-3
390
F
  0
LAYER
  5
205
100
AcDbSymbolTableRecord
100
AcDbLayerTableRecord
  2
07_COSMETICS
 70
0
 62
7
  6
CONTINUOUS
370
-3
390
F
  0
LAYER
  5
206
100
AcDbSymbolTableRecord
100
AcDbLayerTableRecord
  2
10_NOTES
 70
0
 62
7
  6
CONTINUOUS
370
-3
390
F
  0
LAYER
  5
207
100
AcDbSymbolTableRecord
100
AcDbLayerTableRecord
  2
11_NOTES_PUB
 70
0
 62
7
  6
CONTINUOUS
370
-3
390
F
  0
LAYER
  5
208
100
AcDbSymbolTableRecord
100
AcDbLayerTableRecord
  2
13_REF_GTOL
 70
0
 62
7
  6
CONTINUOUS
370
-3
390
F
  0
LAYER
  5
209
100
AcDbSymbolTableRecord
100
AcDbLayerTableRecord
  2
16_MISC
 70
0
 62
7
  6
CONTINUOUS
370
-3
390
F
  0
LAYER
  5
20A
100
AcDbSymbolTableRecord
100
AcDbLayerTableRecord
  2
17_NO_PRINT
 70
0
 62
7
  6
CONTINUOUS
370
-3
390
F
  0
LAYER
  5
20B
100
AcDbSymbolTableRecord
100
AcDbLayerTableRecord
  2
18_DATUM_CAMS_JOINTS
 70
0
 62
7
  6
CONTINUOUS
370
-3
390
F
  0
LAYER
  5
20C
100
AcDbSymbolTableRecord
100
AcDbLayerTableRecord
  2
19_DATUM_FUNCTIONAL
 70
0
 62
7
  6
CONTINUOUS
370
-3
390
F
  0
LAYER
  5
20D
100
AcDbSymbolTableRecord
100
AcDbLayerTableRecord
  2
20_DATUM_KINEMATIC_SCHEME
 70
0
 62
7
  6
CONTINUOUS
370
-3
390
F
  0
LAYER
  5
20E
100
AcDbSymbolTableRecord
100
AcDbLayerTableRecord
  2
_1
 70
0
 62
7
  6
CONTINUOUS
370
-3
390
F
  0
ENDTAB
  0
TABLE
  2
STYLE
  5
3
100
AcDbSymbolTable
 70
1
  0
STYLE
  5
11
100
AcDbSymbolTableRecord
100
AcDbTextStyleTableRecord
  2
STANDARD
 70
0
 40
0.0
 41
1.0
 50
0.0
 71
0
 42
0.2
  3
ARIAL.TTF
  4

  0
STYLE
  5
20F
100
AcDbSymbolTableRecord
100
AcDbTextStyleTableRecord
  2
TEXTSTYLE_1
 70
0
 40
0.0
 41
0.8
 50
0.0
 71
0
 42
0.2
  3
gdt
  4

  0
ENDTAB
  0
TABLE
  2
VIEW
  5
6
100
AcDbSymbolTable
 70
0
  0
ENDTAB
  0
TABLE
  2
UCS
  5
7
100
AcDbSymbolTable
 70
0
  0
ENDTAB
  0
TABLE
  2
APPID
  5
9
100
AcDbSymbolTable
 70
1
  0
APPID
  5
210
100
AcDbSymbolTableRecord
100
AcDbRegAppTableRecord
  2
ACAD
 70
0
  0
ENDTAB
  0
TABLE
  2
BLOCK_RECORD
  5
1
100
AcDbSymbolTable
 70
0
  0
BLOCK_RECORD
  5
211
100
AcDbSymbolTableRecord
100
AcDbBlockTableRecord
  2
*Model_Space
  0
BLOCK_RECORD
  5
212
100
AcDbSymbolTableRecord
100
AcDbBlockTableRecord
  2
*Paper_Space
  0
BLOCK_RECORD
  5
213
100
AcDbSymbolTableRecord
100
AcDbBlockTableRecord
  2
_FILLED
  0
ENDTAB
  0
TABLE
  2
DIMSTYLE
  5
A
100
AcDbSymbolTable
 70
1
100
AcDbDimStyleTable
 71
0
  0
DIMSTYLE
105
214
100
AcDbSymbolTableRecord
100
AcDbDimStyleTableRecord
  2
STANDARD
 70
0
  3

  4

 40
1.0
 41
0.9473144766
 42
1.0
 43
0.38
 44
1.0
 45
0.0
 46
0.0
 47
0.01
 48
0.01
140
1.3262402672
141
0.09
142
0.0
143
25.4
144
1.0
145
0.0
146
1.0
147
0.625
 71
1
 72
0
 73
0
 74
0
 75
0
 76
0
 77
1
 78
8
 79
2
170
0
171
1
172
0
173
0
174
0
175
0
176
0
177
0
178
0
270
2
179
2
271
2
272
2
273
2
274
2
275
0
280
0
281
0
282
0
283
1
284
8
285
0
286
0
287
3
288
0
340
11
278
46
341
213
342
213
343
213
344
213
  0
ENDTAB
  0
ENDSEC
  0
SECTION
  2
BLOCKS
  0
BLOCK
  5
20
100
AcDbEntity
  8
0
100
AcDbBlockBegin
  2
*Model_Space
 70
0
 10
0.0
 20
0.0
 30
0.0
  3
*Model_Space
  1

  0
ENDBLK
  5
21
100
AcDbEntity
  8
0
100
AcDbBlockEnd
  0
BLOCK
  5
1C
100
AcDbEntity
  8
0
100
AcDbBlockBegin
  2
*Paper_Space
 70
0
 10
0.0
 20
0.0
 30
0.0
  3
*Paper_Space
  1

  0
ENDBLK
  5
1D
100
AcDbEntity
  8
0
100
AcDbBlockEnd
  0
BLOCK
  5
215
100
AcDbEntity
  8
0
100
AcDbBlockBegin
  2
_FILLED
 70
64
 10
0.0
 20
0.0
  3
_FILLED
  1

  0
SOLID
  5
216
100
AcDbEntity
  8
0
  6
BYBLOCK
 62
0
100
AcDbTrace
 10
0.0
 20
0.0
 11
-1.0
 21
0.25
 12
-1.0
 22
-0.25
 13
-1.0
 23
-0.25
  0
ENDBLK
  5
217
100
AcDbEntity
  8
0
  6
BYBLOCK
 62
0
100
AcDbBlockEnd
  0
ENDSEC
  0
SECTION
  2
ENTITIES
  0
LINE
  5
218
100
AcDbEntity
  8
_1
100
AcDbLine
 62
7
  6
BYLAYER
 10
9.132576892
 20
44.1517925588
 11
9.0778908284
 21
45.7436685213
  0
LINE
  5
219
100
AcDbEntity
  8
_1
100
AcDbLine
 62
7
  6
BYLAYER
 10
8.8625501471
 20
44.3517925588
 11
8.8625501471
 21
45.7017925588
  0
LINE
  5
21A
100
AcDbEntity
  8
_1
100
AcDbLine
 62
7
  6
BYLAYER
 10
8.8625501471
 20
50.1004284156
 11
8.8625501471
 21
54.2011073262
  0
LINE
  5
21B
100
AcDbEntity
  8
_1
100
AcDbLine
 62
7
  6
BYLAYER
 10
9.0625501471
 20
43.9004220935
 11
9.0625501471
 21
45.7436685213
  0
LINE
  5
21C
100
AcDbEntity
  8
_1
100
AcDbLine
 62
7
  6
BYLAYER
 10
9.0625501471
 20
50.1702583267
 11
9.0625501471
 21
67.4011073262
  0
LINE
  5
21D
100
AcDbEntity
  8
_1
100
AcDbLine
 62
7
  6
BYLAYER
 10
9.0644570449
 20
45.899885661
 11
9.0635077301
 21
45.9013132259
  0
LINE
  5
21E
100
AcDbEntity
  8
_1
100
AcDbLine
 62
7
  6
BYLAYER
 10
11.7143664788
 20
50.2322977807
 11
11.7127793552
 21
50.2540556685
  0
LINE
  5
21F
100
AcDbEntity
  8
_1
100
AcDbLine
 62
7
  6
BYLAYER
 10
9.2997565595
 20
67.1645861464
 11
9.2997565595
 21
58.4814188219
  0
LINE
  5
220
100
AcDbEntity
  8
_1
100
AcDbLine
 62
7
  6
BYLAYER
 10
9.2997565595
 20
44.2415697948
 11
9.2997565595
 21
44.1376285059
  0
LINE
  5
221
100
AcDbEntity
  8
_1
100
AcDbLine
 62
7
  6
BYLAYER
 10
9.3125501471
 20
67.9011073262
 11
9.3125501471
 21
67.4011073262
  0
LINE
  5
222
100
AcDbEntity
  8
_1
100
AcDbLine
 62
7
  6
BYLAYER
 10
9.5625501471
 20
43.6011073262
 11
9.5625501471
 21
43.4511073262
  0
LINE
  5
223
100
AcDbEntity
  8
_1
100
AcDbLine
 62
7
  6
BYLAYER
 10
9.701418209
 20
49.5406606206
 11
9.701418209
 21
49.9254557211
  0
LINE
  5
224
100
AcDbEntity
  8
_1
100
AcDbLine
 62
7
  6
BYLAYER
 10
9.7990713269
 20
43.6383137385
 11
9.7990713269
 21
44.2411392963
  0
LINE
  5
225
100
AcDbEntity
  8
_1
100
AcDbLine
 62
7
  6
BYLAYER
 10
9.7990713269
 20
58.4814188219
 11
9.7990713269
 21
67.4011073262
  0
LINE
  5
226
100
AcDbEntity
  8
_1
100
AcDbLine
 62
7
  6
BYLAYER
 10
10.0125501471
 20
67.4011073262
 11
10.0125501471
 21
67.9011073262
  0
LINE
  5
227
100
AcDbEntity
  8
_1
100
AcDbLine
 62
7
  6
BYLAYER
 10
10.0625501471
 20
43.4511073262
 11
10.0625501471
 21
43.6011073262
  0
LINE
  5
228
100
AcDbEntity
  8
_1
100
AcDbLine
 62
7
  6
BYLAYER
 10
10.5625501471
 20
46.2011073262
 11
10.5625501471
 21
46.4011073262
  0
LINE
  5
229
100
AcDbEntity
  8
_1
100
AcDbLine
 62
7
  6
BYLAYER
 10
10.5625501471
 20
49.4011073262
 11
10.5625501471
 21
49.8011073262
  0
LINE
  5
22A
100
AcDbEntity
  8
_1
100
AcDbLine
 62
7
  6
BYLAYER
 10
9.0804052684
 20
50.1702583267
 11
9.132576892
 21
54.4011073262
  0
LINE
  5
22B
100
AcDbEntity
  8
_1
100
AcDbLine
 62
7
  6
BYLAYER
 10
9.2021034416
 20
50.039975388
 11
9.2934873972
 21
57.4507418201
  0
LINE
  5
22C
100
AcDbEntity
  8
_1
100
AcDbLine
 62
7
  6
BYLAYER
 10
9.7928021646
 20
57.3362221532
 11
9.701418209
 21
49.9254557211
  0
LINE
  5
22D
100
AcDbEntity
  8
_1
100
AcDbLine
 62
7
  6
BYLAYER
 10
9.2252535141
 20
45.7390891918
 11
9.0644674838
 21
45.8998752222
  0
LINE
  5
22E
100
AcDbEntity
  8
_1
100
AcDbLine
 62
7
  6
BYLAYER
 10
10.5625501471
 20
49.4011073262
 11
10.5160701808
 21
49.5406606206
  0
LINE
  5
22F
100
AcDbEntity
  8
_1
100
AcDbLine
 62
7
  6
BYLAYER
 10
11.7125537373
 20
50.2661367496
 11
10.726360256
 21
54.3811559545
  0
LINE
  5
230
100
AcDbEntity
  8
_1
100
AcDbLine
 62
7
  6
BYLAYER
 10
11.712984764
 20
50.2650262293
 11
10.7271175766
 21
54.3786839309
  0
LINE
  5
231
100
AcDbEntity
  8
_1
100
AcDbLine
 62
7
  6
BYLAYER
 10
13.1125501471
 20
67.9011073262
 11
13.1125501471
 21
68.0011073262
  0
LINE
  5
232
100
AcDbEntity
  8
_1
100
AcDbLine
 62
7
  6
BYLAYER
 10
13.5625501471
 20
49.8011073262
 11
13.5625501471
 21
49.4011073262
  0
LINE
  5
233
100
AcDbEntity
  8
_1
100
AcDbLine
 62
7
  6
BYLAYER
 10
13.5625501471
 20
46.4011073262
 11
13.5625501471
 21
46.2011073262
  0
LINE
  5
234
100
AcDbEntity
  8
_1
100
AcDbLine
 62
7
  6
BYLAYER
 10
9.5618649145
 20
46.4011073262
 11
9.7245738748
 21
46.2383983658
  0
LINE
  5
235
100
AcDbEntity
  8
_1
100
AcDbLine
 62
7
  6
BYLAYER
 10
13.5625501471
 20
46.4011073262
 11
13.6167423969
 21
46.2383983658
  0
LINE
  5
236
100
AcDbEntity
  8
_1
100
AcDbLine
 62
7
  6
BYLAYER
 10
10.978504486
 20
54.1419511553
 11
11.9124869636
 21
50.2447890821
  0
LINE
  5
237
100
AcDbEntity
  8
_1
100
AcDbLine
 62
7
  6
BYLAYER
 10
14.5625501471
 20
54.4011073262
 11
14.5625501471
 21
58.4814188219
  0
LINE
  5
238
100
AcDbEntity
  8
_1
100
AcDbLine
 62
7
  6
BYLAYER
 10
12.2126133307
 20
50.2447890821
 11
13.1465958082
 21
54.1419511553
  0
LINE
  5
239
100
AcDbEntity
  8
_1
100
AcDbLine
 62
7
  6
BYLAYER
 10
13.3979827177
 20
54.3786839309
 11
12.4121152705
 21
50.2650251451
  0
LINE
  5
23A
100
AcDbEntity
  8
_1
100
AcDbLine
 62
7
  6
BYLAYER
 10
13.3987400383
 20
54.3811559545
 11
12.412546485
 21
50.2661364494
  0
LINE
  5
23B
100
AcDbEntity
  8
_1
100
AcDbLine
 62
7
  6
BYLAYER
 10
10.5083578973
 20
46.2383983658
 11
10.5625501471
 21
46.4011073262
  0
LINE
  5
23C
100
AcDbEntity
  8
_1
100
AcDbLine
 62
7
  6
BYLAYER
 10
13.5625501471
 20
46.2011073262
 11
13.6259991803
 21
46.137658293
  0
LINE
  5
23D
100
AcDbEntity
  8
_1
100
AcDbLine
 62
7
  6
BYLAYER
 10
10.5625501471
 20
49.8011073262
 11
10.5084169482
 21
49.8552405251
  0
LINE
  5
23E
100
AcDbEntity
  8
_1
100
AcDbLine
 62
7
  6
BYLAYER
 10
16.1125501471
 20
67.9011073262
 11
16.1125501471
 21
68.0011073262
  0
LINE
  5
23F
100
AcDbEntity
  8
0
100
AcDbLine
 62
7
  6
BYLAYER
 10
17.1125501471
 20
68.1511073262
 11
17.1125501471
 21
67.9011073262
  0
LINE
  5
240
100
AcDbEntity
  8
_1
100
AcDbLine
 62
7
  6
BYLAYER
 10
17.1125501471
 20
67.9011073262
 11
17.1125501471
 21
67.6011073262
  0
LINE
  5
241
100
AcDbEntity
  8
0
100
AcDbLine
 62
7
  6
BYLAYER
 10
17.6125501471
 20
68.1511073262
 11
17.6125501471
 21
67.9011073262
  0
LINE
  5
242
100
AcDbEntity
  8
_1
100
AcDbLine
 62
7
  6
BYLAYER
 10
13.6090301135
 20
49.5406606206
 11
13.5625501471
 21
49.4011073262
  0
LINE
  5
243
100
AcDbEntity
  8
_1
100
AcDbLine
 62
7
  6
BYLAYER
 10
9.0635077301
 20
45.9013132259
 11
9.0625501471
 21
45.9017925588
  0
LINE
  5
244
100
AcDbEntity
  8
0
100
AcDbLine
 62
7
  6
BYLAYER
 10
20.3125501471
 20
68.1611073262
 11
20.3125501471
 21
68.1511073262
  0
LINE
  5
245
100
AcDbEntity
  8
0
100
AcDbLine
 62
7
  6
BYLAYER
 10
21.0625501471
 20
68.1511073262
 11
21.0625501471
 21
68.1611073262
  0
LINE
  5
246
100
AcDbEntity
  8
_1
100
AcDbLine
 62
7
  6
BYLAYER
 10
21.5625501471
 20
54.4011073262
 11
21.5625501471
 21
58.4814188219
  0
LINE
  5
247
100
AcDbEntity
  8
_1
100
AcDbLine
 62
7
  6
BYLAYER
 10
9.0625501471
 20
49.9004220935
 11
9.0644544508
 21
49.9023263971
  0
LINE
  5
248
100
AcDbEntity
  8
_1
100
AcDbLine
 62
7
  6
BYLAYER
 10
9.0644674838
 20
49.9023394301
 11
9.2021034416
 21
50.039975388
  0
LINE
  5
249
100
AcDbEntity
  8
_1
100
AcDbLine
 62
7
  6
BYLAYER
 10
9.701418209
 20
49.5406606206
 11
9.5618649145
 21
49.4011073262
  0
LINE
  5
24A
100
AcDbEntity
  8
0
100
AcDbLine
 62
7
  6
BYLAYER
 10
20.8452586733
 20
68.1611073262
 11
21.7938059327
 21
68.4511073262
  0
LINE
  5
24B
100
AcDbEntity
  8
_1
100
AcDbLine
 62
7
  6
BYLAYER
 10
18.1125501471
 20
67.9011073262
 11
17.1125501471
 21
67.6011073262
  0
LINE
  5
24C
100
AcDbEntity
  8
0
100
AcDbLine
 62
7
  6
BYLAYER
 10
25.5625501471
 20
68.1611073262
 11
25.5625501471
 21
68.1511073262
  0
LINE
  5
24D
100
AcDbEntity
  8
0
100
AcDbLine
 62
7
  6
BYLAYER
 10
26.3125501471
 20
68.1511073262
 11
26.3125501471
 21
68.1611073262
  0
LINE
  5
24E
100
AcDbEntity
  8
_1
100
AcDbLine
 62
7
  6
BYLAYER
 10
13.5625501471
 20
49.8011073262
 11
13.6166833461
 21
49.8552405251
  0
LINE
  5
24F
100
AcDbEntity
  8
_1
100
AcDbLine
 62
7
  6
BYLAYER
 10
10.5625501471
 20
46.2011073262
 11
10.499101114
 21
46.137658293
  0
LINE
  5
250
100
AcDbEntity
  8
_1
100
AcDbLine
 62
7
  6
BYLAYER
 10
9.0625501471
 20
43.9004220935
 11
9.2997565595
 21
44.1376285059
  0
LINE
  5
251
100
AcDbEntity
  8
0
100
AcDbLine
 62
7
  6
BYLAYER
 10
29.0452586733
 20
68.1611073262
 11
29.9938059327
 21
68.4511073262
  0
LINE
  5
252
100
AcDbEntity
  8
_1
100
AcDbLine
 62
7
  6
BYLAYER
 10
9.2997565595
 20
67.1645861464
 11
9.0632353798
 21
67.4011073262
  0
LINE
  5
253
100
AcDbEntity
  8
0
100
AcDbLine
 62
7
  6
BYLAYER
 10
28.5125501471
 20
68.1611073262
 11
28.5125501471
 21
68.1511073262
  0
LINE
  5
254
100
AcDbEntity
  8
0
100
AcDbLine
 62
7
  6
BYLAYER
 10
29.2625501471
 20
68.1511073262
 11
29.2625501471
 21
68.1611073262
  0
LINE
  5
255
100
AcDbEntity
  8
_1
100
AcDbLine
 62
7
  6
BYLAYER
 10
9.7990713269
 20
43.6383137385
 11
9.7618649145
 21
43.6011073262
  0
LINE
  5
256
100
AcDbEntity
  8
_1
100
AcDbLine
 62
7
  6
BYLAYER
 10
61.0625501471
 20
43.4011073262
 11
60.0625501471
 21
43.4011073262
  0
LINE
  5
257
100
AcDbEntity
  8
_1
100
AcDbLine
 62
7
  6
BYLAYER
 10
9.5625501471
 20
43.4511073262
 11
60.0625501471
 21
43.4511073262
  0
LINE
  5
258
100
AcDbEntity
  8
_1
100
AcDbLine
 62
7
  6
BYLAYER
 10
9.1620712873
 20
43.6011073262
 11
60.0625501471
 21
43.6011073262
  0
LINE
  5
259
100
AcDbEntity
  8
_1
100
AcDbLine
 62
7
  6
BYLAYER
 10
9.7990713269
 20
43.6383137385
 11
61.0625501471
 21
43.6383137385
  0
LINE
  5
25A
100
AcDbEntity
  8
_1
100
AcDbLine
 62
7
  6
BYLAYER
 10
61.0625501471
 20
44.1376285059
 11
9.2997565595
 21
44.1376285059
  0
LINE
  5
25B
100
AcDbEntity
  8
_1
100
AcDbLine
 62
7
  6
BYLAYER
 10
9.132576892
 20
44.1517925588
 11
9.0625501471
 21
44.1517925588
  0
LINE
  5
25C
100
AcDbEntity
  8
_1
100
AcDbLine
 62
7
  6
BYLAYER
 10
9.2997565595
 20
44.2411392963
 11
56.0694118771
 21
44.2411392963
  0
LINE
  5
25D
100
AcDbEntity
  8
_1
100
AcDbLine
 62
7
  6
BYLAYER
 10
9.0625501471
 20
45.7436685213
 11
9.0778908284
 21
45.7436685213
  0
LINE
  5
25E
100
AcDbEntity
  8
_1
100
AcDbLine
 62
7
  6
BYLAYER
 10
13.6259991803
 20
46.137658293
 11
10.499101114
 21
46.137658293
  0
LINE
  5
25F
100
AcDbEntity
  8
_1
100
AcDbLine
 62
7
  6
BYLAYER
 10
13.5625501471
 20
46.2011073262
 11
13.1230223885
 21
46.2011073262
  0
LINE
  5
260
100
AcDbEntity
  8
_1
100
AcDbLine
 62
7
  6
BYLAYER
 10
11.0020779058
 20
46.2011073262
 11
10.5625501471
 21
46.2011073262
  0
LINE
  5
261
100
AcDbEntity
  8
_1
100
AcDbLine
 62
7
  6
BYLAYER
 10
52.150099142
 20
46.2383983658
 11
13.6167423969
 21
46.2383983658
  0
LINE
  5
262
100
AcDbEntity
  8
_1
100
AcDbLine
 62
7
  6
BYLAYER
 10
10.5083578973
 20
46.2383983658
 11
9.7245738748
 21
46.2383983658
  0
LINE
  5
263
100
AcDbEntity
  8
_1
100
AcDbLine
 62
7
  6
BYLAYER
 10
9.5618649145
 20
46.4011073262
 11
10.5625501471
 21
46.4011073262
  0
LINE
  5
264
100
AcDbEntity
  8
_1
100
AcDbLine
 62
7
  6
BYLAYER
 10
13.5625501471
 20
46.4011073262
 11
51.0625501471
 21
46.4011073262
  0
LINE
  5
265
100
AcDbEntity
  8
0
100
AcDbLine
 62
7
  6
BYLAYER
 10
33.7625501471
 20
68.1611073262
 11
33.7625501471
 21
68.1511073262
  0
LINE
  5
266
100
AcDbEntity
  8
_1
100
AcDbLine
 62
7
  6
BYLAYER
 10
65.319016548
 20
48.6455361067
 11
66.0543263238
 21
48.6877614774
  0
LINE
  5
267
100
AcDbEntity
  8
0
100
AcDbLine
 62
7
  6
BYLAYER
 10
34.5125501471
 20
68.1511073262
 11
34.5125501471
 21
68.1611073262
  0
LINE
  5
268
100
AcDbEntity
  8
_1
100
AcDbLine
 62
7
  6
BYLAYER
 10
51.0625501471
 20
49.4011073262
 11
13.5625501471
 21
49.4011073262
  0
LINE
  5
269
100
AcDbEntity
  8
_1
100
AcDbLine
 62
7
  6
BYLAYER
 10
10.5625501471
 20
49.4011073262
 11
9.5618649145
 21
49.4011073262
  0
LINE
  5
26A
100
AcDbEntity
  8
_1
100
AcDbLine
 62
7
  6
BYLAYER
 10
9.701418209
 20
49.5406606206
 11
10.5160701808
 21
49.5406606206
  0
LINE
  5
26B
100
AcDbEntity
  8
_1
100
AcDbLine
 62
7
  6
BYLAYER
 10
13.6090301135
 20
49.5406606206
 11
51.8374729397
 21
49.5406606206
  0
LINE
  5
26C
100
AcDbEntity
  8
_1
100
AcDbLine
 62
7
  6
BYLAYER
 10
10.5625501471
 20
49.8011073262
 11
10.6606579913
 21
49.8011073262
  0
LINE
  5
26D
100
AcDbEntity
  8
_1
100
AcDbLine
 62
7
  6
BYLAYER
 10
13.464442303
 20
49.8011073262
 11
13.5625501471
 21
49.8011073262
  0
LINE
  5
26E
100
AcDbEntity
  8
_1
100
AcDbLine
 62
7
  6
BYLAYER
 10
10.5084169482
 20
49.8552405251
 11
13.6166833461
 21
49.8552405251
  0
LINE
  5
26F
100
AcDbEntity
  8
_1
100
AcDbLine
 62
7
  6
BYLAYER
 10
52.1649885161
 20
49.9254557211
 11
9.701418209
 21
49.9254557211
  0
LINE
  5
270
100
AcDbEntity
  8
_1
100
AcDbLine
 62
7
  6
BYLAYER
 10
9.0804052684
 20
50.1702583267
 11
9.0625501471
 21
50.1702583267
  0
LINE
  5
271
100
AcDbEntity
  8
0
100
AcDbLine
 62
7
  6
BYLAYER
 10
36.779046533
 20
68.1511073262
 11
36.779046533
 21
68.1611073262
  0
LINE
  5
272
100
AcDbEntity
  8
0
100
AcDbLine
 62
7
  6
BYLAYER
 10
37.3607581445
 20
68.1511073262
 11
37.3607581445
 21
68.1611073262
  0
LINE
  5
273
100
AcDbEntity
  8
0
100
AcDbLine
 62
7
  6
BYLAYER
 10
39.1058929791
 20
68.1511073262
 11
39.1058929791
 21
68.1611073262
  0
LINE
  5
274
100
AcDbEntity
  8
0
100
AcDbLine
 62
7
  6
BYLAYER
 10
40.6848244961
 20
68.1511073262
 11
40.6848244961
 21
68.1611073262
  0
LINE
  5
275
100
AcDbEntity
  8
_1
100
AcDbLine
 62
7
  6
BYLAYER
 10
72.6125501471
 20
59.1011073262
 11
71.2125501471
 21
58.9511073262
  0
LINE
  5
276
100
AcDbEntity
  8
_1
100
AcDbLine
 62
7
  6
BYLAYER
 10
66.3125501471
 20
57.6511073262
 11
65.5434675846
 21
57.5838213206
  0
LINE
  5
277
100
AcDbEntity
  8
_1
100
AcDbLine
 62
7
  6
BYLAYER
 10
10.978504486
 20
54.1419511553
 11
13.1465958082
 21
54.1419511553
  0
LINE
  5
278
100
AcDbEntity
  8
_1
100
AcDbLine
 62
7
  6
BYLAYER
 10
13.3987400383
 20
54.3811559545
 11
10.726360256
 21
54.3811559545
  0
LINE
  5
279
100
AcDbEntity
  8
_1
100
AcDbLine
 62
7
  6
BYLAYER
 10
63.2498254718
 20
54.4011073262
 11
63.1625501471
 21
54.4011073262
  0
LINE
  5
27A
100
AcDbEntity
  8
_1
100
AcDbLine
 62
7
  6
BYLAYER
 10
58.9625501471
 20
54.4011073262
 11
58.8752748225
 21
54.4011073262
  0
LINE
  5
27B
100
AcDbEntity
  8
_1
100
AcDbLine
 62
7
  6
BYLAYER
 10
9.132576892
 20
54.4011073262
 11
9.0625501471
 21
54.4011073262
  0
LINE
  5
27C
100
AcDbEntity
  8
0
100
AcDbLine
 62
7
  6
BYLAYER
 10
41.2665361077
 20
68.1511073262
 11
41.2665361077
 21
68.1611073262
  0
LINE
  5
27D
100
AcDbEntity
  8
0
100
AcDbLine
 62
7
  6
BYLAYER
 10
43.0116709422
 20
68.1511073262
 11
43.0116709422
 21
68.1611073262
  0
LINE
  5
27E
100
AcDbEntity
  8
_1
100
AcDbLine
 62
7
  6
BYLAYER
 10
58.8752748225
 20
56.4011073262
 11
58.9625501471
 21
56.4011073262
  0
LINE
  5
27F
100
AcDbEntity
  8
_1
100
AcDbLine
 62
7
  6
BYLAYER
 10
63.1625501471
 20
56.4011073262
 11
63.2498254718
 21
56.4011073262
  0
LINE
  5
280
100
AcDbEntity
  8
_1
100
AcDbLine
 62
7
  6
BYLAYER
 10
9.7928021646
 20
57.3362221532
 11
14.5625501471
 21
57.3362221532
  0
LINE
  5
281
100
AcDbEntity
  8
_1
100
AcDbLine
 62
7
  6
BYLAYER
 10
21.5625501471
 20
57.3362221532
 11
54.9240259939
 21
57.3362221532
  0
LINE
  5
282
100
AcDbEntity
  8
_1
100
AcDbLine
 62
7
  6
BYLAYER
 10
67.8075501471
 20
58.4011073262
 11
67.8175501471
 21
58.4011073262
  0
LINE
  5
283
100
AcDbEntity
  8
_1
100
AcDbLine
 62
7
  6
BYLAYER
 10
68.8075501471
 20
58.4011073262
 11
68.8175501471
 21
58.4011073262
  0
LINE
  5
284
100
AcDbEntity
  8
_1
100
AcDbLine
 62
7
  6
BYLAYER
 10
69.8075501471
 20
58.4011073262
 11
69.8175501471
 21
58.4011073262
  0
LINE
  5
285
100
AcDbEntity
  8
_1
100
AcDbLine
 62
7
  6
BYLAYER
 10
56.0694118771
 20
58.4814188219
 11
21.5625501471
 21
58.4814188219
  0
LINE
  5
286
100
AcDbEntity
  8
_1
100
AcDbLine
 62
7
  6
BYLAYER
 10
14.5625501471
 20
58.4814188219
 11
9.2997565595
 21
58.4814188219
  0
LINE
  5
287
100
AcDbEntity
  8
_1
100
AcDbLine
 62
7
  6
BYLAYER
 10
51.0625501471
 20
46.4011073262
 11
51.0762642034
 21
46.3873932699
  0
LINE
  5
288
100
AcDbEntity
  8
0
100
AcDbLine
 62
7
  6
BYLAYER
 10
44.7037025185
 20
68.1511073262
 11
44.7037025185
 21
68.1611073262
  0
LINE
  5
289
100
AcDbEntity
  8
_1
100
AcDbLine
 62
7
  6
BYLAYER
 10
68.3020456577
 20
66.3982888805
 11
68.307557665
 21
66.4011073262
  0
LINE
  5
28A
100
AcDbEntity
  8
_1
100
AcDbLine
 62
7
  6
BYLAYER
 10
69.3020456577
 20
66.3982888805
 11
69.307557665
 21
66.4011073262
  0
LINE
  5
28B
100
AcDbEntity
  8
_1
100
AcDbLine
 62
7
  6
BYLAYER
 10
66.3125501471
 20
58.9511073262
 11
67.3125501471
 21
58.9511073262
  0
LINE
  5
28C
100
AcDbEntity
  8
_1
100
AcDbLine
 62
7
  6
BYLAYER
 10
70.8125501471
 20
58.9511073262
 11
71.2125501471
 21
58.9511073262
  0
LINE
  5
28D
100
AcDbEntity
  8
_1
100
AcDbLine
 62
7
  6
BYLAYER
 10
70.0125501471
 20
59.1011073262
 11
70.8125501471
 21
59.1011073262
  0
LINE
  5
28E
100
AcDbEntity
  8
0
100
AcDbLine
 62
7
  6
BYLAYER
 10
45.8371273411
 20
68.1511073262
 11
45.8371273411
 21
68.1611073262
  0
LINE
  5
28F
100
AcDbEntity
  8
0
100
AcDbLine
 62
7
  6
BYLAYER
 10
46.2323819274
 20
68.1611073262
 11
46.2323819274
 21
68.1511073262
  0
LINE
  5
290
100
AcDbEntity
  8
0
100
AcDbLine
 62
7
  6
BYLAYER
 10
47.5822621757
 20
68.1511073262
 11
47.5822621757
 21
68.1611073262
  0
LINE
  5
291
100
AcDbEntity
  8
0
100
AcDbLine
 62
7
  6
BYLAYER
 10
48.7041345693
 20
68.1611073262
 11
48.7041345693
 21
68.1511073262
  0
LINE
  5
292
100
AcDbEntity
  8
_1
100
AcDbLine
 62
7
  6
BYLAYER
 10
54.9242152085
 20
57.3362221532
 11
56.0694118771
 21
58.4814188219
  0
LINE
  5
293
100
AcDbEntity
  8
_1
100
AcDbLine
 62
7
  6
BYLAYER
 10
64.323950842
 20
65.9735436159
 11
64.8875708502
 21
66.0059096534
  0
LINE
  5
294
100
AcDbEntity
  8
0
100
AcDbLine
 62
7
  6
BYLAYER
 10
24.8312943616
 20
68.4511073262
 11
25.7798416209
 21
68.1611073262
  0
LINE
  5
295
100
AcDbEntity
  8
0
100
AcDbLine
 62
7
  6
BYLAYER
 10
50.9478793567
 20
68.1511073262
 11
50.9478793567
 21
68.1611073262
  0
LINE
  5
296
100
AcDbEntity
  8
_1
100
AcDbLine
 62
7
  6
BYLAYER
 10
51.0625501471
 20
46.4011073262
 11
51.0625501471
 21
49.4011073262
  0
LINE
  5
297
100
AcDbEntity
  8
_1
100
AcDbLine
 62
7
  6
BYLAYER
 10
51.0762642034
 20
49.4148213824
 11
51.0762642034
 21
46.3873932699
  0
LINE
  5
298
100
AcDbEntity
  8
_1
100
AcDbLine
 62
7
  6
BYLAYER
 10
67.8230546368
 20
58.403925772
 11
67.8175426293
 21
58.4011073262
  0
LINE
  5
299
100
AcDbEntity
  8
_1
100
AcDbLine
 62
7
  6
BYLAYER
 10
68.8230546368
 20
58.403925772
 11
68.8175426293
 21
58.4011073262
  0
LINE
  5
29A
100
AcDbEntity
  8
_1
100
AcDbLine
 62
7
  6
BYLAYER
 10
69.8230587377
 20
58.4039256111
 11
69.8175194631
 21
58.4011073262
  0
LINE
  5
29B
100
AcDbEntity
  8
_1
100
AcDbLine
 62
7
  6
BYLAYER
 10
70.0125501471
 20
65.7011073262
 11
70.8125501471
 21
65.7011073262
  0
LINE
  5
29C
100
AcDbEntity
  8
_1
100
AcDbLine
 62
7
  6
BYLAYER
 10
66.3125501471
 20
65.8511073262
 11
67.3125501471
 21
65.8511073262
  0
LINE
  5
29D
100
AcDbEntity
  8
_1
100
AcDbLine
 62
7
  6
BYLAYER
 10
70.8125501471
 20
65.8511073262
 11
71.2125501471
 21
65.8511073262
  0
LINE
  5
29E
100
AcDbEntity
  8
_1
100
AcDbLine
 62
7
  6
BYLAYER
 10
67.3125501471
 20
66.4011073262
 11
67.3175501471
 21
66.4011073262
  0
LINE
  5
29F
100
AcDbEntity
  8
_1
100
AcDbLine
 62
7
  6
BYLAYER
 10
68.3075501471
 20
66.4011073262
 11
68.3175501471
 21
66.4011073262
  0
LINE
  5
2A0
100
AcDbEntity
  8
_1
100
AcDbLine
 62
7
  6
BYLAYER
 10
69.3075501471
 20
66.4011073262
 11
69.3175501471
 21
66.4011073262
  0
LINE
  5
2A1
100
AcDbEntity
  8
_1
100
AcDbLine
 62
7
  6
BYLAYER
 10
9.2997565595
 20
67.1645861464
 11
63.0625501471
 21
67.1645861464
  0
LINE
  5
2A2
100
AcDbEntity
  8
_1
100
AcDbLine
 62
7
  6
BYLAYER
 10
9.0625501471
 20
67.4011073262
 11
62.7625501471
 21
67.4011073262
  0
LINE
  5
2A3
100
AcDbEntity
  8
_1
100
AcDbLine
 62
7
  6
BYLAYER
 10
63.0625501471
 20
67.6639009138
 11
62.7625501471
 21
67.6639009138
  0
LINE
  5
2A4
100
AcDbEntity
  8
0
100
AcDbLine
 62
7
  6
BYLAYER
 10
33.0312943616
 20
68.4511073262
 11
33.9798416209
 21
68.1611073262
  0
LINE
  5
2A5
100
AcDbEntity
  8
_1
100
AcDbLine
 62
7
  6
BYLAYER
 10
68.3019877299
 20
66.3982889608
 11
67.8124920738
 21
65.9042430399
  0
LINE
  5
2A6
100
AcDbEntity
  8
_1
100
AcDbLine
 62
7
  6
BYLAYER
 10
69.3019877299
 20
66.3982889608
 11
68.8124920738
 21
65.9042430399
  0
LINE
  5
2A7
100
AcDbEntity
  8
_1
100
AcDbLine
 62
7
  6
BYLAYER
 10
70.0125501471
 20
66.1061480397
 11
69.8124920493
 21
65.9042430627
  0
LINE
  5
2A8
100
AcDbEntity
  8
_1
100
AcDbLine
 62
7
  6
BYLAYER
 10
51.0625501471
 20
49.4011073262
 11
51.0762642034
 21
49.4148213824
  0
LINE
  5
2A9
100
AcDbEntity
  8
_1
100
AcDbLine
 62
7
  6
BYLAYER
 10
62.5125501471
 20
67.9011073262
 11
59.5125501471
 21
67.9011073262
  0
LINE
  5
2AA
100
AcDbEntity
  8
_1
100
AcDbLine
 62
7
  6
BYLAYER
 10
58.5125501471
 20
67.9011073262
 11
18.1125501471
 21
67.9011073262
  0
LINE
  5
2AB
100
AcDbEntity
  8
_1
100
AcDbLine
 62
7
  6
BYLAYER
 10
9.3125501471
 20
67.9011073262
 11
17.1125501471
 21
67.9011073262
  0
LINE
  5
2AC
100
AcDbEntity
  8
0
100
AcDbLine
 62
7
  6
BYLAYER
 10
17.1125501471
 20
67.9011073262
 11
18.1125501471
 21
67.9011073262
  0
LINE
  5
2AD
100
AcDbEntity
  8
0
100
AcDbLine
 62
7
  6
BYLAYER
 10
58.5125501471
 20
67.9011073262
 11
59.3125501471
 21
67.9011073262
  0
LINE
  5
2AE
100
AcDbEntity
  8
_1
100
AcDbLine
 62
7
  6
BYLAYER
 10
62.7625501471
 20
67.9011073262
 11
63.0625501471
 21
67.9011073262
  0
LINE
  5
2AF
100
AcDbEntity
  8
_1
100
AcDbLine
 62
7
  6
BYLAYER
 10
13.1125501471
 20
68.0011073262
 11
16.1125501471
 21
68.0011073262
  0
LINE
  5
2B0
100
AcDbEntity
  8
0
100
AcDbLine
 62
7
  6
BYLAYER
 10
17.1125501471
 20
68.1511073262
 11
59.3125501471
 21
68.1511073262
  0
LINE
  5
2B1
100
AcDbEntity
  8
0
100
AcDbLine
 62
7
  6
BYLAYER
 10
43.0116709422
 20
68.1611073262
 11
40.6848244961
 21
68.1611073262
  0
LINE
  5
2B2
100
AcDbEntity
  8
0
100
AcDbLine
 62
7
  6
BYLAYER
 10
39.1058929791
 20
68.1611073262
 11
36.779046533
 21
68.1611073262
  0
LINE
  5
2B3
100
AcDbEntity
  8
0
100
AcDbLine
 62
7
  6
BYLAYER
 10
20.3125501471
 20
68.1611073262
 11
26.3125501471
 21
68.1611073262
  0
LINE
  5
2B4
100
AcDbEntity
  8
0
100
AcDbLine
 62
7
  6
BYLAYER
 10
28.5125501471
 20
68.1611073262
 11
34.5125501471
 21
68.1611073262
  0
LINE
  5
2B5
100
AcDbEntity
  8
0
100
AcDbLine
 62
7
  6
BYLAYER
 10
44.7037543044
 20
68.1611073262
 11
50.9477803779
 21
68.1611073262
  0
LINE
  5
2B6
100
AcDbEntity
  8
0
100
AcDbLine
 62
7
  6
BYLAYER
 10
21.7938059327
 20
68.4511073262
 11
24.8312943616
 21
68.4511073262
  0
LINE
  5
2B7
100
AcDbEntity
  8
0
100
AcDbLine
 62
7
  6
BYLAYER
 10
29.9938059327
 20
68.4511073262
 11
33.0312943616
 21
68.4511073262
  0
LINE
  5
2B8
100
AcDbEntity
  8
_1
100
AcDbLine
 62
7
  6
BYLAYER
 10
66.3125501471
 20
67.1511073262
 11
64.4807001785
 21
67.3113734317
  0
LINE
  5
2B9
100
AcDbEntity
  8
_1
100
AcDbLine
 62
7
  6
BYLAYER
 10
72.6125501471
 20
65.7011073262
 11
71.2125501471
 21
65.8511073262
  0
LINE
  5
2BA
100
AcDbEntity
  8
_1
100
AcDbLine
 62
7
  6
BYLAYER
 10
56.0694118771
 20
44.2411392963
 11
56.0694118771
 21
58.4814188219
  0
LINE
  5
2BB
100
AcDbEntity
  8
_1
100
AcDbLine
 62
7
  6
BYLAYER
 10
69.8019654443
 20
58.4039256606
 11
69.8075279042
 21
58.4011073262
  0
LINE
  5
2BC
100
AcDbEntity
  8
_1
100
AcDbLine
 62
7
  6
BYLAYER
 10
67.8020456577
 20
58.4039257718
 11
67.807557665
 21
58.4011073262
  0
LINE
  5
2BD
100
AcDbEntity
  8
_1
100
AcDbLine
 62
7
  6
BYLAYER
 10
68.8020456577
 20
58.4039257718
 11
68.807557665
 21
58.4011073262
  0
LINE
  5
2BE
100
AcDbEntity
  8
0
100
AcDbLine
 62
7
  6
BYLAYER
 10
58.8125501471
 20
68.1511073262
 11
58.8125501471
 21
67.9011073262
  0
LINE
  5
2BF
100
AcDbEntity
  8
_1
100
AcDbLine
 62
7
  6
BYLAYER
 10
58.8752748225
 20
54.4011073262
 11
58.8752748225
 21
56.4011073262
  0
LINE
  5
2C0
100
AcDbEntity
  8
_1
100
AcDbLine
 62
7
  6
BYLAYER
 10
58.9625501471
 20
54.4011073262
 11
58.9625501471
 21
56.4011073262
  0
LINE
  5
2C1
100
AcDbEntity
  8
0
100
AcDbLine
 62
7
  6
BYLAYER
 10
59.3125501471
 20
68.1511073262
 11
59.3125501471
 21
67.9011073262
  0
LINE
  5
2C2
100
AcDbEntity
  8
_1
100
AcDbLine
 62
7
  6
BYLAYER
 10
67.8231125646
 20
58.4039256917
 11
68.3126082182
 21
58.8979716124
  0
LINE
  5
2C3
100
AcDbEntity
  8
_1
100
AcDbLine
 62
7
  6
BYLAYER
 10
68.8231125646
 20
58.4039256917
 11
69.3126082182
 21
58.8979716124
  0
LINE
  5
2C4
100
AcDbEntity
  8
_1
100
AcDbLine
 62
7
  6
BYLAYER
 10
59.5125501471
 20
67.6011073262
 11
58.5125501471
 21
67.9011073262
  0
LINE
  5
2C5
100
AcDbEntity
  8
_1
100
AcDbLine
 62
7
  6
BYLAYER
 10
59.5125501471
 20
67.6011073262
 11
59.5125501471
 21
67.9011073262
  0
LINE
  5
2C6
100
AcDbEntity
  8
_1
100
AcDbLine
 62
7
  6
BYLAYER
 10
59.5625501471
 20
43.6011073262
 11
59.5625501471
 21
43.4511073262
  0
LINE
  5
2C7
100
AcDbEntity
  8
_1
100
AcDbLine
 62
7
  6
BYLAYER
 10
60.0625501471
 20
43.4011073262
 11
60.0625501471
 21
43.6011073262
  0
LINE
  5
2C8
100
AcDbEntity
  8
_1
100
AcDbLine
 62
7
  6
BYLAYER
 10
61.0625501471
 20
44.1376285059
 11
61.0625501471
 21
43.4011073262
  0
LINE
  5
2C9
100
AcDbEntity
  8
_1
100
AcDbLine
 62
7
  6
BYLAYER
 10
69.8231122754
 20
58.4039255364
 11
70.0125501471
 21
58.5951366073
  0
LINE
  5
2CA
100
AcDbEntity
  8
_1
100
AcDbLine
 62
7
  6
BYLAYER
 10
62.5125501471
 20
67.9011073262
 11
62.5125501471
 21
67.4011073262
  0
LINE
  5
2CB
100
AcDbEntity
  8
_1
100
AcDbLine
 62
7
  6
BYLAYER
 10
62.7625501471
 20
67.4011073262
 11
62.7625501471
 21
67.9011073262
  0
LINE
  5
2CC
100
AcDbEntity
  8
_1
100
AcDbLine
 62
7
  6
BYLAYER
 10
63.0625501471
 20
67.9011073262
 11
63.0625501471
 21
67.1645861464
  0
LINE
  5
2CD
100
AcDbEntity
  8
_1
100
AcDbLine
 62
7
  6
BYLAYER
 10
63.1625501471
 20
56.4011073262
 11
63.1625501471
 21
54.4011073262
  0
LINE
  5
2CE
100
AcDbEntity
  8
_1
100
AcDbLine
 62
7
  6
BYLAYER
 10
63.2498254718
 20
56.4011073262
 11
63.2498254718
 21
54.4011073262
  0
LINE
  5
2CF
100
AcDbEntity
  8
_1
100
AcDbLine
 62
7
  6
BYLAYER
 10
68.3230546368
 20
66.3982888803
 11
68.3175426293
 21
66.4011073262
  0
LINE
  5
2D0
100
AcDbEntity
  8
_1
100
AcDbLine
 62
7
  6
BYLAYER
 10
69.3230546368
 20
66.3982888803
 11
69.3175426293
 21
66.4011073262
  0
LINE
  5
2D1
100
AcDbEntity
  8
_1
100
AcDbLine
 62
7
  6
BYLAYER
 10
67.3230173155
 20
66.3982888283
 11
67.3175061769
 21
66.4011073262
  0
LINE
  5
2D2
100
AcDbEntity
  8
_1
100
AcDbLine
 62
7
  6
BYLAYER
 10
67.3125501471
 20
58.8979132379
 11
67.8019877299
 21
58.4039256915
  0
LINE
  5
2D3
100
AcDbEntity
  8
_1
100
AcDbLine
 62
7
  6
BYLAYER
 10
68.3062211011
 20
58.904300392
 11
68.8019877299
 21
58.4039256915
  0
LINE
  5
2D4
100
AcDbEntity
  8
_1
100
AcDbLine
 62
7
  6
BYLAYER
 10
69.3062211011
 20
58.904300392
 11
69.8019877299
 21
58.4039256915
  0
LINE
  5
2D5
100
AcDbEntity
  8
_1
100
AcDbLine
 62
7
  6
BYLAYER
 10
65.319016548
 20
48.6455361067
 11
64.323950842
 21
65.9735436159
  0
LINE
  5
2D6
100
AcDbEntity
  8
_1
100
AcDbLine
 62
7
  6
BYLAYER
 10
64.8224443541
 20
66.0021697461
 11
64.9258134867
 21
64.2021066003
  0
LINE
  5
2D7
100
AcDbEntity
  8
_1
100
AcDbLine
 62
7
  6
BYLAYER
 10
65.1298535839
 20
60.6489660229
 11
65.8175100601
 21
48.6741622368
  0
LINE
  5
2D8
100
AcDbEntity
  8
_1
100
AcDbLine
 62
7
  6
BYLAYER
 10
65.5434675846
 20
57.5838213206
 11
66.0543263238
 21
48.6877614774
  0
LINE
  5
2D9
100
AcDbEntity
  8
_1
100
AcDbLine
 62
7
  6
BYLAYER
 10
66.3125501471
 20
67.151098329
 11
66.3125501471
 21
57.6511163233
  0
LINE
  5
2DA
100
AcDbEntity
  8
_1
100
AcDbLine
 62
7
  6
BYLAYER
 10
67.3125501471
 20
58.8979745656
 11
67.3125501471
 21
66.4011072991
  0
LINE
  5
2DB
100
AcDbEntity
  8
_1
100
AcDbLine
 62
7
  6
BYLAYER
 10
67.8188791928
 20
65.8979142606
 11
67.3231125646
 21
66.3982889606
  0
LINE
  5
2DC
100
AcDbEntity
  8
_1
100
AcDbLine
 62
7
  6
BYLAYER
 10
68.8188791928
 20
65.8979142606
 11
68.3231125646
 21
66.3982889606
  0
LINE
  5
2DD
100
AcDbEntity
  8
_1
100
AcDbLine
 62
7
  6
BYLAYER
 10
69.8188792688
 20
65.897914184
 11
69.3231125646
 21
66.3982889606
  0
LINE
  5
2DE
100
AcDbEntity
  8
_1
100
AcDbLine
 62
7
  6
BYLAYER
 10
70.0125501471
 20
66.1059511759
 11
70.0125501471
 21
58.5949096378
  0
LINE
  5
2DF
100
AcDbEntity
  8
_1
100
AcDbLine
 62
7
  6
BYLAYER
 10
70.8125501471
 20
58.9511530464
 11
70.8125501471
 21
65.8510616059
  0
LINE
  5
2E0
100
AcDbEntity
  8
_1
100
AcDbLine
 62
7
  6
BYLAYER
 10
71.2125501471
 20
65.8511073262
 11
71.2125501471
 21
58.9511073262
  0
LINE
  5
2E1
100
AcDbEntity
  8
_1
100
AcDbLine
 62
7
  6
BYLAYER
 10
72.6125501471
 20
65.7011036833
 11
72.6125501471
 21
59.101110969
  0
LINE
  5
2E2
100
AcDbEntity
  8
_1
100
AcDbLine
 62
7
  6
BYLAYER
 10
72.778101377
 20
63.8311817995
 11
72.778101377
 21
63.7311817995
  0
LINE
  5
2E3
100
AcDbEntity
  8
_1
100
AcDbLine
 62
7
  6
BYLAYER
 10
72.778101377
 20
61.8311817995
 11
72.778101377
 21
61.7311817995
  0
ARC
  5
2E4
100
AcDbEntity
  8
_1
100
AcDbCircle
 62
7
  6
BYLAYER
 10
61.0625501471
 20
48.4011073262
 40
5.0
100
AcDbArc
 50
270.0
 51
3.2866167106
  0
ARC
  5
2E5
100
AcDbEntity
  8
_1
100
AcDbCircle
 62
7
  6
BYLAYER
 10
61.0625501471
 20
48.4011073262
 40
4.7627935876
100
AcDbArc
 50
270.0
 51
3.2866167106
  0
ARC
  5
2E6
100
AcDbEntity
  8
_1
100
AcDbCircle
 62
7
  6
BYLAYER
 10
61.0625501471
 20
48.4011073262
 40
4.2634788202
100
AcDbArc
 50
270.0
 51
3.2866167106
  0
ARC
  5
2E7
100
AcDbEntity
  8
_1
100
AcDbCircle
 62
7
  6
BYLAYER
 10
18.0625501471
 20
54.4011073262
 40
3.5
100
AcDbArc
 50
180.0
 51
360.0
  0
ARC
  5
2E8
100
AcDbEntity
  8
_1
100
AcDbCircle
 62
7
  6
BYLAYER
 10
11.2596474467
 20
56.5786444965
 40
3.0818904196
100
AcDbArc
 50
307.7538042262
 51
309.1159301742
  0
ARC
  5
2E9
100
AcDbEntity
  8
_1
100
AcDbCircle
 62
7
  6
BYLAYER
 10
12.8654365315
 20
56.5786239308
 40
3.0818641695
100
AcDbArc
 50
230.8840632555
 51
232.2462015094
  0
ARC
  5
2EA
100
AcDbEntity
  8
_1
100
AcDbCircle
 62
7
  6
BYLAYER
 10
12.0625501471
 20
52.5011073262
 40
3.0
100
AcDbArc
 50
244.8690552299
 51
295.1309185218
  0
CIRCLE
  5
2EB
100
AcDbEntity
  8
_1
100
AcDbCircle
 62
7
  6
BYLAYER
 10
61.0625501471
 20
48.4011073262
 40
2.1872753246
  0
CIRCLE
  5
2EC
100
AcDbEntity
  8
_1
100
AcDbCircle
 62
7
  6
BYLAYER
 10
18.0625501471
 20
54.4011073262
 40
2.1872753246
  0
ARC
  5
2ED
100
AcDbEntity
  8
_1
100
AcDbCircle
 62
7
  6
BYLAYER
 10
61.0625501471
 20
56.4011073262
 40
2.1872753246
100
AcDbArc
 50
0.0
 51
180.0
  0
ARC
  5
2EE
100
AcDbEntity
  8
_1
100
AcDbCircle
 62
7
  6
BYLAYER
 10
61.0625501471
 20
54.4011073262
 40
2.1872753246
100
AcDbArc
 50
180.0
 51
360.0
  0
ARC
  5
2EF
100
AcDbEntity
  8
_1
100
AcDbCircle
 62
7
  6
BYLAYER
 10
61.0625501471
 20
54.4011073262
 40
2.1
100
AcDbArc
 50
180.0
 51
360.0
  0
ARC
  5
2F0
100
AcDbEntity
  8
_1
100
AcDbCircle
 62
7
  6
BYLAYER
 10
61.0625501471
 20
56.4011073262
 40
2.1
100
AcDbArc
 50
0.0
 51
180.0
  0
CIRCLE
  5
2F1
100
AcDbEntity
  8
_1
100
AcDbCircle
 62
7
  6
BYLAYER
 10
18.0625501471
 20
54.4011073262
 40
2.1
  0
CIRCLE
  5
2F2
100
AcDbEntity
  8
_1
100
AcDbCircle
 62
7
  6
BYLAYER
 10
61.0625501471
 20
48.4011073262
 40
2.1
  0
ARC
  5
2F3
100
AcDbEntity
  8
_1
100
AcDbCircle
 62
7
  6
BYLAYER
 10
63.0625501471
 20
65.9011073262
 40
2.0
100
AcDbArc
 50
44.8376821557
 51
90.0
  0
ARC
  5
2F4
100
AcDbEntity
  8
_1
100
AcDbCircle
 62
7
  6
BYLAYER
 10
63.0625501471
 20
65.9011073262
 40
1.7627935876
100
AcDbArc
 50
3.2866167106
 51
90.0
  0
ARC
  5
2F5
100
AcDbEntity
  8
_1
100
AcDbCircle
 62
7
  6
BYLAYER
 10
12.0625501471
 20
44.9611073262
 40
1.34
100
AcDbArc
 50
71.2107851865
 51
108.7814561016
  0
ARC
  5
2F6
100
AcDbEntity
  8
_1
100
AcDbCircle
 62
7
  6
BYLAYER
 10
63.0625501471
 20
65.9011073262
 40
1.2634788202
100
AcDbArc
 50
3.2866167106
 51
90.0
  0
ARC
  5
2F7
100
AcDbEntity
  8
_1
100
AcDbCircle
 62
7
  6
BYLAYER
 10
9.7997348644
 20
67.1633845182
 40
0.4998993139
100
AcDbArc
 50
151.6053951445
 51
153.7860543655
  0
ARC
  5
2F8
100
AcDbEntity
  8
_1
100
AcDbCircle
 62
7
  6
BYLAYER
 10
9.5616395895
 20
45.9020178838
 40
0.4990888604
100
AcDbArc
 50
89.9741325499
 51
180.0258674501
  0
ARC
  5
2F9
100
AcDbEntity
  8
_1
100
AcDbCircle
 62
7
  6
BYLAYER
 10
9.5616395895
 20
49.9001967686
 40
0.4990888604
100
AcDbArc
 50
179.9741325549
 51
270.0258674451
  0
ARC
  5
2FA
100
AcDbEntity
  8
_1
100
AcDbCircle
 62
7
  6
BYLAYER
 10
72.328101377
 20
63.8311817995
 40
0.45
100
AcDbArc
 50
0.0
 51
53.9895886568
  0
ARC
  5
2FB
100
AcDbEntity
  8
_1
100
AcDbCircle
 62
7
  6
BYLAYER
 10
72.328101377
 20
63.7311817995
 40
0.45
100
AcDbArc
 50
306.0104113432
 51
360.0
  0
ARC
  5
2FC
100
AcDbEntity
  8
_1
100
AcDbCircle
 62
7
  6
BYLAYER
 10
72.328101377
 20
61.8311817995
 40
0.45
100
AcDbArc
 50
0.0
 51
53.9895886568
  0
ARC
  5
2FD
100
AcDbEntity
  8
_1
100
AcDbCircle
 62
7
  6
BYLAYER
 10
72.328101377
 20
61.7311817995
 40
0.45
100
AcDbArc
 50
306.0104113432
 51
360.0
  0
ARC
  5
2FE
100
AcDbEntity
  8
_1
100
AcDbCircle
 62
7
  6
BYLAYER
 10
12.0239361586
 20
50.2659092651
 40
0.3113825044
100
AcDbArc
 50
179.9581418359
 51
182.1816421563
  0
ARC
  5
2FF
100
AcDbEntity
  8
_1
100
AcDbCircle
 62
7
  6
BYLAYER
 10
12.1014545211
 20
50.2659044647
 40
0.3110920504
100
AcDbArc
 50
357.819728754
 51
0.042726084
  0
ARC
  5
300
100
AcDbEntity
  8
_1
100
AcDbCircle
 62
7
  6
BYLAYER
 10
9.0625501471
 20
50.1004220935
 40
0.2
100
AcDbArc
 50
180.0
 51
270.0
  0
ARC
  5
301
100
AcDbEntity
  8
_1
100
AcDbCircle
 62
7
  6
BYLAYER
 10
9.0625501471
 20
45.7017925588
 40
0.2
100
AcDbArc
 50
90.0
 51
180.0
  0
ARC
  5
302
100
AcDbEntity
  8
_1
100
AcDbCircle
 62
7
  6
BYLAYER
 10
9.0625501471
 20
44.3517925588
 40
0.2
100
AcDbArc
 50
180.0
 51
270.0
  0
ARC
  5
303
100
AcDbEntity
  8
_1
100
AcDbCircle
 62
7
  6
BYLAYER
 10
9.0625501471
 20
54.2011073262
 40
0.2
100
AcDbArc
 50
90.0
 51
180.0
  0
LINE
  5
304
100
AcDbEntity
  8
_1
100
AcDbLine
 62
7
  6
BYLAYER
 10
67.3125501471
 20
66.3987534796
 11
67.3139278787
 21
66.3972950788
  0
SPLINE
  5
305
100
AcDbEntity
  8
_1
100
AcDbSpline
 62
7
  6
BYLAYER
 70
0
 71
3
 72
29
 73
25
 74
0
 42
0.0000001
 43
0.0000001
 44
0.0000000001
 40
0.0
 40
0.0
 40
0.0
 40
0.0
 40
0.0015365523
 40
0.0035539442
 40
0.0060817791
 40
0.0091371298
 40
0.0168726945
 40
0.0268276458
 40
0.0390502194
 40
0.0535717411
 40
0.0703637524
 40
0.0893767669
 40
0.1105602023
 40
0.1338628355
 40
0.1865704941
 40
0.2466768889
 40
0.3132123127
 40
0.3850296456
 40
0.4606901517
 40
0.5402068478
 40
0.6244086707
 40
0.7137110497
 40
0.80691439
 40
1.0
 40
1.0
 40
1.0
 40
1.0
 10
67.3139278787
 20
66.3972950788
 30
0.0
 10
67.315252608
 20
66.3957270288
 30
0.0
 10
67.3178123473
 20
66.3916865456
 30
0.0
 10
67.32123123
 20
66.3843092603
 30
0.0
 10
67.3247254442
 20
66.374764584
 30
0.0
 10
67.3298842234
 20
66.3577304641
 30
0.0
 10
67.3362288972
 20
66.3307283506
 30
0.0
 10
67.3436286634
 20
66.2914528792
 30
0.0
 10
67.3512198191
 20
66.2430098886
 30
0.0
 10
67.3589681527
 20
66.1853643145
 30
0.0
 10
67.3668496218
 20
66.1185927285
 30
0.0
 10
67.3748328621
 20
66.0428783314
 30
0.0
 10
67.382885347
 20
65.9584298434
 30
0.0
 10
67.3941386393
 20
65.8290731516
 30
0.0
 10
67.4079389586
 20
65.6477500609
 30
0.0
 10
67.42371667
 20
65.4086689701
 30
0.0
 10
67.4390916929
 20
65.1439853257
 30
0.0
 10
67.4538848384
 20
64.8584596261
 30
0.0
 10
67.4677373221
 20
64.5555259466
 30
0.0
 10
67.4812121392
 20
64.2360160764
 30
0.0
 10
67.4951245934
 20
63.8982841863
 30
0.0
 10
67.5100019645
 20
63.5422921749
 30
0.0
 10
67.5308965003
 20
63.0409635134
 30
0.0
 10
67.5468097416
 20
62.6588325763
 30
0.0
 10
67.5575501471
 20
62.4011073262
 30
0.0
  0
SPLINE
  5
306
100
AcDbEntity
  8
_1
100
AcDbSpline
 62
7
  6
BYLAYER
 70
0
 71
3
 72
11
 73
7
 74
0
 42
0.0000001
 43
0.0000001
 44
0.0000000001
 40
0.0
 40
0.0
 40
0.0
 40
0.0
 40
0.1704456414
 40
0.3801241054
 40
0.6527086115
 40
1.0
 40
1.0
 40
1.0
 40
1.0
 10
69.3075501472
 20
66.4011073262
 30
0.0
 10
69.3085297838
 20
66.4011073261
 30
0.0
 10
69.3107237153
 20
66.4004656702
 30
0.0
 10
69.3136200837
 20
66.3979895134
 30
0.0
 10
69.3164555082
 20
66.3941303513
 30
0.0
 10
69.3181377066
 20
66.3909789584
 30
0.0
 10
69.3190060607
 20
66.3891816805
 30
0.0
  0
SPLINE
  5
307
100
AcDbEntity
  8
_1
100
AcDbSpline
 62
7
  6
BYLAYER
 70
0
 71
3
 72
26
 73
22
 74
0
 42
0.0000001
 43
0.0000001
 44
0.0000000001
 40
0.0
 40
0.0
 40
0.0
 40
0.0
 40
0.0021834233
 40
0.004865317
 40
0.0117829264
 40
0.0208219346
 40
0.0320191264
 40
0.0453952507
 40
0.0609411117
 40
0.0984606479
 40
0.1442365278
 40
0.1976863585
 40
0.2580038917
 40
0.3243008384
 40
0.39536638
 40
0.4700061215
 40
0.5484343362
 40
0.6314368691
 40
0.7192799389
 40
0.8107654349
 40
1.0
 40
1.0
 40
1.0
 40
1.0
 10
69.3190060607
 20
66.3891816805
 30
0.0
 10
69.3202719837
 20
66.3865615338
 30
0.0
 10
69.32274527
 20
66.3805561903
 30
0.0
 10
69.3277194388
 20
66.3656551069
 30
0.0
 10
69.3338471297
 20
66.341555025
 30
0.0
 10
69.3410242964
 20
66.306080441
 30
0.0
 10
69.3484014941
 20
66.2618874917
 30
0.0
 10
69.3559315574
 20
66.208948916
 30
0.0
 10
69.3668396433
 20
66.1210703067
 30
0.0
 10
69.380314288
 20
65.9900193091
 30
0.0
 10
69.3959139774
 20
65.8084376844
 30
0.0
 10
69.4115001094
 20
65.5963754508
 30
0.0
 10
69.4268577759
 20
65.3568858973
 30
0.0
 10
69.4418066984
 20
65.0938523051
 30
0.0
 10
69.4561213451
 20
64.8116694991
 30
0.0
 10
69.4695518281
 20
64.5132587567
 30
0.0
 10
69.4827445283
 20
64.1989147243
 30
0.0
 10
69.4964254675
 20
63.8669792445
 30
0.0
 10
69.5110317738
 20
63.5176652172
 30
0.0
 10
69.5314801965
 20
63.0268920547
 30
0.0
 10
69.5470490757
 20
62.6530891636
 30
0.0
 10
69.5575501471
 20
62.4011073262
 30
0.0
  0
SPLINE
  5
308
100
AcDbEntity
  8
_1
100
AcDbSpline
 62
7
  6
BYLAYER
 70
0
 71
3
 72
17
 73
13
 74
0
 42
0.0000001
 43
0.0000001
 44
0.0000000001
 40
0.0
 40
0.0
 40
0.0
 40
0.0
 40
0.0154386308
 40
0.0363374869
 40
0.0631931709
 40
0.0962817663
 40
0.1816486818
 40
0.2931410894
 40
0.4310219636
 40
0.5951169162
 40
0.7850479417
 40
1.0
 40
1.0
 40
1.0
 40
1.0
 10
68.3062211011
 20
58.904300392
 30
0.0
 10
68.3045637923
 20
58.9059729129
 30
0.0
 10
68.3013804775
 20
58.9105888017
 30
0.0
 10
68.297207655
 20
58.9192827482
 30
0.0
 10
68.2929195528
 20
58.9308602048
 30
0.0
 10
68.2864884563
 20
58.9520744749
 30
0.0
 10
68.2785414874
 20
58.98626408
 30
0.0
 10
68.269264355
 20
59.0364715508
 30
0.0
 10
68.2597635382
 20
59.098819659
 30
0.0
 10
68.2500548214
 20
59.1732135697
 30
0.0
 10
68.240209428
 20
59.2594320445
 30
0.0
 10
68.2339642887
 20
59.3208661643
 30
0.0
 10
68.2308037851
 20
59.3534961349
 30
0.0
  0
SPLINE
  5
309
100
AcDbEntity
  8
_1
100
AcDbSpline
 62
7
  6
BYLAYER
 70
0
 71
3
 72
15
 73
11
 74
0
 42
0.0000001
 43
0.0000001
 44
0.0000000001
 40
0.0
 40
0.0
 40
0.0
 40
0.0
 40
0.0911264711
 40
0.1948309262
 40
0.309634483
 40
0.4337722176
 40
0.5648073192
 40
0.7020978438
 40
0.8467176571
 40
1.0
 40
1.0
 40
1.0
 40
1.0
 10
68.2308037851
 20
59.3534961349
 30
0.0
 10
68.2251893034
 20
59.4114616992
 30
0.0
 10
68.214215737
 20
59.5354938121
 30
0.0
 10
68.1990302332
 20
59.7327933963
 30
0.0
 10
68.1841891868
 20
59.9512693285
 30
0.0
 10
68.169840269
 20
60.1872788047
 30
0.0
 10
68.1563202255
 20
60.4377300391
 30
0.0
 10
68.1433660588
 20
60.7013162981
 30
0.0
 10
68.1302555761
 20
60.979128756
 30
0.0
 10
68.1212281373
 20
61.1692970444
 30
0.0
 10
68.1165640923
 20
61.2671451757
 30
0.0
  0
SPLINE
  5
30A
100
AcDbEntity
  8
_1
100
AcDbSpline
 62
7
  6
BYLAYER
 70
0
 71
3
 72
29
 73
25
 74
0
 42
0.0000001
 43
0.0000001
 44
0.0000000001
 40
0.0
 40
0.0
 40
0.0
 40
0.0
 40
0.1721133404
 40
0.2612926385
 40
0.3501123884
 40
0.4367451758
 40
0.5195387916
 40
0.596836413
 40
0.6690229566
 40
0.7370217493
 40
0.7999990663
 40
0.8561337176
 40
0.88122455
 40
0.9041308831
 40
0.9247255869
 40
0.9429191292
 40
0.9586373741
 40
0.9718476914
 40
0.9825348511
 40
0.9907263585
 40
0.9939056434
 40
0.9964898119
 40
0.9985054721
 40
1.0
 40
1.0
 40
1.0
 40
1.0
 10
68.1165640923
 20
61.2671451757
 30
0.0
 10
68.1038752825
 20
61.5333467917
 30
0.0
 10
68.0846294358
 20
61.9374797122
 30
0.0
 10
68.0588415272
 20
62.4789872841
 30
0.0
 10
68.0393463548
 20
62.888284676
 30
0.0
 10
68.0203522018
 20
63.2877069789
 30
0.0
 10
68.0020948975
 20
63.6693031218
 30
0.0
 10
67.9851984027
 20
64.0285696135
 30
0.0
 10
67.9688920901
 20
64.3649304163
 30
0.0
 10
67.9516846759
 20
64.6790440872
 30
0.0
 10
67.9333276892
 20
64.9681916507
 30
0.0
 10
67.9169798916
 20
65.1908850927
 30
0.0
 10
67.9034349081
 20
65.3515565254
 30
0.0
 10
67.8936320429
 20
65.4573137622
 30
0.0
 10
67.8838504797
 20
65.552342703
 30
0.0
 10
67.874158882
 20
65.6361865028
 30
0.0
 10
67.8646037616
 20
65.7085262642
 30
0.0
 10
67.8552536686
 20
65.7691604432
 30
0.0
 10
67.8461221067
 20
65.8180071365
 30
0.0
 10
67.8383024218
 20
65.8512865064
 30
0.0
 10
67.8319757336
 20
65.8719540259
 30
0.0
 10
67.8277531435
 20
65.8832520787
 30
0.0
 10
67.8236409968
 20
65.891752572
 30
0.0
 10
67.8205080571
 20
65.8962704455
 30
0.0
 10
67.8188791928
 20
65.8979142606
 30
0.0
  0
SPLINE
  5
30B
100
AcDbEntity
  8
_1
100
AcDbSpline
 62
7
  6
BYLAYER
 70
0
 71
3
 72
29
 73
25
 74
0
 42
0.0000001
 43
0.0000001
 44
0.0000000001
 40
0.0
 40
0.0
 40
0.0
 40
0.0
 40
0.1938321521
 40
0.2873689042
 40
0.3769534792
 40
0.4613847779
 40
0.5411290464
 40
0.6169838032
 40
0.6889266854
 40
0.7555172487
 40
0.8155680312
 40
0.8681414845
 40
0.8913557762
 40
0.9124183347
 40
0.9312653064
 40
0.947851671
 40
0.9621577117
 40
0.9741694761
 40
0.9839012076
 40
0.9913901877
 40
0.9943110615
 40
0.9967006232
 40
0.9985831361
 40
1.0
 40
1.0
 40
1.0
 40
1.0
 10
67.5675501471
 20
62.4011073262
 30
0.0
 10
67.5567645786
 20
62.6599159061
 30
0.0
 10
67.5407865562
 20
63.0436171491
 30
0.0
 10
67.5198079427
 20
63.546932851
 30
0.0
 10
67.5048789252
 20
63.9041727773
 30
0.0
 10
67.4909269467
 20
64.2430053756
 30
0.0
 10
67.4773878887
 20
64.5634911808
 30
0.0
 10
67.4634559156
 20
64.8672554327
 30
0.0
 10
67.4485818347
 20
65.1533748332
 30
0.0
 10
67.4331213579
 20
65.418310163
 30
0.0
 10
67.417264411
 20
65.6572863366
 30
0.0
 10
67.4033943109
 20
65.8382926524
 30
0.0
 10
67.3920923504
 20
65.9672282011
 30
0.0
 10
67.3840135598
 20
66.0511990529
 30
0.0
 10
67.3760101192
 20
66.1262751605
 30
0.0
 10
67.3681082279
 20
66.1922770351
 30
0.0
 10
67.3603382856
 20
66.2490872753
 30
0.0
 10
67.3527224536
 20
66.296664923
 30
0.0
 10
67.3453020355
 20
66.3350241311
 30
0.0
 10
67.3389633477
 20
66.3612090811
 30
0.0
 10
67.3338315688
 20
66.3775316786
 30
0.0
 10
67.33037807
 20
66.3865158616
 30
0.0
 10
67.3269928229
 20
66.3933307792
 30
0.0
 10
67.3244199941
 20
66.3969692307
 30
0.0
 10
67.3230873937
 20
66.3983143679
 30
0.0
  0
SPLINE
  5
30C
100
AcDbEntity
  8
_1
100
AcDbSpline
 62
7
  6
BYLAYER
 70
0
 71
3
 72
11
 73
7
 74
0
 42
0.0000001
 43
0.0000001
 44
0.0000000001
 40
0.0
 40
0.0
 40
0.0
 40
0.0
 40
0.1566802234
 40
0.3610684265
 40
0.6384177719
 40
1.0
 40
1.0
 40
1.0
 40
1.0
 10
69.8175501469
 20
58.4011073262
 30
0.0
 10
69.8163779156
 20
58.4011073077
 30
0.0
 10
69.8136825932
 20
58.4020749857
 30
0.0
 10
69.8103126956
 20
58.405562778
 30
0.0
 10
69.8069733091
 20
58.4109395574
 30
0.0
 10
69.8050019971
 20
58.4153071057
 30
0.0
 10
69.8039748413
 20
58.4178097619
 30
0.0
  0
SPLINE
  5
30D
100
AcDbEntity
  8
_1
100
AcDbSpline
 62
7
  6
BYLAYER
 70
0
 71
3
 72
25
 73
21
 74
0
 42
0.0000001
 43
0.0000001
 44
0.0000000001
 40
0.0
 40
0.0
 40
0.0
 40
0.0
 40
0.0054362144
 40
0.0129169484
 40
0.0224923378
 40
0.034195126
 40
0.0480370421
 40
0.0640052863
 40
0.1022303649
 40
0.1485073763
 40
0.2022417505
 40
0.2626375345
 40
0.3288206078
 40
0.39957173
 40
0.4738010654
 40
0.551785183
 40
0.6343031566
 40
0.7215494352
 40
0.8123341266
 40
1.0
 40
1.0
 40
1.0
 40
1.0
 10
69.8039748413
 20
58.4178097619
 30
0.0
 10
69.801227556
 20
58.4245034983
 30
0.0
 10
69.7961030247
 20
58.4409628935
 30
0.0
 10
69.7891862392
 20
58.4700905763
 30
0.0
 10
69.7820222714
 20
58.5077062016
 30
0.0
 10
69.7746653782
 20
58.5538713312
 30
0.0
 10
69.7671726068
 20
58.6086185331
 30
0.0
 10
69.7563595006
 20
58.698527976
 30
0.0
 10
69.7429951487
 20
58.8315954919
 30
0.0
 10
69.7275316841
 20
59.0149410265
 30
0.0
 10
69.7121053389
 20
59.2278886505
 30
0.0
 10
69.69692601
 20
59.4674068184
 30
0.0
 10
69.6821594511
 20
59.7296387785
 30
0.0
 10
69.6680457435
 20
60.0103438352
 30
0.0
 10
69.6547841756
 20
60.3068134812
 30
0.0
 10
69.6417109114
 20
60.6189666869
 30
0.0
 10
69.6281248172
 20
60.9484390017
 30
0.0
 10
69.6136349395
 20
61.2949259984
 30
0.0
 10
69.5933742724
 20
61.7812454957
 30
0.0
 10
69.5779505442
 20
62.1515412521
 30
0.0
 10
69.5675501471
 20
62.4011073262
 30
0.0
  0
SPLINE
  5
30E
100
AcDbEntity
  8
_1
100
AcDbSpline
 62
7
  6
BYLAYER
 70
0
 71
3
 72
11
 73
7
 74
0
 42
0.0000001
 43
0.0000001
 44
0.0000000001
 40
0.0
 40
0.0
 40
0.0
 40
0.0
 40
0.1704456414
 40
0.3801241054
 40
0.6527086115
 40
1.0
 40
1.0
 40
1.0
 40
1.0
 10
68.8175501471
 20
58.4011073262
 30
0.0
 10
68.8165705105
 20
58.4011073262
 30
0.0
 10
68.814376579
 20
58.4017489822
 30
0.0
 10
68.8114802105
 20
58.4042251389
 30
0.0
 10
68.808644786
 20
58.408084301
 30
0.0
 10
68.8069625877
 20
58.4112356939
 30
0.0
 10
68.8060942335
 20
58.4130329718
 30
0.0
  0
SPLINE
  5
30F
100
AcDbEntity
  8
_1
100
AcDbSpline
 62
7
  6
BYLAYER
 70
0
 71
3
 72
26
 73
22
 74
0
 42
0.0000001
 43
0.0000001
 44
0.0000000001
 40
0.0
 40
0.0
 40
0.0
 40
0.0
 40
0.0021834233
 40
0.004865317
 40
0.0117829264
 40
0.0208219346
 40
0.0320191264
 40
0.0453952507
 40
0.0609411117
 40
0.0984606479
 40
0.1442365278
 40
0.1976863585
 40
0.2580038917
 40
0.3243008384
 40
0.39536638
 40
0.4700061215
 40
0.5484343362
 40
0.6314368691
 40
0.7192799389
 40
0.8107654349
 40
1.0
 40
1.0
 40
1.0
 40
1.0
 10
68.8060942335
 20
58.4130329718
 30
0.0
 10
68.8048283106
 20
58.4156531185
 30
0.0
 10
68.8023550242
 20
58.421658462
 30
0.0
 10
68.7973808555
 20
58.4365595454
 30
0.0
 10
68.7912531645
 20
58.4606596273
 30
0.0
 10
68.7840759978
 20
58.4961342113
 30
0.0
 10
68.7766988001
 20
58.5403271606
 30
0.0
 10
68.7691687368
 20
58.5932657363
 30
0.0
 10
68.7582606509
 20
58.6811443456
 30
0.0
 10
68.7447860063
 20
58.8121953432
 30
0.0
 10
68.7291863168
 20
58.9937769679
 30
0.0
 10
68.7136001848
 20
59.2058392015
 30
0.0
 10
68.6982425184
 20
59.445328755
 30
0.0
 10
68.6832935959
 20
59.7083623472
 30
0.0
 10
68.6689789492
 20
59.9905451532
 30
0.0
 10
68.6555484662
 20
60.2889558956
 30
0.0
 10
68.642355766
 20
60.603299928
 30
0.0
 10
68.6286748268
 20
60.9352354078
 30
0.0
 10
68.6140685205
 20
61.2845494351
 30
0.0
 10
68.5936200978
 20
61.7753225976
 30
0.0
 10
68.5780512185
 20
62.1491254887
 30
0.0
 10
68.5675501471
 20
62.4011073262
 30
0.0
  0
SPLINE
  5
310
100
AcDbEntity
  8
_1
100
AcDbSpline
 62
7
  6
BYLAYER
 70
0
 71
3
 72
29
 73
25
 74
0
 42
0.0000001
 43
0.0000001
 44
0.0000000001
 40
0.0
 40
0.0
 40
0.0
 40
0.0
 40
0.1938321566
 40
0.2873689037
 40
0.3769534796
 40
0.4613847787
 40
0.5411290471
 40
0.616983804
 40
0.6889266863
 40
0.7555172496
 40
0.8155680321
 40
0.8681414853
 40
0.8913557769
 40
0.9124183354
 40
0.9312653071
 40
0.9478516716
 40
0.9621577122
 40
0.9741694765
 40
0.9839012079
 40
0.9913901879
 40
0.9943110617
 40
0.9967006233
 40
0.9985831361
 40
1.0
 40
1.0
 40
1.0
 40
1.0
 10
67.5575501471
 20
62.4011073262
 30
0.0
 10
67.5683356995
 20
62.1422987394
 30
0.0
 10
67.5843137453
 20
61.758597498
 30
0.0
 10
67.6052923501
 20
61.2552817951
 30
0.0
 10
67.6202213694
 20
60.8980418738
 30
0.0
 10
67.6341733477
 20
60.5592092739
 30
0.0
 10
67.6477124056
 20
60.2387234681
 30
0.0
 10
67.6616443789
 20
59.9349592161
 30
0.0
 10
67.6765184598
 20
59.6488398153
 30
0.0
 10
67.6919789366
 20
59.3839044854
 30
0.0
 10
67.7078358835
 20
59.1449283119
 30
0.0
 10
67.7217059836
 20
58.9639219962
 30
0.0
 10
67.7330079442
 20
58.8349864477
 30
0.0
 10
67.7410867348
 20
58.7510155961
 30
0.0
 10
67.7490901754
 20
58.6759394888
 30
0.0
 10
67.7569920668
 20
58.6099376145
 30
0.0
 10
67.7647620091
 20
58.5531273745
 30
0.0
 10
67.7723778411
 20
58.5055497273
 30
0.0
 10
67.7797982592
 20
58.4671905195
 30
0.0
 10
67.786136947
 20
58.4410055699
 30
0.0
 10
67.7912687258
 20
58.4246829727
 30
0.0
 10
67.7947222247
 20
58.4156987899
 30
0.0
 10
67.7981074718
 20
58.4088838725
 30
0.0
 10
67.8006803006
 20
58.4052454212
 30
0.0
 10
67.8020129009
 20
58.403900284
 30
0.0
  0
SPLINE
  5
311
100
AcDbEntity
  8
_1
100
AcDbSpline
 62
7
  6
BYLAYER
 70
0
 71
3
 72
26
 73
22
 74
0
 42
0.0000001
 43
0.0000001
 44
0.0000000001
 40
0.0
 40
0.0
 40
0.0
 40
0.0
 40
0.1021906572
 40
0.199630609
 40
0.2925417631
 40
0.3816200684
 40
0.4673137726
 40
0.5493564449
 40
0.6265792766
 40
0.6980627639
 40
0.7631014141
 40
0.8210326846
 40
0.8712926079
 40
0.9134938806
 40
0.9474082078
 40
0.9612302917
 40
0.9729713792
 40
0.9826596116
 40
0.9903321747
 40
0.9960592274
 40
1.0
 40
1.0
 40
1.0
 40
1.0
 10
70.0125405091
 20
63.4510980674
 30
0.0
 10
70.0085498495
 20
63.5347589984
 30
0.0
 10
70.0007507733
 20
63.6981914277
 30
0.0
 10
69.9894555398
 20
63.9376941511
 30
0.0
 10
69.9785492678
 20
64.16645632
 30
0.0
 10
69.9676341361
 20
64.3855796475
 30
0.0
 10
69.9562738236
 20
64.5957605909
 30
0.0
 10
69.944304107
 20
64.7961745629
 30
0.0
 10
69.9319331484
 20
64.9848939377
 30
0.0
 10
69.9192784376
 20
65.1596245399
 30
0.0
 10
69.9064274816
 20
65.3184831282
 30
0.0
 10
69.8935076376
 20
65.4598771447
 30
0.0
 10
69.8806502417
 20
65.5824730662
 30
0.0
 10
69.8679916605
 20
65.6852795802
 30
0.0
 10
69.8571349287
 20
65.7582069
 30
0.0
 10
69.8483455299
 20
65.8061598827
 30
0.0
 10
69.8423271378
 20
65.8344260755
 30
0.0
 10
69.8364699253
 20
65.857548803
 30
0.0
 10
69.830806301
 20
65.8756383228
 30
0.0
 10
69.8253785283
 20
65.8887570359
 30
0.0
 10
69.8211526058
 20
65.8956199805
 30
0.0
 10
69.8188791931
 20
65.8979142603
 30
0.0
  0
SPLINE
  5
312
100
AcDbEntity
  8
_1
100
AcDbSpline
 62
7
  6
BYLAYER
 70
0
 71
3
 72
11
 73
7
 74
0
 42
0.0000001
 43
0.0000001
 44
0.0000000001
 40
0.0
 40
0.0
 40
0.0
 40
0.0
 40
0.1704456414
 40
0.3801241054
 40
0.6527086115
 40
1.0
 40
1.0
 40
1.0
 40
1.0
 10
68.3075501472
 20
66.4011073262
 30
0.0
 10
68.3085297838
 20
66.4011073261
 30
0.0
 10
68.3107237153
 20
66.4004656702
 30
0.0
 10
68.3136200837
 20
66.3979895134
 30
0.0
 10
68.3164555082
 20
66.3941303513
 30
0.0
 10
68.3181377066
 20
66.3909789584
 30
0.0
 10
68.3190060607
 20
66.3891816805
 30
0.0
  0
SPLINE
  5
313
100
AcDbEntity
  8
_1
100
AcDbSpline
 62
7
  6
BYLAYER
 70
0
 71
3
 72
26
 73
22
 74
0
 42
0.0000001
 43
0.0000001
 44
0.0000000001
 40
0.0
 40
0.0
 40
0.0
 40
0.0
 40
0.0021834233
 40
0.004865317
 40
0.0117829264
 40
0.0208219346
 40
0.0320191264
 40
0.0453952507
 40
0.0609411117
 40
0.0984606479
 40
0.1442365278
 40
0.1976863585
 40
0.2580038917
 40
0.3243008384
 40
0.39536638
 40
0.4700061215
 40
0.5484343362
 40
0.6314368691
 40
0.7192799389
 40
0.8107654349
 40
1.0
 40
1.0
 40
1.0
 40
1.0
 10
68.3190060607
 20
66.3891816805
 30
0.0
 10
68.3202719837
 20
66.3865615338
 30
0.0
 10
68.32274527
 20
66.3805561903
 30
0.0
 10
68.3277194388
 20
66.3656551069
 30
0.0
 10
68.3338471297
 20
66.341555025
 30
0.0
 10
68.3410242964
 20
66.306080441
 30
0.0
 10
68.3484014941
 20
66.2618874917
 30
0.0
 10
68.3559315574
 20
66.208948916
 30
0.0
 10
68.3668396433
 20
66.1210703067
 30
0.0
 10
68.380314288
 20
65.9900193091
 30
0.0
 10
68.3959139774
 20
65.8084376844
 30
0.0
 10
68.4115001094
 20
65.5963754508
 30
0.0
 10
68.4268577759
 20
65.3568858973
 30
0.0
 10
68.4418066984
 20
65.0938523051
 30
0.0
 10
68.4561213451
 20
64.8116694991
 30
0.0
 10
68.4695518281
 20
64.5132587567
 30
0.0
 10
68.4827445283
 20
64.1989147243
 30
0.0
 10
68.4964254675
 20
63.8669792445
 30
0.0
 10
68.5110317738
 20
63.5176652172
 30
0.0
 10
68.5314801965
 20
63.0268920547
 30
0.0
 10
68.5470490757
 20
62.6530891636
 30
0.0
 10
68.5575501471
 20
62.4011073262
 30
0.0
  0
SPLINE
  5
314
100
AcDbEntity
  8
_1
100
AcDbSpline
 62
7
  6
BYLAYER
 70
0
 71
3
 72
46
 73
42
 74
0
 42
0.0000001
 43
0.0000001
 44
0.0000000001
 40
0.0
 40
0.0
 40
0.0
 40
0.0
 40
0.0007921148
 40
0.0018134079
 40
0.0030844269
 40
0.0046177313
 40
0.0084977575
 40
0.0134867703
 40
0.0196043363
 40
0.026856793
 40
0.0352374756
 40
0.0447366314
 40
0.0669884073
 40
0.0933384992
 40
0.1233783515
 40
0.156643843
 40
0.2112283871
 40
0.2701215988
 40
0.3014437439
 40
0.3342463314
 40
0.4034591797
 40
0.4756471299
 40
0.5486218206
 40
0.6200444606
 40
0.6877893835
 40
0.7500211763
 40
0.8074620977
 40
0.8603645617
 40
0.8844555099
 40
0.9066642856
 40
0.9267970523
 40
0.9446722249
 40
0.9601547382
 40
0.9731460278
 40
0.9835989752
 40
0.9878682321
 40
0.9915049894
 40
0.994517861
 40
0.9969184302
 40
0.9987295562
 40
1.0
 40
1.0
 40
1.0
 40
1.0
 10
69.3062211011
 20
58.904300392
 30
0.0
 10
69.3049164408
 20
58.9056170275
 30
0.0
 10
69.302370942
 20
58.9090578043
 30
0.0
 10
69.2989715818
 20
58.9154345472
 30
0.0
 10
69.2955091003
 20
58.9237014525
 30
0.0
 10
69.2903905363
 20
58.9384879111
 30
0.0
 10
69.2840483806
 20
58.9620137085
 30
0.0
 10
69.2766256718
 20
58.9962937566
 30
0.0
 10
69.2690177093
 20
59.0385828412
 30
0.0
 10
69.2612605334
 20
59.0888883313
 30
0.0
 10
69.2533746462
 20
59.1471697747
 30
0.0
 10
69.2421279702
 20
59.2404046212
 30
0.0
 10
69.2282409815
 20
59.3756601367
 30
0.0
 10
69.2122634002
 20
59.558991884
 30
0.0
 10
69.1964791256
 20
59.7681956486
 30
0.0
 10
69.1781724772
 20
60.0434535991
 30
0.0
 10
69.158626956
 20
60.3862840558
 30
0.0
 10
69.1422558369
 20
60.724722776
 30
0.0
 10
69.1286882823
 20
61.0122657387
 30
0.0
 10
69.1138733965
 20
61.3239249625
 30
0.0
 10
69.0944365552
 20
61.7310987086
 30
0.0
 10
69.0706046954
 20
62.2321727883
 30
0.0
 10
69.0464747326
 20
62.7384094669
 30
0.0
 10
69.0229100645
 20
63.23426451
 30
0.0
 10
69.0003664858
 20
63.7050014046
 30
0.0
 10
68.9798624405
 20
64.1430803753
 30
0.0
 10
68.9595153474
 20
64.5463980638
 30
0.0
 10
68.9404592652
 20
64.8604055199
 30
0.0
 10
68.9243096247
 20
65.0919784687
 30
0.0
 10
68.9123646349
 20
65.2469731149
 30
0.0
 10
68.9003071546
 20
65.3873662332
 30
0.0
 10
68.8882331621
 20
65.5119534526
 30
0.0
 10
68.8762657942
 20
65.6197537303
 30
0.0
 10
68.8645035373
 20
65.7100848475
 30
0.0
 10
68.8544226829
 20
65.7741633629
 30
0.0
 10
68.8462649341
 20
65.8163456735
 30
0.0
 10
68.8406788025
 20
65.841284565
 30
0.0
 10
68.8352386792
 20
65.8617537897
 30
0.0
 10
68.8299710552
 20
65.8778459598
 30
0.0
 10
68.8249011788
 20
65.8896227144
 30
0.0
 10
68.8209716896
 20
65.8958025574
 30
0.0
 10
68.8188791928
 20
65.8979142606
 30
0.0
  0
SPLINE
  5
315
100
AcDbEntity
  8
_1
100
AcDbSpline
 62
7
  6
BYLAYER
 70
0
 71
3
 72
29
 73
25
 74
0
 42
0.0000001
 43
0.0000001
 44
0.0000000001
 40
0.0
 40
0.0
 40
0.0
 40
0.0
 40
0.1938321522
 40
0.2873689044
 40
0.3769534795
 40
0.4613847781
 40
0.5411290468
 40
0.6169838035
 40
0.6889266858
 40
0.7555172491
 40
0.8155680316
 40
0.8681414849
 40
0.8913557765
 40
0.912418335
 40
0.9312653067
 40
0.9478516713
 40
0.9621577119
 40
0.9741694763
 40
0.9839012077
 40
0.9913901878
 40
0.9943110616
 40
0.9967006233
 40
0.9985831361
 40
1.0
 40
1.0
 40
1.0
 40
1.0
 10
68.5675501471
 20
62.4011073262
 30
0.0
 10
68.5567645786
 20
62.6599159063
 30
0.0
 10
68.5407865562
 20
63.0436171496
 30
0.0
 10
68.5198079427
 20
63.5469328518
 30
0.0
 10
68.5048789251
 20
63.9041727784
 30
0.0
 10
68.4909269467
 20
64.2430053769
 30
0.0
 10
68.4773878887
 20
64.5634911822
 30
0.0
 10
68.4634559155
 20
64.8672554343
 30
0.0
 10
68.4485818346
 20
65.1533748349
 30
0.0
 10
68.4331213578
 20
65.4183101648
 30
0.0
 10
68.4172644109
 20
65.6572863383
 30
0.0
 10
68.4033943108
 20
65.838292654
 30
0.0
 10
68.3920923502
 20
65.9672282026
 30
0.0
 10
68.3840135597
 20
66.0511990544
 30
0.0
 10
68.376010119
 20
66.1262751618
 30
0.0
 10
68.3681082277
 20
66.1922770363
 30
0.0
 10
68.3603382854
 20
66.2490872764
 30
0.0
 10
68.3527224534
 20
66.2966649239
 30
0.0
 10
68.3453020353
 20
66.3350241319
 30
0.0
 10
68.3389633475
 20
66.3612090817
 30
0.0
 10
68.3338315687
 20
66.377531679
 30
0.0
 10
68.3303780698
 20
66.386515862
 30
0.0
 10
68.3269928227
 20
66.3933307794
 30
0.0
 10
68.3244199939
 20
66.3969692309
 30
0.0
 10
68.3230873935
 20
66.3983143681
 30
0.0
  0
SPLINE
  5
316
100
AcDbEntity
  8
_1
100
AcDbSpline
 62
7
  6
BYLAYER
 70
0
 71
3
 72
29
 73
25
 74
0
 42
0.0000001
 43
0.0000001
 44
0.0000000001
 40
0.0
 40
0.0
 40
0.0
 40
0.0
 40
0.1938321524
 40
0.2873689046
 40
0.3769534798
 40
0.4613847785
 40
0.5411290472
 40
0.616983804
 40
0.6889266863
 40
0.7555172496
 40
0.8155680321
 40
0.8681414853
 40
0.8913557769
 40
0.9124183354
 40
0.9312653071
 40
0.9478516716
 40
0.9621577122
 40
0.9741694765
 40
0.9839012079
 40
0.9913901879
 40
0.9943110617
 40
0.9967006233
 40
0.9985831361
 40
1.0
 40
1.0
 40
1.0
 40
1.0
 10
68.5575501471
 20
62.4011073262
 30
0.0
 10
68.5683357157
 20
62.1422987457
 30
0.0
 10
68.5843137381
 20
61.7585975021
 30
0.0
 10
68.6052923516
 20
61.2552817994
 30
0.0
 10
68.6202213692
 20
60.8980418726
 30
0.0
 10
68.6341733477
 20
60.5592092738
 30
0.0
 10
68.6477124057
 20
60.2387234683
 30
0.0
 10
68.6616443789
 20
59.934959216
 30
0.0
 10
68.6765184598
 20
59.6488398153
 30
0.0
 10
68.6919789366
 20
59.3839044854
 30
0.0
 10
68.7078358835
 20
59.1449283119
 30
0.0
 10
68.7217059836
 20
58.9639219962
 30
0.0
 10
68.7330079442
 20
58.8349864477
 30
0.0
 10
68.7410867348
 20
58.7510155961
 30
0.0
 10
68.7490901754
 20
58.6759394888
 30
0.0
 10
68.7569920668
 20
58.6099376145
 30
0.0
 10
68.7647620091
 20
58.5531273745
 30
0.0
 10
68.7723778411
 20
58.5055497273
 30
0.0
 10
68.7797982592
 20
58.4671905195
 30
0.0
 10
68.786136947
 20
58.4410055699
 30
0.0
 10
68.7912687258
 20
58.4246829727
 30
0.0
 10
68.7947222247
 20
58.4156987899
 30
0.0
 10
68.7981074718
 20
58.4088838725
 30
0.0
 10
68.8006803006
 20
58.4052454212
 30
0.0
 10
68.8020129009
 20
58.403900284
 30
0.0
  0
SPLINE
  5
317
100
AcDbEntity
  8
_1
100
AcDbSpline
 62
7
  6
BYLAYER
 70
0
 71
3
 72
29
 73
25
 74
0
 42
0.0000001
 43
0.0000001
 44
0.0000000001
 40
0.0
 40
0.0
 40
0.0
 40
0.0
 40
0.1938321522
 40
0.2873689044
 40
0.3769534795
 40
0.4613847781
 40
0.5411290468
 40
0.6169838035
 40
0.6889266858
 40
0.7555172491
 40
0.8155680316
 40
0.8681414849
 40
0.8913557765
 40
0.912418335
 40
0.9312653067
 40
0.9478516713
 40
0.9621577119
 40
0.9741694763
 40
0.9839012077
 40
0.9913901878
 40
0.9943110616
 40
0.9967006233
 40
0.9985831361
 40
1.0
 40
1.0
 40
1.0
 40
1.0
 10
69.5675501471
 20
62.4011073262
 30
0.0
 10
69.5567645786
 20
62.6599159063
 30
0.0
 10
69.5407865562
 20
63.0436171496
 30
0.0
 10
69.5198079427
 20
63.5469328518
 30
0.0
 10
69.5048789251
 20
63.9041727784
 30
0.0
 10
69.4909269467
 20
64.2430053769
 30
0.0
 10
69.4773878887
 20
64.5634911822
 30
0.0
 10
69.4634559155
 20
64.8672554343
 30
0.0
 10
69.4485818346
 20
65.1533748349
 30
0.0
 10
69.4331213578
 20
65.4183101648
 30
0.0
 10
69.4172644109
 20
65.6572863383
 30
0.0
 10
69.4033943108
 20
65.838292654
 30
0.0
 10
69.3920923502
 20
65.9672282026
 30
0.0
 10
69.3840135597
 20
66.0511990544
 30
0.0
 10
69.376010119
 20
66.1262751618
 30
0.0
 10
69.3681082277
 20
66.1922770363
 30
0.0
 10
69.3603382854
 20
66.2490872764
 30
0.0
 10
69.3527224534
 20
66.2966649239
 30
0.0
 10
69.3453020353
 20
66.3350241319
 30
0.0
 10
69.3389633475
 20
66.3612090817
 30
0.0
 10
69.3338315687
 20
66.377531679
 30
0.0
 10
69.3303780698
 20
66.386515862
 30
0.0
 10
69.3269928227
 20
66.3933307794
 30
0.0
 10
69.3244199939
 20
66.3969692309
 30
0.0
 10
69.3230873935
 20
66.3983143681
 30
0.0
  0
SPLINE
  5
318
100
AcDbEntity
  8
_1
100
AcDbSpline
 62
7
  6
BYLAYER
 70
0
 71
3
 72
29
 73
25
 74
0
 42
0.0000001
 43
0.0000001
 44
0.0000000001
 40
0.0
 40
0.0
 40
0.0
 40
0.0
 40
0.1938321523
 40
0.2873689046
 40
0.3769534797
 40
0.4613847784
 40
0.5411290471
 40
0.6169838039
 40
0.6889266862
 40
0.7555172495
 40
0.815568032
 40
0.8681414852
 40
0.8913557768
 40
0.9124183353
 40
0.931265307
 40
0.9478516715
 40
0.9621577121
 40
0.9741694765
 40
0.9839012079
 40
0.9913901879
 40
0.9943110616
 40
0.9967006233
 40
0.9985831361
 40
1.0
 40
1.0
 40
1.0
 40
1.0
 10
69.5575501471
 20
62.4011073262
 30
0.0
 10
69.5683357157
 20
62.1422987458
 30
0.0
 10
69.5843137381
 20
61.7585975022
 30
0.0
 10
69.6052923516
 20
61.2552817997
 30
0.0
 10
69.6202213692
 20
60.8980418729
 30
0.0
 10
69.6341733476
 20
60.5592092742
 30
0.0
 10
69.6477124056
 20
60.2387234687
 30
0.0
 10
69.6616443789
 20
59.9349592165
 30
0.0
 10
69.6765184598
 20
59.6488398158
 30
0.0
 10
69.6919789366
 20
59.3839044859
 30
0.0
 10
69.7078358835
 20
59.1449283124
 30
0.0
 10
69.7217059836
 20
58.9639219967
 30
0.0
 10
69.7330079442
 20
58.8349864482
 30
0.0
 10
69.7410867348
 20
58.7510155965
 30
0.0
 10
69.7490901754
 20
58.6759394892
 30
0.0
 10
69.7569920667
 20
58.6099376148
 30
0.0
 10
69.764762009
 20
58.5531273748
 30
0.0
 10
69.772377841
 20
58.5055497275
 30
0.0
 10
69.7797982591
 20
58.4671905197
 30
0.0
 10
69.7861369469
 20
58.44100557
 30
0.0
 10
69.7912687258
 20
58.4246829728
 30
0.0
 10
69.7947222246
 20
58.41569879
 30
0.0
 10
69.7981074717
 20
58.4088838726
 30
0.0
 10
69.8006803005
 20
58.4052454212
 30
0.0
 10
69.8020129009
 20
58.403900284
 30
0.0
  0
SPLINE
  5
319
100
AcDbEntity
  8
_1
100
AcDbSpline
 62
7
  6
BYLAYER
 70
0
 71
3
 72
11
 73
7
 74
0
 42
0.0000001
 43
0.0000001
 44
0.0000000001
 40
0.0
 40
0.0
 40
0.0
 40
0.0
 40
0.1704456414
 40
0.3801241054
 40
0.6527086115
 40
1.0
 40
1.0
 40
1.0
 40
1.0
 10
67.8175501471
 20
58.4011073262
 30
0.0
 10
67.8165705105
 20
58.4011073262
 30
0.0
 10
67.814376579
 20
58.4017489822
 30
0.0
 10
67.8114802105
 20
58.4042251389
 30
0.0
 10
67.808644786
 20
58.408084301
 30
0.0
 10
67.8069625877
 20
58.4112356939
 30
0.0
 10
67.8060942335
 20
58.4130329718
 30
0.0
  0
SPLINE
  5
31A
100
AcDbEntity
  8
_1
100
AcDbSpline
 62
7
  6
BYLAYER
 70
0
 71
3
 72
26
 73
22
 74
0
 42
0.0000001
 43
0.0000001
 44
0.0000000001
 40
0.0
 40
0.0
 40
0.0
 40
0.0
 40
0.0021834233
 40
0.004865317
 40
0.0117829264
 40
0.0208219346
 40
0.0320191264
 40
0.0453952507
 40
0.0609411117
 40
0.0984606479
 40
0.1442365278
 40
0.1976863585
 40
0.2580038917
 40
0.3243008384
 40
0.39536638
 40
0.4700061215
 40
0.5484343362
 40
0.6314368691
 40
0.7192799389
 40
0.8107654349
 40
1.0
 40
1.0
 40
1.0
 40
1.0
 10
67.8060942335
 20
58.4130329718
 30
0.0
 10
67.8048283106
 20
58.4156531185
 30
0.0
 10
67.8023550242
 20
58.421658462
 30
0.0
 10
67.7973808555
 20
58.4365595454
 30
0.0
 10
67.7912531645
 20
58.4606596273
 30
0.0
 10
67.7840759978
 20
58.4961342113
 30
0.0
 10
67.7766988001
 20
58.5403271606
 30
0.0
 10
67.7691687368
 20
58.5932657363
 30
0.0
 10
67.7582606509
 20
58.6811443456
 30
0.0
 10
67.7447860063
 20
58.8121953432
 30
0.0
 10
67.7291863168
 20
58.9937769679
 30
0.0
 10
67.7136001848
 20
59.2058392015
 30
0.0
 10
67.6982425184
 20
59.445328755
 30
0.0
 10
67.6832935959
 20
59.7083623472
 30
0.0
 10
67.6689789492
 20
59.9905451532
 30
0.0
 10
67.6555484662
 20
60.2889558956
 30
0.0
 10
67.642355766
 20
60.603299928
 30
0.0
 10
67.6286748268
 20
60.9352354078
 30
0.0
 10
67.6140685205
 20
61.2845494351
 30
0.0
 10
67.5936200978
 20
61.7753225976
 30
0.0
 10
67.5780512185
 20
62.1491254887
 30
0.0
 10
67.5675501471
 20
62.4011073262
 30
0.0
  0
SPLINE
  5
31B
100
AcDbEntity
  8
_1
100
AcDbSpline
 62
7
  6
BYLAYER
 70
0
 71
3
 72
9
 73
5
 74
0
 42
0.0000001
 43
0.0000001
 44
0.0000000001
 40
0.0
 40
0.0
 40
0.0
 40
0.0
 40
0.5000037759
 40
1.0
 40
1.0
 40
1.0
 40
1.0
 10
9.0625501471
 20
43.9004220935
 30
0.0
 10
9.0625501471
 20
43.8471649869
 30
0.0
 10
9.0797662893
 20
43.7399471987
 30
0.0
 10
9.130163107
 20
43.6437465307
 30
0.0
 10
9.1620712873
 20
43.6011073262
 30
0.0
  0
SPLINE
  5
31C
100
AcDbEntity
  8
_1
100
AcDbSpline
 62
7
  6
BYLAYER
 70
0
 71
3
 72
10
 73
6
 74
0
 42
0.0000001
 43
0.0000001
 44
0.0000000001
 40
0.0
 40
0.0
 40
0.0
 40
0.0
 40
0.4906843656
 40
0.7441235148
 40
1.0
 40
1.0
 40
1.0
 40
1.0
 10
64.9258134867
 20
64.2021066003
 30
0.0
 10
64.936634423
 20
63.9074102703
 30
0.0
 10
64.8963590455
 20
63.4601751904
 30
0.0
 10
64.8490396181
 20
62.8614560748
 30
0.0
 10
64.8479572378
 20
62.5545731641
 30
0.0
 10
64.8577575594
 20
62.4011073261
 30
0.0
  0
SPLINE
  5
31D
100
AcDbEntity
  8
_1
100
AcDbSpline
 62
7
  6
BYLAYER
 70
0
 71
3
 72
10
 73
6
 74
0
 42
0.0000001
 43
0.0000001
 44
0.0000000001
 40
0.0
 40
0.0
 40
0.0
 40
0.0
 40
0.5088747839
 40
0.7576839187
 40
1.0
 40
1.0
 40
1.0
 40
1.0
 10
64.8577575594
 20
62.4011073261
 30
0.0
 10
64.8769297828
 20
62.1008843895
 30
0.0
 10
64.9627744717
 20
61.6591349374
 30
0.0
 10
65.078430498
 20
61.0798880197
 30
0.0
 10
65.1186951785
 20
60.7917821911
 30
0.0
 10
65.1298535839
 20
60.6489660229
 30
0.0
  0
SPLINE
  5
31E
100
AcDbEntity
  8
_1
100
AcDbSpline
 62
7
  6
BYLAYER
 70
0
 71
3
 72
24
 73
20
 74
0
 42
0.0000001
 43
0.0000001
 44
0.0000000001
 40
0.0
 40
0.0
 40
0.0
 40
0.0
 40
0.2088521533
 40
0.3982708354
 40
0.4855170357
 40
0.5675929615
 40
0.6442452563
 40
0.715064712
 40
0.7794874143
 40
0.8368589709
 40
0.8863883295
 40
0.9271049921
 40
0.9580558667
 40
0.9696611365
 40
0.978717441
 40
0.9853970598
 40
0.9902064497
 40
0.9944741295
 40
1.0
 40
1.0
 40
1.0
 40
1.0
 10
64.8875708539
 20
66.0059096537
 30
0.0
 10
64.8875946028
 20
66.1034061909
 30
0.0
 10
64.8736178977
 20
66.2896223316
 30
0.0
 10
64.8250143185
 20
66.5116681666
 30
0.0
 10
64.7740105554
 20
66.6712634559
 30
0.0
 10
64.7329846628
 20
66.7785714926
 30
0.0
 10
64.6896927828
 20
66.8766383365
 30
0.0
 10
64.6457828234
 20
66.9653046126
 30
0.0
 10
64.6029940281
 20
67.0444046567
 30
0.0
 10
64.5630728278
 20
67.113710297
 30
0.0
 10
64.5277823133
 20
67.1729069001
 30
0.0
 10
64.4990485031
 20
67.2216236218
 30
0.0
 10
64.4803860621
 20
67.2557908568
 30
0.0
 10
64.4708892413
 20
67.2779480898
 30
0.0
 10
64.467076517
 20
67.290187694
 30
0.0
 10
64.4657677604
 20
67.2997019514
 30
0.0
 10
64.4674090046
 20
67.3073266283
 30
0.0
 10
64.4734370272
 20
67.31156548
 30
0.0
 10
64.4781946935
 20
67.3115336051
 30
0.0
 10
64.480764469
 20
67.3113087789
 30
0.0
  0
SPLINE
  5
31F
100
AcDbEntity
  8
_1
100
AcDbSpline
 62
7
  6
BYLAYER
 70
0
 71
3
 72
11
 73
7
 74
0
 42
0.0000001
 43
0.0000001
 44
0.0000000001
 40
0.0
 40
0.0
 40
0.0
 40
0.0
 40
0.2499388493
 40
0.5
 40
0.7500611507
 40
1.0
 40
1.0
 40
1.0
 40
1.0
 10
9.2997565595
 20
44.1376285059
 30
0.0
 10
9.2999342443
 20
44.0727576209
 30
0.0
 10
9.3262069618
 20
43.9416404777
 30
0.0
 10
9.4374271414
 20
43.7759843204
 30
0.0
 10
9.6030832987
 20
43.6647641408
 30
0.0
 10
9.7342004418
 20
43.6384914233
 30
0.0
 10
9.7990713269
 20
43.6383137385
 30
0.0
  0
LINE
  5
320
100
AcDbEntity
  8
_1
100
AcDbLine
 62
7
  6
BYLAYER
 10
12.4121152705
 20
50.2650251451
 11
12.412546485
 21
50.2661364494
  0
SPLINE
  5
321
100
AcDbEntity
  8
_1
100
AcDbSpline
 62
7
  6
BYLAYER
 70
0
 71
3
 72
11
 73
7
 74
0
 42
0.0000001
 43
0.0000001
 44
0.0000000001
 40
0.0
 40
0.0
 40
0.0
 40
0.0
 40
0.249620524
 40
0.5001177506
 40
0.7505748736
 40
1.0
 40
1.0
 40
1.0
 40
1.0
 10
9.7245738748
 20
46.2383983658
 30
0.0
 10
9.6597852035
 20
46.2382209063
 30
0.0
 10
9.5286520566
 20
46.2119592697
 30
0.0
 10
9.3628060506
 20
46.1007306236
 30
0.0
 10
9.2516631069
 20
45.9348906516
 30
0.0
 10
9.2254364281
 20
45.8038215546
 30
0.0
 10
9.2252591075
 20
45.7390835984
 30
0.0
  0
SPLINE
  5
322
100
AcDbEntity
  8
_1
100
AcDbSpline
 62
7
  6
BYLAYER
 70
0
 71
3
 72
15
 73
11
 74
0
 42
0.0000001
 43
0.0000001
 44
0.0000000001
 40
0.0
 40
0.0
 40
0.0
 40
0.0
 40
0.027959627
 40
0.0653096979
 40
0.1632016865
 40
0.282877234
 40
0.4158573795
 40
0.5568075681
 40
0.7024341565
 40
1.0
 40
1.0
 40
1.0
 40
1.0
 10
13.3979827177
 20
54.3786839309
 30
0.0
 10
13.3972464046
 20
54.3762415704
 30
0.0
 10
13.3946156085
 20
54.3708351528
 30
0.0
 10
13.3864819582
 20
54.3583618043
 30
0.0
 10
13.3715605443
 20
54.3404351052
 30
0.0
 10
13.349653306
 20
54.3171412392
 30
0.0
 10
13.3239855825
 20
54.2920081354
 30
0.0
 10
13.2959030853
 20
54.265992421
 30
0.0
 10
13.2560014662
 20
54.230657989
 30
0.0
 10
13.2250706241
 20
54.2045976964
 30
0.0
 10
13.2039860714
 20
54.1874950092
 30
0.0
  0
SPLINE
  5
323
100
AcDbEntity
  8
_1
100
AcDbSpline
 62
7
  6
BYLAYER
 70
0
 71
3
 72
13
 73
9
 74
0
 42
0.0000001
 43
0.0000001
 44
0.0000000001
 40
0.0
 40
0.0
 40
0.0
 40
0.0
 40
0.3798093993
 40
0.6819968403
 40
0.7990410541
 40
0.8915756284
 40
0.9586926113
 40
1.0
 40
1.0
 40
1.0
 40
1.0
 10
9.0778908284
 20
45.7436685213
 30
0.0
 10
9.077208053
 20
45.7635436743
 30
0.0
 10
9.0757106323
 20
45.7992208522
 30
0.0
 10
9.0730742267
 20
45.8409895438
 30
0.0
 10
9.0705300226
 20
45.8676586054
 30
0.0
 10
9.0687406435
 20
45.8820552669
 30
0.0
 10
9.0668734043
 20
45.8923813671
 30
0.0
 10
9.0654326176
 20
45.8979396383
 30
0.0
 10
9.0644674838
 20
45.8998752222
 30
0.0
  0
SPLINE
  5
324
100
AcDbEntity
  8
_1
100
AcDbSpline
 62
7
  6
BYLAYER
 70
0
 71
3
 72
15
 73
11
 74
0
 42
0.0000001
 43
0.0000001
 44
0.0000000001
 40
0.0
 40
0.0
 40
0.0
 40
0.0
 40
0.2975658945
 40
0.4431924921
 40
0.5841426741
 40
0.7171228849
 40
0.8367984058
 40
0.9346904331
 40
0.9720404561
 40
1.0
 40
1.0
 40
1.0
 40
1.0
 10
10.9211141935
 20
54.1874950331
 30
0.0
 10
10.9000296438
 20
54.2045977255
 30
0.0
 10
10.869098796
 20
54.2306580112
 30
0.0
 10
10.8291971835
 20
54.2659924472
 30
0.0
 10
10.801114683
 20
54.2920081598
 30
0.0
 10
10.775446966
 20
54.3171412664
 30
0.0
 10
10.7535397172
 20
54.3404351288
 30
0.0
 10
10.7386183294
 20
54.3583618374
 30
0.0
 10
10.7304846653
 20
54.3708351662
 30
0.0
 10
10.7278538874
 20
54.376241578
 30
0.0
 10
10.7271175766
 20
54.3786839309
 30
0.0
  0
LINE
  5
325
100
AcDbEntity
  8
_1
100
AcDbLine
 62
7
  6
BYLAYER
 10
11.7125537373
 20
50.2661367496
 11
11.712984764
 21
50.2650262293
  0
LINE
  5
326
100
AcDbEntity
  8
_1
100
AcDbLine
 62
7
  6
BYLAYER
 10
11.912458316
 20
50.2292867835
 11
11.9124839057
 21
50.2447890821
  0
SPLINE
  5
327
100
AcDbEntity
  8
_1
100
AcDbSpline
 62
7
  6
BYLAYER
 70
0
 71
3
 72
15
 73
11
 74
0
 42
0.0000001
 43
0.0000001
 44
0.0000000001
 40
0.0
 40
0.0
 40
0.0
 40
0.0
 40
0.3602052846
 40
0.5249035258
 40
0.6718420898
 40
0.7964180155
 40
0.8936605279
 40
0.9305555946
 40
0.9597777883
 40
1.0
 40
1.0
 40
1.0
 40
1.0
 10
11.9124869636
 20
50.2447890821
 30
0.0
 10
11.8881042872
 20
50.2425603031
 30
0.0
 10
11.8523634767
 20
50.2414110218
 30
0.0
 10
11.8067113217
 20
50.2427838338
 30
0.0
 10
11.7771398685
 20
50.2451907056
 30
0.0
 10
11.7523415548
 20
50.2490824609
 30
0.0
 10
11.7352258988
 20
50.2530684573
 30
0.0
 10
11.7245882709
 20
50.2564603712
 30
0.0
 10
11.7180206915
 20
50.2591884399
 30
0.0
 10
11.7138659632
 20
50.2624379058
 30
0.0
 10
11.7129848061
 20
50.2650260537
 30
0.0
  0
SPLINE
  5
328
100
AcDbEntity
  8
_1
100
AcDbSpline
 62
7
  6
BYLAYER
 70
0
 71
3
 72
9
 73
5
 74
0
 42
0.0000001
 43
0.0000001
 44
0.0000000001
 40
0.0
 40
0.0
 40
0.0
 40
0.0
 40
0.2470598522
 40
1.0
 40
1.0
 40
1.0
 40
1.0
 10
9.2934870308
 20
57.4507434702
 30
0.0
 10
9.2945336442
 20
57.5356183896
 30
0.0
 10
9.2982144382
 20
57.8791649599
 30
0.0
 10
9.2997561838
 20
58.2227341655
 30
0.0
 10
9.2997561833
 20
58.4814188219
 30
0.0
  0
SPLINE
  5
329
100
AcDbEntity
  8
_1
100
AcDbSpline
 62
7
  6
BYLAYER
 70
0
 71
3
 72
9
 73
5
 74
0
 42
0.0000001
 43
0.0000001
 44
0.0000000001
 40
0.0
 40
0.0
 40
0.0
 40
0.0
 40
0.5001722806
 40
1.0
 40
1.0
 40
1.0
 40
1.0
 10
9.3512497541
 20
67.3842021577
 30
0.0
 10
9.3345287892
 20
67.3502426846
 30
0.0
 10
9.3087209458
 20
67.27831649
 30
0.0
 10
9.2998601686
 20
67.2024127548
 30
0.0
 10
9.2997565595
 20
67.1645861464
 30
0.0
  0
SPLINE
  5
32A
100
AcDbEntity
  8
_1
100
AcDbSpline
 62
7
  6
BYLAYER
 70
0
 71
3
 72
15
 73
11
 74
0
 42
0.0000001
 43
0.0000001
 44
0.0000000001
 40
0.0
 40
0.0
 40
0.0
 40
0.0
 40
0.0487613121
 40
0.0813463167
 40
0.1203377038
 40
0.2179858421
 40
0.3407251201
 40
0.4852138979
 40
0.6469429269
 40
1.0
 40
1.0
 40
1.0
 40
1.0
 10
9.2934873972
 20
57.4507418201
 30
0.0
 10
9.2953414287
 20
57.4423949512
 30
0.0
 10
9.3047015742
 20
57.4302179942
 30
0.0
 10
9.3214327782
 20
57.4175880826
 30
0.0
 10
9.3473609125
 20
57.4028689161
 30
0.0
 10
9.3899750738
 20
57.3865494862
 30
0.0
 10
9.4518617577
 20
57.3700462111
 30
0.0
 10
9.5258628577
 20
57.3562390001
 30
0.0
 10
9.6405855313
 20
57.3416760575
 30
0.0
 10
9.7308977946
 20
57.336945466
 30
0.0
 10
9.7928021646
 20
57.3362221532
 30
0.0
  0
SPLINE
  5
32B
100
AcDbEntity
  8
_1
100
AcDbSpline
 62
7
  6
BYLAYER
 70
0
 71
3
 72
9
 73
5
 74
0
 42
0.0000001
 43
0.0000001
 44
0.0000000001
 40
0.0
 40
0.0
 40
0.0
 40
0.0
 40
0.2521117078
 40
1.0
 40
1.0
 40
1.0
 40
1.0
 10
9.7990709197
 20
58.4814188219
 30
0.0
 10
9.7990709197
 20
58.3851779438
 30
0.0
 10
9.798547633
 20
58.0034391529
 30
0.0
 10
9.7959700543
 20
57.6217027261
 30
0.0
 10
9.7928017571
 20
57.3362221575
 30
0.0
  0
SPLINE
  5
32C
100
AcDbEntity
  8
_1
100
AcDbSpline
 62
7
  6
BYLAYER
 70
0
 71
3
 72
15
 73
11
 74
0
 42
0.0000001
 43
0.0000001
 44
0.0000000001
 40
0.0
 40
0.0
 40
0.0
 40
0.0
 40
0.0283519332
 40
0.0537434287
 40
0.0876586979
 40
0.1801830445
 40
0.3027239452
 40
0.4520534561
 40
0.6230425827
 40
1.0
 40
1.0
 40
1.0
 40
1.0
 10
11.7144076549
 20
50.2319257865
 30
0.0
 10
11.714668253
 20
50.2300433737
 30
0.0
 10
11.718150416
 20
50.2274922298
 30
0.0
 10
11.7235185355
 20
50.2256656145
 30
0.0
 10
11.7335309446
 20
50.2232864846
 30
0.0
 10
11.7500284536
 20
50.2210454945
 30
0.0
 10
11.7744665083
 20
50.2197161351
 30
0.0
 10
11.8041517275
 20
50.2199911862
 30
0.0
 10
11.8508476923
 20
50.2220484834
 30
0.0
 10
11.8874629737
 20
50.2255943301
 30
0.0
 10
11.9124583161
 20
50.2292867322
 30
0.0
  0
SPLINE
  5
32D
100
AcDbEntity
  8
_1
100
AcDbSpline
 62
7
  6
BYLAYER
 70
0
 71
3
 72
15
 73
11
 74
0
 42
0.0000001
 43
0.0000001
 44
0.0000000001
 40
0.0
 40
0.0
 40
0.0
 40
0.0
 40
0.1247154555
 40
0.2496291978
 40
0.3747903383
 40
0.5001000524
 40
0.6253610922
 40
0.7505015798
 40
0.8753274866
 40
1.0
 40
1.0
 40
1.0
 40
1.0
 10
11.7144686074
 20
50.2316314052
 30
0.0
 10
11.7191686143
 20
50.1890614898
 30
0.0
 10
11.7455343662
 20
50.1049181309
 30
0.0
 10
11.8285672442
 20
50.0025974468
 30
0.0
 10
11.9438434144
 20
49.938637326
 30
0.0
 10
12.0741414793
 20
49.9182900738
 30
0.0
 10
12.2028751572
 20
49.946826005
 30
0.0
 10
12.3138466122
 20
50.0179941914
 30
0.0
 10
12.3897629676
 20
50.125630708
 30
0.0
 10
12.4105882251
 20
50.2112907355
 30
0.0
 10
12.4123216143
 20
50.2540694706
 30
0.0
  0
SPLINE
  5
32E
100
AcDbEntity
  8
_1
100
AcDbSpline
 62
7
  6
BYLAYER
 70
0
 71
3
 72
15
 73
11
 74
0
 42
0.0000001
 43
0.0000001
 44
0.0000000001
 40
0.0
 40
0.0
 40
0.0
 40
0.0
 40
0.0402040629
 40
0.0694198744
 40
0.1063105408
 40
0.2035345649
 40
0.3280995349
 40
0.4750544157
 40
0.6397744423
 40
1.0
 40
1.0
 40
1.0
 40
1.0
 10
12.4121152302
 20
50.2650249771
 30
0.0
 10
12.4112343304
 20
50.2624381389
 30
0.0
 10
12.4070802176
 20
50.2591908109
 30
0.0
 10
12.4005141275
 20
50.2564650826
 30
0.0
 10
12.3898778865
 20
50.2530763176
 30
0.0
 10
12.3727622953
 20
50.2491020633
 30
0.0
 10
12.3479645787
 20
50.2452206635
 30
0.0
 10
12.3183937022
 20
50.2428008108
 30
0.0
 10
12.2727393044
 20
50.2414058413
 30
0.0
 10
12.2369970204
 20
50.2425650354
 30
0.0
 10
12.2126133307
 20
50.2447890821
 30
0.0
  0
SPLINE
  5
32F
100
AcDbEntity
  8
_1
100
AcDbSpline
 62
7
  6
BYLAYER
 70
0
 71
3
 72
12
 73
8
 74
0
 42
0.0000001
 43
0.0000001
 44
0.0000000001
 40
0.0
 40
0.0
 40
0.0
 40
0.0
 40
0.246769581
 40
0.371335641
 40
0.4962444693
 40
0.7471039741
 40
1.0
 40
1.0
 40
1.0
 40
1.0
 10
12.4123214264
 20
50.2540693609
 30
0.0
 10
12.4107419677
 20
50.2107067519
 30
0.0
 10
12.3945726614
 20
50.1451745443
 30
0.0
 10
12.3506319676
 20
50.0693953765
 30
0.0
 10
12.2925092768
 20
50.0025964629
 30
0.0
 10
12.19625822
 20
49.9428305502
 30
0.0
 10
12.1070187713
 20
49.9254539326
 30
0.0
 10
12.0625501471
 20
49.9254539326
 30
0.0
  0
SPLINE
  5
330
100
AcDbEntity
  8
_1
100
AcDbSpline
 62
7
  6
BYLAYER
 70
0
 71
3
 72
12
 73
8
 74
0
 42
0.0000001
 43
0.0000001
 44
0.0000000001
 40
0.0
 40
0.0
 40
0.0
 40
0.0
 40
0.2526595699
 40
0.3790627052
 40
0.5047174373
 40
0.753326006
 40
1.0
 40
1.0
 40
1.0
 40
1.0
 10
12.0625501471
 20
49.9254557211
 30
0.0
 10
12.0199152346
 20
49.9254557211
 30
0.0
 10
11.9551882993
 20
49.9371452422
 30
0.0
 10
11.8781839805
 20
49.9743070147
 30
0.0
 10
11.8095277264
 20
50.0243262511
 30
0.0
 10
11.7434752669
 20
50.1086018414
 30
0.0
 10
11.7178761099
 20
50.1908211236
 30
0.0
 10
11.7143664788
 20
50.2322977807
 30
0.0
  0
SPLINE
  5
331
100
AcDbEntity
  8
_1
100
AcDbSpline
 62
7
  6
BYLAYER
 70
0
 71
3
 72
11
 73
7
 74
0
 42
0.0000001
 43
0.0000001
 44
0.0000000001
 40
0.0
 40
0.0
 40
0.0
 40
0.0
 40
0.1913622352
 40
0.417857334
 40
0.6875476891
 40
1.0
 40
1.0
 40
1.0
 40
1.0
 10
51.8374729397
 20
49.5406606206
 30
0.0
 10
51.8715318737
 20
49.5434973758
 30
0.0
 10
51.9444267151
 20
49.5690868771
 30
0.0
 10
52.0398075732
 20
49.6491933045
 30
0.0
 10
52.1214479853
 20
49.7704002626
 30
0.0
 10
52.1546661784
 20
49.8706154476
 30
0.0
 10
52.1649885161
 20
49.9254557211
 30
0.0
  0
SPLINE
  5
332
100
AcDbEntity
  8
_1
100
AcDbSpline
 62
7
  6
BYLAYER
 70
0
 71
3
 72
20
 73
16
 74
0
 42
0.0000001
 43
0.0000001
 44
0.0000000001
 40
0.0
 40
0.0
 40
0.0
 40
0.0
 40
0.1883686321
 40
0.3700544579
 40
0.5384223229
 40
0.6875563991
 40
0.7531505568
 40
0.8119544177
 40
0.8635312811
 40
0.9073636024
 40
0.9430402411
 40
0.9703875465
 40
0.9893067844
 40
0.9956384948
 40
1.0
 40
1.0
 40
1.0
 40
1.0
 10
9.2997582609
 20
44.2415698043
 30
0.0
 10
9.299756817
 20
44.335924951
 30
0.0
 10
9.2988420788
 20
44.521289081
 30
0.0
 10
9.2947809807
 20
44.790963024
 30
0.0
 10
9.2881841785
 20
45.0409281327
 30
0.0
 10
9.2805375425
 20
45.2326803777
 30
0.0
 10
9.2731199169
 20
45.3694961973
 30
0.0
 10
9.2673422071
 20
45.4574551676
 30
0.0
 10
9.2611910762
 20
45.5344621153
 30
0.0
 10
9.2547258038
 20
45.5998026834
 30
0.0
 10
9.2480519735
 20
45.6529391594
 30
0.0
 10
9.2411935231
 20
45.6933782995
 30
0.0
 10
9.2350877969
 20
45.7191342183
 30
0.0
 10
9.2296254716
 20
45.732909495
 30
0.0
 10
9.2267994823
 20
45.7375788839
 30
0.0
 10
9.2252536068
 20
45.7391226513
 30
0.0
  0
SPLINE
  5
333
100
AcDbEntity
  8
_1
100
AcDbSpline
 62
7
  6
BYLAYER
 70
0
 71
3
 72
15
 73
11
 74
0
 42
0.0000001
 43
0.0000001
 44
0.0000000001
 40
0.0
 40
0.0
 40
0.0
 40
0.0
 40
0.1234267517
 40
0.2473680657
 40
0.3729028569
 40
0.4992713198
 40
0.626094409
 40
0.7519136314
 40
0.8763410177
 40
1.0
 40
1.0
 40
1.0
 40
1.0
 10
12.2126133307
 20
50.2447890821
 30
0.0
 10
12.2138343582
 20
50.2249011676
 30
0.0
 10
12.2108776817
 20
50.1842156056
 30
0.0
 10
12.1821095393
 20
50.128873888
 30
0.0
 10
12.1312478176
 20
50.092632041
 30
0.0
 10
12.0708273015
 20
50.0763517971
 30
0.0
 10
12.008693865
 20
50.0856256245
 30
0.0
 10
11.9545869514
 20
50.1170374949
 30
0.0
 10
11.9194088684
 20
50.1687651049
 30
0.0
 10
11.9129860577
 20
50.2093308976
 30
0.0
 10
11.9124586649
 20
50.229286782
 30
0.0
  0
SPLINE
  5
334
100
AcDbEntity
  8
_1
100
AcDbSpline
 62
7
  6
BYLAYER
 70
0
 71
3
 72
16
 73
12
 74
0
 42
0.0000001
 43
0.0000001
 44
0.0000000001
 40
0.0
 40
0.0
 40
0.0
 40
0.0
 40
0.0629695029
 40
0.1257726289
 40
0.1884645663
 40
0.2510759993
 40
0.376115851
 40
0.5010259273
 40
0.6258501589
 40
0.7506140125
 40
1.0
 40
1.0
 40
1.0
 40
1.0
 10
54.9240259939
 20
57.3362221532
 30
0.0
 10
54.8054838748
 20
57.2174540326
 30
0.0
 10
54.5875135248
 20
56.961260236
 30
0.0
 10
54.3046585091
 20
56.5456127042
 30
0.0
 10
54.0549948648
 20
56.1104828853
 30
0.0
 10
53.7569955786
 20
55.5133217368
 30
0.0
 10
53.4360498359
 20
54.7437381237
 30
0.0
 10
53.1086263529
 20
53.799816308
 30
0.0
 10
52.8250301657
 20
52.8426766638
 30
0.0
 10
52.4935665433
 20
51.5547689094
 30
0.0
 10
52.2879196199
 20
50.5785612073
 30
0.0
 10
52.1649885161
 20
49.9254557211
 30
0.0
  0
SPLINE
  5
335
100
AcDbEntity
  8
_1
100
AcDbSpline
 62
7
  6
BYLAYER
 70
0
 71
3
 72
16
 73
12
 74
0
 42
0.0000001
 43
0.0000001
 44
0.0000000001
 40
0.0
 40
0.0
 40
0.0
 40
0.0
 40
0.0455556772
 40
0.0948870892
 40
0.1476637042
 40
0.2035420959
 40
0.3230011281
 40
0.4504259799
 40
0.5834807909
 40
0.7203518971
 40
1.0
 40
1.0
 40
1.0
 40
1.0
 10
52.150333483
 20
46.2383819788
 30
0.0
 10
52.2174217808
 20
46.2339441618
 30
0.0
 10
52.3565112804
 20
46.2142057895
 30
0.0
 10
52.5681669102
 20
46.1612991617
 30
0.0
 10
52.7896375335
 20
46.0878042523
 30
0.0
 10
53.1026635569
 20
45.96351246
 30
0.0
 10
53.5067933001
 20
45.7719339525
 30
0.0
 10
54.000734701
 20
45.5062664516
 30
0.0
 10
54.5080038972
 20
45.2118533222
 30
0.0
 10
55.2011378223
 20
44.79053573
 30
0.0
 10
55.7205928077
 20
44.4617518464
 30
0.0
 10
56.0694118771
 20
44.2411392963
 30
0.0
  0
SPLINE
  5
336
100
AcDbEntity
  8
_1
100
AcDbSpline
 62
7
  6
BYLAYER
 70
0
 71
3
 72
17
 73
13
 74
0
 42
0.0000001
 43
0.0000001
 44
0.0000000001
 40
0.0
 40
0.0
 40
0.0
 40
0.0
 40
0.0156960351
 40
0.0372592162
 40
0.0650835399
 40
0.0993266216
 40
0.187227443
 40
0.3008568951
 40
0.4397561786
 40
0.6032251144
 40
0.7903932717
 40
1.0
 40
1.0
 40
1.0
 40
1.0
 10
51.0762642034
 20
46.3873932699
 30
0.0
 10
51.0802942587
 20
46.3833632146
 30
0.0
 10
51.0917102961
 20
46.3757538948
 30
0.0
 10
51.1132529301
 20
46.3660213685
 30
0.0
 10
51.1420497305
 20
46.3562332287
 30
0.0
 10
51.194626377
 20
46.3420000495
 30
0.0
 10
51.2786664785
 20
46.3252596193
 30
0.0
 10
51.4008696494
 20
46.3065765014
 30
0.0
 10
51.5508378388
 20
46.288330726
 30
0.0
 10
51.7277163057
 20
46.2706261363
 30
0.0
 10
51.930442337
 20
46.253639278
 30
0.0
 10
52.0741551933
 20
46.2434219744
 30
0.0
 10
52.150099142
 20
46.2383983658
 30
0.0
  0
SPLINE
  5
337
100
AcDbEntity
  8
_1
100
AcDbSpline
 62
7
  6
BYLAYER
 70
0
 71
3
 72
14
 73
10
 74
0
 42
0.0000001
 43
0.0000001
 44
0.0000000001
 40
0.0
 40
0.0
 40
0.0
 40
0.0
 40
0.0364668393
 40
0.1029774988
 40
0.1979554533
 40
0.3190231817
 40
0.46340728
 40
0.6277627312
 40
1.0
 40
1.0
 40
1.0
 40
1.0
 10
9.0635088154
 20
49.9023394301
 30
0.0
 10
9.0635088101
 20
49.9055963596
 30
0.0
 10
9.0629072587
 20
49.914781383
 30
0.0
 10
9.0624104586
 20
49.9324542809
 30
0.0
 10
9.0624055193
 20
49.9576927292
 30
0.0
 10
9.0625908766
 20
49.9898820356
 30
0.0
 10
9.0625881793
 20
50.0282694991
 30
0.0
 10
9.0625227821
 20
50.0890887314
 30
0.0
 10
9.0625501471
 20
50.1370130404
 30
0.0
 10
9.0625501471
 20
50.1702583267
 30
0.0
  0
SPLINE
  5
338
100
AcDbEntity
  8
_1
100
AcDbSpline
 62
7
  6
BYLAYER
 70
0
 71
3
 72
15
 73
11
 74
0
 42
0.0000001
 43
0.0000001
 44
0.0000000001
 40
0.0
 40
0.0
 40
0.0
 40
0.0
 40
0.360970848
 40
0.5251622259
 40
0.6703864984
 40
0.7919723168
 40
0.8867823553
 40
0.923771308
 40
0.954226107
 40
1.0
 40
1.0
 40
1.0
 40
1.0
 10
9.0625501471
 20
50.1702583267
 30
0.0
 10
9.0370114554
 20
50.1702583267
 30
0.0
 10
8.9998128718
 20
50.1718094874
 30
0.0
 10
8.9527032015
 20
50.1774494483
 30
0.0
 10
8.9226729223
 20
50.1829207866
 30
0.0
 10
8.8979475422
 20
50.1895896068
 30
0.0
 10
8.8811999542
 20
50.1962288041
 30
0.0
 10
8.8714178019
 20
50.2023654331
 30
0.0
 10
8.8653975303
 20
50.2075738906
 30
0.0
 10
8.8625501471
 20
50.21282769
 30
0.0
 10
8.8625501471
 20
50.2160661935
 30
0.0
  0
SPLINE
  5
339
100
AcDbEntity
  8
_1
100
AcDbSpline
 62
7
  6
BYLAYER
 70
0
 71
3
 72
11
 73
7
 74
0
 42
0.0000001
 43
0.0000001
 44
0.0000000001
 40
0.0
 40
0.0
 40
0.0
 40
0.0
 40
0.2499388493
 40
0.5
 40
0.7500611507
 40
1.0
 40
1.0
 40
1.0
 40
1.0
 10
9.2021034416
 20
50.039975388
 30
0.0
 10
9.2022811263
 20
49.9751045029
 30
0.0
 10
9.2285538439
 20
49.8439873598
 30
0.0
 10
9.3397740235
 20
49.6783312025
 30
0.0
 10
9.5054301807
 20
49.5671110229
 30
0.0
 10
9.6365473239
 20
49.5408383054
 30
0.0
 10
9.701418209
 20
49.5406606206
 30
0.0
  0
SPLINE
  5
33A
100
AcDbEntity
  8
_1
100
AcDbSpline
 62
7
  6
BYLAYER
 70
0
 71
3
 72
15
 73
11
 74
0
 42
0.0000001
 43
0.0000001
 44
0.0000000001
 40
0.0
 40
0.0
 40
0.0
 40
0.0
 40
0.3530779385
 40
0.514721792
 40
0.6591390461
 40
0.7818751022
 40
0.8795564019
 40
0.9185925936
 40
0.9512153071
 40
1.0
 40
1.0
 40
1.0
 40
1.0
 10
9.701418209
 20
49.9254557211
 30
0.0
 10
9.6395109292
 20
49.9261790679
 30
0.0
 10
9.5492114753
 20
49.9309097635
 30
0.0
 10
9.4345124622
 20
49.9454638978
 30
0.0
 10
9.3605429715
 20
49.9592780017
 30
0.0
 10
9.2986578099
 20
49.9757584222
 30
0.0
 10
9.2560318118
 20
49.9920765259
 30
0.0
 10
9.2300782818
 20
50.0067969459
 30
0.0
 10
9.2133518694
 20
50.0194581206
 30
0.0
 10
9.2039583396
 20
50.0316246178
 30
0.0
 10
9.2021034416
 20
50.039975388
 30
0.0
  0
SPLINE
  5
33B
100
AcDbEntity
  8
_1
100
AcDbSpline
 62
7
  6
BYLAYER
 70
0
 71
3
 72
14
 73
10
 74
0
 42
0.0000001
 43
0.0000001
 44
0.0000000001
 40
0.0
 40
0.0
 40
0.0
 40
0.0
 40
0.037738144
 40
0.1046842706
 40
0.1997438431
 40
0.3206602128
 40
0.4647427328
 40
0.6287005786
 40
1.0
 40
1.0
 40
1.0
 40
1.0
 10
9.0644674838
 20
49.9023394301
 30
0.0
 10
9.0659763948
 20
49.9053655638
 30
0.0
 10
9.067822661
 20
49.9147240867
 30
0.0
 10
9.0704189304
 20
49.9323366141
 30
0.0
 10
9.0727029689
 20
49.9576396733
 30
0.0
 10
9.0749070938
 20
49.9898086076
 30
0.0
 10
9.0768106971
 20
50.0282061582
 30
0.0
 10
9.0790369376
 20
50.0890346142
 30
0.0
 10
9.0799950432
 20
50.1369911867
 30
0.0
 10
9.0804052684
 20
50.1702583267
 30
0.0
  0
SPLINE
  5
33C
100
AcDbEntity
  8
_1
100
AcDbSpline
 62
7
  6
BYLAYER
 70
0
 71
3
 72
11
 73
7
 74
0
 42
0.0000001
 43
0.0000001
 44
0.0000000001
 40
0.0
 40
0.0
 40
0.0
 40
0.0
 40
0.3813986084
 40
0.6845590022
 40
0.8940357592
 40
1.0
 40
1.0
 40
1.0
 40
1.0
 10
9.0625501471
 20
45.7436685213
 30
0.0
 10
9.0625501471
 20
45.7635297217
 30
0.0
 10
9.0626202409
 20
45.7991803965
 30
0.0
 10
9.0624966012
 20
45.8457285113
 30
0.0
 10
9.0622270519
 20
45.8779590082
 30
0.0
 10
9.0635088065
 20
45.894357171
 30
0.0
 10
9.0635088154
 20
45.8998752222
 30
0.0
  0
SPLINE
  5
33D
100
AcDbEntity
  8
_1
100
AcDbSpline
 62
7
  6
BYLAYER
 70
0
 71
3
 72
21
 73
17
 74
0
 42
0.0000001
 43
0.0000001
 44
0.0000000001
 40
0.0
 40
0.0
 40
0.0
 40
0.0
 40
0.0040450397
 40
0.0101579667
 40
0.0184095009
 40
0.0288175058
 40
0.0560576176
 40
0.0916871464
 40
0.1354608683
 40
0.1870469192
 40
0.2458698562
 40
0.3115211851
 40
0.4608318145
 40
0.6294614299
 40
0.8113485996
 40
1.0
 40
1.0
 40
1.0
 40
1.0
 10
9.7245736829
 20
46.2383983655
 30
0.0
 10
9.726192671
 20
46.2362397145
 30
0.0
 10
9.7289865149
 20
46.2299540699
 30
0.0
 10
9.7325130842
 20
46.2182172255
 30
0.0
 10
9.7360660634
 20
46.2020514526
 30
0.0
 10
9.7412920777
 20
46.1718855273
 30
0.0
 10
9.7473523546
 20
46.1233549183
 30
0.0
 10
9.7540573838
 20
46.052533463
 30
0.0
 10
9.7605145478
 20
45.9653870565
 30
0.0
 10
9.7666710316
 20
45.8627196837
 30
0.0
 10
9.7724408482
 20
45.745415344
 30
0.0
 10
9.7798603222
 20
45.5629315948
 30
0.0
 10
9.7875073072
 20
45.3071573714
 30
0.0
 10
9.7941040253
 20
44.9738000365
 30
0.0
 10
9.7981568006
 20
44.6141575905
 30
0.0
 10
9.7990711403
 20
44.3669824725
 30
0.0
 10
9.7990711403
 20
44.2411392963
 30
0.0
  0
SPLINE
  5
33E
100
AcDbEntity
  8
_1
100
AcDbSpline
 62
7
  6
BYLAYER
 70
0
 71
3
 72
11
 73
7
 74
0
 42
0.0000001
 43
0.0000001
 44
0.0000000001
 40
0.0
 40
0.0
 40
0.0
 40
0.0
 40
0.2134618939
 40
0.4451191484
 40
0.7058178317
 40
1.0
 40
1.0
 40
1.0
 40
1.0
 10
8.8625501471
 20
45.6340251141
 30
0.0
 10
8.8625501471
 20
45.6412555662
 30
0.0
 10
8.8654401267
 20
45.6564286995
 30
0.0
 10
8.8774872878
 20
45.6774740412
 30
0.0
 10
8.8965599006
 20
45.6964212685
 30
0.0
 10
8.9123910481
 20
45.7067645314
 30
0.0
 10
8.9211287909
 20
45.7115547108
 30
0.0
  0
SPLINE
  5
33F
100
AcDbEntity
  8
_1
100
AcDbSpline
 62
7
  6
BYLAYER
 70
0
 71
3
 72
9
 73
5
 74
0
 42
0.0000001
 43
0.0000001
 44
0.0000000001
 40
0.0
 40
0.0
 40
0.0
 40
0.0
 40
0.4729977769
 40
1.0
 40
1.0
 40
1.0
 40
1.0
 10
8.9211287909
 20
45.7115547108
 30
0.0
 10
8.9413263926
 20
45.7226273802
 30
0.0
 10
8.9880780659
 20
45.7386492366
 30
0.0
 10
9.03688668
 20
45.7436685213
 30
0.0
 10
9.0625501471
 20
45.7436685213
 30
0.0
  0
ELLIPSE
  5
340
100
AcDbEntity
  8
_1
100
AcDbEllipse
 62
7
  6
BYLAYER
 10
12.0625501471
 20
46.2011045065
 30
0.0
 11
1.0604722537
 21
0.0
 31
0.0
 40
0.0174550651
 41
3.1414403255
 42
6.2833376352
  0
ELLIPSE
  5
341
100
AcDbEntity
  8
_1
100
AcDbEllipse
 62
7
  6
BYLAYER
 10
12.0625501471
 20
49.8011147817
 30
0.0
 11
1.4018922209
 21
0.0
 31
0.0
 40
0.0174550657
 41
-0.0003046793
 42
3.1418973329
  0
ELLIPSE
  5
342
100
AcDbEntity
  8
_1
100
AcDbEllipse
 62
7
  6
BYLAYER
 10
65.264269435
 20
62.4254323866
 30
0.0
 11
-0.2788041293
 21
4.8416396418
 31
0.0
 40
0.0523209914
 41
0.7354351461
 42
1.1920493994
  0
ELLIPSE
  5
343
100
AcDbEntity
  8
_1
100
AcDbEllipse
 62
7
  6
BYLAYER
 10
13.352489224
 20
54.187759022
 30
0.0
 11
0.0487913545
 21
0.1999982886
 31
0.0
 40
0.0169577304
 41
0.2618135956
 42
0.3065367827
  0
ELLIPSE
  5
344
100
AcDbEntity
  8
_1
100
AcDbEllipse
 62
7
  6
BYLAYER
 10
10.7726110703
 20
54.187759022
 30
0.0
 11
-0.0487913545
 21
0.1999982886
 31
0.0
 40
0.0169577304
 41
-0.3065367827
 42
-0.2618135956
  0
ELLIPSE
  5
345
100
AcDbEntity
  8
_1
100
AcDbEllipse
 62
7
  6
BYLAYER
 10
10.5165269446
 20
50.039975388
 30
0.0
 11
0.0
 21
0.5
 31
0.0
 40
0.0174550649
 41
-4.3339506765
 42
-3.1939525311
  0
ELLIPSE
  5
346
100
AcDbEntity
  8
_1
100
AcDbEllipse
 62
7
  6
BYLAYER
 10
13.6085733497
 20
50.039975388
 30
0.0
 11
-0.0
 21
0.5
 31
0.0
 40
0.0174550649
 41
-3.089232776
 42
-1.9492346307
  0
ELLIPSE
  5
347
100
AcDbEntity
  8
_1
100
AcDbEllipse
 62
7
  6
BYLAYER
 10
56.0694118771
 20
49.4011073262
 30
0.0
 11
5.0
 21
0.0
 31
0.0
 40
0.0524077793
 41
2.5799619685
 42
3.089232776
  0
ELLIPSE
  5
348
100
AcDbEntity
  8
_1
100
AcDbEllipse
 62
7
  6
BYLAYER
 10
13.6149153419
 20
44.2411392963
 30
0.0
 11
0.0
 21
2.0
 31
0.0
 40
0.0174550649
 41
-0.3230880438
 42
-0.0523598776
  0
ELLIPSE
  5
349
100
AcDbEntity
  8
_1
100
AcDbEllipse
 62
7
  6
BYLAYER
 10
65.264269435
 20
62.4254323866
 30
0.0
 11
-0.2788041293
 21
4.8416396418
 31
0.0
 40
0.0523209914
 41
-4.3397139553
 42
-3.1400358903
  0
ELLIPSE
  5
34A
100
AcDbEntity
  8
_1
100
AcDbEllipse
 62
7
  6
BYLAYER
 10
10.5101849523
 20
44.2411392963
 30
0.0
 11
0.0
 21
2.0
 31
0.0
 40
0.0174550649
 41
0.0523598776
 42
0.3230880438
  0
ENDSEC
  0
SECTION
  2
OBJECTS
  0
DICTIONARY
  5
C
100
AcDbDictionary
280
0
281
1
  3
ACAD_GROUP
350
D
  3
ACAD_MLINESTYLE
350
17
  3
ACAD_LAYOUT
350
1A
  3
ACAD_PLOTSETTINGS
350
19
  3
ACAD_PLOTSTYLENAME
350
E
  0
DICTIONARY
  5
D
102
{ACAD_REACTORS
330
C
102
}
100
AcDbDictionary
280
0
281
1
  0
ACDBDICTIONARYWDFLT
  5
E
102
{ACAD_REACTORS
330
C
102
}
100
AcDbDictionary
281
1
  3
Normal
350
F
100
AcDbDictionaryWithDefault
340
F
  0
DICTIONARY
  5
17
102
{ACAD_REACTORS
330
C
102
}
100
AcDbDictionary
280
0
281
1
  3
Standard
350
18
  0
DICTIONARY
  5
19
102
{ACAD_REACTORS
330
C
102
}
100
AcDbDictionary
281
1
  0
DICTIONARY
  5
1A
102
{ACAD_REACTORS
330
C
102
}
100
AcDbDictionary
281
1
  3
Model
350
34B
  3
Layout1
350
34C
  0
ACDBPLACEHOLDER
  5
F
102
{ACAD_REACTORS
330
E
102
}
  0
MLINESTYLE
  5
18
102
{ACAD_REACTORS
330
17
102
}
100
AcDbMlineStyle
  2
STANDARD
 70
0
  3

 62
256
 51
90.0
 52
90.0
 71
2
 49
0.5
 62
256
  6
BYLAYER
 49
-0.5
 62
256
  6
BYLAYER
  0
LAYOUT
  5
34B
102
{ACAD_REACTORS
330
1A
102
}
100
AcDbPlotSettings
  1

  2
none_device
  4

  6

 40
0.0
 41
0.0
 42
0.0
 43
0.0
 44
210.0
 45
297.0
 46
0.0
 47
0.0
 48
0.0
 49
0.0
140
0.0
141
0.0
142
1.0
143
1.0
 70
1024
 72
1
 73
0
 74
0
  7

 75
0
147
1.0
148
0.0
149
0.0
100
AcDbLayout
  1
Model
 70
0
 71
0
 10
0.0
 20
0.0
 11
210.0
 21
297.0
 12
0.0
 22
0.0
 32
0.0
 14
0.0
 24
0.0
 34
0.0
 15
0.0
 25
0.0
 35
0.0
146
0.0
 13
0.0
 23
0.0
 33
0.0
 16
1.0
 26
0.0
 36
0.0
 17
0.0
 27
1.0
 37
0.0
 76
0
330
211
345
0
346
0
  0
LAYOUT
  5
34C
102
{ACAD_REACTORS
330
1A
102
}
100
AcDbPlotSettings
  1

  2
none_device
  4

  6

 40
0.0
 41
0.0
 42
0.0
 43
0.0
 44
210.0
 45
297.0
 46
0.0
 47
0.0
 48
0.0
 49
0.0
140
0.0
141
0.0
142
1.0
143
1.0
 70
0
 72
1
 73
0
 74
0
  7

 75
0
147
1.0
148
0.0
149
0.0
100
AcDbLayout
  1
Layout1
 70
0
 71
1
 10
0.0
 20
0.0
 11
210.0
 21
297.0
 12
0.0
 22
0.0
 32
0.0
 14
0.0
 24
0.0
 34
0.0
 15
0.0
 25
0.0
 35
0.0
146
0.0
 13
0.0
 23
0.0
 33
0.0
 16
1.0
 26
0.0
 36
0.0
 17
0.0
 27
1.0
 37
0.0
 76
0
330
212
345
0
346
0
  0
ENDSEC
  0
EOF
