999
DXF file: C:\Users\sesa63760\Dev\_Creo\CAD\MCADPD0005171_3D-CAD\drw0001_7.dxf
999
Pro/ENGINEER 2019471 by Parametric Technology Corporation
  0
SECTION
  2
HEADER
  9
$ACADVER
  1
AC1024
  9
$DWGCODEPAGE
  3
ANSI_1252
  9
$EXTMAX
 10
135.9178184451
 20
192.2266289437
 30
0.0
  9
$EXTMIN
 10
0.0
 20
0.0
 30
0.0
  9
$LIMMIN
 10
0.0
 20
0.0
  9
$LIMMAX
 10
135.9178184451
 20
192.2266289437
  9
$VIEWCTR
 10
67.9589092225
 20
96.1133144719
  9
$VIEWSIZE
 40
192.2266289437
  9
$CLAYER
  8
0
  9
$LTSCALE
 40
12.5303284052
  9
$CELTYPE
  6
BYLAYER
  9
$DIMSCALE
 40
1.0
  9
$DIMASZ
 40
1.6180692672
  9
$DIMEXO
 40
1.0
  9
$DIMDLI
 40
8.6573178072
  9
$DIMEXE
 40
1.0
  9
$DIMCEN
 40
2.0504173754
  9
$DIMLFAC
 40
1.0
  9
$DIMBLK
  1
_FILLED
  9
$DIMALT
 70
0
  9
$DIMALTF
 40
0.0393700787
  9
$DIMTXT
 40
2.2652969741
  9
$DIMTOL
 70
1
  9
$DIMLIM
 70
0
  9
$DIMTFAC
 40
1.0
  9
$DIMTP
 40
0.01
  9
$DIMTM
 40
0.01
  9
$DIMGAP
 40
0.625
  9
$DIMDSEP
 70
46
  9
$AUNITS
 70
0
  9
$PDMODE
 70
3
  9
$PDSIZE
 40
0.3125
  9
$HANDSEED
  5
30F
  9
$TILEMODE
 70
1
  9
$MEASUREMENT
 70
1
  9
$INSUNITS
 70
4
  0
ENDSEC
  0
SECTION
  2
CLASSES
  0
CLASS
  1
ACDBDICTIONARYWDFLT
  2
AcDbDictionaryWithDefault
  3
AutoCAD 2000
 90
0
 91
1
280
0
281
0
  0
CLASS
  1
ACDBPLACEHOLDER
  2
AcDbPlaceHolder
  3
AutoCAD 2000
 90
0
 91
1
280
0
281
0
  0
CLASS
  1
LAYOUT
  2
AcDbLayout
  3
AutoCAD 2000
 90
0
 91
0
280
0
281
0
  0
ENDSEC
  0
SECTION
  2
TABLES
  0
TABLE
  2
VPORT
  5
8
100
AcDbSymbolTable
 70
2
  0
VPORT
  5
1F4
100
AcDbSymbolTableRecord
100
AcDbViewportTableRecord
  2
*ACTIVE
 70
0
 10
0.0
 20
0.0
 11
1.0
 21
1.0
 12
67.9589092225
 22
96.1133144719
 13
0.0
 23
0.0
 14
1.0
 24
1.0
 15
0.0
 25
0.0
 16
0.0
 26
0.0
 36
1.0
 17
0.0
 27
0.0
 37
0.0
 40
192.2266289437
 41
0.7070707071
 42
50.0
 43
0.0
 44
0.0
 50
0.0
 51
0.0
 71
0
 72
100
 73
1
 74
1
 75
0
 76
0
 77
0
 78
0
  0
ENDTAB
  0
TABLE
  2
LTYPE
  5
5
100
AcDbSymbolTable
 70
6
  0
LTYPE
  5
14
100
AcDbSymbolTableRecord
100
AcDbLinetypeTableRecord
  2
BYBLOCK
 70
0
  3

 72
65
 73
0
 40
0.0
  0
LTYPE
  5
15
100
AcDbSymbolTableRecord
100
AcDbLinetypeTableRecord
  2
BYLAYER
 70
0
  3

 72
65
 73
0
 40
0.0
  0
LTYPE
  5
16
100
AcDbSymbolTableRecord
100
AcDbLinetypeTableRecord
  2
CONTINUOUS
 70
64
  3
Solid line
 72
65
 73
0
 40
0.0
  0
LTYPE
  5
1F5
100
AcDbSymbolTableRecord
100
AcDbLinetypeTableRecord
  2
CENTER
 70
64
  3
____ _ ____ _ ____ _ ____ _ ____ _ ____ _ ____
 72
65
 73
4
 40
0.6
 49
0.375
 74
0
 49
-0.075
 74
0
 49
0.075
 74
0
 49
-0.075
 74
0
  0
LTYPE
  5
1F6
100
AcDbSymbolTableRecord
100
AcDbLinetypeTableRecord
  2
HIDDEN
 70
64
  3
- - - - - - - - - - - - - - - - - - - -
 72
65
 73
2
 40
0.2
 49
0.1
 74
0
 49
-0.1
 74
0
  0
LTYPE
  5
1F7
100
AcDbSymbolTableRecord
100
AcDbLinetypeTableRecord
  2
PHANTOM
 70
64
  3
_____ _ _ _____ _ _ _____ _ _ _____
 72
65
 73
6
 40
0.8
 49
0.45
 74
0
 49
-0.05
 74
0
 49
0.1
 74
0
 49
-0.05
 74
0
 49
0.1
 74
0
 49
-0.05
 74
0
  0
LTYPE
  5
1F8
100
AcDbSymbolTableRecord
100
AcDbLinetypeTableRecord
  2
DOT
 70
64
  3
. . . . . . . . . . . . . . . . . . . .
 72
65
 73
2
 40
0.2
 49
0.1
 74
0
 49
-0.1
 74
0
  0
LTYPE
  5
1F9
100
AcDbSymbolTableRecord
100
AcDbLinetypeTableRecord
  2
DASHED
 70
64
  3
- - - - - - - - - - - - - - - - - - - -
 72
65
 73
2
 40
0.2
 49
0.1
 74
0
 49
-0.1
 74
0
  0
ENDTAB
  0
TABLE
  2
LAYER
  5
2
100
AcDbSymbolTable
 70
36
  0
LAYER
  5
10
100
AcDbSymbolTableRecord
100
AcDbLayerTableRecord
  2
0
 70
0
 62
7
  6
CONTINUOUS
370
-3
390
F
  0
LAYER
  5
1FA
100
AcDbSymbolTableRecord
100
AcDbLayerTableRecord
  2
DEFAULT_1
 70
0
 62
7
  6
CENTER
370
-3
390
F
  0
LAYER
  5
1FB
100
AcDbSymbolTableRecord
100
AcDbLayerTableRecord
  2
DEFAULT_2
 70
0
 62
7
  6
HIDDEN
370
-3
390
F
  0
LAYER
  5
1FC
100
AcDbSymbolTableRecord
100
AcDbLayerTableRecord
  2
DEFAULT_3
 70
0
 62
7
  6
PHANTOM
370
-3
390
F
  0
LAYER
  5
1FD
100
AcDbSymbolTableRecord
100
AcDbLayerTableRecord
  2
00_COMPONENTS
 70
0
 62
7
  6
CONTINUOUS
370
-3
390
F
  0
LAYER
  5
1FE
100
AcDbSymbolTableRecord
100
AcDbLayerTableRecord
  2
01_1_DEFAULT_DATUMS
 70
0
 62
7
  6
CONTINUOUS
370
-3
390
F
  0
LAYER
  5
1FF
100
AcDbSymbolTableRecord
100
AcDbLayerTableRecord
  2
01_PLANES
 70
0
 62
7
  6
CONTINUOUS
370
-3
390
F
  0
LAYER
  5
200
100
AcDbSymbolTableRecord
100
AcDbLayerTableRecord
  2
02_COORD_SYS
 70
0
 62
7
  6
CONTINUOUS
370
-3
390
F
  0
LAYER
  5
201
100
AcDbSymbolTableRecord
100
AcDbLayerTableRecord
  2
03_AXES
 70
0
 62
7
  6
CONTINUOUS
370
-3
390
F
  0
LAYER
  5
202
100
AcDbSymbolTableRecord
100
AcDbLayerTableRecord
  2
04_POINTS
 70
0
 62
7
  6
CONTINUOUS
370
-3
390
F
  0
LAYER
  5
203
100
AcDbSymbolTableRecord
100
AcDbLayerTableRecord
  2
05_CURVES
 70
0
 62
7
  6
CONTINUOUS
370
-3
390
F
  0
LAYER
  5
204
100
AcDbSymbolTableRecord
100
AcDbLayerTableRecord
  2
06_SURFS
 70
0
 62
7
  6
CONTINUOUS
370
-3
390
F
  0
LAYER
  5
205
100
AcDbSymbolTableRecord
100
AcDbLayerTableRecord
  2
07_COSMETICS
 70
0
 62
7
  6
CONTINUOUS
370
-3
390
F
  0
LAYER
  5
206
100
AcDbSymbolTableRecord
100
AcDbLayerTableRecord
  2
10_NOTES
 70
0
 62
7
  6
CONTINUOUS
370
-3
390
F
  0
LAYER
  5
207
100
AcDbSymbolTableRecord
100
AcDbLayerTableRecord
  2
11_NOTES_PUB
 70
0
 62
7
  6
CONTINUOUS
370
-3
390
F
  0
LAYER
  5
208
100
AcDbSymbolTableRecord
100
AcDbLayerTableRecord
  2
13_REF_GTOL
 70
0
 62
7
  6
CONTINUOUS
370
-3
390
F
  0
LAYER
  5
209
100
AcDbSymbolTableRecord
100
AcDbLayerTableRecord
  2
16_MISC
 70
0
 62
7
  6
CONTINUOUS
370
-3
390
F
  0
LAYER
  5
20A
100
AcDbSymbolTableRecord
100
AcDbLayerTableRecord
  2
17_NO_PRINT
 70
0
 62
7
  6
CONTINUOUS
370
-3
390
F
  0
LAYER
  5
20B
100
AcDbSymbolTableRecord
100
AcDbLayerTableRecord
  2
18_DATUM_CAMS_JOINTS
 70
0
 62
7
  6
CONTINUOUS
370
-3
390
F
  0
LAYER
  5
20C
100
AcDbSymbolTableRecord
100
AcDbLayerTableRecord
  2
19_DATUM_FUNCTIONAL
 70
0
 62
7
  6
CONTINUOUS
370
-3
390
F
  0
LAYER
  5
20D
100
AcDbSymbolTableRecord
100
AcDbLayerTableRecord
  2
20_DATUM_KINEMATIC_SCHEME
 70
0
 62
7
  6
CONTINUOUS
370
-3
390
F
  0
ENDTAB
  0
TABLE
  2
STYLE
  5
3
100
AcDbSymbolTable
 70
1
  0
STYLE
  5
11
100
AcDbSymbolTableRecord
100
AcDbTextStyleTableRecord
  2
STANDARD
 70
0
 40
0.0
 41
1.0
 50
0.0
 71
0
 42
0.2
  3
ARIAL.TTF
  4

  0
STYLE
  5
20E
100
AcDbSymbolTableRecord
100
AcDbTextStyleTableRecord
  2
TEXTSTYLE_1
 70
0
 40
0.0
 41
0.8
 50
0.0
 71
0
 42
0.2
  3
gdt
  4

  0
ENDTAB
  0
TABLE
  2
VIEW
  5
6
100
AcDbSymbolTable
 70
0
  0
ENDTAB
  0
TABLE
  2
UCS
  5
7
100
AcDbSymbolTable
 70
0
  0
ENDTAB
  0
TABLE
  2
APPID
  5
9
100
AcDbSymbolTable
 70
1
  0
APPID
  5
20F
100
AcDbSymbolTableRecord
100
AcDbRegAppTableRecord
  2
ACAD
 70
0
  0
ENDTAB
  0
TABLE
  2
BLOCK_RECORD
  5
1
100
AcDbSymbolTable
 70
0
  0
BLOCK_RECORD
  5
210
100
AcDbSymbolTableRecord
100
AcDbBlockTableRecord
  2
*Model_Space
  0
BLOCK_RECORD
  5
211
100
AcDbSymbolTableRecord
100
AcDbBlockTableRecord
  2
*Paper_Space
  0
BLOCK_RECORD
  5
212
100
AcDbSymbolTableRecord
100
AcDbBlockTableRecord
  2
_FILLED
  0
ENDTAB
  0
TABLE
  2
DIMSTYLE
  5
A
100
AcDbSymbolTable
 70
1
100
AcDbDimStyleTable
 71
0
  0
DIMSTYLE
105
213
100
AcDbSymbolTableRecord
100
AcDbDimStyleTableRecord
  2
STANDARD
 70
0
  3

  4

 40
1.0
 41
1.6180692672
 42
1.0
 43
0.38
 44
1.0
 45
0.0
 46
0.0
 47
0.01
 48
0.01
140
2.2652969741
141
0.09
142
0.0
143
25.4
144
1.0
145
0.0
146
1.0
147
0.625
 71
1
 72
0
 73
0
 74
0
 75
0
 76
0
 77
1
 78
8
 79
2
170
0
171
1
172
0
173
0
174
0
175
0
176
0
177
0
178
0
270
2
179
2
271
2
272
2
273
2
274
2
275
0
280
0
281
0
282
0
283
1
284
8
285
0
286
0
287
3
288
0
340
11
278
46
341
212
342
212
343
212
344
212
  0
ENDTAB
  0
ENDSEC
  0
SECTION
  2
BLOCKS
  0
BLOCK
  5
20
100
AcDbEntity
  8
0
100
AcDbBlockBegin
  2
*Model_Space
 70
0
 10
0.0
 20
0.0
 30
0.0
  3
*Model_Space
  1

  0
ENDBLK
  5
21
100
AcDbEntity
  8
0
100
AcDbBlockEnd
  0
BLOCK
  5
1C
100
AcDbEntity
  8
0
100
AcDbBlockBegin
  2
*Paper_Space
 70
0
 10
0.0
 20
0.0
 30
0.0
  3
*Paper_Space
  1

  0
ENDBLK
  5
1D
100
AcDbEntity
  8
0
100
AcDbBlockEnd
  0
BLOCK
  5
214
100
AcDbEntity
  8
0
100
AcDbBlockBegin
  2
_FILLED
 70
64
 10
0.0
 20
0.0
  3
_FILLED
  1

  0
SOLID
  5
215
100
AcDbEntity
  8
0
  6
BYBLOCK
 62
0
100
AcDbTrace
 10
0.0
 20
0.0
 11
-1.0
 21
0.25
 12
-1.0
 22
-0.25
 13
-1.0
 23
-0.25
  0
ENDBLK
  5
216
100
AcDbEntity
  8
0
  6
BYBLOCK
 62
0
100
AcDbBlockEnd
  0
ENDSEC
  0
SECTION
  2
ENTITIES
  0
LINE
  5
217
100
AcDbEntity
  8
0
100
AcDbLine
 62
7
  6
BYLAYER
 10
14.4319103429
 20
86.0338814953
 11
14.4319103429
 21
92.0881965855
  0
LINE
  5
218
100
AcDbEntity
  8
0
100
AcDbLine
 62
7
  6
BYLAYER
 10
14.4319103429
 20
93.5881965855
 11
14.4319103429
 21
99.5881965855
  0
LINE
  5
219
100
AcDbEntity
  8
0
100
AcDbLine
 62
7
  6
BYLAYER
 10
14.4319103429
 20
101.0881965855
 11
14.4319103429
 21
107.1338814953
  0
LINE
  5
21A
100
AcDbEntity
  8
0
100
AcDbLine
 62
7
  6
BYLAYER
 10
14.44542034
 20
86.0338814953
 11
14.44542034
 21
92.0881965855
  0
LINE
  5
21B
100
AcDbEntity
  8
0
100
AcDbLine
 62
7
  6
BYLAYER
 10
14.44542034
 20
93.5881965855
 11
14.44542034
 21
99.5881965855
  0
LINE
  5
21C
100
AcDbEntity
  8
0
100
AcDbLine
 62
7
  6
BYLAYER
 10
14.44542034
 20
101.0881965855
 11
14.44542034
 21
107.1338814953
  0
LINE
  5
21D
100
AcDbEntity
  8
0
100
AcDbLine
 62
7
  6
BYLAYER
 10
15.7084364444
 20
106.0387304954
 11
15.7084364444
 21
104.488730496
  0
LINE
  5
21E
100
AcDbEntity
  8
0
100
AcDbLine
 62
7
  6
BYLAYER
 10
15.7084364444
 20
103.688730496
 11
15.7084364444
 21
102.1387304966
  0
LINE
  5
21F
100
AcDbEntity
  8
0
100
AcDbLine
 62
7
  6
BYLAYER
 10
15.7084364444
 20
98.5387304954
 11
15.7084364444
 21
96.988730496
  0
LINE
  5
220
100
AcDbEntity
  8
0
100
AcDbLine
 62
7
  6
BYLAYER
 10
15.7084364444
 20
96.188730496
 11
15.7084364444
 21
94.6387304966
  0
LINE
  5
221
100
AcDbEntity
  8
0
100
AcDbLine
 62
7
  6
BYLAYER
 10
15.7084364444
 20
91.0387304954
 11
15.7084364444
 21
89.488730496
  0
LINE
  5
222
100
AcDbEntity
  8
0
100
AcDbLine
 62
7
  6
BYLAYER
 10
15.7084364444
 20
88.688730496
 11
15.7084364444
 21
87.1387304966
  0
LINE
  5
223
100
AcDbEntity
  8
0
100
AcDbLine
 62
7
  6
BYLAYER
 10
15.9663638365
 20
88.688730496
 11
15.9663638365
 21
89.488730496
  0
LINE
  5
224
100
AcDbEntity
  8
0
100
AcDbLine
 62
7
  6
BYLAYER
 10
15.9663638365
 20
96.188730496
 11
15.9663638365
 21
96.988730496
  0
LINE
  5
225
100
AcDbEntity
  8
0
100
AcDbLine
 62
7
  6
BYLAYER
 10
15.9663638365
 20
103.688730496
 11
15.9663638365
 21
104.488730496
  0
LINE
  5
226
100
AcDbEntity
  8
0
100
AcDbLine
 62
7
  6
BYLAYER
 10
16.7149883964
 20
106.0387304954
 11
16.7149883964
 21
105.0052456344
  0
LINE
  5
227
100
AcDbEntity
  8
0
100
AcDbLine
 62
7
  6
BYLAYER
 10
16.7149883964
 20
103.1722153576
 11
16.7149883964
 21
102.1387304966
  0
LINE
  5
228
100
AcDbEntity
  8
0
100
AcDbLine
 62
7
  6
BYLAYER
 10
16.7149883964
 20
98.5387304954
 11
16.7149883964
 21
97.5052456344
  0
LINE
  5
229
100
AcDbEntity
  8
0
100
AcDbLine
 62
7
  6
BYLAYER
 10
16.7149883964
 20
95.6722153576
 11
16.7149883964
 21
94.6387304966
  0
LINE
  5
22A
100
AcDbEntity
  8
0
100
AcDbLine
 62
7
  6
BYLAYER
 10
16.7149883964
 20
91.0387304954
 11
16.7149883964
 21
90.0052456344
  0
LINE
  5
22B
100
AcDbEntity
  8
0
100
AcDbLine
 62
7
  6
BYLAYER
 10
16.7149883964
 20
88.1722153576
 11
16.7149883964
 21
87.1387304966
  0
LINE
  5
22C
100
AcDbEntity
  8
0
100
AcDbLine
 62
7
  6
BYLAYER
 10
16.9872134003
 20
103.1722153576
 11
16.9872134003
 21
102.1387304966
  0
LINE
  5
22D
100
AcDbEntity
  8
0
100
AcDbLine
 62
7
  6
BYLAYER
 10
16.9872134003
 20
95.6722153576
 11
16.9872134003
 21
94.6387304966
  0
LINE
  5
22E
100
AcDbEntity
  8
0
100
AcDbLine
 62
7
  6
BYLAYER
 10
16.9872134003
 20
88.1722153576
 11
16.9872134003
 21
87.1387304966
  0
LINE
  5
22F
100
AcDbEntity
  8
0
100
AcDbLine
 62
7
  6
BYLAYER
 10
16.9872134003
 20
90.0052456344
 11
16.9872134003
 21
91.0387304954
  0
LINE
  5
230
100
AcDbEntity
  8
0
100
AcDbLine
 62
7
  6
BYLAYER
 10
16.9872134003
 20
97.5052456344
 11
16.9872134003
 21
98.5387304954
  0
LINE
  5
231
100
AcDbEntity
  8
0
100
AcDbLine
 62
7
  6
BYLAYER
 10
16.9872134003
 20
105.0052456344
 11
16.9872134003
 21
106.0387304954
  0
LINE
  5
232
100
AcDbEntity
  8
0
100
AcDbLine
 62
7
  6
BYLAYER
 10
17.1083376832
 20
101.0881965855
 11
17.1083376832
 21
99.5881965855
  0
LINE
  5
233
100
AcDbEntity
  8
0
100
AcDbLine
 62
7
  6
BYLAYER
 10
17.1083376832
 20
93.5881965855
 11
17.1083376832
 21
92.0881965855
  0
LINE
  5
234
100
AcDbEntity
  8
0
100
AcDbLine
 62
7
  6
BYLAYER
 10
17.1218476804
 20
101.0881965855
 11
17.1218476804
 21
99.5881965855
  0
LINE
  5
235
100
AcDbEntity
  8
0
100
AcDbLine
 62
7
  6
BYLAYER
 10
17.1218476804
 20
93.5881965855
 11
17.1218476804
 21
92.0881965855
  0
LINE
  5
236
100
AcDbEntity
  8
0
100
AcDbLine
 62
7
  6
BYLAYER
 10
17.2537204576
 20
107.1338814953
 11
17.2537204576
 21
106.0387304954
  0
LINE
  5
237
100
AcDbEntity
  8
0
100
AcDbLine
 62
7
  6
BYLAYER
 10
17.2537204576
 20
102.1387304966
 11
17.2537204576
 21
101.0881965855
  0
LINE
  5
238
100
AcDbEntity
  8
0
100
AcDbLine
 62
7
  6
BYLAYER
 10
17.2537204576
 20
99.5881965855
 11
17.2537204576
 21
98.5387304954
  0
LINE
  5
239
100
AcDbEntity
  8
0
100
AcDbLine
 62
7
  6
BYLAYER
 10
17.2537204576
 20
94.6387304966
 11
17.2537204576
 21
93.5881965855
  0
LINE
  5
23A
100
AcDbEntity
  8
0
100
AcDbLine
 62
7
  6
BYLAYER
 10
17.2537204576
 20
92.0881965855
 11
17.2537204576
 21
91.0387304954
  0
LINE
  5
23B
100
AcDbEntity
  8
0
100
AcDbLine
 62
7
  6
BYLAYER
 10
17.2537204575
 20
87.1387304966
 11
17.2537204575
 21
86.0338814953
  0
LINE
  5
23C
100
AcDbEntity
  8
0
100
AcDbLine
 62
7
  6
BYLAYER
 10
17.386023031
 20
87.1387304966
 11
17.386023031
 21
88.1722153576
  0
LINE
  5
23D
100
AcDbEntity
  8
0
100
AcDbLine
 62
7
  6
BYLAYER
 10
17.386023031
 20
90.0052456355
 11
17.386023031
 21
91.0387304954
  0
LINE
  5
23E
100
AcDbEntity
  8
0
100
AcDbLine
 62
7
  6
BYLAYER
 10
17.386023031
 20
94.6387304966
 11
17.386023031
 21
95.6722153576
  0
LINE
  5
23F
100
AcDbEntity
  8
0
100
AcDbLine
 62
7
  6
BYLAYER
 10
17.386023031
 20
97.5052456355
 11
17.386023031
 21
98.5387304954
  0
LINE
  5
240
100
AcDbEntity
  8
0
100
AcDbLine
 62
7
  6
BYLAYER
 10
17.386023031
 20
102.1387304966
 11
17.386023031
 21
103.1722153576
  0
LINE
  5
241
100
AcDbEntity
  8
0
100
AcDbLine
 62
7
  6
BYLAYER
 10
17.386023031
 20
105.0052456355
 11
17.386023031
 21
106.0387304954
  0
LINE
  5
242
100
AcDbEntity
  8
0
100
AcDbLine
 62
7
  6
BYLAYER
 10
17.4008921003
 20
106.0838814953
 11
17.4008921003
 21
106.0387304954
  0
LINE
  5
243
100
AcDbEntity
  8
0
100
AcDbLine
 62
7
  6
BYLAYER
 10
17.4008921003
 20
102.1387304966
 11
17.4008921003
 21
101.9084123137
  0
LINE
  5
244
100
AcDbEntity
  8
0
100
AcDbLine
 62
7
  6
BYLAYER
 10
17.4008921003
 20
101.0838815402
 11
17.4008921003
 21
99.5838815402
  0
LINE
  5
245
100
AcDbEntity
  8
0
100
AcDbLine
 62
7
  6
BYLAYER
 10
17.4008921003
 20
98.7593506767
 11
17.4008921003
 21
98.5387304954
  0
LINE
  5
246
100
AcDbEntity
  8
0
100
AcDbLine
 62
7
  6
BYLAYER
 10
17.4008921003
 20
94.6387304966
 11
17.4008921003
 21
94.4084123137
  0
LINE
  5
247
100
AcDbEntity
  8
0
100
AcDbLine
 62
7
  6
BYLAYER
 10
17.4008921003
 20
93.5838814502
 11
17.4008921003
 21
92.0838814502
  0
LINE
  5
248
100
AcDbEntity
  8
0
100
AcDbLine
 62
7
  6
BYLAYER
 10
17.4008921003
 20
91.2593506767
 11
17.4008921003
 21
91.0387304954
  0
LINE
  5
249
100
AcDbEntity
  8
0
100
AcDbLine
 62
7
  6
BYLAYER
 10
17.4008921003
 20
87.1387304966
 11
17.4008921003
 21
87.0838814951
  0
LINE
  5
24A
100
AcDbEntity
  8
0
100
AcDbLine
 62
7
  6
BYLAYER
 10
17.6363667287
 20
86.0338814953
 11
17.6363667287
 21
87.0838814951
  0
LINE
  5
24B
100
AcDbEntity
  8
0
100
AcDbLine
 62
7
  6
BYLAYER
 10
17.6363667287
 20
91.2593506767
 11
17.6363667287
 21
92.0838814502
  0
LINE
  5
24C
100
AcDbEntity
  8
0
100
AcDbLine
 62
7
  6
BYLAYER
 10
17.6363667287
 20
93.5838814502
 11
17.6363667287
 21
94.4084123137
  0
LINE
  5
24D
100
AcDbEntity
  8
0
100
AcDbLine
 62
7
  6
BYLAYER
 10
17.6363667287
 20
98.7593506767
 11
17.6363667287
 21
99.5838815402
  0
LINE
  5
24E
100
AcDbEntity
  8
0
100
AcDbLine
 62
7
  6
BYLAYER
 10
17.6363667287
 20
101.0838815402
 11
17.6363667287
 21
101.9084123137
  0
LINE
  5
24F
100
AcDbEntity
  8
0
100
AcDbLine
 62
7
  6
BYLAYER
 10
17.6363667287
 20
106.0838814953
 11
17.6363667287
 21
107.1338814953
  0
LINE
  5
250
100
AcDbEntity
  8
0
100
AcDbLine
 62
7
  6
BYLAYER
 10
18.392574983
 20
87.1387304966
 11
18.392574983
 21
91.0387304954
  0
LINE
  5
251
100
AcDbEntity
  8
0
100
AcDbLine
 62
7
  6
BYLAYER
 10
18.392574983
 20
94.6387304966
 11
18.392574983
 21
98.5387304954
  0
LINE
  5
252
100
AcDbEntity
  8
0
100
AcDbLine
 62
7
  6
BYLAYER
 10
18.392574983
 20
102.1387304966
 11
18.392574983
 21
106.0387304954
  0
LINE
  5
253
100
AcDbEntity
  8
0
100
AcDbLine
 62
7
  6
BYLAYER
 10
19.0601113372
 20
85.283881495
 11
19.0601113372
 21
107.883881495
  0
LINE
  5
254
100
AcDbEntity
  8
0
100
AcDbLine
 62
7
  6
BYLAYER
 10
23.5023841232
 20
86.8838814953
 11
23.5023841232
 21
106.2838814953
  0
LINE
  5
255
100
AcDbEntity
  8
0
100
AcDbLine
 62
7
  6
BYLAYER
 10
24.8639817108
 20
106.2838814953
 11
24.8639817108
 21
86.8838814953
  0
LINE
  5
256
100
AcDbEntity
  8
0
100
AcDbLine
 62
7
  6
BYLAYER
 10
25.4527047931
 20
86.8838814953
 11
25.4527047931
 21
106.2838814953
  0
LINE
  5
257
100
AcDbEntity
  8
0
100
AcDbLine
 62
7
  6
BYLAYER
 10
26.1186626813
 20
106.2838814953
 11
26.1186626813
 21
86.8838814953
  0
LINE
  5
258
100
AcDbEntity
  8
0
100
AcDbLine
 62
7
  6
BYLAYER
 10
26.6011660259
 20
106.2838814953
 11
26.6011660259
 21
86.8838814953
  0
LINE
  5
259
100
AcDbEntity
  8
0
100
AcDbLine
 62
7
  6
BYLAYER
 10
30.3601113377
 20
107.883881495
 11
30.3601113377
 21
106.2838814953
  0
LINE
  5
25A
100
AcDbEntity
  8
0
100
AcDbLine
 62
7
  6
BYLAYER
 10
30.3601113377
 20
86.8838814953
 11
30.3601113377
 21
85.283881495
  0
LINE
  5
25B
100
AcDbEntity
  8
0
100
AcDbLine
 62
7
  6
BYLAYER
 10
30.3897326871
 20
106.2838814953
 11
30.3897326871
 21
86.8838814953
  0
LINE
  5
25C
100
AcDbEntity
  8
0
100
AcDbLine
 62
7
  6
BYLAYER
 10
35.2396896615
 20
85.283881495
 11
35.2396896615
 21
86.8838814953
  0
LINE
  5
25D
100
AcDbEntity
  8
0
100
AcDbLine
 62
7
  6
BYLAYER
 10
35.2396896615
 20
106.2838814953
 11
35.2396896615
 21
107.883881495
  0
LINE
  5
25E
100
AcDbEntity
  8
0
100
AcDbLine
 62
7
  6
BYLAYER
 10
35.3676838248
 20
107.7838814951
 11
35.3676838248
 21
106.2838814953
  0
LINE
  5
25F
100
AcDbEntity
  8
0
100
AcDbLine
 62
7
  6
BYLAYER
 10
35.3676838247
 20
86.8838814953
 11
35.3676838248
 21
85.383881495
  0
LINE
  5
260
100
AcDbEntity
  8
0
100
AcDbLine
 62
7
  6
BYLAYER
 10
42.2793686386
 20
85.283881495
 11
42.2793686386
 21
85.383881495
  0
LINE
  5
261
100
AcDbEntity
  8
0
100
AcDbLine
 62
7
  6
BYLAYER
 10
42.2793686386
 20
107.7838814951
 11
42.2793686386
 21
107.883881495
  0
LINE
  5
262
100
AcDbEntity
  8
0
100
AcDbLine
 62
7
  6
BYLAYER
 10
19.0601113372
 20
85.283881495
 11
118.0601113375
 21
85.283881495
  0
LINE
  5
263
100
AcDbEntity
  8
0
100
AcDbLine
 62
7
  6
BYLAYER
 10
101.7525388504
 20
85.383881495
 11
35.3676838248
 21
85.383881495
  0
LINE
  5
264
100
AcDbEntity
  8
0
100
AcDbLine
 62
7
  6
BYLAYER
 10
14.4319103429
 20
86.0338814953
 11
19.0601113372
 21
86.0338814953
  0
LINE
  5
265
100
AcDbEntity
  8
0
100
AcDbLine
 62
7
  6
BYLAYER
 10
118.0601113374
 20
86.5338814953
 11
121.9564751253
 21
86.5338814953
  0
LINE
  5
266
100
AcDbEntity
  8
0
100
AcDbLine
 62
7
  6
BYLAYER
 10
106.7601113377
 20
86.8838814953
 11
101.7525388504
 21
86.8838814953
  0
LINE
  5
267
100
AcDbEntity
  8
0
100
AcDbLine
 62
7
  6
BYLAYER
 10
23.5023841229
 20
86.8838814953
 11
35.3676838247
 21
86.8838814953
  0
LINE
  5
268
100
AcDbEntity
  8
0
100
AcDbLine
 62
7
  6
BYLAYER
 10
107.7887234619
 20
86.8838814953
 11
110.7729387577
 21
86.8838814953
  0
LINE
  5
269
100
AcDbEntity
  8
0
100
AcDbLine
 62
7
  6
BYLAYER
 10
19.0601113372
 20
87.0838814951
 11
17.4008921003
 21
87.0838814951
  0
LINE
  5
26A
100
AcDbEntity
  8
0
100
AcDbLine
 62
7
  6
BYLAYER
 10
118.0601113374
 20
87.1338814955
 11
121.3534316402
 21
87.1338814955
  0
LINE
  5
26B
100
AcDbEntity
  8
0
100
AcDbLine
 62
7
  6
BYLAYER
 10
15.7084364444
 20
87.1387304966
 11
19.0601113372
 21
87.1387304966
  0
LINE
  5
26C
100
AcDbEntity
  8
0
100
AcDbLine
 62
7
  6
BYLAYER
 10
120.3468796881
 20
88.1673663565
 11
120.0746546842
 21
88.1673663565
  0
LINE
  5
26D
100
AcDbEntity
  8
0
100
AcDbLine
 62
7
  6
BYLAYER
 10
16.9872134003
 20
88.1722153576
 11
16.7149883964
 21
88.1722153576
  0
LINE
  5
26E
100
AcDbEntity
  8
0
100
AcDbLine
 62
7
  6
BYLAYER
 10
120.5079041185
 20
88.6838814949
 11
121.3534316402
 21
88.6838814949
  0
LINE
  5
26F
100
AcDbEntity
  8
0
100
AcDbLine
 62
7
  6
BYLAYER
 10
15.7084364444
 20
88.688730496
 11
16.553963966
 21
88.688730496
  0
LINE
  5
270
100
AcDbEntity
  8
0
100
AcDbLine
 62
7
  6
BYLAYER
 10
121.3534316402
 20
89.4838814949
 11
120.5079041185
 21
89.4838814949
  0
LINE
  5
271
100
AcDbEntity
  8
0
100
AcDbLine
 62
7
  6
BYLAYER
 10
16.553963966
 20
89.488730496
 11
15.7084364444
 21
89.488730496
  0
LINE
  5
272
100
AcDbEntity
  8
0
100
AcDbLine
 62
7
  6
BYLAYER
 10
120.0746546842
 20
90.0003966333
 11
120.3468796881
 21
90.0003966333
  0
LINE
  5
273
100
AcDbEntity
  8
0
100
AcDbLine
 62
7
  6
BYLAYER
 10
16.7149883964
 20
90.0052456344
 11
16.9872134003
 21
90.0052456344
  0
LINE
  5
274
100
AcDbEntity
  8
0
100
AcDbLine
 62
7
  6
BYLAYER
 10
118.0601113374
 20
91.0338814943
 11
121.3534316402
 21
91.0338814943
  0
LINE
  5
275
100
AcDbEntity
  8
0
100
AcDbLine
 62
7
  6
BYLAYER
 10
15.7084364444
 20
91.0387304954
 11
19.0601113372
 21
91.0387304954
  0
LINE
  5
276
100
AcDbEntity
  8
0
100
AcDbLine
 62
7
  6
BYLAYER
 10
17.4008921003
 20
91.2593506767
 11
19.0601113372
 21
91.2593506767
  0
LINE
  5
277
100
AcDbEntity
  8
0
100
AcDbLine
 62
7
  6
BYLAYER
 10
19.0601113372
 20
92.0838814502
 11
17.4008921003
 21
92.0838814502
  0
LINE
  5
278
100
AcDbEntity
  8
0
100
AcDbLine
 62
7
  6
BYLAYER
 10
14.4319103429
 20
92.0881965855
 11
17.2537204576
 21
92.0881965855
  0
LINE
  5
279
100
AcDbEntity
  8
0
100
AcDbLine
 62
7
  6
BYLAYER
 10
118.0601113374
 20
92.1338814955
 11
121.3534316402
 21
92.1338814955
  0
LINE
  5
27A
100
AcDbEntity
  8
0
100
AcDbLine
 62
7
  6
BYLAYER
 10
120.3468796881
 20
93.1673663565
 11
120.0746546842
 21
93.1673663565
  0
LINE
  5
27B
100
AcDbEntity
  8
0
100
AcDbLine
 62
7
  6
BYLAYER
 10
17.4008921003
 20
93.5838814502
 11
19.0601113372
 21
93.5838814502
  0
LINE
  5
27C
100
AcDbEntity
  8
0
100
AcDbLine
 62
7
  6
BYLAYER
 10
17.2537204576
 20
93.5881965855
 11
14.4319103429
 21
93.5881965855
  0
LINE
  5
27D
100
AcDbEntity
  8
0
100
AcDbLine
 62
7
  6
BYLAYER
 10
120.5079041185
 20
93.6838814949
 11
121.3534316402
 21
93.6838814949
  0
LINE
  5
27E
100
AcDbEntity
  8
0
100
AcDbLine
 62
7
  6
BYLAYER
 10
19.0601113372
 20
94.4084123137
 11
17.4008921003
 21
94.4084123137
  0
LINE
  5
27F
100
AcDbEntity
  8
0
100
AcDbLine
 62
7
  6
BYLAYER
 10
121.3534316402
 20
94.4838814949
 11
120.5079041185
 21
94.4838814949
  0
LINE
  5
280
100
AcDbEntity
  8
0
100
AcDbLine
 62
7
  6
BYLAYER
 10
15.7084364444
 20
94.6387304966
 11
19.0601113372
 21
94.6387304966
  0
LINE
  5
281
100
AcDbEntity
  8
0
100
AcDbLine
 62
7
  6
BYLAYER
 10
120.0746546842
 20
95.0003966333
 11
120.3468796881
 21
95.0003966333
  0
LINE
  5
282
100
AcDbEntity
  8
0
100
AcDbLine
 62
7
  6
BYLAYER
 10
16.9872134003
 20
95.6722153576
 11
16.7149883964
 21
95.6722153576
  0
LINE
  5
283
100
AcDbEntity
  8
0
100
AcDbLine
 62
7
  6
BYLAYER
 10
118.0601113374
 20
96.0338814943
 11
121.3534316402
 21
96.0338814943
  0
LINE
  5
284
100
AcDbEntity
  8
0
100
AcDbLine
 62
7
  6
BYLAYER
 10
15.7084364444
 20
96.188730496
 11
16.553963966
 21
96.188730496
  0
LINE
  5
285
100
AcDbEntity
  8
0
100
AcDbLine
 62
7
  6
BYLAYER
 10
16.553963966
 20
96.988730496
 11
15.7084364444
 21
96.988730496
  0
LINE
  5
286
100
AcDbEntity
  8
0
100
AcDbLine
 62
7
  6
BYLAYER
 10
118.0601113374
 20
97.1338814955
 11
121.3534316402
 21
97.1338814955
  0
LINE
  5
287
100
AcDbEntity
  8
0
100
AcDbLine
 62
7
  6
BYLAYER
 10
16.7149883964
 20
97.5052456344
 11
16.9872134003
 21
97.5052456344
  0
LINE
  5
288
100
AcDbEntity
  8
0
100
AcDbLine
 62
7
  6
BYLAYER
 10
120.3468796881
 20
98.1673663565
 11
120.0746546842
 21
98.1673663565
  0
LINE
  5
289
100
AcDbEntity
  8
0
100
AcDbLine
 62
7
  6
BYLAYER
 10
15.7084364444
 20
98.5387304954
 11
19.0601113372
 21
98.5387304954
  0
LINE
  5
28A
100
AcDbEntity
  8
0
100
AcDbLine
 62
7
  6
BYLAYER
 10
120.5079041185
 20
98.6838814949
 11
121.3534316402
 21
98.6838814949
  0
LINE
  5
28B
100
AcDbEntity
  8
0
100
AcDbLine
 62
7
  6
BYLAYER
 10
17.4008921003
 20
98.7593506767
 11
19.0601113372
 21
98.7593506767
  0
LINE
  5
28C
100
AcDbEntity
  8
0
100
AcDbLine
 62
7
  6
BYLAYER
 10
121.3534316402
 20
99.4838814949
 11
120.5079041185
 21
99.4838814949
  0
LINE
  5
28D
100
AcDbEntity
  8
0
100
AcDbLine
 62
7
  6
BYLAYER
 10
19.0601113372
 20
99.5838815402
 11
17.4008921003
 21
99.5838815402
  0
LINE
  5
28E
100
AcDbEntity
  8
0
100
AcDbLine
 62
7
  6
BYLAYER
 10
14.4319103429
 20
99.5881965855
 11
17.2537204576
 21
99.5881965855
  0
LINE
  5
28F
100
AcDbEntity
  8
0
100
AcDbLine
 62
7
  6
BYLAYER
 10
120.0746546842
 20
100.0003966333
 11
120.3468796881
 21
100.0003966333
  0
LINE
  5
290
100
AcDbEntity
  8
0
100
AcDbLine
 62
7
  6
BYLAYER
 10
118.0601113374
 20
101.0338814943
 11
121.3534316402
 21
101.0338814943
  0
LINE
  5
291
100
AcDbEntity
  8
0
100
AcDbLine
 62
7
  6
BYLAYER
 10
17.4008921003
 20
101.0838815402
 11
19.0601113372
 21
101.0838815402
  0
LINE
  5
292
100
AcDbEntity
  8
0
100
AcDbLine
 62
7
  6
BYLAYER
 10
17.2537204576
 20
101.0881965855
 11
14.4319103429
 21
101.0881965855
  0
LINE
  5
293
100
AcDbEntity
  8
0
100
AcDbLine
 62
7
  6
BYLAYER
 10
19.0601113372
 20
101.9084123137
 11
17.4008921003
 21
101.9084123137
  0
LINE
  5
294
100
AcDbEntity
  8
0
100
AcDbLine
 62
7
  6
BYLAYER
 10
118.0601113374
 20
102.1338814955
 11
121.3534316402
 21
102.1338814955
  0
LINE
  5
295
100
AcDbEntity
  8
0
100
AcDbLine
 62
7
  6
BYLAYER
 10
15.7084364444
 20
102.1387304966
 11
19.0601113372
 21
102.1387304966
  0
LINE
  5
296
100
AcDbEntity
  8
0
100
AcDbLine
 62
7
  6
BYLAYER
 10
120.3468796881
 20
103.1673663565
 11
120.0746546842
 21
103.1673663565
  0
LINE
  5
297
100
AcDbEntity
  8
0
100
AcDbLine
 62
7
  6
BYLAYER
 10
16.9872134003
 20
103.1722153576
 11
16.7149883964
 21
103.1722153576
  0
LINE
  5
298
100
AcDbEntity
  8
0
100
AcDbLine
 62
7
  6
BYLAYER
 10
120.5079041185
 20
103.6838814949
 11
121.3534316402
 21
103.6838814949
  0
LINE
  5
299
100
AcDbEntity
  8
0
100
AcDbLine
 62
7
  6
BYLAYER
 10
15.7084364444
 20
103.688730496
 11
16.553963966
 21
103.688730496
  0
LINE
  5
29A
100
AcDbEntity
  8
0
100
AcDbLine
 62
7
  6
BYLAYER
 10
121.3534316402
 20
104.4838814949
 11
120.5079041185
 21
104.4838814949
  0
LINE
  5
29B
100
AcDbEntity
  8
0
100
AcDbLine
 62
7
  6
BYLAYER
 10
16.553963966
 20
104.488730496
 11
15.7084364444
 21
104.488730496
  0
LINE
  5
29C
100
AcDbEntity
  8
0
100
AcDbLine
 62
7
  6
BYLAYER
 10
120.0746546842
 20
105.0003966333
 11
120.3468796881
 21
105.0003966333
  0
LINE
  5
29D
100
AcDbEntity
  8
0
100
AcDbLine
 62
7
  6
BYLAYER
 10
16.7149883964
 20
105.0052456344
 11
16.9872134003
 21
105.0052456344
  0
LINE
  5
29E
100
AcDbEntity
  8
0
100
AcDbLine
 62
7
  6
BYLAYER
 10
118.0601113374
 20
106.0338814943
 11
121.3534316402
 21
106.0338814943
  0
LINE
  5
29F
100
AcDbEntity
  8
0
100
AcDbLine
 62
7
  6
BYLAYER
 10
15.7084364444
 20
106.0387304954
 11
19.0601113372
 21
106.0387304954
  0
LINE
  5
2A0
100
AcDbEntity
  8
0
100
AcDbLine
 62
7
  6
BYLAYER
 10
17.4008921003
 20
106.0838814953
 11
19.0601113372
 21
106.0838814953
  0
LINE
  5
2A1
100
AcDbEntity
  8
0
100
AcDbLine
 62
7
  6
BYLAYER
 10
110.7729387577
 20
106.2838814953
 11
107.7887234618
 21
106.2838814953
  0
LINE
  5
2A2
100
AcDbEntity
  8
0
100
AcDbLine
 62
7
  6
BYLAYER
 10
23.5023841231
 20
106.2838814953
 11
35.3676838248
 21
106.2838814953
  0
LINE
  5
2A3
100
AcDbEntity
  8
0
100
AcDbLine
 62
7
  6
BYLAYER
 10
101.7525388504
 20
106.2838814953
 11
106.7601113377
 21
106.2838814953
  0
LINE
  5
2A4
100
AcDbEntity
  8
0
100
AcDbLine
 62
7
  6
BYLAYER
 10
121.9564751253
 20
106.6338814951
 11
118.0601113374
 21
106.6338814951
  0
LINE
  5
2A5
100
AcDbEntity
  8
0
100
AcDbLine
 62
7
  6
BYLAYER
 10
19.0601113372
 20
107.1338814953
 11
14.4319103429
 21
107.1338814953
  0
LINE
  5
2A6
100
AcDbEntity
  8
0
100
AcDbLine
 62
7
  6
BYLAYER
 10
101.7525388504
 20
107.7838814951
 11
35.3676838248
 21
107.7838814951
  0
LINE
  5
2A7
100
AcDbEntity
  8
0
100
AcDbLine
 62
7
  6
BYLAYER
 10
19.0601113372
 20
107.883881495
 11
118.0601113375
 21
107.883881495
  0
LINE
  5
2A8
100
AcDbEntity
  8
0
100
AcDbLine
 62
7
  6
BYLAYER
 10
94.8408540367
 20
107.883881495
 11
94.8408540367
 21
107.7838814951
  0
LINE
  5
2A9
100
AcDbEntity
  8
0
100
AcDbLine
 62
7
  6
BYLAYER
 10
94.8408540367
 20
85.383881495
 11
94.8408540367
 21
85.283881495
  0
LINE
  5
2AA
100
AcDbEntity
  8
0
100
AcDbLine
 62
7
  6
BYLAYER
 10
101.7525388504
 20
107.7838814951
 11
101.7525388504
 21
106.2838814953
  0
LINE
  5
2AB
100
AcDbEntity
  8
0
100
AcDbLine
 62
7
  6
BYLAYER
 10
101.7525388504
 20
86.8838814953
 11
101.7525388505
 21
85.383881495
  0
LINE
  5
2AC
100
AcDbEntity
  8
0
100
AcDbLine
 62
7
  6
BYLAYER
 10
101.8805330137
 20
85.283881495
 11
101.8805330137
 21
86.8838814953
  0
LINE
  5
2AD
100
AcDbEntity
  8
0
100
AcDbLine
 62
7
  6
BYLAYER
 10
101.8805330137
 20
106.2838814953
 11
101.8805330137
 21
107.883881495
  0
LINE
  5
2AE
100
AcDbEntity
  8
0
100
AcDbLine
 62
7
  6
BYLAYER
 10
105.9151846555
 20
106.2838814953
 11
105.9151846555
 21
86.8838814953
  0
LINE
  5
2AF
100
AcDbEntity
  8
0
100
AcDbLine
 62
7
  6
BYLAYER
 10
106.6511835306
 20
86.8838814953
 11
106.6511835306
 21
106.2838814953
  0
LINE
  5
2B0
100
AcDbEntity
  8
0
100
AcDbLine
 62
7
  6
BYLAYER
 10
106.7601113377
 20
85.283881495
 11
106.7601113376
 21
107.883881495
  0
LINE
  5
2B1
100
AcDbEntity
  8
0
100
AcDbLine
 62
7
  6
BYLAYER
 10
118.0601113374
 20
85.283881495
 11
118.0601113374
 21
107.883881495
  0
LINE
  5
2B2
100
AcDbEntity
  8
0
100
AcDbLine
 62
7
  6
BYLAYER
 10
118.6692931015
 20
106.0338814943
 11
118.6692931015
 21
102.1338814955
  0
LINE
  5
2B3
100
AcDbEntity
  8
0
100
AcDbLine
 62
7
  6
BYLAYER
 10
118.6692931015
 20
101.0338814943
 11
118.6692931015
 21
97.1338814955
  0
LINE
  5
2B4
100
AcDbEntity
  8
0
100
AcDbLine
 62
7
  6
BYLAYER
 10
118.6692931015
 20
96.0338814943
 11
118.6692931015
 21
92.1338814955
  0
LINE
  5
2B5
100
AcDbEntity
  8
0
100
AcDbLine
 62
7
  6
BYLAYER
 10
118.6692931015
 20
91.0338814943
 11
118.6692931015
 21
87.1338814955
  0
LINE
  5
2B6
100
AcDbEntity
  8
0
100
AcDbLine
 62
7
  6
BYLAYER
 10
119.6325442638
 20
86.5338814953
 11
119.6325442638
 21
87.1338814955
  0
LINE
  5
2B7
100
AcDbEntity
  8
0
100
AcDbLine
 62
7
  6
BYLAYER
 10
119.6325442638
 20
91.0338814943
 11
119.6325442638
 21
92.1338814955
  0
LINE
  5
2B8
100
AcDbEntity
  8
0
100
AcDbLine
 62
7
  6
BYLAYER
 10
119.6325442638
 20
96.0338814943
 11
119.6325442638
 21
97.1338814955
  0
LINE
  5
2B9
100
AcDbEntity
  8
0
100
AcDbLine
 62
7
  6
BYLAYER
 10
119.6325442638
 20
101.0338814943
 11
119.6325442638
 21
102.1338814955
  0
LINE
  5
2BA
100
AcDbEntity
  8
0
100
AcDbLine
 62
7
  6
BYLAYER
 10
119.6325442638
 20
106.0338814943
 11
119.6325442638
 21
106.6338814951
  0
LINE
  5
2BB
100
AcDbEntity
  8
0
100
AcDbLine
 62
7
  6
BYLAYER
 10
119.6758450535
 20
106.0338814943
 11
119.6758450535
 21
105.0003966333
  0
LINE
  5
2BC
100
AcDbEntity
  8
0
100
AcDbLine
 62
7
  6
BYLAYER
 10
119.6758450535
 20
103.1673663553
 11
119.6758450535
 21
102.1338814955
  0
LINE
  5
2BD
100
AcDbEntity
  8
0
100
AcDbLine
 62
7
  6
BYLAYER
 10
119.6758450535
 20
101.0338814943
 11
119.6758450535
 21
100.0003966333
  0
LINE
  5
2BE
100
AcDbEntity
  8
0
100
AcDbLine
 62
7
  6
BYLAYER
 10
119.6758450535
 20
98.1673663553
 11
119.6758450535
 21
97.1338814955
  0
LINE
  5
2BF
100
AcDbEntity
  8
0
100
AcDbLine
 62
7
  6
BYLAYER
 10
119.6758450535
 20
96.0338814943
 11
119.6758450535
 21
95.0003966333
  0
LINE
  5
2C0
100
AcDbEntity
  8
0
100
AcDbLine
 62
7
  6
BYLAYER
 10
119.6758450535
 20
93.1673663553
 11
119.6758450535
 21
92.1338814955
  0
LINE
  5
2C1
100
AcDbEntity
  8
0
100
AcDbLine
 62
7
  6
BYLAYER
 10
119.6758450535
 20
91.0338814943
 11
119.6758450535
 21
90.0003966333
  0
LINE
  5
2C2
100
AcDbEntity
  8
0
100
AcDbLine
 62
7
  6
BYLAYER
 10
119.6758450535
 20
88.1673663553
 11
119.6758450535
 21
87.1338814955
  0
LINE
  5
2C3
100
AcDbEntity
  8
0
100
AcDbLine
 62
7
  6
BYLAYER
 10
120.0746546842
 20
103.1673663565
 11
120.0746546842
 21
102.1338814955
  0
LINE
  5
2C4
100
AcDbEntity
  8
0
100
AcDbLine
 62
7
  6
BYLAYER
 10
120.0746546842
 20
98.1673663565
 11
120.0746546842
 21
97.1338814955
  0
LINE
  5
2C5
100
AcDbEntity
  8
0
100
AcDbLine
 62
7
  6
BYLAYER
 10
120.0746546842
 20
93.1673663565
 11
120.0746546842
 21
92.1338814955
  0
LINE
  5
2C6
100
AcDbEntity
  8
0
100
AcDbLine
 62
7
  6
BYLAYER
 10
120.0746546842
 20
88.1673663565
 11
120.0746546842
 21
87.1338814955
  0
LINE
  5
2C7
100
AcDbEntity
  8
0
100
AcDbLine
 62
7
  6
BYLAYER
 10
120.0746546842
 20
90.0003966333
 11
120.0746546842
 21
91.0338814943
  0
LINE
  5
2C8
100
AcDbEntity
  8
0
100
AcDbLine
 62
7
  6
BYLAYER
 10
120.0746546842
 20
95.0003966333
 11
120.0746546842
 21
96.0338814943
  0
LINE
  5
2C9
100
AcDbEntity
  8
0
100
AcDbLine
 62
7
  6
BYLAYER
 10
120.0746546842
 20
100.0003966333
 11
120.0746546842
 21
101.0338814943
  0
LINE
  5
2CA
100
AcDbEntity
  8
0
100
AcDbLine
 62
7
  6
BYLAYER
 10
120.0746546842
 20
105.0003966333
 11
120.0746546842
 21
106.0338814943
  0
LINE
  5
2CB
100
AcDbEntity
  8
0
100
AcDbLine
 62
7
  6
BYLAYER
 10
120.3468796881
 20
87.1338814955
 11
120.3468796881
 21
88.1673663565
  0
LINE
  5
2CC
100
AcDbEntity
  8
0
100
AcDbLine
 62
7
  6
BYLAYER
 10
120.3468796881
 20
90.0003966333
 11
120.3468796882
 21
91.0338814943
  0
LINE
  5
2CD
100
AcDbEntity
  8
0
100
AcDbLine
 62
7
  6
BYLAYER
 10
120.3468796881
 20
92.1338814955
 11
120.3468796881
 21
93.1673663565
  0
LINE
  5
2CE
100
AcDbEntity
  8
0
100
AcDbLine
 62
7
  6
BYLAYER
 10
120.3468796881
 20
95.0003966333
 11
120.3468796882
 21
96.0338814943
  0
LINE
  5
2CF
100
AcDbEntity
  8
0
100
AcDbLine
 62
7
  6
BYLAYER
 10
120.3468796881
 20
97.1338814955
 11
120.3468796881
 21
98.1673663565
  0
LINE
  5
2D0
100
AcDbEntity
  8
0
100
AcDbLine
 62
7
  6
BYLAYER
 10
120.3468796881
 20
100.0003966333
 11
120.3468796882
 21
101.0338814943
  0
LINE
  5
2D1
100
AcDbEntity
  8
0
100
AcDbLine
 62
7
  6
BYLAYER
 10
120.3468796881
 20
102.1338814955
 11
120.3468796881
 21
103.1673663565
  0
LINE
  5
2D2
100
AcDbEntity
  8
0
100
AcDbLine
 62
7
  6
BYLAYER
 10
120.3468796881
 20
105.0003966333
 11
120.3468796882
 21
106.0338814943
  0
LINE
  5
2D3
100
AcDbEntity
  8
0
100
AcDbLine
 62
7
  6
BYLAYER
 10
121.0955042481
 20
104.4838814949
 11
121.0955042481
 21
103.6838814949
  0
LINE
  5
2D4
100
AcDbEntity
  8
0
100
AcDbLine
 62
7
  6
BYLAYER
 10
121.0955042481
 20
99.4838814949
 11
121.0955042481
 21
98.6838814949
  0
LINE
  5
2D5
100
AcDbEntity
  8
0
100
AcDbLine
 62
7
  6
BYLAYER
 10
121.0955042481
 20
94.4838814949
 11
121.0955042481
 21
93.6838814949
  0
LINE
  5
2D6
100
AcDbEntity
  8
0
100
AcDbLine
 62
7
  6
BYLAYER
 10
121.0955042481
 20
89.4838814949
 11
121.0955042481
 21
88.6838814949
  0
LINE
  5
2D7
100
AcDbEntity
  8
0
100
AcDbLine
 62
7
  6
BYLAYER
 10
121.3534316402
 20
87.1338814955
 11
121.3534316402
 21
88.6838814949
  0
LINE
  5
2D8
100
AcDbEntity
  8
0
100
AcDbLine
 62
7
  6
BYLAYER
 10
121.3534316402
 20
89.4838814949
 11
121.3534316402
 21
91.0338814943
  0
LINE
  5
2D9
100
AcDbEntity
  8
0
100
AcDbLine
 62
7
  6
BYLAYER
 10
121.3534316402
 20
92.1338814955
 11
121.3534316402
 21
93.6838814949
  0
LINE
  5
2DA
100
AcDbEntity
  8
0
100
AcDbLine
 62
7
  6
BYLAYER
 10
121.3534316402
 20
94.4838814949
 11
121.3534316402
 21
96.0338814943
  0
LINE
  5
2DB
100
AcDbEntity
  8
0
100
AcDbLine
 62
7
  6
BYLAYER
 10
121.3534316402
 20
97.1338814955
 11
121.3534316402
 21
98.6838814949
  0
LINE
  5
2DC
100
AcDbEntity
  8
0
100
AcDbLine
 62
7
  6
BYLAYER
 10
121.3534316402
 20
99.4838814949
 11
121.3534316402
 21
101.0338814943
  0
LINE
  5
2DD
100
AcDbEntity
  8
0
100
AcDbLine
 62
7
  6
BYLAYER
 10
121.3534316402
 20
102.1338814955
 11
121.3534316402
 21
103.6838814949
  0
LINE
  5
2DE
100
AcDbEntity
  8
0
100
AcDbLine
 62
7
  6
BYLAYER
 10
121.3534316402
 20
104.4838814949
 11
121.3534316402
 21
106.0338814943
  0
LINE
  5
2DF
100
AcDbEntity
  8
0
100
AcDbLine
 62
7
  6
BYLAYER
 10
121.7115870182
 20
86.5338814953
 11
121.7115870182
 21
106.6338814951
  0
LINE
  5
2E0
100
AcDbEntity
  8
0
100
AcDbLine
 62
7
  6
BYLAYER
 10
121.8586237064
 20
86.5338814953
 11
121.8586237064
 21
106.6338814951
  0
LINE
  5
2E1
100
AcDbEntity
  8
0
100
AcDbLine
 62
7
  6
BYLAYER
 10
121.8593345514
 20
86.5338814953
 11
121.8593345514
 21
106.6338814951
  0
LINE
  5
2E2
100
AcDbEntity
  8
0
100
AcDbLine
 62
7
  6
BYLAYER
 10
121.9564751253
 20
86.5338814953
 11
121.9564751253
 21
106.6338814951
  0
SPLINE
  5
2E3
100
AcDbEntity
  8
0
100
AcDbSpline
 62
7
  6
BYLAYER
 70
0
 71
3
 72
13
 73
9
 74
0
 42
0.0000001
 43
0.0000001
 44
0.0000000001
 40
0.0
 40
0.0
 40
0.0
 40
0.0
 40
0.1157561752
 40
0.2343861424
 40
0.3560672348
 40
0.4807632491
 40
0.7372735793
 40
1.0
 40
1.0
 40
1.0
 40
1.0
 10
17.386023031
 20
103.1722153576
 30
0.0
 10
17.4235342835
 20
103.1917329823
 30
0.0
 10
17.4963632266
 20
103.2375582488
 30
0.0
 10
17.5948134675
 20
103.323269716
 30
0.0
 10
17.6817839879
 20
103.4249608718
 30
0.0
 10
17.7808906995
 20
103.5802361013
 30
0.0
 10
17.8663640762
 20
103.8023152092
 30
0.0
 10
17.8892990071
 20
103.9927579115
 30
0.0
 10
17.8892990071
 20
104.0887304966
 30
0.0
  0
SPLINE
  5
2E4
100
AcDbEntity
  8
0
100
AcDbSpline
 62
7
  6
BYLAYER
 70
0
 71
3
 72
13
 73
9
 74
0
 42
0.0000001
 43
0.0000001
 44
0.0000000001
 40
0.0
 40
0.0
 40
0.0
 40
0.0
 40
0.2627264207
 40
0.5192367509
 40
0.6439327652
 40
0.7656138576
 40
0.8842438248
 40
1.0
 40
1.0
 40
1.0
 40
1.0
 10
17.8892990071
 20
104.0887304966
 30
0.0
 10
17.8892990071
 20
104.1847030816
 30
0.0
 10
17.8663640762
 20
104.3751457839
 30
0.0
 10
17.7808906995
 20
104.5972248918
 30
0.0
 10
17.6817839879
 20
104.7525001213
 30
0.0
 10
17.5948134675
 20
104.8541912771
 30
0.0
 10
17.4963632266
 20
104.9399027443
 30
0.0
 10
17.4235342835
 20
104.9857280108
 30
0.0
 10
17.386023031
 20
105.0052456355
 30
0.0
  0
SPLINE
  5
2E5
100
AcDbEntity
  8
0
100
AcDbSpline
 62
7
  6
BYLAYER
 70
0
 71
3
 72
11
 73
7
 74
0
 42
0.0000001
 43
0.0000001
 44
0.0000000001
 40
0.0
 40
0.0
 40
0.0
 40
0.0
 40
0.261477635
 40
0.5156326684
 40
0.7616989167
 40
1.0
 40
1.0
 40
1.0
 40
1.0
 10
16.2817389621
 20
103.688730496
 30
0.0
 10
16.3023744247
 20
103.6323616803
 30
0.0
 10
16.3522031095
 20
103.5242661657
 30
0.0
 10
16.4521302291
 20
103.3796724583
 30
0.0
 10
16.5730350804
 20
103.2594314826
 30
0.0
 10
16.6664580305
 20
103.1974663798
 30
0.0
 10
16.7149883964
 20
103.1722153576
 30
0.0
  0
SPLINE
  5
2E6
100
AcDbEntity
  8
0
100
AcDbSpline
 62
7
  6
BYLAYER
 70
0
 71
3
 72
11
 73
7
 74
0
 42
0.0000001
 43
0.0000001
 44
0.0000000001
 40
0.0
 40
0.0
 40
0.0
 40
0.0
 40
0.2383010833
 40
0.4843673316
 40
0.738522365
 40
1.0
 40
1.0
 40
1.0
 40
1.0
 10
16.9872134003
 20
103.1722153576
 30
0.0
 10
16.9386830345
 20
103.1974663798
 30
0.0
 10
16.8452600843
 20
103.2594314826
 30
0.0
 10
16.724355233
 20
103.3796724583
 30
0.0
 10
16.6244281135
 20
103.5242661657
 30
0.0
 10
16.5745994286
 20
103.6323616803
 30
0.0
 10
16.553963966
 20
103.688730496
 30
0.0
  0
SPLINE
  5
2E7
100
AcDbEntity
  8
0
100
AcDbSpline
 62
7
  6
BYLAYER
 70
0
 71
3
 72
11
 73
7
 74
0
 42
0.0000001
 43
0.0000001
 44
0.0000000001
 40
0.0
 40
0.0
 40
0.0
 40
0.0
 40
0.261477635
 40
0.5156326684
 40
0.7616989167
 40
1.0
 40
1.0
 40
1.0
 40
1.0
 10
16.553963966
 20
104.488730496
 30
0.0
 10
16.5745994286
 20
104.5450993116
 30
0.0
 10
16.6244281135
 20
104.6531948262
 30
0.0
 10
16.724355233
 20
104.7977885336
 30
0.0
 10
16.8452600843
 20
104.9180295094
 30
0.0
 10
16.9386830345
 20
104.9799946121
 30
0.0
 10
16.9872134003
 20
105.0052456344
 30
0.0
  0
SPLINE
  5
2E8
100
AcDbEntity
  8
0
100
AcDbSpline
 62
7
  6
BYLAYER
 70
0
 71
3
 72
11
 73
7
 74
0
 42
0.0000001
 43
0.0000001
 44
0.0000000001
 40
0.0
 40
0.0
 40
0.0
 40
0.0
 40
0.2383010833
 40
0.4843673316
 40
0.738522365
 40
1.0
 40
1.0
 40
1.0
 40
1.0
 10
16.7149883964
 20
105.0052456344
 30
0.0
 10
16.6664580305
 20
104.9799946122
 30
0.0
 10
16.5730350804
 20
104.9180295094
 30
0.0
 10
16.4521302291
 20
104.7977885336
 30
0.0
 10
16.3522031095
 20
104.6531948262
 30
0.0
 10
16.3023744247
 20
104.5450993116
 30
0.0
 10
16.2817389621
 20
104.488730496
 30
0.0
  0
SPLINE
  5
2E9
100
AcDbEntity
  8
0
100
AcDbSpline
 62
7
  6
BYLAYER
 70
0
 71
3
 72
13
 73
9
 74
0
 42
0.0000001
 43
0.0000001
 44
0.0000000001
 40
0.0
 40
0.0
 40
0.0
 40
0.0
 40
0.1157561752
 40
0.2343861424
 40
0.3560672348
 40
0.4807632491
 40
0.7372735793
 40
1.0
 40
1.0
 40
1.0
 40
1.0
 10
17.386023031
 20
95.6722153576
 30
0.0
 10
17.4235342835
 20
95.6917329823
 30
0.0
 10
17.4963632266
 20
95.7375582488
 30
0.0
 10
17.5948134675
 20
95.823269716
 30
0.0
 10
17.6817839879
 20
95.9249608718
 30
0.0
 10
17.7808906995
 20
96.0802361013
 30
0.0
 10
17.8663640762
 20
96.3023152092
 30
0.0
 10
17.8892990071
 20
96.4927579115
 30
0.0
 10
17.8892990071
 20
96.5887304966
 30
0.0
  0
SPLINE
  5
2EA
100
AcDbEntity
  8
0
100
AcDbSpline
 62
7
  6
BYLAYER
 70
0
 71
3
 72
13
 73
9
 74
0
 42
0.0000001
 43
0.0000001
 44
0.0000000001
 40
0.0
 40
0.0
 40
0.0
 40
0.0
 40
0.2627264207
 40
0.5192367509
 40
0.6439327652
 40
0.7656138576
 40
0.8842438248
 40
1.0
 40
1.0
 40
1.0
 40
1.0
 10
17.8892990071
 20
96.5887304966
 30
0.0
 10
17.8892990071
 20
96.6847030816
 30
0.0
 10
17.8663640762
 20
96.8751457839
 30
0.0
 10
17.7808906995
 20
97.0972248918
 30
0.0
 10
17.6817839879
 20
97.2525001213
 30
0.0
 10
17.5948134675
 20
97.3541912771
 30
0.0
 10
17.4963632266
 20
97.4399027443
 30
0.0
 10
17.4235342835
 20
97.4857280108
 30
0.0
 10
17.386023031
 20
97.5052456355
 30
0.0
  0
SPLINE
  5
2EB
100
AcDbEntity
  8
0
100
AcDbSpline
 62
7
  6
BYLAYER
 70
0
 71
3
 72
11
 73
7
 74
0
 42
0.0000001
 43
0.0000001
 44
0.0000000001
 40
0.0
 40
0.0
 40
0.0
 40
0.0
 40
0.261477635
 40
0.5156326684
 40
0.7616989167
 40
1.0
 40
1.0
 40
1.0
 40
1.0
 10
16.2817389621
 20
96.188730496
 30
0.0
 10
16.3023744247
 20
96.1323616803
 30
0.0
 10
16.3522031095
 20
96.0242661657
 30
0.0
 10
16.4521302291
 20
95.8796724583
 30
0.0
 10
16.5730350804
 20
95.7594314826
 30
0.0
 10
16.6664580305
 20
95.6974663798
 30
0.0
 10
16.7149883964
 20
95.6722153576
 30
0.0
  0
SPLINE
  5
2EC
100
AcDbEntity
  8
0
100
AcDbSpline
 62
7
  6
BYLAYER
 70
0
 71
3
 72
11
 73
7
 74
0
 42
0.0000001
 43
0.0000001
 44
0.0000000001
 40
0.0
 40
0.0
 40
0.0
 40
0.0
 40
0.2383010833
 40
0.4843673316
 40
0.738522365
 40
1.0
 40
1.0
 40
1.0
 40
1.0
 10
16.9872134003
 20
95.6722153576
 30
0.0
 10
16.9386830345
 20
95.6974663798
 30
0.0
 10
16.8452600843
 20
95.7594314826
 30
0.0
 10
16.724355233
 20
95.8796724583
 30
0.0
 10
16.6244281135
 20
96.0242661657
 30
0.0
 10
16.5745994286
 20
96.1323616803
 30
0.0
 10
16.553963966
 20
96.188730496
 30
0.0
  0
SPLINE
  5
2ED
100
AcDbEntity
  8
0
100
AcDbSpline
 62
7
  6
BYLAYER
 70
0
 71
3
 72
11
 73
7
 74
0
 42
0.0000001
 43
0.0000001
 44
0.0000000001
 40
0.0
 40
0.0
 40
0.0
 40
0.0
 40
0.261477635
 40
0.5156326684
 40
0.7616989167
 40
1.0
 40
1.0
 40
1.0
 40
1.0
 10
16.553963966
 20
96.988730496
 30
0.0
 10
16.5745994286
 20
97.0450993116
 30
0.0
 10
16.6244281135
 20
97.1531948262
 30
0.0
 10
16.724355233
 20
97.2977885336
 30
0.0
 10
16.8452600843
 20
97.4180295094
 30
0.0
 10
16.9386830345
 20
97.4799946121
 30
0.0
 10
16.9872134003
 20
97.5052456344
 30
0.0
  0
SPLINE
  5
2EE
100
AcDbEntity
  8
0
100
AcDbSpline
 62
7
  6
BYLAYER
 70
0
 71
3
 72
11
 73
7
 74
0
 42
0.0000001
 43
0.0000001
 44
0.0000000001
 40
0.0
 40
0.0
 40
0.0
 40
0.0
 40
0.2383010833
 40
0.4843673316
 40
0.738522365
 40
1.0
 40
1.0
 40
1.0
 40
1.0
 10
16.7149883964
 20
97.5052456344
 30
0.0
 10
16.6664580305
 20
97.4799946122
 30
0.0
 10
16.5730350804
 20
97.4180295094
 30
0.0
 10
16.4521302291
 20
97.2977885336
 30
0.0
 10
16.3522031095
 20
97.1531948262
 30
0.0
 10
16.3023744247
 20
97.0450993116
 30
0.0
 10
16.2817389621
 20
96.988730496
 30
0.0
  0
SPLINE
  5
2EF
100
AcDbEntity
  8
0
100
AcDbSpline
 62
7
  6
BYLAYER
 70
0
 71
3
 72
13
 73
9
 74
0
 42
0.0000001
 43
0.0000001
 44
0.0000000001
 40
0.0
 40
0.0
 40
0.0
 40
0.0
 40
0.1157561752
 40
0.2343861424
 40
0.3560672348
 40
0.4807632491
 40
0.7372735793
 40
1.0
 40
1.0
 40
1.0
 40
1.0
 10
17.386023031
 20
88.1722153576
 30
0.0
 10
17.4235342835
 20
88.1917329823
 30
0.0
 10
17.4963632266
 20
88.2375582488
 30
0.0
 10
17.5948134675
 20
88.323269716
 30
0.0
 10
17.6817839879
 20
88.4249608718
 30
0.0
 10
17.7808906995
 20
88.5802361013
 30
0.0
 10
17.8663640762
 20
88.8023152092
 30
0.0
 10
17.8892990071
 20
88.9927579115
 30
0.0
 10
17.8892990071
 20
89.0887304966
 30
0.0
  0
SPLINE
  5
2F0
100
AcDbEntity
  8
0
100
AcDbSpline
 62
7
  6
BYLAYER
 70
0
 71
3
 72
13
 73
9
 74
0
 42
0.0000001
 43
0.0000001
 44
0.0000000001
 40
0.0
 40
0.0
 40
0.0
 40
0.0
 40
0.2627264207
 40
0.5192367509
 40
0.6439327652
 40
0.7656138576
 40
0.8842438248
 40
1.0
 40
1.0
 40
1.0
 40
1.0
 10
17.8892990071
 20
89.0887304966
 30
0.0
 10
17.8892990071
 20
89.1847030816
 30
0.0
 10
17.8663640762
 20
89.3751457839
 30
0.0
 10
17.7808906995
 20
89.5972248918
 30
0.0
 10
17.6817839879
 20
89.7525001213
 30
0.0
 10
17.5948134675
 20
89.8541912771
 30
0.0
 10
17.4963632266
 20
89.9399027443
 30
0.0
 10
17.4235342835
 20
89.9857280108
 30
0.0
 10
17.386023031
 20
90.0052456355
 30
0.0
  0
SPLINE
  5
2F1
100
AcDbEntity
  8
0
100
AcDbSpline
 62
7
  6
BYLAYER
 70
0
 71
3
 72
11
 73
7
 74
0
 42
0.0000001
 43
0.0000001
 44
0.0000000001
 40
0.0
 40
0.0
 40
0.0
 40
0.0
 40
0.261477635
 40
0.5156326684
 40
0.7616989167
 40
1.0
 40
1.0
 40
1.0
 40
1.0
 10
16.2817389621
 20
88.688730496
 30
0.0
 10
16.3023744247
 20
88.6323616803
 30
0.0
 10
16.3522031095
 20
88.5242661657
 30
0.0
 10
16.4521302291
 20
88.3796724583
 30
0.0
 10
16.5730350804
 20
88.2594314826
 30
0.0
 10
16.6664580305
 20
88.1974663798
 30
0.0
 10
16.7149883964
 20
88.1722153576
 30
0.0
  0
SPLINE
  5
2F2
100
AcDbEntity
  8
0
100
AcDbSpline
 62
7
  6
BYLAYER
 70
0
 71
3
 72
11
 73
7
 74
0
 42
0.0000001
 43
0.0000001
 44
0.0000000001
 40
0.0
 40
0.0
 40
0.0
 40
0.0
 40
0.2383010833
 40
0.4843673316
 40
0.738522365
 40
1.0
 40
1.0
 40
1.0
 40
1.0
 10
16.9872134003
 20
88.1722153576
 30
0.0
 10
16.9386830345
 20
88.1974663798
 30
0.0
 10
16.8452600843
 20
88.2594314826
 30
0.0
 10
16.724355233
 20
88.3796724583
 30
0.0
 10
16.6244281135
 20
88.5242661657
 30
0.0
 10
16.5745994286
 20
88.6323616803
 30
0.0
 10
16.553963966
 20
88.688730496
 30
0.0
  0
SPLINE
  5
2F3
100
AcDbEntity
  8
0
100
AcDbSpline
 62
7
  6
BYLAYER
 70
0
 71
3
 72
11
 73
7
 74
0
 42
0.0000001
 43
0.0000001
 44
0.0000000001
 40
0.0
 40
0.0
 40
0.0
 40
0.0
 40
0.261477635
 40
0.5156326684
 40
0.7616989167
 40
1.0
 40
1.0
 40
1.0
 40
1.0
 10
16.553963966
 20
89.488730496
 30
0.0
 10
16.5745994286
 20
89.5450993116
 30
0.0
 10
16.6244281135
 20
89.6531948262
 30
0.0
 10
16.724355233
 20
89.7977885336
 30
0.0
 10
16.8452600843
 20
89.9180295094
 30
0.0
 10
16.9386830345
 20
89.9799946121
 30
0.0
 10
16.9872134003
 20
90.0052456344
 30
0.0
  0
SPLINE
  5
2F4
100
AcDbEntity
  8
0
100
AcDbSpline
 62
7
  6
BYLAYER
 70
0
 71
3
 72
11
 73
7
 74
0
 42
0.0000001
 43
0.0000001
 44
0.0000000001
 40
0.0
 40
0.0
 40
0.0
 40
0.0
 40
0.2383010833
 40
0.4843673316
 40
0.738522365
 40
1.0
 40
1.0
 40
1.0
 40
1.0
 10
16.7149883964
 20
90.0052456344
 30
0.0
 10
16.6664580305
 20
89.9799946122
 30
0.0
 10
16.5730350804
 20
89.9180295094
 30
0.0
 10
16.4521302291
 20
89.7977885336
 30
0.0
 10
16.3522031095
 20
89.6531948262
 30
0.0
 10
16.3023744247
 20
89.5450993116
 30
0.0
 10
16.2817389621
 20
89.488730496
 30
0.0
  0
SPLINE
  5
2F5
100
AcDbEntity
  8
0
100
AcDbSpline
 62
7
  6
BYLAYER
 70
0
 71
3
 72
13
 73
9
 74
0
 42
0.0000001
 43
0.0000001
 44
0.0000000001
 40
0.0
 40
0.0
 40
0.0
 40
0.0
 40
0.1157561752
 40
0.2343861424
 40
0.3560672348
 40
0.4807632491
 40
0.7372735793
 40
1.0
 40
1.0
 40
1.0
 40
1.0
 10
119.6758450535
 20
105.0003966333
 30
0.0
 10
119.638333801
 20
104.9808790085
 30
0.0
 10
119.5655048579
 20
104.935053742
 30
0.0
 10
119.467054617
 20
104.8493422748
 30
0.0
 10
119.3800840967
 20
104.7476511191
 30
0.0
 10
119.280977385
 20
104.5923758896
 30
0.0
 10
119.1955040083
 20
104.3702967817
 30
0.0
 10
119.1725690775
 20
104.1798540793
 30
0.0
 10
119.1725690775
 20
104.0838814943
 30
0.0
  0
SPLINE
  5
2F6
100
AcDbEntity
  8
0
100
AcDbSpline
 62
7
  6
BYLAYER
 70
0
 71
3
 72
13
 73
9
 74
0
 42
0.0000001
 43
0.0000001
 44
0.0000000001
 40
0.0
 40
0.0
 40
0.0
 40
0.0
 40
0.2627264207
 40
0.5192367509
 40
0.6439327652
 40
0.7656138576
 40
0.8842438248
 40
1.0
 40
1.0
 40
1.0
 40
1.0
 10
119.1725690775
 20
104.0838814943
 30
0.0
 10
119.1725690775
 20
103.9879089093
 30
0.0
 10
119.1955040083
 20
103.7974662069
 30
0.0
 10
119.280977385
 20
103.575387099
 30
0.0
 10
119.3800840967
 20
103.4201118695
 30
0.0
 10
119.467054617
 20
103.3184207138
 30
0.0
 10
119.5655048579
 20
103.2327092466
 30
0.0
 10
119.638333801
 20
103.1868839801
 30
0.0
 10
119.6758450535
 20
103.1673663553
 30
0.0
  0
SPLINE
  5
2F7
100
AcDbEntity
  8
0
100
AcDbSpline
 62
7
  6
BYLAYER
 70
0
 71
3
 72
11
 73
7
 74
0
 42
0.0000001
 43
0.0000001
 44
0.0000000001
 40
0.0
 40
0.0
 40
0.0
 40
0.0
 40
0.2614699368
 40
0.5156331088
 40
0.761705827
 40
1.0
 40
1.0
 40
1.0
 40
1.0
 10
120.7801291224
 20
104.4838814949
 30
0.0
 10
120.7594942661
 20
104.5402486546
 30
0.0
 10
120.7096638999
 20
104.648343147
 30
0.0
 10
120.6097409221
 20
104.7929420114
 30
0.0
 10
120.4888302126
 20
104.9131799093
 30
0.0
 10
120.3954086498
 20
104.9751463417
 30
0.0
 10
120.3468796881
 20
105.0003966333
 30
0.0
  0
SPLINE
  5
2F8
100
AcDbEntity
  8
0
100
AcDbSpline
 62
7
  6
BYLAYER
 70
0
 71
3
 72
11
 73
7
 74
0
 42
0.0000001
 43
0.0000001
 44
0.0000000001
 40
0.0
 40
0.0
 40
0.0
 40
0.0
 40
0.238294173
 40
0.4843668912
 40
0.7385300632
 40
1.0
 40
1.0
 40
1.0
 40
1.0
 10
120.0746546842
 20
105.0003966333
 30
0.0
 10
120.1231836459
 20
104.9751463417
 30
0.0
 10
120.2166052087
 20
104.9131799093
 30
0.0
 10
120.3375159181
 20
104.7929420114
 30
0.0
 10
120.437438896
 20
104.648343147
 30
0.0
 10
120.4872692621
 20
104.5402486546
 30
0.0
 10
120.5079041185
 20
104.4838814949
 30
0.0
  0
SPLINE
  5
2F9
100
AcDbEntity
  8
0
100
AcDbSpline
 62
7
  6
BYLAYER
 70
0
 71
3
 72
11
 73
7
 74
0
 42
0.0000001
 43
0.0000001
 44
0.0000000001
 40
0.0
 40
0.0
 40
0.0
 40
0.0
 40
0.2614699368
 40
0.5156331088
 40
0.761705827
 40
1.0
 40
1.0
 40
1.0
 40
1.0
 10
120.5079041185
 20
103.6838814949
 30
0.0
 10
120.4872692621
 20
103.6275143352
 30
0.0
 10
120.437438896
 20
103.5194198428
 30
0.0
 10
120.3375159181
 20
103.3748209784
 30
0.0
 10
120.2166052087
 20
103.2545830805
 30
0.0
 10
120.1231836459
 20
103.1926166481
 30
0.0
 10
120.0746546842
 20
103.1673663565
 30
0.0
  0
SPLINE
  5
2FA
100
AcDbEntity
  8
0
100
AcDbSpline
 62
7
  6
BYLAYER
 70
0
 71
3
 72
11
 73
7
 74
0
 42
0.0000001
 43
0.0000001
 44
0.0000000001
 40
0.0
 40
0.0
 40
0.0
 40
0.0
 40
0.238294173
 40
0.4843668912
 40
0.7385300632
 40
1.0
 40
1.0
 40
1.0
 40
1.0
 10
120.3468796881
 20
103.1673663565
 30
0.0
 10
120.3954086498
 20
103.1926166481
 30
0.0
 10
120.4888302126
 20
103.2545830805
 30
0.0
 10
120.6097409221
 20
103.3748209784
 30
0.0
 10
120.7096638999
 20
103.5194198428
 30
0.0
 10
120.7594942661
 20
103.6275143352
 30
0.0
 10
120.7801291224
 20
103.6838814949
 30
0.0
  0
SPLINE
  5
2FB
100
AcDbEntity
  8
0
100
AcDbSpline
 62
7
  6
BYLAYER
 70
0
 71
3
 72
13
 73
9
 74
0
 42
0.0000001
 43
0.0000001
 44
0.0000000001
 40
0.0
 40
0.0
 40
0.0
 40
0.0
 40
0.1157561752
 40
0.2343861424
 40
0.3560672348
 40
0.4807632491
 40
0.7372735793
 40
1.0
 40
1.0
 40
1.0
 40
1.0
 10
119.6758450535
 20
100.0003966333
 30
0.0
 10
119.638333801
 20
99.9808790085
 30
0.0
 10
119.5655048579
 20
99.935053742
 30
0.0
 10
119.467054617
 20
99.8493422748
 30
0.0
 10
119.3800840967
 20
99.7476511191
 30
0.0
 10
119.280977385
 20
99.5923758896
 30
0.0
 10
119.1955040083
 20
99.3702967817
 30
0.0
 10
119.1725690775
 20
99.1798540793
 30
0.0
 10
119.1725690775
 20
99.0838814943
 30
0.0
  0
SPLINE
  5
2FC
100
AcDbEntity
  8
0
100
AcDbSpline
 62
7
  6
BYLAYER
 70
0
 71
3
 72
13
 73
9
 74
0
 42
0.0000001
 43
0.0000001
 44
0.0000000001
 40
0.0
 40
0.0
 40
0.0
 40
0.0
 40
0.2627264207
 40
0.5192367509
 40
0.6439327652
 40
0.7656138576
 40
0.8842438248
 40
1.0
 40
1.0
 40
1.0
 40
1.0
 10
119.1725690775
 20
99.0838814943
 30
0.0
 10
119.1725690775
 20
98.9879089093
 30
0.0
 10
119.1955040083
 20
98.7974662069
 30
0.0
 10
119.280977385
 20
98.575387099
 30
0.0
 10
119.3800840967
 20
98.4201118695
 30
0.0
 10
119.467054617
 20
98.3184207138
 30
0.0
 10
119.5655048579
 20
98.2327092466
 30
0.0
 10
119.638333801
 20
98.1868839801
 30
0.0
 10
119.6758450535
 20
98.1673663553
 30
0.0
  0
SPLINE
  5
2FD
100
AcDbEntity
  8
0
100
AcDbSpline
 62
7
  6
BYLAYER
 70
0
 71
3
 72
11
 73
7
 74
0
 42
0.0000001
 43
0.0000001
 44
0.0000000001
 40
0.0
 40
0.0
 40
0.0
 40
0.0
 40
0.2614699368
 40
0.5156331088
 40
0.761705827
 40
1.0
 40
1.0
 40
1.0
 40
1.0
 10
120.7801291224
 20
99.4838814949
 30
0.0
 10
120.7594942661
 20
99.5402486546
 30
0.0
 10
120.7096638999
 20
99.648343147
 30
0.0
 10
120.6097409221
 20
99.7929420114
 30
0.0
 10
120.4888302126
 20
99.9131799093
 30
0.0
 10
120.3954086498
 20
99.9751463417
 30
0.0
 10
120.3468796881
 20
100.0003966333
 30
0.0
  0
SPLINE
  5
2FE
100
AcDbEntity
  8
0
100
AcDbSpline
 62
7
  6
BYLAYER
 70
0
 71
3
 72
11
 73
7
 74
0
 42
0.0000001
 43
0.0000001
 44
0.0000000001
 40
0.0
 40
0.0
 40
0.0
 40
0.0
 40
0.238294173
 40
0.4843668912
 40
0.7385300632
 40
1.0
 40
1.0
 40
1.0
 40
1.0
 10
120.0746546842
 20
100.0003966333
 30
0.0
 10
120.1231836459
 20
99.9751463417
 30
0.0
 10
120.2166052087
 20
99.9131799093
 30
0.0
 10
120.3375159181
 20
99.7929420114
 30
0.0
 10
120.437438896
 20
99.648343147
 30
0.0
 10
120.4872692621
 20
99.5402486546
 30
0.0
 10
120.5079041185
 20
99.4838814949
 30
0.0
  0
SPLINE
  5
2FF
100
AcDbEntity
  8
0
100
AcDbSpline
 62
7
  6
BYLAYER
 70
0
 71
3
 72
11
 73
7
 74
0
 42
0.0000001
 43
0.0000001
 44
0.0000000001
 40
0.0
 40
0.0
 40
0.0
 40
0.0
 40
0.2614699368
 40
0.5156331088
 40
0.761705827
 40
1.0
 40
1.0
 40
1.0
 40
1.0
 10
120.5079041185
 20
98.6838814949
 30
0.0
 10
120.4872692621
 20
98.6275143352
 30
0.0
 10
120.437438896
 20
98.5194198428
 30
0.0
 10
120.3375159181
 20
98.3748209784
 30
0.0
 10
120.2166052087
 20
98.2545830805
 30
0.0
 10
120.1231836459
 20
98.1926166481
 30
0.0
 10
120.0746546842
 20
98.1673663565
 30
0.0
  0
SPLINE
  5
300
100
AcDbEntity
  8
0
100
AcDbSpline
 62
7
  6
BYLAYER
 70
0
 71
3
 72
11
 73
7
 74
0
 42
0.0000001
 43
0.0000001
 44
0.0000000001
 40
0.0
 40
0.0
 40
0.0
 40
0.0
 40
0.238294173
 40
0.4843668912
 40
0.7385300632
 40
1.0
 40
1.0
 40
1.0
 40
1.0
 10
120.3468796881
 20
98.1673663565
 30
0.0
 10
120.3954086498
 20
98.1926166481
 30
0.0
 10
120.4888302126
 20
98.2545830805
 30
0.0
 10
120.6097409221
 20
98.3748209784
 30
0.0
 10
120.7096638999
 20
98.5194198428
 30
0.0
 10
120.7594942661
 20
98.6275143352
 30
0.0
 10
120.7801291224
 20
98.6838814949
 30
0.0
  0
SPLINE
  5
301
100
AcDbEntity
  8
0
100
AcDbSpline
 62
7
  6
BYLAYER
 70
0
 71
3
 72
13
 73
9
 74
0
 42
0.0000001
 43
0.0000001
 44
0.0000000001
 40
0.0
 40
0.0
 40
0.0
 40
0.0
 40
0.1157561752
 40
0.2343861424
 40
0.3560672348
 40
0.4807632491
 40
0.7372735793
 40
1.0
 40
1.0
 40
1.0
 40
1.0
 10
119.6758450535
 20
95.0003966333
 30
0.0
 10
119.638333801
 20
94.9808790085
 30
0.0
 10
119.5655048579
 20
94.935053742
 30
0.0
 10
119.467054617
 20
94.8493422748
 30
0.0
 10
119.3800840967
 20
94.7476511191
 30
0.0
 10
119.280977385
 20
94.5923758896
 30
0.0
 10
119.1955040083
 20
94.3702967817
 30
0.0
 10
119.1725690775
 20
94.1798540793
 30
0.0
 10
119.1725690775
 20
94.0838814943
 30
0.0
  0
SPLINE
  5
302
100
AcDbEntity
  8
0
100
AcDbSpline
 62
7
  6
BYLAYER
 70
0
 71
3
 72
13
 73
9
 74
0
 42
0.0000001
 43
0.0000001
 44
0.0000000001
 40
0.0
 40
0.0
 40
0.0
 40
0.0
 40
0.2627264207
 40
0.5192367509
 40
0.6439327652
 40
0.7656138576
 40
0.8842438248
 40
1.0
 40
1.0
 40
1.0
 40
1.0
 10
119.1725690775
 20
94.0838814943
 30
0.0
 10
119.1725690775
 20
93.9879089093
 30
0.0
 10
119.1955040083
 20
93.7974662069
 30
0.0
 10
119.280977385
 20
93.575387099
 30
0.0
 10
119.3800840967
 20
93.4201118695
 30
0.0
 10
119.467054617
 20
93.3184207138
 30
0.0
 10
119.5655048579
 20
93.2327092466
 30
0.0
 10
119.638333801
 20
93.1868839801
 30
0.0
 10
119.6758450535
 20
93.1673663553
 30
0.0
  0
SPLINE
  5
303
100
AcDbEntity
  8
0
100
AcDbSpline
 62
7
  6
BYLAYER
 70
0
 71
3
 72
11
 73
7
 74
0
 42
0.0000001
 43
0.0000001
 44
0.0000000001
 40
0.0
 40
0.0
 40
0.0
 40
0.0
 40
0.2614699368
 40
0.5156331088
 40
0.761705827
 40
1.0
 40
1.0
 40
1.0
 40
1.0
 10
120.7801291224
 20
94.4838814949
 30
0.0
 10
120.7594942661
 20
94.5402486546
 30
0.0
 10
120.7096638999
 20
94.648343147
 30
0.0
 10
120.6097409221
 20
94.7929420114
 30
0.0
 10
120.4888302126
 20
94.9131799093
 30
0.0
 10
120.3954086498
 20
94.9751463417
 30
0.0
 10
120.3468796881
 20
95.0003966333
 30
0.0
  0
SPLINE
  5
304
100
AcDbEntity
  8
0
100
AcDbSpline
 62
7
  6
BYLAYER
 70
0
 71
3
 72
11
 73
7
 74
0
 42
0.0000001
 43
0.0000001
 44
0.0000000001
 40
0.0
 40
0.0
 40
0.0
 40
0.0
 40
0.238294173
 40
0.4843668912
 40
0.7385300632
 40
1.0
 40
1.0
 40
1.0
 40
1.0
 10
120.0746546842
 20
95.0003966333
 30
0.0
 10
120.1231836459
 20
94.9751463417
 30
0.0
 10
120.2166052087
 20
94.9131799093
 30
0.0
 10
120.3375159181
 20
94.7929420114
 30
0.0
 10
120.437438896
 20
94.648343147
 30
0.0
 10
120.4872692621
 20
94.5402486546
 30
0.0
 10
120.5079041185
 20
94.4838814949
 30
0.0
  0
SPLINE
  5
305
100
AcDbEntity
  8
0
100
AcDbSpline
 62
7
  6
BYLAYER
 70
0
 71
3
 72
11
 73
7
 74
0
 42
0.0000001
 43
0.0000001
 44
0.0000000001
 40
0.0
 40
0.0
 40
0.0
 40
0.0
 40
0.2614699368
 40
0.5156331088
 40
0.761705827
 40
1.0
 40
1.0
 40
1.0
 40
1.0
 10
120.5079041185
 20
93.6838814949
 30
0.0
 10
120.4872692621
 20
93.6275143352
 30
0.0
 10
120.437438896
 20
93.5194198428
 30
0.0
 10
120.3375159181
 20
93.3748209784
 30
0.0
 10
120.2166052087
 20
93.2545830805
 30
0.0
 10
120.1231836459
 20
93.1926166481
 30
0.0
 10
120.0746546842
 20
93.1673663565
 30
0.0
  0
SPLINE
  5
306
100
AcDbEntity
  8
0
100
AcDbSpline
 62
7
  6
BYLAYER
 70
0
 71
3
 72
11
 73
7
 74
0
 42
0.0000001
 43
0.0000001
 44
0.0000000001
 40
0.0
 40
0.0
 40
0.0
 40
0.0
 40
0.238294173
 40
0.4843668912
 40
0.7385300632
 40
1.0
 40
1.0
 40
1.0
 40
1.0
 10
120.3468796881
 20
93.1673663565
 30
0.0
 10
120.3954086498
 20
93.1926166481
 30
0.0
 10
120.4888302126
 20
93.2545830805
 30
0.0
 10
120.6097409221
 20
93.3748209784
 30
0.0
 10
120.7096638999
 20
93.5194198428
 30
0.0
 10
120.7594942661
 20
93.6275143352
 30
0.0
 10
120.7801291224
 20
93.6838814949
 30
0.0
  0
SPLINE
  5
307
100
AcDbEntity
  8
0
100
AcDbSpline
 62
7
  6
BYLAYER
 70
0
 71
3
 72
13
 73
9
 74
0
 42
0.0000001
 43
0.0000001
 44
0.0000000001
 40
0.0
 40
0.0
 40
0.0
 40
0.0
 40
0.1157561752
 40
0.2343861424
 40
0.3560672348
 40
0.4807632491
 40
0.7372735793
 40
1.0
 40
1.0
 40
1.0
 40
1.0
 10
119.6758450535
 20
90.0003966333
 30
0.0
 10
119.638333801
 20
89.9808790085
 30
0.0
 10
119.5655048579
 20
89.935053742
 30
0.0
 10
119.467054617
 20
89.8493422748
 30
0.0
 10
119.3800840967
 20
89.7476511191
 30
0.0
 10
119.280977385
 20
89.5923758896
 30
0.0
 10
119.1955040083
 20
89.3702967817
 30
0.0
 10
119.1725690775
 20
89.1798540793
 30
0.0
 10
119.1725690775
 20
89.0838814943
 30
0.0
  0
SPLINE
  5
308
100
AcDbEntity
  8
0
100
AcDbSpline
 62
7
  6
BYLAYER
 70
0
 71
3
 72
13
 73
9
 74
0
 42
0.0000001
 43
0.0000001
 44
0.0000000001
 40
0.0
 40
0.0
 40
0.0
 40
0.0
 40
0.2627264207
 40
0.5192367509
 40
0.6439327652
 40
0.7656138576
 40
0.8842438248
 40
1.0
 40
1.0
 40
1.0
 40
1.0
 10
119.1725690775
 20
89.0838814943
 30
0.0
 10
119.1725690775
 20
88.9879089093
 30
0.0
 10
119.1955040083
 20
88.7974662069
 30
0.0
 10
119.280977385
 20
88.575387099
 30
0.0
 10
119.3800840967
 20
88.4201118695
 30
0.0
 10
119.467054617
 20
88.3184207138
 30
0.0
 10
119.5655048579
 20
88.2327092466
 30
0.0
 10
119.638333801
 20
88.1868839801
 30
0.0
 10
119.6758450535
 20
88.1673663553
 30
0.0
  0
SPLINE
  5
309
100
AcDbEntity
  8
0
100
AcDbSpline
 62
7
  6
BYLAYER
 70
0
 71
3
 72
11
 73
7
 74
0
 42
0.0000001
 43
0.0000001
 44
0.0000000001
 40
0.0
 40
0.0
 40
0.0
 40
0.0
 40
0.2614699368
 40
0.5156331088
 40
0.761705827
 40
1.0
 40
1.0
 40
1.0
 40
1.0
 10
120.7801291224
 20
89.4838814949
 30
0.0
 10
120.7594942661
 20
89.5402486546
 30
0.0
 10
120.7096638999
 20
89.648343147
 30
0.0
 10
120.6097409221
 20
89.7929420114
 30
0.0
 10
120.4888302126
 20
89.9131799093
 30
0.0
 10
120.3954086498
 20
89.9751463417
 30
0.0
 10
120.3468796881
 20
90.0003966333
 30
0.0
  0
SPLINE
  5
30A
100
AcDbEntity
  8
0
100
AcDbSpline
 62
7
  6
BYLAYER
 70
0
 71
3
 72
11
 73
7
 74
0
 42
0.0000001
 43
0.0000001
 44
0.0000000001
 40
0.0
 40
0.0
 40
0.0
 40
0.0
 40
0.238294173
 40
0.4843668912
 40
0.7385300632
 40
1.0
 40
1.0
 40
1.0
 40
1.0
 10
120.0746546842
 20
90.0003966333
 30
0.0
 10
120.1231836459
 20
89.9751463417
 30
0.0
 10
120.2166052087
 20
89.9131799093
 30
0.0
 10
120.3375159181
 20
89.7929420114
 30
0.0
 10
120.437438896
 20
89.648343147
 30
0.0
 10
120.4872692621
 20
89.5402486546
 30
0.0
 10
120.5079041185
 20
89.4838814949
 30
0.0
  0
SPLINE
  5
30B
100
AcDbEntity
  8
0
100
AcDbSpline
 62
7
  6
BYLAYER
 70
0
 71
3
 72
11
 73
7
 74
0
 42
0.0000001
 43
0.0000001
 44
0.0000000001
 40
0.0
 40
0.0
 40
0.0
 40
0.0
 40
0.2614699368
 40
0.5156331088
 40
0.761705827
 40
1.0
 40
1.0
 40
1.0
 40
1.0
 10
120.5079041185
 20
88.6838814949
 30
0.0
 10
120.4872692621
 20
88.6275143352
 30
0.0
 10
120.437438896
 20
88.5194198428
 30
0.0
 10
120.3375159181
 20
88.3748209784
 30
0.0
 10
120.2166052087
 20
88.2545830805
 30
0.0
 10
120.1231836459
 20
88.1926166481
 30
0.0
 10
120.0746546842
 20
88.1673663565
 30
0.0
  0
SPLINE
  5
30C
100
AcDbEntity
  8
0
100
AcDbSpline
 62
7
  6
BYLAYER
 70
0
 71
3
 72
11
 73
7
 74
0
 42
0.0000001
 43
0.0000001
 44
0.0000000001
 40
0.0
 40
0.0
 40
0.0
 40
0.0
 40
0.238294173
 40
0.4843668912
 40
0.7385300632
 40
1.0
 40
1.0
 40
1.0
 40
1.0
 10
120.3468796881
 20
88.1673663565
 30
0.0
 10
120.3954086498
 20
88.1926166481
 30
0.0
 10
120.4888302126
 20
88.2545830805
 30
0.0
 10
120.6097409221
 20
88.3748209784
 30
0.0
 10
120.7096638999
 20
88.5194198428
 30
0.0
 10
120.7594942661
 20
88.6275143352
 30
0.0
 10
120.7801291224
 20
88.6838814949
 30
0.0
  0
ENDSEC
  0
SECTION
  2
OBJECTS
  0
DICTIONARY
  5
C
100
AcDbDictionary
280
0
281
1
  3
ACAD_GROUP
350
D
  3
ACAD_MLINESTYLE
350
17
  3
ACAD_LAYOUT
350
1A
  3
ACAD_PLOTSETTINGS
350
19
  3
ACAD_PLOTSTYLENAME
350
E
  0
DICTIONARY
  5
D
102
{ACAD_REACTORS
330
C
102
}
100
AcDbDictionary
280
0
281
1
  0
ACDBDICTIONARYWDFLT
  5
E
102
{ACAD_REACTORS
330
C
102
}
100
AcDbDictionary
281
1
  3
Normal
350
F
100
AcDbDictionaryWithDefault
340
F
  0
DICTIONARY
  5
17
102
{ACAD_REACTORS
330
C
102
}
100
AcDbDictionary
280
0
281
1
  3
Standard
350
18
  0
DICTIONARY
  5
19
102
{ACAD_REACTORS
330
C
102
}
100
AcDbDictionary
281
1
  0
DICTIONARY
  5
1A
102
{ACAD_REACTORS
330
C
102
}
100
AcDbDictionary
281
1
  3
Model
350
30D
  3
Layout1
350
30E
  0
ACDBPLACEHOLDER
  5
F
102
{ACAD_REACTORS
330
E
102
}
  0
MLINESTYLE
  5
18
102
{ACAD_REACTORS
330
17
102
}
100
AcDbMlineStyle
  2
STANDARD
 70
0
  3

 62
256
 51
90.0
 52
90.0
 71
2
 49
0.5
 62
256
  6
BYLAYER
 49
-0.5
 62
256
  6
BYLAYER
  0
LAYOUT
  5
30D
102
{ACAD_REACTORS
330
1A
102
}
100
AcDbPlotSettings
  1

  2
none_device
  4

  6

 40
0.0
 41
0.0
 42
0.0
 43
0.0
 44
210.0
 45
297.0
 46
0.0
 47
0.0
 48
0.0
 49
0.0
140
0.0
141
0.0
142
1.0
143
1.0
 70
1024
 72
1
 73
0
 74
0
  7

 75
0
147
1.0
148
0.0
149
0.0
100
AcDbLayout
  1
Model
 70
0
 71
0
 10
0.0
 20
0.0
 11
210.0
 21
297.0
 12
0.0
 22
0.0
 32
0.0
 14
0.0
 24
0.0
 34
0.0
 15
0.0
 25
0.0
 35
0.0
146
0.0
 13
0.0
 23
0.0
 33
0.0
 16
1.0
 26
0.0
 36
0.0
 17
0.0
 27
1.0
 37
0.0
 76
0
330
210
345
0
346
0
  0
LAYOUT
  5
30E
102
{ACAD_REACTORS
330
1A
102
}
100
AcDbPlotSettings
  1

  2
none_device
  4

  6

 40
0.0
 41
0.0
 42
0.0
 43
0.0
 44
210.0
 45
297.0
 46
0.0
 47
0.0
 48
0.0
 49
0.0
140
0.0
141
0.0
142
1.0
143
1.0
 70
0
 72
1
 73
0
 74
0
  7

 75
0
147
1.0
148
0.0
149
0.0
100
AcDbLayout
  1
Layout1
 70
0
 71
1
 10
0.0
 20
0.0
 11
210.0
 21
297.0
 12
0.0
 22
0.0
 32
0.0
 14
0.0
 24
0.0
 34
0.0
 15
0.0
 25
0.0
 35
0.0
146
0.0
 13
0.0
 23
0.0
 33
0.0
 16
1.0
 26
0.0
 36
0.0
 17
0.0
 27
1.0
 37
0.0
 76
0
330
211
345
0
346
0
  0
ENDSEC
  0
EOF
