999
DXF file: C:\Users\sesa63760\Dev\_Creo\CAD\MCADFD0002484_3D-CAD\drw0001_5.dxf
999
Pro/ENGINEER 2019471 by Parametric Technology Corporation
  0
SECTION
  2
HEADER
  9
$ACADVER
  1
AC1024
  9
$DWGCODEPAGE
  3
ANSI_1252
  9
$EXTMAX
 10
90.6294728494
 20
128.1759687442
 30
0.0
  9
$EXTMIN
 10
0.0
 20
0.0
 30
0.0
  9
$LIMMIN
 10
0.0
 20
0.0
  9
$LIMMAX
 10
90.6294728494
 20
128.1759687442
  9
$VIEWCTR
 10
45.3147364247
 20
64.0879843721
  9
$VIEWSIZE
 40
128.1759687442
  9
$CLAYER
  8
0
  9
$LTSCALE
 40
8.3551742589
  9
$CELTYPE
  6
BYLAYER
  9
$DIMSCALE
 40
1.0
  9
$DIMASZ
 40
1.0789222958
  9
$DIMEXO
 40
1.0
  9
$DIMDLI
 40
5.7726658516
  9
$DIMEXE
 40
1.0
  9
$DIMCEN
 40
1.3672103333
  9
$DIMLFAC
 40
1.0
  9
$DIMBLK
  1
_FILLED
  9
$DIMALT
 70
0
  9
$DIMALTF
 40
0.0393700787
  9
$DIMTXT
 40
1.5104912142
  9
$DIMTOL
 70
1
  9
$DIMLIM
 70
0
  9
$DIMTFAC
 40
1.0
  9
$DIMTP
 40
0.01
  9
$DIMTM
 40
0.01
  9
$DIMGAP
 40
0.625
  9
$DIMDSEP
 70
46
  9
$AUNITS
 70
0
  9
$PDMODE
 70
3
  9
$PDSIZE
 40
0.3125
  9
$HANDSEED
  5
33A
  9
$TILEMODE
 70
1
  9
$MEASUREMENT
 70
1
  9
$INSUNITS
 70
4
  0
ENDSEC
  0
SECTION
  2
CLASSES
  0
CLASS
  1
ACDBDICTIONARYWDFLT
  2
AcDbDictionaryWithDefault
  3
AutoCAD 2000
 90
0
 91
1
280
0
281
0
  0
CLASS
  1
ACDBPLACEHOLDER
  2
AcDbPlaceHolder
  3
AutoCAD 2000
 90
0
 91
1
280
0
281
0
  0
CLASS
  1
LAYOUT
  2
AcDbLayout
  3
AutoCAD 2000
 90
0
 91
0
280
0
281
0
  0
ENDSEC
  0
SECTION
  2
TABLES
  0
TABLE
  2
VPORT
  5
8
100
AcDbSymbolTable
 70
2
  0
VPORT
  5
1F4
100
AcDbSymbolTableRecord
100
AcDbViewportTableRecord
  2
*ACTIVE
 70
0
 10
0.0
 20
0.0
 11
1.0
 21
1.0
 12
45.3147364247
 22
64.0879843721
 13
0.0
 23
0.0
 14
1.0
 24
1.0
 15
0.0
 25
0.0
 16
0.0
 26
0.0
 36
1.0
 17
0.0
 27
0.0
 37
0.0
 40
128.1759687442
 41
0.7070707071
 42
50.0
 43
0.0
 44
0.0
 50
0.0
 51
0.0
 71
0
 72
100
 73
1
 74
1
 75
0
 76
0
 77
0
 78
0
  0
ENDTAB
  0
TABLE
  2
LTYPE
  5
5
100
AcDbSymbolTable
 70
6
  0
LTYPE
  5
14
100
AcDbSymbolTableRecord
100
AcDbLinetypeTableRecord
  2
BYBLOCK
 70
0
  3

 72
65
 73
0
 40
0.0
  0
LTYPE
  5
15
100
AcDbSymbolTableRecord
100
AcDbLinetypeTableRecord
  2
BYLAYER
 70
0
  3

 72
65
 73
0
 40
0.0
  0
LTYPE
  5
16
100
AcDbSymbolTableRecord
100
AcDbLinetypeTableRecord
  2
CONTINUOUS
 70
64
  3
Solid line
 72
65
 73
0
 40
0.0
  0
LTYPE
  5
1F5
100
AcDbSymbolTableRecord
100
AcDbLinetypeTableRecord
  2
CENTER
 70
64
  3
____ _ ____ _ ____ _ ____ _ ____ _ ____ _ ____
 72
65
 73
4
 40
0.6
 49
0.375
 74
0
 49
-0.075
 74
0
 49
0.075
 74
0
 49
-0.075
 74
0
  0
LTYPE
  5
1F6
100
AcDbSymbolTableRecord
100
AcDbLinetypeTableRecord
  2
HIDDEN
 70
64
  3
- - - - - - - - - - - - - - - - - - - -
 72
65
 73
2
 40
0.2
 49
0.1
 74
0
 49
-0.1
 74
0
  0
LTYPE
  5
1F7
100
AcDbSymbolTableRecord
100
AcDbLinetypeTableRecord
  2
PHANTOM
 70
64
  3
_____ _ _ _____ _ _ _____ _ _ _____
 72
65
 73
6
 40
0.8
 49
0.45
 74
0
 49
-0.05
 74
0
 49
0.1
 74
0
 49
-0.05
 74
0
 49
0.1
 74
0
 49
-0.05
 74
0
  0
LTYPE
  5
1F8
100
AcDbSymbolTableRecord
100
AcDbLinetypeTableRecord
  2
DOT
 70
64
  3
. . . . . . . . . . . . . . . . . . . .
 72
65
 73
2
 40
0.2
 49
0.1
 74
0
 49
-0.1
 74
0
  0
LTYPE
  5
1F9
100
AcDbSymbolTableRecord
100
AcDbLinetypeTableRecord
  2
DASHED
 70
64
  3
- - - - - - - - - - - - - - - - - - - -
 72
65
 73
2
 40
0.2
 49
0.1
 74
0
 49
-0.1
 74
0
  0
ENDTAB
  0
TABLE
  2
LAYER
  5
2
100
AcDbSymbolTable
 70
36
  0
LAYER
  5
10
100
AcDbSymbolTableRecord
100
AcDbLayerTableRecord
  2
0
 70
0
 62
7
  6
CONTINUOUS
370
-3
390
F
  0
LAYER
  5
1FA
100
AcDbSymbolTableRecord
100
AcDbLayerTableRecord
  2
DEFAULT_1
 70
0
 62
7
  6
CENTER
370
-3
390
F
  0
LAYER
  5
1FB
100
AcDbSymbolTableRecord
100
AcDbLayerTableRecord
  2
DEFAULT_2
 70
0
 62
8
  6
HIDDEN
370
-3
390
F
  0
LAYER
  5
1FC
100
AcDbSymbolTableRecord
100
AcDbLayerTableRecord
  2
DEFAULT_3
 70
0
 62
7
  6
PHANTOM
370
-3
390
F
  0
LAYER
  5
1FD
100
AcDbSymbolTableRecord
100
AcDbLayerTableRecord
  2
00_COMPONENTS
 70
0
 62
7
  6
CONTINUOUS
370
-3
390
F
  0
LAYER
  5
1FE
100
AcDbSymbolTableRecord
100
AcDbLayerTableRecord
  2
01_1_DEFAULT_DATUMS
 70
0
 62
7
  6
CONTINUOUS
370
-3
390
F
  0
LAYER
  5
1FF
100
AcDbSymbolTableRecord
100
AcDbLayerTableRecord
  2
01_PLANES
 70
0
 62
7
  6
CONTINUOUS
370
-3
390
F
  0
LAYER
  5
200
100
AcDbSymbolTableRecord
100
AcDbLayerTableRecord
  2
02_COORD_SYS
 70
0
 62
7
  6
CONTINUOUS
370
-3
390
F
  0
LAYER
  5
201
100
AcDbSymbolTableRecord
100
AcDbLayerTableRecord
  2
03_AXES
 70
0
 62
7
  6
CONTINUOUS
370
-3
390
F
  0
LAYER
  5
202
100
AcDbSymbolTableRecord
100
AcDbLayerTableRecord
  2
04_POINTS
 70
0
 62
7
  6
CONTINUOUS
370
-3
390
F
  0
LAYER
  5
203
100
AcDbSymbolTableRecord
100
AcDbLayerTableRecord
  2
05_CURVES
 70
0
 62
7
  6
CONTINUOUS
370
-3
390
F
  0
LAYER
  5
204
100
AcDbSymbolTableRecord
100
AcDbLayerTableRecord
  2
06_SURFS
 70
0
 62
7
  6
CONTINUOUS
370
-3
390
F
  0
LAYER
  5
205
100
AcDbSymbolTableRecord
100
AcDbLayerTableRecord
  2
07_COSMETICS
 70
0
 62
7
  6
CONTINUOUS
370
-3
390
F
  0
LAYER
  5
206
100
AcDbSymbolTableRecord
100
AcDbLayerTableRecord
  2
10_NOTES
 70
0
 62
7
  6
CONTINUOUS
370
-3
390
F
  0
LAYER
  5
207
100
AcDbSymbolTableRecord
100
AcDbLayerTableRecord
  2
11_NOTES_PUB
 70
0
 62
7
  6
CONTINUOUS
370
-3
390
F
  0
LAYER
  5
208
100
AcDbSymbolTableRecord
100
AcDbLayerTableRecord
  2
13_REF_GTOL
 70
0
 62
7
  6
CONTINUOUS
370
-3
390
F
  0
LAYER
  5
209
100
AcDbSymbolTableRecord
100
AcDbLayerTableRecord
  2
16_MISC
 70
0
 62
7
  6
CONTINUOUS
370
-3
390
F
  0
LAYER
  5
20A
100
AcDbSymbolTableRecord
100
AcDbLayerTableRecord
  2
17_NO_PRINT
 70
0
 62
7
  6
CONTINUOUS
370
-3
390
F
  0
LAYER
  5
20B
100
AcDbSymbolTableRecord
100
AcDbLayerTableRecord
  2
18_DATUM_CAMS_JOINTS
 70
0
 62
7
  6
CONTINUOUS
370
-3
390
F
  0
LAYER
  5
20C
100
AcDbSymbolTableRecord
100
AcDbLayerTableRecord
  2
19_DATUM_FUNCTIONAL
 70
0
 62
7
  6
CONTINUOUS
370
-3
390
F
  0
LAYER
  5
20D
100
AcDbSymbolTableRecord
100
AcDbLayerTableRecord
  2
20_DATUM_KINEMATIC_SCHEME
 70
0
 62
7
  6
CONTINUOUS
370
-3
390
F
  0
ENDTAB
  0
TABLE
  2
STYLE
  5
3
100
AcDbSymbolTable
 70
1
  0
STYLE
  5
11
100
AcDbSymbolTableRecord
100
AcDbTextStyleTableRecord
  2
STANDARD
 70
0
 40
0.0
 41
0.8
 50
0.0
 71
0
 42
0.2
  3
txt
  4

  0
STYLE
  5
20E
100
AcDbSymbolTableRecord
100
AcDbTextStyleTableRecord
  2
TEXTSTYLE_1
 70
0
 40
0.0
 41
0.8
 50
0.0
 71
0
 42
0.2
  3
gdt
  4

  0
ENDTAB
  0
TABLE
  2
VIEW
  5
6
100
AcDbSymbolTable
 70
0
  0
ENDTAB
  0
TABLE
  2
UCS
  5
7
100
AcDbSymbolTable
 70
0
  0
ENDTAB
  0
TABLE
  2
APPID
  5
9
100
AcDbSymbolTable
 70
1
  0
APPID
  5
20F
100
AcDbSymbolTableRecord
100
AcDbRegAppTableRecord
  2
ACAD
 70
0
  0
ENDTAB
  0
TABLE
  2
BLOCK_RECORD
  5
1
100
AcDbSymbolTable
 70
0
  0
BLOCK_RECORD
  5
210
100
AcDbSymbolTableRecord
100
AcDbBlockTableRecord
  2
*Model_Space
  0
BLOCK_RECORD
  5
211
100
AcDbSymbolTableRecord
100
AcDbBlockTableRecord
  2
*Paper_Space
  0
BLOCK_RECORD
  5
212
100
AcDbSymbolTableRecord
100
AcDbBlockTableRecord
  2
_FILLED
  0
ENDTAB
  0
TABLE
  2
DIMSTYLE
  5
A
100
AcDbSymbolTable
 70
1
100
AcDbDimStyleTable
 71
0
  0
DIMSTYLE
105
213
100
AcDbSymbolTableRecord
100
AcDbDimStyleTableRecord
  2
STANDARD
 70
0
  3

  4

 40
1.0
 41
1.0789222958
 42
1.0
 43
0.38
 44
1.0
 45
0.0
 46
0.0
 47
0.01
 48
0.01
140
1.5104912142
141
0.09
142
0.0
143
25.4
144
1.0
145
0.0
146
1.0
147
0.625
 71
1
 72
0
 73
0
 74
0
 75
0
 76
0
 77
1
 78
8
 79
2
170
0
171
1
172
0
173
0
174
0
175
0
176
0
177
0
178
0
270
2
179
2
271
2
272
2
273
2
274
2
275
0
280
0
281
0
282
0
283
1
284
8
285
0
286
0
287
3
288
0
340
11
278
46
341
212
342
212
343
212
344
212
  0
ENDTAB
  0
ENDSEC
  0
SECTION
  2
BLOCKS
  0
BLOCK
  5
20
100
AcDbEntity
  8
0
100
AcDbBlockBegin
  2
*Model_Space
 70
0
 10
0.0
 20
0.0
 30
0.0
  3
*Model_Space
  1

  0
ENDBLK
  5
21
100
AcDbEntity
  8
0
100
AcDbBlockEnd
  0
BLOCK
  5
1C
100
AcDbEntity
  8
0
100
AcDbBlockBegin
  2
*Paper_Space
 70
0
 10
0.0
 20
0.0
 30
0.0
  3
*Paper_Space
  1

  0
ENDBLK
  5
1D
100
AcDbEntity
  8
0
100
AcDbBlockEnd
  0
BLOCK
  5
214
100
AcDbEntity
  8
0
100
AcDbBlockBegin
  2
_FILLED
 70
64
 10
0.0
 20
0.0
  3
_FILLED
  1

  0
SOLID
  5
215
100
AcDbEntity
  8
0
  6
BYBLOCK
 62
0
100
AcDbTrace
 10
0.0
 20
0.0
 11
-1.0
 21
0.25
 12
-1.0
 22
-0.25
 13
-1.0
 23
-0.25
  0
ENDBLK
  5
216
100
AcDbEntity
  8
0
  6
BYBLOCK
 62
0
100
AcDbBlockEnd
  0
ENDSEC
  0
SECTION
  2
ENTITIES
  0
LINE
  5
217
100
AcDbEntity
  8
0
100
AcDbLine
 62
7
  6
CONTINUOUS
 10
11.0263400587
 20
99.4634961215
 11
11.0256174898
 21
99.4607656936
  0
LINE
  5
218
100
AcDbEntity
  8
0
100
AcDbLine
 62
7
  6
CONTINUOUS
 10
10.9460014267
 20
92.5528241546
 11
11.1244821915
 21
94.2631149089
  0
LINE
  5
219
100
AcDbEntity
  8
0
100
AcDbLine
 62
7
  6
CONTINUOUS
 10
11.0665760692
 20
95.0655944445
 11
10.8362523739
 21
92.9506296223
  0
LINE
  5
21A
100
AcDbEntity
  8
0
100
AcDbLine
 62
7
  6
CONTINUOUS
 10
10.7794314823
 20
95.9421965093
 11
11.010822565
 21
98.0009643842
  0
LINE
  5
21B
100
AcDbEntity
  8
0
100
AcDbLine
 62
7
  6
CONTINUOUS
 10
11.0256174898
 20
99.4607656936
 11
10.8441189032
 21
97.9168438894
  0
LINE
  5
21C
100
AcDbEntity
  8
0
100
AcDbLine
 62
7
  6
CONTINUOUS
 10
11.5042334495
 20
26.7771812364
 11
11.4409658081
 21
28.475905054
  0
LINE
  5
21D
100
AcDbEntity
  8
0
100
AcDbLine
 62
7
  6
CONTINUOUS
 10
11.4860439441
 20
31.4781500225
 11
11.5230930515
 21
29.6762073602
  0
LINE
  5
21E
100
AcDbEntity
  8
0
100
AcDbLine
 62
7
  6
CONTINUOUS
 10
10.7579791137
 20
96.0770677256
 11
10.760625413
 21
95.9377425377
  0
LINE
  5
21F
100
AcDbEntity
  8
0
100
AcDbLine
 62
7
  6
CONTINUOUS
 10
10.8228134469
 20
92.6636006216
 11
10.8254597462
 21
92.5242754337
  0
LINE
  5
220
100
AcDbEntity
  8
0
100
AcDbLine
 62
7
  6
CONTINUOUS
 10
11.0566321311
 20
98.0069885488
 11
11.0991554148
 21
95.7681773682
  0
LINE
  5
221
100
AcDbEntity
  8
0
100
AcDbLine
 62
7
  6
CONTINUOUS
 10
11.707471204
 20
26.7830128534
 11
11.6791604096
 21
28.2826762735
  0
LINE
  5
222
100
AcDbEntity
  8
0
100
AcDbLine
 62
7
  6
CONTINUOUS
 10
11.6791604096
 20
28.2826762735
 11
11.6378656977
 21
30.7822843105
  0
LINE
  5
223
100
AcDbEntity
  8
0
100
AcDbLine
 62
7
  6
CONTINUOUS
 10
11.5230930515
 20
29.6762073602
 11
11.5383042519
 21
28.6654559508
  0
LINE
  5
224
100
AcDbEntity
  8
0
100
AcDbLine
 62
7
  6
CONTINUOUS
 10
10.7444247681
 20
75.0706990149
 11
11.4409658081
 21
28.475905054
  0
LINE
  5
225
100
AcDbEntity
  8
0
100
AcDbLine
 62
7
  6
CONTINUOUS
 10
10.5875135146
 20
90.2710176837
 11
10.7997642178
 21
76.0726040733
  0
LINE
  5
226
100
AcDbEntity
  8
0
100
AcDbLine
 62
7
  6
CONTINUOUS
 10
11.4860439441
 20
31.4781500225
 11
11.474086158
 21
32.2780606484
  0
LINE
  5
227
100
AcDbEntity
  8
0
100
AcDbLine
 62
7
  6
CONTINUOUS
 10
10.725945669
 20
91.0752435341
 11
10.7080089899
 21
92.275109473
  0
LINE
  5
228
100
AcDbEntity
  8
0
100
AcDbLine
 62
7
  6
CONTINUOUS
 10
11.6154448488
 20
32.2821167341
 11
11.6378656977
 21
30.7822843105
  0
LINE
  5
229
100
AcDbEntity
  8
0
100
AcDbLine
 62
7
  6
CONTINUOUS
 10
10.9764625813
 20
76.0776741804
 11
10.7642118781
 21
90.2760877908
  0
LINE
  5
22A
100
AcDbEntity
  8
0
100
AcDbLine
 62
7
  6
CONTINUOUS
 10
11.7836478318
 20
26.7851986329
 11
11.0616964963
 21
75.0798026739
  0
LINE
  5
22B
100
AcDbEntity
  8
0
100
AcDbLine
 62
7
  6
CONTINUOUS
 10
11.351908315
 20
92.5321451505
 11
11.3538884671
 21
92.3546384028
  0
LINE
  5
22C
100
AcDbEntity
  8
0
100
AcDbLine
 62
7
  6
CONTINUOUS
 10
11.5383042519
 20
28.6654559508
 11
11.524882895
 21
26.7777737427
  0
LINE
  5
22D
100
AcDbEntity
  8
0
100
AcDbLine
 62
7
  6
CONTINUOUS
 10
10.8441189032
 20
97.9168438894
 11
10.7579791137
 21
96.0770677256
  0
LINE
  5
22E
100
AcDbEntity
  8
0
100
AcDbLine
 62
7
  6
CONTINUOUS
 10
10.8362523739
 20
92.9506296223
 11
10.8228134469
 21
92.6636006216
  0
LINE
  5
22F
100
AcDbEntity
  8
0
100
AcDbLine
 62
7
  6
CONTINUOUS
 10
72.4964244744
 20
27.6930504025
 11
72.4896233512
 21
27.6928552539
  0
LINE
  5
230
100
AcDbEntity
  8
0
100
AcDbLine
 62
7
  6
CONTINUOUS
 10
54.7985383186
 20
27.428490177
 11
54.7917371954
 21
27.4282950285
  0
LINE
  5
231
100
AcDbEntity
  8
0
100
AcDbLine
 62
7
  6
CONTINUOUS
 10
37.1006521628
 20
27.1639299515
 11
37.0938510396
 21
27.163734803
  0
LINE
  5
232
100
AcDbEntity
  8
0
100
AcDbLine
 62
7
  6
CONTINUOUS
 10
19.402766007
 20
26.8993697261
 11
19.3959648838
 21
26.8991745776
  0
LINE
  5
233
100
AcDbEntity
  8
0
100
AcDbLine
 62
7
  6
CONTINUOUS
 10
11.5042334495
 20
26.7771812364
 11
11.524882895
 21
26.7777737427
  0
LINE
  5
234
100
AcDbEntity
  8
0
100
AcDbLine
 62
7
  6
CONTINUOUS
 10
11.707471204
 20
26.7830128534
 11
11.7836478318
 21
26.7851986329
  0
LINE
  5
235
100
AcDbEntity
  8
0
100
AcDbLine
 62
7
  6
CONTINUOUS
 10
67.9562247201
 20
29.8253182114
 11
67.9444448292
 21
29.8249802043
  0
LINE
  5
236
100
AcDbEntity
  8
0
100
AcDbLine
 62
7
  6
CONTINUOUS
 10
50.2583385643
 20
29.560757986
 11
50.2465586734
 21
29.5604199788
  0
LINE
  5
237
100
AcDbEntity
  8
0
100
AcDbLine
 62
7
  6
CONTINUOUS
 10
32.5604524084
 20
29.2961977605
 11
32.5486725175
 21
29.2958597534
  0
LINE
  5
238
100
AcDbEntity
  8
0
100
AcDbLine
 62
7
  6
CONTINUOUS
 10
14.8625662526
 20
29.031637535
 11
14.8507863617
 21
29.0312995279
  0
LINE
  5
239
100
AcDbEntity
  8
0
100
AcDbLine
 62
7
  6
CONTINUOUS
 10
11.524882895
 20
26.7777737427
 11
11.7075087116
 21
26.7805037596
  0
LINE
  5
23A
100
AcDbEntity
  8
0
100
AcDbLine
 62
7
  6
CONTINUOUS
 10
11.7836478318
 20
26.7851986329
 11
19.3959676004
 21
26.8989928464
  0
LINE
  5
23B
100
AcDbEntity
  8
0
100
AcDbLine
 62
7
  6
CONTINUOUS
 10
82.575192455
 20
27.8434395348
 11
72.4964244744
 21
27.6930504025
  0
LINE
  5
23C
100
AcDbEntity
  8
0
100
AcDbLine
 62
7
  6
CONTINUOUS
 10
72.4896260679
 20
27.6926735227
 11
54.7985383186
 21
27.428490177
  0
LINE
  5
23D
100
AcDbEntity
  8
0
100
AcDbLine
 62
7
  6
CONTINUOUS
 10
54.7917399121
 20
27.4281132973
 11
37.1006521628
 21
27.1639299515
  0
LINE
  5
23E
100
AcDbEntity
  8
0
100
AcDbLine
 62
7
  6
CONTINUOUS
 10
37.0938537563
 20
27.1635530718
 11
19.402766007
 21
26.8993697261
  0
LINE
  5
23F
100
AcDbEntity
  8
0
100
AcDbLine
 62
7
  6
CONTINUOUS
 10
11.5383042519
 20
28.6654559508
 11
11.6728034917
 21
28.6674665383
  0
LINE
  5
240
100
AcDbEntity
  8
0
100
AcDbLine
 62
7
  6
CONTINUOUS
 10
77.4629434315
 20
29.9675391507
 11
75.2132121405
 21
29.9339086136
  0
LINE
  5
241
100
AcDbEntity
  8
0
100
AcDbLine
 62
7
  6
CONTINUOUS
 10
72.4635405626
 20
29.8928046238
 11
67.9562247201
 21
29.8253182114
  0
LINE
  5
242
100
AcDbEntity
  8
0
100
AcDbLine
 62
7
  6
CONTINUOUS
 10
54.7656544068
 20
29.6282443983
 11
50.2583385643
 21
29.560757986
  0
LINE
  5
243
100
AcDbEntity
  8
0
100
AcDbLine
 62
7
  6
CONTINUOUS
 10
44.0590780941
 20
29.4680875829
 11
39.8174398289
 21
29.4047881627
  0
LINE
  5
244
100
AcDbEntity
  8
0
100
AcDbLine
 62
7
  6
CONTINUOUS
 10
37.067768251
 20
29.3636841729
 11
32.5604524084
 21
29.2961977605
  0
LINE
  5
245
100
AcDbEntity
  8
0
100
AcDbLine
 62
7
  6
CONTINUOUS
 10
26.3611919383
 20
29.2035273574
 11
22.1195536731
 21
29.1402279372
  0
LINE
  5
246
100
AcDbEntity
  8
0
100
AcDbLine
 62
7
  6
CONTINUOUS
 10
19.3698820952
 20
29.0991239474
 11
14.8625662526
 21
29.031637535
  0
LINE
  5
247
100
AcDbEntity
  8
0
100
AcDbLine
 62
7
  6
CONTINUOUS
 10
57.5153259847
 20
29.6693483882
 11
61.7569642499
 21
29.7326478083
  0
LINE
  5
248
100
AcDbEntity
  8
0
100
AcDbLine
 62
7
  6
CONTINUOUS
 10
77.4629434315
 20
29.9675391507
 11
79.4548504057
 21
29.9972080338
  0
LINE
  5
249
100
AcDbEntity
  8
0
100
AcDbLine
 62
7
  6
CONTINUOUS
 10
14.8507863617
 20
29.0312995279
 11
14.8014604941
 21
32.3309308599
  0
LINE
  5
24A
100
AcDbEntity
  8
0
100
AcDbLine
 62
7
  6
CONTINUOUS
 10
14.8885177625
 20
26.8316123731
 11
14.8556338508
 21
29.0313665944
  0
LINE
  5
24B
100
AcDbEntity
  8
0
100
AcDbLine
 62
7
  6
CONTINUOUS
 10
14.8625662526
 20
29.031637535
 11
14.813240385
 21
32.331268867
  0
LINE
  5
24C
100
AcDbEntity
  8
0
100
AcDbLine
 62
7
  6
CONTINUOUS
 10
14.7542622566
 20
92.3355508111
 11
14.7534824179
 21
92.4054578811
  0
LINE
  5
24D
100
AcDbEntity
  8
0
100
AcDbLine
 62
7
  6
CONTINUOUS
 10
67.9068988524
 20
33.1249495434
 11
67.8951189615
 21
33.1246115363
  0
LINE
  5
24E
100
AcDbEntity
  8
0
100
AcDbLine
 62
7
  6
CONTINUOUS
 10
50.2090126966
 20
32.8603893179
 11
50.1972328057
 21
32.8600513108
  0
LINE
  5
24F
100
AcDbEntity
  8
0
100
AcDbLine
 62
7
  6
CONTINUOUS
 10
32.5111265408
 20
32.5958290925
 11
32.4993466499
 21
32.5954910853
  0
LINE
  5
250
100
AcDbEntity
  8
0
100
AcDbLine
 62
7
  6
CONTINUOUS
 10
14.813240385
 20
32.331268867
 11
14.8014604941
 21
32.3309308599
  0
LINE
  5
251
100
AcDbEntity
  8
0
100
AcDbLine
 62
7
  6
CONTINUOUS
 10
11.474086158
 20
32.2780606484
 11
11.6154448488
 21
32.2821167341
  0
LINE
  5
252
100
AcDbEntity
  8
0
100
AcDbLine
 62
7
  6
CONTINUOUS
 10
11.5230930515
 20
29.6762073602
 11
11.6561057655
 21
29.6781957261
  0
LINE
  5
253
100
AcDbEntity
  8
0
100
AcDbLine
 62
7
  6
CONTINUOUS
 10
11.4860439441
 20
31.4781500225
 11
11.6274316735
 21
31.4802635839
  0
LINE
  5
254
100
AcDbEntity
  8
0
100
AcDbLine
 62
7
  6
CONTINUOUS
 10
77.4136175639
 20
33.2671704827
 11
67.9068988524
 21
33.1249495434
  0
LINE
  5
255
100
AcDbEntity
  8
0
100
AcDbLine
 62
7
  6
CONTINUOUS
 10
44.0097522101
 20
32.7677189146
 11
32.5111265408
 21
32.5958290925
  0
LINE
  5
256
100
AcDbEntity
  8
0
100
AcDbLine
 62
7
  6
CONTINUOUS
 10
26.3118660543
 20
32.5031586891
 11
14.813240385
 21
32.331268867
  0
LINE
  5
257
100
AcDbEntity
  8
0
100
AcDbLine
 62
7
  6
CONTINUOUS
 10
61.7076383659
 20
33.0322791401
 11
50.2090126966
 21
32.8603893179
  0
LINE
  5
258
100
AcDbEntity
  8
0
100
AcDbLine
 62
7
  6
CONTINUOUS
 10
79.4055245217
 20
33.2968393655
 11
77.4136175639
 21
33.2671704827
  0
LINE
  5
259
100
AcDbEntity
  8
0
100
AcDbLine
 62
7
  6
CONTINUOUS
 10
16.8208547931
 20
32.3613880159
 11
16.8701806608
 21
29.0617566839
  0
LINE
  5
25A
100
AcDbEntity
  8
0
100
AcDbLine
 62
7
  6
CONTINUOUS
 10
16.6608347519
 20
51.7608881186
 11
16.707171173
 21
48.6612344431
  0
LINE
  5
25B
100
AcDbEntity
  8
0
100
AcDbLine
 62
7
  6
CONTINUOUS
 10
17.7323036411
 20
53.6771174511
 11
17.7442614271
 21
52.8772068252
  0
LINE
  5
25C
100
AcDbEntity
  8
0
100
AcDbLine
 62
7
  6
CONTINUOUS
 10
19.3959648838
 20
26.8991745776
 11
19.363080972
 21
29.0989287989
  0
LINE
  5
25D
100
AcDbEntity
  8
0
100
AcDbLine
 62
7
  6
CONTINUOUS
 10
19.402766007
 20
26.8993697261
 11
19.3698820952
 21
29.0991239474
  0
LINE
  5
25E
100
AcDbEntity
  8
0
100
AcDbLine
 62
7
  6
CONTINUOUS
 10
22.1524375849
 20
26.9404737159
 11
22.1195536731
 21
29.1402279372
  0
LINE
  5
25F
100
AcDbEntity
  8
0
100
AcDbLine
 62
7
  6
CONTINUOUS
 10
22.704397993
 20
52.9508146617
 11
22.6924402069
 21
53.7507252876
  0
LINE
  5
260
100
AcDbEntity
  8
0
100
AcDbLine
 62
7
  6
CONTINUOUS
 10
22.743664296
 20
52.9519413521
 11
22.7317065099
 21
53.7518519781
  0
LINE
  5
261
100
AcDbEntity
  8
0
100
AcDbLine
 62
7
  6
CONTINUOUS
 10
22.704397993
 20
52.9508146617
 11
23.8207085801
 21
51.8673791469
  0
LINE
  5
262
100
AcDbEntity
  8
0
100
AcDbLine
 62
7
  6
CONTINUOUS
 10
23.8599748831
 20
51.8685058374
 11
22.743664296
 21
52.9519413521
  0
LINE
  5
263
100
AcDbEntity
  8
0
100
AcDbLine
 62
7
  6
CONTINUOUS
 10
24.3818019805
 20
98.7013158208
 11
24.3368148922
 21
101.0698440154
  0
LINE
  5
264
100
AcDbEntity
  8
0
100
AcDbLine
 62
7
  6
CONTINUOUS
 10
23.8670450012
 20
48.7677254714
 11
23.8207085801
 21
51.8673791469
  0
LINE
  5
265
100
AcDbEntity
  8
0
100
AcDbLine
 62
7
  6
CONTINUOUS
 10
23.9063113042
 20
48.7688521619
 11
23.8599748831
 21
51.8685058374
  0
LINE
  5
266
100
AcDbEntity
  8
0
100
AcDbLine
 62
7
  6
CONTINUOUS
 10
24.3692849641
 20
29.1738584744
 11
24.3199590965
 21
32.4734898064
  0
LINE
  5
267
100
AcDbEntity
  8
0
100
AcDbLine
 62
7
  6
CONTINUOUS
 10
26.3766640568
 20
27.0033451183
 11
26.3437801451
 21
29.2030993396
  0
LINE
  5
268
100
AcDbEntity
  8
0
100
AcDbLine
 62
7
  6
CONTINUOUS
 10
26.3118824036
 20
32.5031589335
 11
26.3612082713
 21
29.2035276016
  0
LINE
  5
269
100
AcDbEntity
  8
0
100
AcDbLine
 62
7
  6
CONTINUOUS
 10
24.1523598114
 20
92.5459587918
 11
24.1531396501
 21
92.4760517218
  0
LINE
  5
26A
100
AcDbEntity
  8
0
100
AcDbLine
 62
7
  6
CONTINUOUS
 10
28.6743487371
 20
76.3422344059
 11
28.4620980339
 21
90.5406480163
  0
LINE
  5
26B
100
AcDbEntity
  8
0
100
AcDbLine
 62
7
  6
CONTINUOUS
 10
29.4815339876
 20
27.0497588584
 11
28.7595826521
 21
75.3443628994
  0
LINE
  5
26C
100
AcDbEntity
  8
0
100
AcDbLine
 62
7
  6
CONTINUOUS
 10
27.3519776474
 20
92.5937888891
 11
27.3499974954
 21
92.7712956368
  0
LINE
  5
26D
100
AcDbEntity
  8
0
100
AcDbLine
 62
7
  6
CONTINUOUS
 10
29.0497944708
 20
92.796705376
 11
29.0517746229
 21
92.6191986282
  0
LINE
  5
26E
100
AcDbEntity
  8
0
100
AcDbLine
 62
7
  6
CONTINUOUS
 10
24.3506829083
 20
99.8991497592
 11
24.3470829209
 21
99.9274473445
  0
LINE
  5
26F
100
AcDbEntity
  8
0
100
AcDbLine
 62
7
  6
CONTINUOUS
 10
32.5486725175
 20
29.2958597534
 11
32.4993466499
 21
32.5954910853
  0
LINE
  5
270
100
AcDbEntity
  8
0
100
AcDbLine
 62
7
  6
CONTINUOUS
 10
32.5864039183
 20
27.0961725985
 11
32.5535200066
 21
29.2959268199
  0
LINE
  5
271
100
AcDbEntity
  8
0
100
AcDbLine
 62
7
  6
CONTINUOUS
 10
32.5604524084
 20
29.2961977605
 11
32.5111265408
 21
32.5958290925
  0
LINE
  5
272
100
AcDbEntity
  8
0
100
AcDbLine
 62
7
  6
CONTINUOUS
 10
32.4521484124
 20
92.6001110366
 11
32.4513685737
 21
92.6700181066
  0
LINE
  5
273
100
AcDbEntity
  8
0
100
AcDbLine
 62
7
  6
CONTINUOUS
 10
76.9607034686
 20
49.5614061478
 11
76.9999697716
 21
49.5625328383
  0
LINE
  5
274
100
AcDbEntity
  8
0
100
AcDbLine
 62
7
  6
CONTINUOUS
 10
59.2628173128
 20
49.2968459223
 11
59.3020836158
 21
49.2979726128
  0
LINE
  5
275
100
AcDbEntity
  8
0
100
AcDbLine
 62
7
  6
CONTINUOUS
 10
41.564931157
 20
49.0322856969
 11
41.60419746
 21
49.0334123874
  0
LINE
  5
276
100
AcDbEntity
  8
0
100
AcDbLine
 62
7
  6
CONTINUOUS
 10
23.8670450012
 20
48.7677254714
 11
23.9063113042
 21
48.7688521619
  0
LINE
  5
277
100
AcDbEntity
  8
0
100
AcDbLine
 62
7
  6
CONTINUOUS
 10
34.5187409489
 20
32.6259482414
 11
34.5680668166
 21
29.3263169094
  0
LINE
  5
278
100
AcDbEntity
  8
0
100
AcDbLine
 62
7
  6
CONTINUOUS
 10
34.3587209077
 20
52.025448344
 11
34.4050573288
 21
48.9257946685
  0
LINE
  5
279
100
AcDbEntity
  8
0
100
AcDbLine
 62
7
  6
CONTINUOUS
 10
35.4301897969
 20
53.9416776766
 11
35.4421475829
 21
53.1417670506
  0
LINE
  5
27A
100
AcDbEntity
  8
0
100
AcDbLine
 62
7
  6
CONTINUOUS
 10
37.0938510396
 20
27.163734803
 11
37.0609671278
 21
29.3634890243
  0
LINE
  5
27B
100
AcDbEntity
  8
0
100
AcDbLine
 62
7
  6
CONTINUOUS
 10
37.1006521628
 20
27.1639299515
 11
37.067768251
 21
29.3636841729
  0
LINE
  5
27C
100
AcDbEntity
  8
0
100
AcDbLine
 62
7
  6
CONTINUOUS
 10
17.7442614271
 20
52.8772068252
 11
16.6608347519
 21
51.7608881186
  0
LINE
  5
27D
100
AcDbEntity
  8
0
100
AcDbLine
 62
7
  6
CONTINUOUS
 10
76.9536333505
 20
52.6621865138
 11
76.9143670475
 21
52.6610598233
  0
LINE
  5
27E
100
AcDbEntity
  8
0
100
AcDbLine
 62
7
  6
CONTINUOUS
 10
59.2557471947
 20
52.3976262883
 11
59.2164808917
 21
52.3964995978
  0
LINE
  5
27F
100
AcDbEntity
  8
0
100
AcDbLine
 62
7
  6
CONTINUOUS
 10
41.5578610389
 20
52.1330660629
 11
41.5185947359
 21
52.1319393724
  0
LINE
  5
280
100
AcDbEntity
  8
0
100
AcDbLine
 62
7
  6
CONTINUOUS
 10
23.8599748831
 20
51.8685058374
 11
23.8207085801
 21
51.8673791469
  0
LINE
  5
281
100
AcDbEntity
  8
0
100
AcDbLine
 62
7
  6
CONTINUOUS
 10
75.8373227634
 20
53.7456220285
 11
75.7980564604
 21
53.744495338
  0
LINE
  5
282
100
AcDbEntity
  8
0
100
AcDbLine
 62
7
  6
CONTINUOUS
 10
58.1394366076
 20
53.481061803
 11
58.1001703046
 21
53.4799351126
  0
LINE
  5
283
100
AcDbEntity
  8
0
100
AcDbLine
 62
7
  6
CONTINUOUS
 10
40.4415504518
 20
53.2165015776
 11
40.4022841488
 21
53.2153748871
  0
LINE
  5
284
100
AcDbEntity
  8
0
100
AcDbLine
 62
7
  6
CONTINUOUS
 10
22.743664296
 20
52.9519413521
 11
22.704397993
 21
52.9508146617
  0
LINE
  5
285
100
AcDbEntity
  8
0
100
AcDbLine
 62
7
  6
CONTINUOUS
 10
75.8253649773
 20
54.5455326544
 11
70.8259621085
 21
54.4707981275
  0
LINE
  5
286
100
AcDbEntity
  8
0
100
AcDbLine
 62
7
  6
CONTINUOUS
 10
58.1274788215
 20
54.280972429
 11
53.1280759527
 21
54.206237902
  0
LINE
  5
287
100
AcDbEntity
  8
0
100
AcDbLine
 62
7
  6
CONTINUOUS
 10
40.4295926657
 20
54.0164122035
 11
35.4301897969
 21
53.9416776766
  0
LINE
  5
288
100
AcDbEntity
  8
0
100
AcDbLine
 62
7
  6
CONTINUOUS
 10
22.7317065099
 20
53.7518519781
 11
17.7323036411
 21
53.6771174511
  0
LINE
  5
289
100
AcDbEntity
  8
0
100
AcDbLine
 62
7
  6
CONTINUOUS
 10
40.4022841488
 20
53.2153748871
 11
41.5185947359
 21
52.1319393724
  0
LINE
  5
28A
100
AcDbEntity
  8
0
100
AcDbLine
 62
7
  6
CONTINUOUS
 10
41.5578610389
 20
52.1330660629
 11
40.4415504518
 21
53.2165015776
  0
LINE
  5
28B
100
AcDbEntity
  8
0
100
AcDbLine
 62
7
  6
CONTINUOUS
 10
39.8503237407
 20
27.2050339414
 11
39.8174398289
 21
29.4047881627
  0
LINE
  5
28C
100
AcDbEntity
  8
0
100
AcDbLine
 62
7
  6
CONTINUOUS
 10
40.4022841488
 20
53.2153748871
 11
40.3903263627
 21
54.0152855131
  0
LINE
  5
28D
100
AcDbEntity
  8
0
100
AcDbLine
 62
7
  6
CONTINUOUS
 10
40.4415504518
 20
53.2165015776
 11
40.4295926657
 21
54.0164122035
  0
LINE
  5
28E
100
AcDbEntity
  8
0
100
AcDbLine
 62
7
  6
CONTINUOUS
 10
41.564931157
 20
49.0322856969
 11
41.5185947359
 21
52.1319393724
  0
LINE
  5
28F
100
AcDbEntity
  8
0
100
AcDbLine
 62
7
  6
CONTINUOUS
 10
41.60419746
 20
49.0334123874
 11
41.5578610389
 21
52.1330660629
  0
LINE
  5
290
100
AcDbEntity
  8
0
100
AcDbLine
 62
7
  6
CONTINUOUS
 10
42.0671711199
 20
29.4384186998
 11
42.0178452523
 21
32.7380500318
  0
LINE
  5
291
100
AcDbEntity
  8
0
100
AcDbLine
 62
7
  6
CONTINUOUS
 10
44.0745502126
 20
27.2679053437
 11
44.0416663009
 21
29.4676595651
  0
LINE
  5
292
100
AcDbEntity
  8
0
100
AcDbLine
 62
7
  6
CONTINUOUS
 10
44.0097685594
 20
32.767719159
 11
44.0590944271
 21
29.468087827
  0
LINE
  5
293
100
AcDbEntity
  8
0
100
AcDbLine
 62
7
  6
CONTINUOUS
 10
41.8502459672
 20
92.8105190173
 11
41.8510258059
 21
92.7406119473
  0
LINE
  5
294
100
AcDbEntity
  8
0
100
AcDbLine
 62
7
  6
CONTINUOUS
 10
46.3722348929
 20
76.6067946313
 11
46.1599841897
 21
90.8052082417
  0
LINE
  5
295
100
AcDbEntity
  8
0
100
AcDbLine
 62
7
  6
CONTINUOUS
 10
47.1794201434
 20
27.3143190839
 11
46.4574688079
 21
75.6089231248
  0
LINE
  5
296
100
AcDbEntity
  8
0
100
AcDbLine
 62
7
  6
CONTINUOUS
 10
45.0498638033
 20
92.8583491145
 11
45.0478836512
 21
93.0358558623
  0
LINE
  5
297
100
AcDbEntity
  8
0
100
AcDbLine
 62
7
  6
CONTINUOUS
 10
35.4421475829
 20
53.1417670506
 11
34.3587209077
 21
52.025448344
  0
LINE
  5
298
100
AcDbEntity
  8
0
100
AcDbLine
 62
7
  6
CONTINUOUS
 10
58.1001703046
 20
53.4799351126
 11
59.2164808917
 21
52.3964995978
  0
LINE
  5
299
100
AcDbEntity
  8
0
100
AcDbLine
 62
7
  6
CONTINUOUS
 10
59.2557471947
 20
52.3976262883
 11
58.1394366076
 21
53.4810618031
  0
LINE
  5
29A
100
AcDbEntity
  8
0
100
AcDbLine
 62
7
  6
CONTINUOUS
 10
50.2465586734
 20
29.5604199788
 11
50.1972328057
 21
32.8600513108
  0
LINE
  5
29B
100
AcDbEntity
  8
0
100
AcDbLine
 62
7
  6
CONTINUOUS
 10
50.2842900741
 20
27.360732824
 11
50.2514061624
 21
29.5604870453
  0
LINE
  5
29C
100
AcDbEntity
  8
0
100
AcDbLine
 62
7
  6
CONTINUOUS
 10
50.2583385643
 20
29.560757986
 11
50.2090126966
 21
32.8603893179
  0
LINE
  5
29D
100
AcDbEntity
  8
0
100
AcDbLine
 62
7
  6
CONTINUOUS
 10
46.7476806266
 20
93.0612656014
 11
46.7496607787
 21
92.8837588537
  0
LINE
  5
29E
100
AcDbEntity
  8
0
100
AcDbLine
 62
7
  6
CONTINUOUS
 10
50.1500345682
 20
92.864671262
 11
50.1492547295
 21
92.934578332
  0
LINE
  5
29F
100
AcDbEntity
  8
0
100
AcDbLine
 62
7
  6
CONTINUOUS
 10
52.2166271048
 20
32.8905084668
 11
52.2659529724
 21
29.5908771348
  0
LINE
  5
2A0
100
AcDbEntity
  8
0
100
AcDbLine
 62
7
  6
CONTINUOUS
 10
52.0566070635
 20
52.2900085695
 11
52.1029434846
 21
49.190354894
  0
LINE
  5
2A1
100
AcDbEntity
  8
0
100
AcDbLine
 62
7
  6
CONTINUOUS
 10
53.1280759527
 20
54.206237902
 11
53.1400337388
 21
53.4063272761
  0
LINE
  5
2A2
100
AcDbEntity
  8
0
100
AcDbLine
 62
7
  6
CONTINUOUS
 10
54.7917371954
 20
27.4282950285
 11
54.7588532837
 21
29.6280492498
  0
LINE
  5
2A3
100
AcDbEntity
  8
0
100
AcDbLine
 62
7
  6
CONTINUOUS
 10
54.7985383186
 20
27.428490177
 11
54.7656544068
 21
29.6282443983
  0
LINE
  5
2A4
100
AcDbEntity
  8
0
100
AcDbLine
 62
7
  6
CONTINUOUS
 10
57.5482098965
 20
27.4695941668
 11
57.5153259847
 21
29.6693483882
  0
LINE
  5
2A5
100
AcDbEntity
  8
0
100
AcDbLine
 62
7
  6
CONTINUOUS
 10
58.1001703046
 20
53.4799351126
 11
58.0882125185
 21
54.2798457385
  0
LINE
  5
2A6
100
AcDbEntity
  8
0
100
AcDbLine
 62
7
  6
CONTINUOUS
 10
58.1394366076
 20
53.4810618031
 11
58.1274788215
 21
54.280972429
  0
LINE
  5
2A7
100
AcDbEntity
  8
0
100
AcDbLine
 62
7
  6
CONTINUOUS
 10
59.2628173128
 20
49.2968459223
 11
59.2164808917
 21
52.3964995978
  0
LINE
  5
2A8
100
AcDbEntity
  8
0
100
AcDbLine
 62
7
  6
CONTINUOUS
 10
59.3020836158
 20
49.2979726128
 11
59.2557471947
 21
52.3976262883
  0
LINE
  5
2A9
100
AcDbEntity
  8
0
100
AcDbLine
 62
7
  6
CONTINUOUS
 10
59.7650572757
 20
29.7029789253
 11
59.7157314081
 21
33.0026102573
  0
LINE
  5
2AA
100
AcDbEntity
  8
0
100
AcDbLine
 62
7
  6
CONTINUOUS
 10
59.548132123
 20
93.0750792427
 11
59.5489119617
 21
93.0051721727
  0
LINE
  5
2AB
100
AcDbEntity
  8
0
100
AcDbLine
 62
7
  6
CONTINUOUS
 10
53.1400337388
 20
53.4063272761
 11
52.0566070635
 21
52.2900085695
  0
LINE
  5
2AC
100
AcDbEntity
  8
0
100
AcDbLine
 62
7
  6
CONTINUOUS
 10
11.0428226334
 20
76.0795782873
 11
10.9764625813
 21
76.0776741804
  0
LINE
  5
2AD
100
AcDbEntity
  8
0
100
AcDbLine
 62
7
  6
CONTINUOUS
 10
10.7997642178
 20
76.0726040733
 11
10.7334041657
 21
76.0706999664
  0
LINE
  5
2AE
100
AcDbEntity
  8
0
100
AcDbLine
 62
7
  6
CONTINUOUS
 10
81.8532411195
 20
76.1380435758
 11
11.0616964963
 21
75.0798026739
  0
LINE
  5
2AF
100
AcDbEntity
  8
0
100
AcDbLine
 62
7
  6
CONTINUOUS
 10
11.0428226334
 20
76.0795782873
 11
81.8343672566
 21
77.1378191891
  0
LINE
  5
2B0
100
AcDbEntity
  8
0
100
AcDbLine
 62
7
  6
CONTINUOUS
 10
75.7980564604
 20
53.744495338
 11
76.9143670475
 21
52.6610598233
  0
LINE
  5
2B1
100
AcDbEntity
  8
0
100
AcDbLine
 62
7
  6
CONTINUOUS
 10
76.9536333505
 20
52.6621865138
 11
75.8373227634
 21
53.7456220285
  0
LINE
  5
2B2
100
AcDbEntity
  8
0
100
AcDbLine
 62
7
  6
CONTINUOUS
 10
61.7724363685
 20
27.5324655692
 11
61.7395524567
 21
29.7322197905
  0
LINE
  5
2B3
100
AcDbEntity
  8
0
100
AcDbLine
 62
7
  6
CONTINUOUS
 10
61.7076547152
 20
33.0322793845
 11
61.7569805829
 21
29.7326480525
  0
LINE
  5
2B4
100
AcDbEntity
  8
0
100
AcDbLine
 62
7
  6
CONTINUOUS
 10
64.0701210487
 20
76.8713548568
 11
63.8578703455
 21
91.0697684672
  0
LINE
  5
2B5
100
AcDbEntity
  8
0
100
AcDbLine
 62
7
  6
CONTINUOUS
 10
64.8773062992
 20
27.5788793093
 11
64.1553549637
 21
75.8734833503
  0
LINE
  5
2B6
100
AcDbEntity
  8
0
100
AcDbLine
 62
7
  6
CONTINUOUS
 10
62.7477499591
 20
93.12290934
 11
62.745769807
 21
93.3004160877
  0
LINE
  5
2B7
100
AcDbEntity
  8
0
100
AcDbLine
 62
7
  6
CONTINUOUS
 10
11.2496414881
 20
99.7033075864
 11
11.1985311909
 21
99.7308931595
  0
LINE
  5
2B8
100
AcDbEntity
  8
0
100
AcDbLine
 62
7
  6
CONTINUOUS
 10
67.9444448292
 20
29.8249802043
 11
67.8951189615
 21
33.1246115363
  0
LINE
  5
2B9
100
AcDbEntity
  8
0
100
AcDbLine
 62
7
  6
CONTINUOUS
 10
67.9821762299
 20
27.6252930495
 11
67.9492923182
 21
29.8250472708
  0
LINE
  5
2BA
100
AcDbEntity
  8
0
100
AcDbLine
 62
7
  6
CONTINUOUS
 10
67.9562247201
 20
29.8253182114
 11
67.9068988524
 21
33.1249495434
  0
LINE
  5
2BB
100
AcDbEntity
  8
0
100
AcDbLine
 62
7
  6
CONTINUOUS
 10
64.4455667824
 20
93.3258258269
 11
64.4475469345
 21
93.1483190792
  0
LINE
  5
2BC
100
AcDbEntity
  8
0
100
AcDbLine
 62
7
  6
CONTINUOUS
 10
67.3765878371
 20
99.3440315745
 11
67.3316007487
 21
101.7125597691
  0
LINE
  5
2BD
100
AcDbEntity
  8
0
100
AcDbLine
 62
7
  6
CONTINUOUS
 10
69.9145132606
 20
33.1550686923
 11
69.9638391282
 21
29.8554373603
  0
LINE
  5
2BE
100
AcDbEntity
  8
0
100
AcDbLine
 62
7
  6
CONTINUOUS
 10
69.7544932193
 20
52.5545687949
 11
69.8008296404
 21
49.4549151194
  0
LINE
  5
2BF
100
AcDbEntity
  8
0
100
AcDbLine
 62
7
  6
CONTINUOUS
 10
70.8259621085
 20
54.4707981275
 11
70.8379198946
 21
53.6708875015
  0
LINE
  5
2C0
100
AcDbEntity
  8
0
100
AcDbLine
 62
7
  6
CONTINUOUS
 10
67.847920724
 20
93.1292314875
 11
67.8471408853
 21
93.1991385575
  0
LINE
  5
2C1
100
AcDbEntity
  8
0
100
AcDbLine
 62
7
  6
CONTINUOUS
 10
72.4896233512
 20
27.6928552539
 11
72.4567394395
 21
29.8926094753
  0
LINE
  5
2C2
100
AcDbEntity
  8
0
100
AcDbLine
 62
7
  6
CONTINUOUS
 10
72.4964244744
 20
27.6930504025
 11
72.4635405626
 21
29.8928046238
  0
LINE
  5
2C3
100
AcDbEntity
  8
0
100
AcDbLine
 62
7
  6
CONTINUOUS
 10
75.2460960523
 20
27.7341543923
 11
75.2132121405
 21
29.9339086136
  0
LINE
  5
2C4
100
AcDbEntity
  8
0
100
AcDbLine
 62
7
  6
CONTINUOUS
 10
80.9461302776
 20
93.5724876463
 11
80.9529502786
 21
93.5993363769
  0
LINE
  5
2C5
100
AcDbEntity
  8
0
100
AcDbLine
 62
7
  6
CONTINUOUS
 10
70.8379198946
 20
53.6708875015
 11
69.7544932193
 21
52.5545687949
  0
LINE
  5
2C6
100
AcDbEntity
  8
0
100
AcDbLine
 62
7
  6
CONTINUOUS
 10
10.7440081684
 20
91.0757618117
 11
10.725945669
 21
91.0752435341
  0
LINE
  5
2C7
100
AcDbEntity
  8
0
100
AcDbLine
 62
7
  6
CONTINUOUS
 10
81.5557565013
 20
91.3343286926
 11
10.7642118781
 21
90.2760877908
  0
LINE
  5
2C8
100
AcDbEntity
  8
0
100
AcDbLine
 62
7
  6
CONTINUOUS
 10
75.7980564604
 20
53.744495338
 11
75.7860986743
 21
54.544405964
  0
LINE
  5
2C9
100
AcDbEntity
  8
0
100
AcDbLine
 62
7
  6
CONTINUOUS
 10
75.8373227634
 20
53.7456220285
 11
75.8253649773
 21
54.5455326544
  0
LINE
  5
2CA
100
AcDbEntity
  8
0
100
AcDbLine
 62
7
  6
CONTINUOUS
 10
76.9607034686
 20
49.5614061478
 11
76.9143670475
 21
52.6610598233
  0
LINE
  5
2CB
100
AcDbEntity
  8
0
100
AcDbLine
 62
7
  6
CONTINUOUS
 10
76.9999697716
 20
49.5625328383
 11
76.9536333505
 21
52.6621865138
  0
LINE
  5
2CC
100
AcDbEntity
  8
0
100
AcDbLine
 62
7
  6
CONTINUOUS
 10
77.4629434315
 20
29.9675391507
 11
77.4136175639
 21
33.2671704827
  0
LINE
  5
2CD
100
AcDbEntity
  8
0
100
AcDbLine
 62
7
  6
CONTINUOUS
 10
77.2460182788
 20
93.3396394682
 11
77.2467981175
 21
93.2697323982
  0
LINE
  5
2CE
100
AcDbEntity
  8
0
100
AcDbLine
 62
7
  6
CONTINUOUS
 10
10.6553664093
 20
92.2735989694
 11
10.56547231
 21
92.2710195866
  0
LINE
  5
2CF
100
AcDbEntity
  8
0
100
AcDbLine
 62
7
  6
CONTINUOUS
 10
10.7080089899
 20
92.275109473
 11
81.5180087755
 21
93.3338799194
  0
LINE
  5
2D0
100
AcDbEntity
  8
0
100
AcDbLine
 62
7
  6
CONTINUOUS
 10
11.3538884671
 20
92.3546384028
 11
14.7534824179
 21
92.4054578811
  0
LINE
  5
2D1
100
AcDbEntity
  8
0
100
AcDbLine
 62
7
  6
CONTINUOUS
 10
24.1523598114
 20
92.5459587918
 11
27.3519776474
 21
92.5937888891
  0
LINE
  5
2D2
100
AcDbEntity
  8
0
100
AcDbLine
 62
7
  6
CONTINUOUS
 10
29.0517746229
 20
92.6191986282
 11
32.4513685737
 21
92.6700181066
  0
LINE
  5
2D3
100
AcDbEntity
  8
0
100
AcDbLine
 62
7
  6
CONTINUOUS
 10
41.8502459672
 20
92.8105190173
 11
45.0498638033
 21
92.8583491145
  0
LINE
  5
2D4
100
AcDbEntity
  8
0
100
AcDbLine
 62
7
  6
CONTINUOUS
 10
46.7496607787
 20
92.8837588537
 11
50.1492547295
 21
92.934578332
  0
LINE
  5
2D5
100
AcDbEntity
  8
0
100
AcDbLine
 62
7
  6
CONTINUOUS
 10
59.548132123
 20
93.0750792427
 11
62.7477499591
 21
93.12290934
  0
LINE
  5
2D6
100
AcDbEntity
  8
0
100
AcDbLine
 62
7
  6
CONTINUOUS
 10
64.4475469345
 20
93.1483190792
 11
67.8471408853
 21
93.1991385575
  0
LINE
  5
2D7
100
AcDbEntity
  8
0
100
AcDbLine
 62
7
  6
CONTINUOUS
 10
77.2460182788
 20
93.3396394682
 11
80.4456361149
 21
93.3874695655
  0
LINE
  5
2D8
100
AcDbEntity
  8
0
100
AcDbLine
 62
7
  6
CONTINUOUS
 10
10.8254597462
 20
92.5242754337
 11
80.9461302776
 21
93.5724876463
  0
LINE
  5
2D9
100
AcDbEntity
  8
0
100
AcDbLine
 62
7
  6
CONTINUOUS
 10
10.9460014267
 20
92.5528241546
 11
80.9529502786
 21
93.5993363769
  0
LINE
  5
2DA
100
AcDbEntity
  8
0
100
AcDbLine
 62
7
  6
CONTINUOUS
 10
11.1244821915
 20
94.2631149089
 11
80.9332928482
 21
95.3066652578
  0
LINE
  5
2DB
100
AcDbEntity
  8
0
100
AcDbLine
 62
7
  6
CONTINUOUS
 10
67.4195546943
 20
96.1711070871
 11
24.4247688378
 21
95.5283913334
  0
LINE
  5
2DC
100
AcDbEntity
  8
0
100
AcDbLine
 62
7
  6
CONTINUOUS
 10
79.4703225243
 20
27.7970257947
 11
79.4374386125
 21
29.996780016
  0
LINE
  5
2DD
100
AcDbEntity
  8
0
100
AcDbLine
 62
7
  6
CONTINUOUS
 10
79.405540871
 20
33.2968396099
 11
79.4548667387
 21
29.9972082779
  0
LINE
  5
2DE
100
AcDbEntity
  8
0
100
AcDbLine
 62
7
  6
CONTINUOUS
 10
80.9529502786
 20
93.5993363769
 11
80.9332928485
 21
95.3066652349
  0
LINE
  5
2DF
100
AcDbEntity
  8
0
100
AcDbLine
 62
7
  6
CONTINUOUS
 10
80.4456361149
 20
93.3874695655
 11
80.4436559628
 21
93.5649763132
  0
LINE
  5
2E0
100
AcDbEntity
  8
0
100
AcDbLine
 62
7
  6
CONTINUOUS
 10
81.4215648913
 20
96.6321592566
 11
80.914227167
 21
96.6245752219
  0
LINE
  5
2E1
100
AcDbEntity
  8
0
100
AcDbLine
 62
7
  6
CONTINUOUS
 10
11.1019538729
 20
95.5809731442
 11
10.6300202681
 21
95.5739183547
  0
LINE
  5
2E2
100
AcDbEntity
  8
0
100
AcDbLine
 62
7
  6
CONTINUOUS
 10
10.7794314823
 20
95.9421965093
 11
11.0957603338
 21
95.9469252115
  0
LINE
  5
2E3
100
AcDbEntity
  8
0
100
AcDbLine
 62
7
  6
CONTINUOUS
 10
11.290597552
 20
97.5471920124
 11
24.3916354747
 21
97.7430353756
  0
LINE
  5
2E4
100
AcDbEntity
  8
0
100
AcDbLine
 62
7
  6
CONTINUOUS
 10
67.3864213433
 20
98.385750347
 11
80.8848090893
 21
98.5875335698
  0
LINE
  5
2E5
100
AcDbEntity
  8
0
100
AcDbLine
 62
7
  6
CONTINUOUS
 10
11.0567119299
 20
98.0016503701
 11
11.010822565
 21
98.0009643842
  0
LINE
  5
2E6
100
AcDbEntity
  8
0
100
AcDbLine
 62
7
  6
CONTINUOUS
 10
24.3818019805
 20
98.7013158208
 11
67.3765878371
 21
99.3440315745
  0
LINE
  5
2E7
100
AcDbEntity
  8
0
100
AcDbLine
 62
7
  6
CONTINUOUS
 10
81.7680072045
 20
77.1359150822
 11
81.5557565013
 21
91.3343286926
  0
LINE
  5
2E8
100
AcDbEntity
  8
0
100
AcDbLine
 62
7
  6
CONTINUOUS
 10
82.575192455
 20
27.8434395348
 11
81.8532411195
 21
76.1380435758
  0
LINE
  5
2E9
100
AcDbEntity
  8
0
100
AcDbLine
 62
7
  6
CONTINUOUS
 10
10.8254597462
 20
92.5242754337
 11
10.9460014267
 21
92.5528241546
  0
LINE
  5
2EA
100
AcDbEntity
  8
0
100
AcDbLine
 62
7
  6
CONTINUOUS
 10
11.249644383
 20
99.7033063869
 11
24.3506829083
 21
99.8991497591
  0
LINE
  5
2EB
100
AcDbEntity
  8
0
100
AcDbLine
 62
7
  6
CONTINUOUS
 10
67.3454687831
 20
100.5418652556
 11
80.8438565291
 21
100.7436484784
  0
LINE
  5
2EC
100
AcDbEntity
  8
0
100
AcDbLine
 62
7
  6
CONTINUOUS
 10
11.19853125
 20
99.7308944019
 11
24.3470829106
 21
99.9274480333
  0
LINE
  5
2ED
100
AcDbEntity
  8
0
100
AcDbLine
 62
7
  6
CONTINUOUS
 10
67.3532958184
 20
100.5703346065
 11
80.8402565132
 21
100.7719470098
  0
LINE
  5
2EE
100
AcDbEntity
  8
0
100
AcDbLine
 62
7
  6
CONTINUOUS
 10
67.3316007487
 20
101.7125597691
 11
24.3368148922
 21
101.0698440154
  0
LINE
  5
2EF
100
AcDbEntity
  8
0
100
AcDbLine
 62
7
  6
CONTINUOUS
 10
10.760625413
 20
95.9377425377
 11
10.7794314823
 21
95.9421965093
  0
LINE
  5
2F0
100
AcDbEntity
  8
0
100
AcDbLine
 62
7
  6
CONTINUOUS
 10
80.8438565474
 20
100.7436482211
 11
80.8402566269
 21
100.7719394032
  0
ARC
  5
2F1
100
AcDbEntity
  8
0
100
AcDbCircle
 62
7
  6
CONTINUOUS
 10
-383.8068286593
 20
91.502153503
 40
464.7456517324
100
AcDbArc
 50
0.8735489096
 51
1.0564957643
  0
ARC
  5
2F2
100
AcDbEntity
  8
0
100
AcDbCircle
 62
7
  6
CONTINUOUS
 10
-440.2997493294
 20
90.6576588321
 40
464.7453987636
100
AcDbArc
 50
0.8735490472
 51
1.0564958085
  0
ARC
  5
2F3
100
AcDbEntity
  8
0
100
AcDbCircle
 62
7
  6
CONTINUOUS
 10
-368.5472275025
 20
84.6505925913
 40
432.4527424631
100
AcDbArc
 50
0.8505095633
 51
0.9831329518
  0
ARC
  5
2F4
100
AcDbEntity
  8
0
100
AcDbCircle
 62
7
  6
CONTINUOUS
 10
-386.2451136426
 20
84.3860323661
 40
432.4527424474
100
AcDbArc
 50
0.8505095633
 51
0.9831329518
  0
ARC
  5
2F5
100
AcDbEntity
  8
0
100
AcDbCircle
 62
7
  6
CONTINUOUS
 10
-403.9429994741
 20
84.1214721458
 40
432.4527421231
100
AcDbArc
 50
0.8505095633
 51
0.9831329521
  0
ARC
  5
2F6
100
AcDbEntity
  8
0
100
AcDbCircle
 62
7
  6
CONTINUOUS
 10
-171.8489399375
 20
72.3832892918
 40
200.6303748003
100
AcDbArc
 50
0.8456505179
 51
1.0136229006
  0
ARC
  5
2F7
100
AcDbEntity
  8
0
100
AcDbCircle
 62
7
  6
CONTINUOUS
 10
-136.4531670324
 20
72.9124097522
 40
200.6303742066
100
AcDbArc
 50
0.8456505177
 51
1.0136229017
  0
ARC
  5
2F8
100
AcDbEntity
  8
0
100
AcDbCircle
 62
7
  6
CONTINUOUS
 10
-154.1510531781
 20
72.647849527
 40
200.6303741966
100
AcDbArc
 50
0.8456505177
 51
1.0136229017
  0
ARC
  5
2F9
100
AcDbEntity
  8
0
100
AcDbCircle
 62
7
  6
CONTINUOUS
 10
-165.5831775524
 20
104.847581551
 40
177.0243710518
100
AcDbArc
 50
356.5721827864
 51
357.6364649687
  0
ARC
  5
2FA
100
AcDbEntity
  8
0
100
AcDbCircle
 62
7
  6
CONTINUOUS
 10
-75.7142458741
 20
90.0232865469
 40
104.1708105028
100
AcDbArc
 50
1.0623236809
 51
1.2368153791
  0
ARC
  5
2FB
100
AcDbEntity
  8
0
100
AcDbCircle
 62
7
  6
CONTINUOUS
 10
-58.012900853
 20
90.2879193922
 40
104.1673508758
100
AcDbArc
 50
1.0623350913
 51
1.2368165098
  0
ARC
  5
2FC
100
AcDbEntity
  8
0
100
AcDbCircle
 62
7
  6
CONTINUOUS
 10
-40.3150053171
 20
90.5524798146
 40
104.1673414937
100
AcDbArc
 50
1.0623351222
 51
1.2368165128
  0
ARC
  5
2FD
100
AcDbEntity
  8
0
100
AcDbCircle
 62
7
  6
CONTINUOUS
 10
73.4004017607
 20
49.5087162337
 40
3.5999527
100
AcDbArc
 50
180.8563876812
 51
0.8565568382
  0
ARC
  5
2FE
100
AcDbEntity
  8
0
100
AcDbCircle
 62
7
  6
CONTINUOUS
 10
55.7025156049
 20
49.2441560082
 40
3.5999527
100
AcDbArc
 50
180.8563876801
 51
0.8565568382
  0
ARC
  5
2FF
100
AcDbEntity
  8
0
100
AcDbCircle
 62
7
  6
CONTINUOUS
 10
38.0046294491
 20
48.9795957828
 40
3.5999527
100
AcDbArc
 50
180.8563876801
 51
0.8565568382
  0
ARC
  5
300
100
AcDbEntity
  8
0
100
AcDbCircle
 62
7
  6
CONTINUOUS
 10
20.3067432933
 20
48.7150355573
 40
3.5999527
100
AcDbArc
 50
180.8563876801
 51
0.8565568382
  0
ARC
  5
301
100
AcDbEntity
  8
0
100
AcDbCircle
 62
7
  6
CONTINUOUS
 10
73.3611399264
 20
49.5075847942
 40
3.5999481291
100
AcDbArc
 50
272.2672091812
 51
0.8566334765
  0
ARC
  5
302
100
AcDbEntity
  8
0
100
AcDbCircle
 62
7
  6
CONTINUOUS
 10
55.6632537706
 20
49.2430245687
 40
3.5999481291
100
AcDbArc
 50
272.2672091812
 51
0.8566334765
  0
ARC
  5
303
100
AcDbEntity
  8
0
100
AcDbCircle
 62
7
  6
CONTINUOUS
 10
37.9653676148
 20
48.9784643433
 40
3.5999481291
100
AcDbArc
 50
272.2672091812
 51
0.8566334765
  0
ARC
  5
304
100
AcDbEntity
  8
0
100
AcDbCircle
 62
7
  6
CONTINUOUS
 10
20.267481459
 20
48.7139041178
 40
3.5999481291
100
AcDbArc
 50
272.2672091812
 51
0.8566334765
  0
SPLINE
  5
305
100
AcDbEntity
  8
0
100
AcDbSpline
 62
7
  6
CONTINUOUS
 70
0
 71
3
 72
13
 73
9
 74
0
 42
0.0000001
 43
0.0000001
 44
0.0000000001
 40
0.0
 40
0.0
 40
0.0
 40
0.0
 40
0.062957807
 40
0.1365854178
 40
0.2268051107
 40
0.3368555738
 40
0.622439362
 40
1.0
 40
1.0
 40
1.0
 40
1.0
 10
11.1985310723
 20
99.7308906617
 30
0.0
 10
11.1916039714
 20
99.7307890029
 30
0.0
 10
11.1765555524
 20
99.7271611237
 30
0.0
 10
11.1554705046
 20
99.7132544371
 30
0.0
 10
11.134462326
 20
99.6914247254
 30
0.0
 10
11.1034570114
 20
99.6477121821
 30
0.0
 10
11.0655617682
 20
99.5711062184
 30
0.0
 10
11.0398454948
 20
99.5027863542
 30
0.0
 10
11.0263400587
 20
99.4634961215
 30
0.0
  0
SPLINE
  5
306
100
AcDbEntity
  8
0
100
AcDbSpline
 62
7
  6
CONTINUOUS
 70
0
 71
3
 72
9
 73
5
 74
0
 42
0.0000001
 43
0.0000001
 44
0.0000000001
 40
0.0
 40
0.0
 40
0.0
 40
0.0
 40
0.2481879305
 40
1.0
 40
1.0
 40
1.0
 40
1.0
 10
80.9332928485
 20
95.3066652349
 30
0.0
 10
80.9294362124
 20
95.57809139
 30
0.0
 10
80.9137370621
 20
96.6717206772
 30
0.0
 10
80.8974211917
 20
97.7653411099
 30
0.0
 10
80.8848091013
 20
98.5875327874
 30
0.0
  0
SPLINE
  5
307
100
AcDbEntity
  8
0
100
AcDbSpline
 62
7
  6
CONTINUOUS
 70
0
 71
3
 72
13
 73
9
 74
0
 42
0.0000001
 43
0.0000001
 44
0.0000000001
 40
0.0
 40
0.0
 40
0.0
 40
0.0
 40
0.3940407145
 40
0.6979238079
 40
0.8128464767
 40
0.9019088359
 40
0.9644613298
 40
1.0
 40
1.0
 40
1.0
 40
1.0
 10
80.8598164882
 20
100.07126615
 30
0.0
 10
80.8581388522
 20
100.1595921183
 30
0.0
 10
80.8550656561
 20
100.3160326586
 30
0.0
 10
80.8511493145
 20
100.498227532
 30
0.0
 10
80.8483372836
 20
100.61205342
 30
0.0
 10
80.8467113535
 20
100.6717894258
 30
0.0
 10
80.8452873647
 20
100.7137210546
 30
0.0
 10
80.8444205501
 20
100.7357006214
 30
0.0
 10
80.8438565474
 20
100.7436482211
 30
0.0
  0
SPLINE
  5
308
100
AcDbEntity
  8
0
100
AcDbSpline
 62
7
  6
CONTINUOUS
 70
0
 71
3
 72
9
 73
5
 74
0
 42
0.0000001
 43
0.0000001
 44
0.0000000001
 40
0.0
 40
0.0
 40
0.0
 40
0.0
 40
0.4069206903
 40
1.0
 40
1.0
 40
1.0
 40
1.0
 10
24.3430347548
 20
99.9145539957
 30
0.0
 10
24.3432396283
 20
100.0712602885
 30
0.0
 10
24.3416056144
 20
100.4563635962
 30
0.0
 10
24.3387401287
 20
100.8414554383
 30
0.0
 10
24.3368148922
 20
101.0698440154
 30
0.0
  0
SPLINE
  5
309
100
AcDbEntity
  8
0
100
AcDbSpline
 62
7
  6
CONTINUOUS
 70
0
 71
3
 72
9
 73
5
 74
0
 42
0.0000001
 43
0.0000001
 44
0.0000000001
 40
0.0
 40
0.0
 40
0.0
 40
0.0
 40
0.2558223601
 40
1.0
 40
1.0
 40
1.0
 40
1.0
 10
67.4195546943
 20
96.1711070871
 30
0.0
 10
67.4169284222
 20
96.3553314266
 30
0.0
 10
67.4067446411
 20
97.0754586203
 30
0.0
 10
67.3968889925
 20
97.7955904686
 30
0.0
 10
67.3897689195
 20
98.331499311
 30
0.0
  0
LINE
  5
30A
100
AcDbEntity
  8
0
100
AcDbLine
 62
7
  6
CONTINUOUS
 10
67.3897689195
 20
98.331499311
 11
67.3890315108
 21
98.3870607339
  0
LINE
  5
30B
100
AcDbEntity
  8
0
100
AcDbLine
 62
7
  6
CONTINUOUS
 10
67.3890315108
 20
98.3870607339
 11
67.3765878371
 21
99.3440315745
  0
SPLINE
  5
30C
100
AcDbEntity
  8
0
100
AcDbSpline
 62
7
  6
CONTINUOUS
 70
0
 71
3
 72
13
 73
9
 74
0
 42
0.0000001
 43
0.0000001
 44
0.0000000001
 40
0.0
 40
0.0
 40
0.0
 40
0.0
 40
0.3940419328
 40
0.6979255582
 40
0.8128481208
 40
0.9019100283
 40
0.9644618762
 40
1.0
 40
1.0
 40
1.0
 40
1.0
 10
24.3666428857
 20
99.2267671735
 30
0.0
 10
24.3649652432
 20
99.3150934825
 30
0.0
 10
24.3618920363
 20
99.4715345352
 30
0.0
 10
24.3579756823
 20
99.6537299168
 30
0.0
 10
24.3551636443
 20
99.7675558862
 30
0.0
 10
24.3535377147
 20
99.8272916679
 30
0.0
 10
24.352113726
 20
99.8692229599
 30
0.0
 10
24.3512469125
 20
99.8912022762
 30
0.0
 10
24.3506829083
 20
99.8991497592
 30
0.0
  0
SPLINE
  5
30D
100
AcDbEntity
  8
0
100
AcDbSpline
 62
7
  6
CONTINUOUS
 70
0
 71
3
 72
9
 73
5
 74
0
 42
0.0000001
 43
0.0000001
 44
0.0000000001
 40
0.0
 40
0.0
 40
0.0
 40
0.0
 40
0.2497638989
 40
1.0
 40
1.0
 40
1.0
 40
1.0
 10
24.4247688378
 20
95.5283913334
 30
0.0
 10
24.4220800734
 20
95.712771743
 30
0.0
 10
24.4112444131
 20
96.4509895294
 30
0.0
 10
24.4001310376
 20
97.1892032401
 30
0.0
 10
24.3916354747
 20
97.7430353756
 30
0.0
  0
SPLINE
  5
30E
100
AcDbEntity
  8
0
100
AcDbSpline
 62
7
  6
CONTINUOUS
 70
0
 71
3
 72
9
 73
5
 74
0
 42
0.0000001
 43
0.0000001
 44
0.0000000001
 40
0.0
 40
0.0
 40
0.0
 40
0.0
 40
0.2376985398
 40
1.0
 40
1.0
 40
1.0
 40
1.0
 10
24.3818019805
 20
98.7013158208
 30
0.0
 10
24.3850034577
 20
98.449913302
 30
0.0
 10
24.3987097428
 20
97.3922635641
 30
0.0
 10
24.4132753018
 20
96.3346250336
 30
0.0
 10
24.4247688378
 20
95.5283913334
 30
0.0
  0
SPLINE
  5
30F
100
AcDbEntity
  8
0
100
AcDbSpline
 62
7
  6
CONTINUOUS
 70
0
 71
3
 72
10
 73
6
 74
0
 42
0.0000001
 43
0.0000001
 44
0.0000000001
 40
0.0
 40
0.0
 40
0.0
 40
0.0
 40
0.214120945
 40
0.4572774331
 40
1.0
 40
1.0
 40
1.0
 40
1.0
 10
11.3150755255
 20
99.0316192406
 30
0.0
 10
11.3170881102
 20
98.925658536
 30
0.0
 10
11.3186141478
 20
98.6993143046
 30
0.0
 10
11.3136947824
 20
98.2043734376
 30
0.0
 10
11.3016844002
 20
97.8155304433
 30
0.0
 10
11.2905951194
 20
97.5471372422
 30
0.0
  0
SPLINE
  5
310
100
AcDbEntity
  8
0
100
AcDbSpline
 62
7
  6
CONTINUOUS
 70
0
 71
3
 72
15
 73
11
 74
0
 42
0.0000001
 43
0.0000001
 44
0.0000000001
 40
0.0
 40
0.0
 40
0.0
 40
0.0
 40
0.0168618668
 40
0.0395067519
 40
0.1033655171
 40
0.1926286132
 40
0.3071436618
 40
0.4462274401
 40
0.6090354323
 40
1.0
 40
1.0
 40
1.0
 40
1.0
 10
11.2496414881
 20
99.7033075864
 30
0.0
 10
11.2521732247
 20
99.7004565581
 30
0.0
 10
11.2568860678
 20
99.6927414887
 30
0.0
 10
11.2657456412
 20
99.671090719
 30
0.0
 10
11.2752115278
 20
99.6323134562
 30
0.0
 10
11.2849535187
 20
99.5725989274
 30
0.0
 10
11.2935657597
 20
99.4955085856
 30
0.0
 10
11.3010357102
 20
99.4016421285
 30
0.0
 10
11.3097932168
 20
99.2452022842
 30
0.0
 10
11.3133966602
 20
99.1200099338
 30
0.0
 10
11.3150755255
 20
99.0316192406
 30
0.0
  0
SPLINE
  5
311
100
AcDbEntity
  8
0
100
AcDbSpline
 62
7
  6
CONTINUOUS
 70
0
 71
3
 72
29
 73
25
 74
0
 42
0.0000001
 43
0.0000001
 44
0.0000000001
 40
0.0
 40
0.0
 40
0.0
 40
0.0
 40
0.219233148
 40
0.4167186398
 40
0.5062218533
 40
0.589128968
 40
0.665127707
 40
0.733936843
 40
0.7953003783
 40
0.8489640302
 40
0.8947151622
 40
0.9145745701
 40
0.9323979183
 40
0.9481662616
 40
0.961860794
 40
0.9734677415
 40
0.9829802709
 40
0.9903922279
 40
0.9933087032
 40
0.9956979965
 40
0.9975596803
 40
0.9988937925
 40
0.9997020554
 40
1.0
 40
1.0
 40
1.0
 40
1.0
 10
81.4948673913
 20
93.3332159104
 30
0.0
 10
81.4906423952
 20
93.57433343
 30
0.0
 10
81.4824601293
 20
94.0326472769
 30
0.0
 10
81.472066695
 20
94.5893899446
 30
0.0
 10
81.4641424688
 20
94.99619494
 30
0.0
 10
81.4586546148
 20
95.269387633
 30
0.0
 10
81.4534449384
 20
95.5198179604
 30
0.0
 10
81.4485334718
 20
95.7465515406
 30
0.0
 10
81.4439411086
 20
95.9487177729
 30
0.0
 10
81.4396861323
 20
96.1255213816
 30
0.0
 10
81.4362961049
 20
96.2566782385
 30
0.0
 10
81.4337418282
 20
96.3484192941
 30
0.0
 10
81.4320121467
 20
96.4071895295
 30
0.0
 10
81.4303790986
 20
96.4591786291
 30
0.0
 10
81.4288443808
 20
96.5043282505
 30
0.0
 10
81.4274123153
 20
96.5425990321
 30
0.0
 10
81.4260825013
 20
96.5739488188
 30
0.0
 10
81.4250038617
 20
96.5957622714
 30
0.0
 10
81.4241590171
 20
96.6097037279
 30
0.0
 10
81.4236173252
 20
96.6176166975
 30
0.0
 10
81.4230764285
 20
96.6236147078
 30
0.0
 10
81.4226471407
 20
96.6282754772
 30
0.0
 10
81.4221338779
 20
96.630424041
 30
0.0
 10
81.421892794
 20
96.6321505818
 30
0.0
 10
81.421565094
 20
96.6321456981
 30
0.0
  0
SPLINE
  5
312
100
AcDbEntity
  8
0
100
AcDbSpline
 62
7
  6
CONTINUOUS
 70
0
 71
3
 72
28
 73
24
 74
0
 42
0.0000001
 43
0.0000001
 44
0.0000000001
 40
0.0
 40
0.0
 40
0.0
 40
0.0
 40
0.1950304984
 40
0.3827136965
 40
0.4714053218
 40
0.5555555637
 40
0.634374868
 40
0.7070979954
 40
0.772991881
 40
0.8314503783
 40
0.8819004377
 40
0.9238475274
 40
0.9415147074
 40
0.9569168718
 40
0.9700086783
 40
0.9807562537
 40
0.9891428355
 40
0.9924460096
 40
0.9951532907
 40
0.9972629108
 40
0.9987733126
 40
0.9996837086
 40
1.0
 40
1.0
 40
1.0
 40
1.0
 10
81.5557565013
 20
91.3343286926
 30
0.0
 10
81.5538130827
 20
91.4643327911
 30
0.0
 10
81.5499022784
 20
91.7194419564
 30
0.0
 10
81.5448387592
 20
92.0336672856
 30
0.0
 10
81.5408025561
 20
92.2739802859
 30
0.0
 10
81.5379022767
 20
92.4417271325
 30
0.0
 10
81.5350992633
 20
92.5988285225
 30
0.0
 10
81.5324213761
 20
92.7437594344
 30
0.0
 10
81.5298938677
 20
92.8751170891
 30
0.0
 10
81.5275431866
 20
92.9916268087
 30
0.0
 10
81.5253924707
 20
93.092173013
 30
0.0
 10
81.5237023648
 20
93.1655286919
 30
0.0
 10
81.5224509379
 20
93.2155236329
 30
0.0
 10
81.5216291793
 20
93.2462857023
 30
0.0
 10
81.5208738978
 20
93.2724374879
 30
0.0
 10
81.520182329
 20
93.2939046187
 30
0.0
 10
81.5196391352
 20
93.3088654224
 30
0.0
 10
81.5192143251
 20
93.3184348581
 30
0.0
 10
81.5189640219
 20
93.3238825223
 30
0.0
 10
81.5186700992
 20
93.3279874971
 30
0.0
 10
81.5185500754
 20
93.3312401203
 30
0.0
 10
81.5181735081
 20
93.3326296654
 30
0.0
 10
81.5182195469
 20
93.3338859672
 30
0.0
 10
81.5180087755
 20
93.3338799194
 30
0.0
  0
SPLINE
  5
313
100
AcDbEntity
  8
0
100
AcDbSpline
 62
7
  6
CONTINUOUS
 70
0
 71
3
 72
26
 73
22
 74
0
 42
0.0000001
 43
0.0000001
 44
0.0000000001
 40
0.0
 40
0.0
 40
0.0
 40
0.0
 40
0.1949295684
 40
0.3827339082
 40
0.5555805568
 40
0.6343664479
 40
0.7070623008
 40
0.77298293
 40
0.8314472608
 40
0.8818808062
 40
0.9238458308
 40
0.9415186828
 40
0.9569140914
 40
0.9699937879
 40
0.9807378364
 40
0.9891275086
 40
0.9951442865
 40
0.9972572578
 40
0.9987705663
 40
0.9996829992
 40
1.0
 40
1.0
 40
1.0
 40
1.0
 10
81.8532411195
 20
76.1380435758
 30
0.0
 10
81.8522699132
 20
76.2030119765
 30
0.0
 10
81.8503142223
 20
76.3305732755
 30
0.0
 10
81.8473304642
 20
76.5157403136
 30
0.0
 10
81.8448411478
 20
76.6621962017
 30
0.0
 10
81.8429126335
 20
76.7702870312
 30
0.0
 10
81.8415734842
 20
76.8427411618
 30
0.0
 10
81.8403100345
 20
76.9084217359
 30
0.0
 10
81.8391348625
 20
76.966682
 30
0.0
 10
81.8380591382
 20
77.0169573455
 30
0.0
 10
81.8372143973
 20
77.0536379488
 30
0.0
 10
81.8365882357
 20
77.0786403664
 30
0.0
 10
81.8361780245
 20
77.0940185641
 30
0.0
 10
81.8357979564
 20
77.1070823704
 30
0.0
 10
81.8354583871
 20
77.1178245744
 30
0.0
 10
81.835137876
 20
77.1261764585
 30
0.0
 10
81.8349177354
 20
77.1317313666
 30
0.0
 10
81.8346979725
 20
77.1348677688
 30
0.0
 10
81.8346379102
 20
77.1364962827
 30
0.0
 10
81.8344490697
 20
77.1371924139
 30
0.0
 10
81.8344728786
 20
77.1378222198
 30
0.0
 10
81.8343672566
 20
77.1378191891
 30
0.0
  0
LINE
  5
314
100
AcDbEntity
  8
0
100
AcDbLine
 62
7
  6
CONTINUOUS
 10
64.4475469345
 20
93.1483190792
 11
64.4442809123
 21
93.3352153345
  0
LINE
  5
315
100
AcDbEntity
  8
0
100
AcDbLine
 62
7
  6
CONTINUOUS
 10
64.1416499657
 20
76.6820568334
 11
64.1436361307
 21
76.5804330654
  0
LINE
  5
316
100
AcDbEntity
  8
0
100
AcDbLine
 62
7
  6
CONTINUOUS
 10
64.1436361307
 20
76.5804330654
 11
64.1458119981
 21
76.4615880001
  0
LINE
  5
317
100
AcDbEntity
  8
0
100
AcDbLine
 62
7
  6
CONTINUOUS
 10
63.8344314803
 20
92.4837614214
 11
63.8418534053
 21
92.0706448537
  0
LINE
  5
318
100
AcDbEntity
  8
0
100
AcDbLine
 62
7
  6
CONTINUOUS
 10
63.7969812355
 20
93.068655685
 11
63.7919847392
 21
93.351624134
  0
SPLINE
  5
319
100
AcDbEntity
  8
0
100
AcDbSpline
 62
7
  6
CONTINUOUS
 70
0
 71
3
 72
9
 73
5
 74
0
 42
0.0000001
 43
0.0000001
 44
0.0000000001
 40
0.0
 40
0.0
 40
0.0
 40
0.0
 40
0.256748138
 40
1.0
 40
1.0
 40
1.0
 40
1.0
 10
63.8578703455
 20
91.0697684672
 30
0.0
 10
63.8568243044
 20
91.1397429089
 30
0.0
 10
63.8526928957
 20
91.4122832321
 30
0.0
 10
63.8483458202
 20
91.6848203132
 30
0.0
 10
63.844961194
 20
91.8873814138
 30
0.0
  0
LINE
  5
31A
100
AcDbEntity
  8
0
100
AcDbLine
 62
7
  6
CONTINUOUS
 10
63.844961194
 20
91.8873814138
 11
63.8418538758
 21
92.0706175313
  0
SPLINE
  5
31B
100
AcDbEntity
  8
0
100
AcDbSpline
 62
7
  6
CONTINUOUS
 70
0
 71
3
 72
23
 73
19
 74
0
 42
0.0000001
 43
0.0000001
 44
0.0000000001
 40
0.0
 40
0.0
 40
0.0
 40
0.0
 40
0.2175022522
 40
0.4142238195
 40
0.5866931233
 40
0.6629269202
 40
0.7320399104
 40
0.7937134759
 40
0.8477117402
 40
0.8938187208
 40
0.9318185143
 40
0.9615200825
 40
0.9732276907
 40
0.9828277888
 40
0.9903115196
 40
0.9956704484
 40
0.9988976868
 40
1.0
 40
1.0
 40
1.0
 40
1.0
 10
63.8418538758
 20
92.0706175313
 30
0.0
 10
63.8406067955
 20
92.1430344823
 30
0.0
 10
63.8381868495
 20
92.2809487271
 30
0.0
 10
63.8346032869
 20
92.4762831854
 30
0.0
 10
63.8317342213
 20
92.6245807092
 30
0.0
 10
63.8295758296
 20
92.7303906946
 30
0.0
 10
63.8281131148
 20
92.799312298
 30
0.0
 10
63.8267454567
 20
92.8608303859
 30
0.0
 10
63.8254778841
 20
92.9146861692
 30
0.0
 10
63.8243207125
 20
92.960663926
 30
0.0
 10
63.8232688025
 20
92.9985370347
 30
0.0
 10
63.822458977
 20
93.0249912102
 30
0.0
 10
63.8218238127
 20
93.0419294886
 30
0.0
 10
63.821474695
 20
93.0515860228
 30
0.0
 10
63.8210071399
 20
93.0588515214
 30
0.0
 10
63.8209384579
 20
93.0646461436
 30
0.0
 10
63.820230439
 20
93.067062969
 30
0.0
 10
63.8204895361
 20
93.0693302221
 30
0.0
 10
63.8201226197
 20
93.0693196939
 30
0.0
  0
SPLINE
  5
31C
100
AcDbEntity
  8
0
100
AcDbSpline
 62
7
  6
CONTINUOUS
 70
0
 71
3
 72
26
 73
22
 74
0
 42
0.0000001
 43
0.0000001
 44
0.0000000001
 40
0.0
 40
0.0
 40
0.0
 40
0.0
 40
0.1949295684
 40
0.3827339082
 40
0.5555805568
 40
0.6343664479
 40
0.7070623008
 40
0.77298293
 40
0.8314472608
 40
0.8818808062
 40
0.9238458308
 40
0.9415186828
 40
0.9569140914
 40
0.9699937879
 40
0.9807378364
 40
0.9891275086
 40
0.9951442865
 40
0.9972572578
 40
0.9987705663
 40
0.9996829992
 40
1.0
 40
1.0
 40
1.0
 40
1.0
 10
64.1553549637
 20
75.8734833503
 30
0.0
 10
64.1543837574
 20
75.938451751
 30
0.0
 10
64.1524280665
 20
76.06601305
 30
0.0
 10
64.1494443084
 20
76.2511800881
 30
0.0
 10
64.146954992
 20
76.3976359762
 30
0.0
 10
64.1450264777
 20
76.5057268058
 30
0.0
 10
64.1436873284
 20
76.5781809363
 30
0.0
 10
64.1424238787
 20
76.6438615105
 30
0.0
 10
64.1412487067
 20
76.7021217745
 30
0.0
 10
64.1401729824
 20
76.75239712
 30
0.0
 10
64.1393282415
 20
76.7890777234
 30
0.0
 10
64.1387020799
 20
76.8140801409
 30
0.0
 10
64.1382918687
 20
76.8294583387
 30
0.0
 10
64.1379118006
 20
76.8425221449
 30
0.0
 10
64.1375722312
 20
76.8532643489
 30
0.0
 10
64.1372517202
 20
76.8616162331
 30
0.0
 10
64.1370315796
 20
76.8671711411
 30
0.0
 10
64.1368118167
 20
76.8703075433
 30
0.0
 10
64.1367517544
 20
76.8719360573
 30
0.0
 10
64.1365629139
 20
76.8726321885
 30
0.0
 10
64.1365867228
 20
76.8732619944
 30
0.0
 10
64.1364811008
 20
76.8732589637
 30
0.0
  0
LINE
  5
31D
100
AcDbEntity
  8
0
100
AcDbLine
 62
7
  6
CONTINUOUS
 10
46.7496607787
 20
92.8837588537
 11
46.7463947565
 21
93.0706551091
  0
LINE
  5
31E
100
AcDbEntity
  8
0
100
AcDbLine
 62
7
  6
CONTINUOUS
 10
46.4437638099
 20
76.417496608
 11
46.4457499743
 21
76.315872872
  0
LINE
  5
31F
100
AcDbEntity
  8
0
100
AcDbLine
 62
7
  6
CONTINUOUS
 10
46.4457499743
 20
76.315872872
 11
46.4479258423
 21
76.1970277746
  0
LINE
  5
320
100
AcDbEntity
  8
0
100
AcDbLine
 62
7
  6
CONTINUOUS
 10
46.136545326
 20
92.2192011168
 11
46.1439672495
 21
91.8060846282
  0
LINE
  5
321
100
AcDbEntity
  8
0
100
AcDbLine
 62
7
  6
CONTINUOUS
 10
46.0990950797
 20
92.8040954595
 11
46.0940985834
 21
93.0870639086
  0
SPLINE
  5
322
100
AcDbEntity
  8
0
100
AcDbSpline
 62
7
  6
CONTINUOUS
 70
0
 71
3
 72
9
 73
5
 74
0
 42
0.0000001
 43
0.0000001
 44
0.0000000001
 40
0.0
 40
0.0
 40
0.0
 40
0.0
 40
0.256748138
 40
1.0
 40
1.0
 40
1.0
 40
1.0
 10
46.1599841897
 20
90.8052082417
 30
0.0
 10
46.1589381486
 20
90.8751826835
 30
0.0
 10
46.1548067399
 20
91.1477230066
 30
0.0
 10
46.1504596644
 20
91.4202600878
 30
0.0
 10
46.1470750382
 20
91.6228211883
 30
0.0
  0
LINE
  5
323
100
AcDbEntity
  8
0
100
AcDbLine
 62
7
  6
CONTINUOUS
 10
46.1470750382
 20
91.6228211883
 11
46.14396772
 21
91.8060573058
  0
SPLINE
  5
324
100
AcDbEntity
  8
0
100
AcDbSpline
 62
7
  6
CONTINUOUS
 70
0
 71
3
 72
23
 73
19
 74
0
 42
0.0000001
 43
0.0000001
 44
0.0000000001
 40
0.0
 40
0.0
 40
0.0
 40
0.0
 40
0.2175022522
 40
0.4142238195
 40
0.5866931233
 40
0.6629269202
 40
0.7320399104
 40
0.7937134759
 40
0.8477117402
 40
0.8938187208
 40
0.9318185143
 40
0.9615200825
 40
0.9732276907
 40
0.9828277888
 40
0.9903115196
 40
0.9956704484
 40
0.9988976868
 40
1.0
 40
1.0
 40
1.0
 40
1.0
 10
46.14396772
 20
91.8060573058
 30
0.0
 10
46.1427206397
 20
91.8784742569
 30
0.0
 10
46.1403006937
 20
92.0163885016
 30
0.0
 10
46.1367171311
 20
92.21172296
 30
0.0
 10
46.1338480655
 20
92.3600204837
 30
0.0
 10
46.1316896738
 20
92.4658304692
 30
0.0
 10
46.130226959
 20
92.5347520726
 30
0.0
 10
46.1288593008
 20
92.5962701605
 30
0.0
 10
46.1275917283
 20
92.6501259438
 30
0.0
 10
46.1264345566
 20
92.6961037005
 30
0.0
 10
46.1253826467
 20
92.7339768093
 30
0.0
 10
46.1245728212
 20
92.7604309847
 30
0.0
 10
46.1239376569
 20
92.7773692631
 30
0.0
 10
46.1235885392
 20
92.7870257974
 30
0.0
 10
46.1231209841
 20
92.7942912959
 30
0.0
 10
46.1230523021
 20
92.8000859182
 30
0.0
 10
46.1223442831
 20
92.8025027435
 30
0.0
 10
46.1226033803
 20
92.8047699966
 30
0.0
 10
46.1222364639
 20
92.8047594685
 30
0.0
  0
SPLINE
  5
325
100
AcDbEntity
  8
0
100
AcDbSpline
 62
7
  6
CONTINUOUS
 70
0
 71
3
 72
26
 73
22
 74
0
 42
0.0000001
 43
0.0000001
 44
0.0000000001
 40
0.0
 40
0.0
 40
0.0
 40
0.0
 40
0.1949295684
 40
0.3827339082
 40
0.5555805568
 40
0.6343664479
 40
0.7070623008
 40
0.77298293
 40
0.8314472608
 40
0.8818808062
 40
0.9238458308
 40
0.9415186828
 40
0.9569140914
 40
0.9699937879
 40
0.9807378364
 40
0.9891275086
 40
0.9951442865
 40
0.9972572578
 40
0.9987705663
 40
0.9996829992
 40
1.0
 40
1.0
 40
1.0
 40
1.0
 10
46.4574688079
 20
75.6089231248
 30
0.0
 10
46.4564976016
 20
75.6738915256
 30
0.0
 10
46.4545419107
 20
75.8014528246
 30
0.0
 10
46.4515581526
 20
75.9866198626
 30
0.0
 10
46.4490688361
 20
76.1330757507
 30
0.0
 10
46.4471403219
 20
76.2411665803
 30
0.0
 10
46.4458011726
 20
76.3136207109
 30
0.0
 10
46.4445377229
 20
76.379301285
 30
0.0
 10
46.4433625509
 20
76.4375615491
 30
0.0
 10
46.4422868266
 20
76.4878368945
 30
0.0
 10
46.4414420857
 20
76.5245174979
 30
0.0
 10
46.4408159241
 20
76.5495199155
 30
0.0
 10
46.4404057129
 20
76.5648981132
 30
0.0
 10
46.4400256448
 20
76.5779619195
 30
0.0
 10
46.4396860754
 20
76.5887041234
 30
0.0
 10
46.4393655643
 20
76.5970560076
 30
0.0
 10
46.4391454238
 20
76.6026109156
 30
0.0
 10
46.4389256609
 20
76.6057473179
 30
0.0
 10
46.4388655985
 20
76.6073758318
 30
0.0
 10
46.4386767581
 20
76.608071963
 30
0.0
 10
46.438700567
 20
76.6087017689
 30
0.0
 10
46.438594945
 20
76.6086987382
 30
0.0
  0
LINE
  5
326
100
AcDbEntity
  8
0
100
AcDbLine
 62
7
  6
CONTINUOUS
 10
29.0517746229
 20
92.6191986282
 11
29.0485086007
 21
92.8060948836
  0
LINE
  5
327
100
AcDbEntity
  8
0
100
AcDbLine
 62
7
  6
CONTINUOUS
 10
28.7458776541
 20
76.152936381
 11
28.7478635269
 21
76.0513280913
  0
LINE
  5
328
100
AcDbEntity
  8
0
100
AcDbLine
 62
7
  6
CONTINUOUS
 10
28.7478635269
 20
76.0513280913
 11
28.7500396865
 21
75.9324675462
  0
LINE
  5
329
100
AcDbEntity
  8
0
100
AcDbLine
 62
7
  6
CONTINUOUS
 10
28.4386597218
 20
91.9546116717
 11
28.4460810937
 21
91.5415244049
  0
SPLINE
  5
32A
100
AcDbEntity
  8
0
100
AcDbSpline
 62
7
  6
CONTINUOUS
 70
0
 71
3
 72
26
 73
22
 74
0
 42
0.0000001
 43
0.0000001
 44
0.0000000001
 40
0.0
 40
0.0
 40
0.0
 40
0.0
 40
0.1949106383
 40
0.3827008793
 40
0.5555388731
 40
0.6343225834
 40
0.7070177164
 40
0.772939087
 40
0.8314056198
 40
0.8818428107
 40
0.9238128854
 40
0.9414887767
 40
0.9568875606
 40
0.9699709599
 40
0.9807190257
 40
0.9891130166
 40
0.9951344008
 40
0.9972497782
 40
0.9987655575
 40
0.9996805175
 40
1.0
 40
1.0
 40
1.0
 40
1.0
 10
10.7444247681
 20
75.0706990149
 30
0.0
 10
10.7434535514
 20
75.1356681078
 30
0.0
 10
10.7415953783
 20
75.2632336041
 30
0.0
 10
10.7390428631
 20
75.4484131529
 30
0.0
 10
10.7371532246
 20
75.594885481
 30
0.0
 10
10.7358498022
 20
75.7029934554
 30
0.0
 10
10.7350225123
 20
75.7754623288
 30
0.0
 10
10.7343220153
 20
75.8411591413
 30
0.0
 10
10.7337550719
 20
75.8994369744
 30
0.0
 10
10.7333273964
 20
75.9497310651
 30
0.0
 10
10.7330752161
 20
75.9864283847
 30
0.0
 10
10.7329536495
 20
76.0114448796
 30
0.0
 10
10.7329039255
 20
76.0268334613
 30
0.0
 10
10.7328932772
 20
76.0399080056
 30
0.0
 10
10.7329114706
 20
76.0506604335
 30
0.0
 10
10.7329822645
 20
76.059024145
 30
0.0
 10
10.733035897
 20
76.064585955
 30
0.0
 10
10.7331621857
 20
76.0677331229
 30
0.0
 10
10.7331727535
 20
76.0693619901
 30
0.0
 10
10.733342247
 20
76.0700716937
 30
0.0
 10
10.7332977053
 20
76.0706969116
 30
0.0
 10
10.7334041657
 20
76.0706999664
 30
0.0
  0
SPLINE
  5
32B
100
AcDbEntity
  8
0
100
AcDbSpline
 62
7
  6
CONTINUOUS
 70
0
 71
3
 72
28
 73
24
 74
0
 42
0.0000001
 43
0.0000001
 44
0.0000000001
 40
0.0
 40
0.0
 40
0.0
 40
0.0
 40
0.1950115556
 40
0.3826806701
 40
0.4713672647
 40
0.555513883
 40
0.6343310023
 40
0.7070534042
 40
0.772948037
 40
0.8314087406
 40
0.8818624447
 40
0.9238145851
 40
0.9414848027
 40
0.9568903377
 40
0.9699858413
 40
0.9807374313
 40
0.9891283318
 40
0.9924337751
 40
0.9951433958
 40
0.9972554239
 40
0.9987682989
 40
0.9996812247
 40
1.0
 40
1.0
 40
1.0
 40
1.0
 10
10.5875135146
 20
90.2710176837
 30
0.0
 10
10.5855700753
 20
90.4010231651
 30
0.0
 10
10.5818535533
 20
90.6561407136
 30
0.0
 10
10.5775221354
 20
90.9703854844
 30
0.0
 10
10.5743731463
 20
91.2107224923
 30
0.0
 10
10.5722578262
 20
91.3784919294
 30
0.0
 10
10.5703634627
 20
91.5356194822
 30
0.0
 10
10.5687077948
 20
91.6805798573
 30
0.0
 10
10.5673075136
 20
91.8119700098
 30
0.0
 10
10.5661742873
 20
91.9285148906
 30
0.0
 10
10.5653183364
 20
92.0290985579
 30
0.0
 10
10.564814769
 20
92.1024877124
 30
0.0
 10
10.5645710287
 20
92.1525107407
 30
0.0
 10
10.5644727633
 20
92.1832937016
 30
0.0
 10
10.5644458427
 20
92.2094665266
 30
0.0
 10
10.5644953092
 20
92.2309552381
 30
0.0
 10
10.5645908665
 20
92.2459338993
 30
0.0
 10
10.5647294428
 20
92.2555193178
 30
0.0
 10
10.5648164836
 20
92.2609761033
 30
0.0
 10
10.5649881593
 20
92.2650963413
 30
0.0
 10
10.565009307
 20
92.2683496412
 30
0.0
 10
10.5653472755
 20
92.2697662742
 30
0.0
 10
10.5652598604
 20
92.2710134907
 30
0.0
 10
10.56547231
 20
92.2710195866
 30
0.0
  0
SPLINE
  5
32C
100
AcDbEntity
  8
0
100
AcDbSpline
 62
7
  6
CONTINUOUS
 70
0
 71
3
 72
29
 73
25
 74
0
 42
0.0000001
 43
0.0000001
 44
0.0000000001
 40
0.0
 40
0.0
 40
0.0
 40
0.0
 40
0.2192298186
 40
0.4167139805
 40
0.5062170994
 40
0.5891244031
 40
0.6651235394
 40
0.7339332294
 40
0.7952973959
 40
0.8489616813
 40
0.89471345
 40
0.914573162
 40
0.9323967925
 40
0.9481653871
 40
0.9618601332
 40
0.9734672736
 40
0.9829799739
 40
0.9903920716
 40
0.9933086035
 40
0.9956979428
 40
0.9975596611
 40
0.9988937949
 40
0.9997020652
 40
1.0
 40
1.0
 40
1.0
 40
1.0
 10
10.6553664093
 20
92.2735989694
 30
0.0
 10
10.6523816488
 20
92.5147795352
 30
0.0
 10
10.6468596133
 20
92.9732195835
 30
0.0
 10
10.6406054196
 20
93.5301301234
 30
0.0
 10
10.6363652964
 20
93.9370701052
 30
0.0
 10
10.6336840295
 20
94.2103598745
 30
0.0
 10
10.6314051701
 20
94.4608853021
 30
0.0
 10
10.6295366274
 20
94.6877114113
 30
0.0
 10
10.6280835443
 20
94.8899669655
 30
0.0
 10
10.627051422
 20
95.06685617
 30
0.0
 10
10.6265192821
 20
95.1980836877
 30
0.0
 10
10.6263300353
 20
95.2898797752
 30
0.0
 10
10.6263021569
 20
95.3486881164
 30
0.0
 10
10.6263804047
 20
95.4007140097
 30
0.0
 10
10.6265648277
 20
95.4458990775
 30
0.0
 10
10.6268522798
 20
95.4842038492
 30
0.0
 10
10.6272444228
 20
95.5155861985
 30
0.0
 10
10.6276705693
 20
95.5374269161
 30
0.0
 10
10.628098341
 20
95.5513904496
 30
0.0
 10
10.6284032832
 20
95.5593178199
 30
0.0
 10
10.628764691
 20
95.5653306091
 30
0.0
 10
10.6290544776
 20
95.5700031874
 30
0.0
 10
10.6295033653
 20
95.5721665002
 30
0.0
 10
10.629692716
 20
95.5738999117
 30
0.0
 10
10.6300204707
 20
95.5739047963
 30
0.0
  0
LINE
  5
32D
100
AcDbEntity
  8
0
100
AcDbLine
 62
7
  6
CONTINUOUS
 10
28.4012089239
 20
92.539535234
 11
28.3962124276
 21
92.8225036831
  0
SPLINE
  5
32E
100
AcDbEntity
  8
0
100
AcDbSpline
 62
7
  6
CONTINUOUS
 70
0
 71
3
 72
9
 73
5
 74
0
 42
0.0000001
 43
0.0000001
 44
0.0000000001
 40
0.0
 40
0.0
 40
0.0
 40
0.0
 40
0.256748138
 40
1.0
 40
1.0
 40
1.0
 40
1.0
 10
28.4620980339
 20
90.5406480163
 30
0.0
 10
28.4610519928
 20
90.610622458
 30
0.0
 10
28.4569205841
 20
90.8831627812
 30
0.0
 10
28.4525735086
 20
91.1556998623
 30
0.0
 10
28.4491888824
 20
91.3582609629
 30
0.0
  0
LINE
  5
32F
100
AcDbEntity
  8
0
100
AcDbLine
 62
7
  6
CONTINUOUS
 10
28.4491888824
 20
91.3582609629
 11
28.4460815642
 21
91.5414970804
  0
SPLINE
  5
330
100
AcDbEntity
  8
0
100
AcDbSpline
 62
7
  6
CONTINUOUS
 70
0
 71
3
 72
23
 73
19
 74
0
 42
0.0000001
 43
0.0000001
 44
0.0000000001
 40
0.0
 40
0.0
 40
0.0
 40
0.0
 40
0.2175022522
 40
0.4142238195
 40
0.5866931233
 40
0.6629269202
 40
0.7320399104
 40
0.7937134759
 40
0.8477117402
 40
0.8938187208
 40
0.9318185143
 40
0.9615200825
 40
0.9732276907
 40
0.9828277888
 40
0.9903115196
 40
0.9956704484
 40
0.9988976868
 40
1.0
 40
1.0
 40
1.0
 40
1.0
 10
28.4460815642
 20
91.5414970804
 30
0.0
 10
28.4448344839
 20
91.6139140314
 30
0.0
 10
28.4424145379
 20
91.7518282761
 30
0.0
 10
28.4388309753
 20
91.9471627345
 30
0.0
 10
28.4359619097
 20
92.0954602583
 30
0.0
 10
28.433803518
 20
92.2012702437
 30
0.0
 10
28.4323408032
 20
92.2701918471
 30
0.0
 10
28.430973145
 20
92.331709935
 30
0.0
 10
28.4297055725
 20
92.3855657183
 30
0.0
 10
28.4285484008
 20
92.431543475
 30
0.0
 10
28.4274964909
 20
92.4694165838
 30
0.0
 10
28.4266866653
 20
92.4958707593
 30
0.0
 10
28.4260515011
 20
92.5128090377
 30
0.0
 10
28.4257023834
 20
92.5224655719
 30
0.0
 10
28.4252348283
 20
92.5297310704
 30
0.0
 10
28.4251661463
 20
92.5355256927
 30
0.0
 10
28.4244581273
 20
92.537942518
 30
0.0
 10
28.4247172245
 20
92.5402097711
 30
0.0
 10
28.4243503081
 20
92.540199243
 30
0.0
  0
SPLINE
  5
331
100
AcDbEntity
  8
0
100
AcDbSpline
 62
7
  6
CONTINUOUS
 70
0
 71
3
 72
26
 73
22
 74
0
 42
0.0000001
 43
0.0000001
 44
0.0000000001
 40
0.0
 40
0.0
 40
0.0
 40
0.0
 40
0.1949295684
 40
0.3827339082
 40
0.5555805568
 40
0.6343664479
 40
0.7070623008
 40
0.77298293
 40
0.8314472608
 40
0.8818808062
 40
0.9238458308
 40
0.9415186828
 40
0.9569140914
 40
0.9699937879
 40
0.9807378364
 40
0.9891275086
 40
0.9951442865
 40
0.9972572578
 40
0.9987705663
 40
0.9996829992
 40
1.0
 40
1.0
 40
1.0
 40
1.0
 10
28.7595826521
 20
75.3443628994
 30
0.0
 10
28.7586114458
 20
75.4093313001
 30
0.0
 10
28.7566557549
 20
75.5368925991
 30
0.0
 10
28.7536719968
 20
75.7220596372
 30
0.0
 10
28.7511826803
 20
75.8685155253
 30
0.0
 10
28.7492541661
 20
75.9766063548
 30
0.0
 10
28.7479150168
 20
76.0490604854
 30
0.0
 10
28.7466515671
 20
76.1147410596
 30
0.0
 10
28.7454763951
 20
76.1730013236
 30
0.0
 10
28.7444006708
 20
76.2232766691
 30
0.0
 10
28.7435559299
 20
76.2599572724
 30
0.0
 10
28.7429297683
 20
76.28495969
 30
0.0
 10
28.7425195571
 20
76.3003378878
 30
0.0
 10
28.742139489
 20
76.313401694
 30
0.0
 10
28.7417999196
 20
76.324143898
 30
0.0
 10
28.7414794085
 20
76.3324957822
 30
0.0
 10
28.741259268
 20
76.3380506902
 30
0.0
 10
28.7410395051
 20
76.3411870924
 30
0.0
 10
28.7409794427
 20
76.3428156063
 30
0.0
 10
28.7407906023
 20
76.3435117375
 30
0.0
 10
28.7408144112
 20
76.3441415434
 30
0.0
 10
28.7407087892
 20
76.3441385128
 30
0.0
  0
LINE
  5
332
100
AcDbEntity
  8
0
100
AcDbLine
 62
7
  6
CONTINUOUS
 10
11.3538884671
 20
92.3546384028
 11
11.3506224449
 21
92.5415346581
  0
SPLINE
  5
333
100
AcDbEntity
  8
0
100
AcDbSpline
 62
7
  6
CONTINUOUS
 70
0
 71
3
 72
26
 73
22
 74
0
 42
0.0000001
 43
0.0000001
 44
0.0000000001
 40
0.0
 40
0.0
 40
0.0
 40
0.0
 40
0.0003170022
 40
0.0012294392
 40
0.0027427541
 40
0.0048557336
 40
0.0108725319
 40
0.0192622269
 40
0.0300062974
 40
0.0430860119
 40
0.0584814356
 40
0.0761543151
 40
0.1181194143
 40
0.168553019
 40
0.2270173706
 40
0.2929380489
 40
0.3656339503
 40
0.4444198543
 40
0.6172664447
 40
0.8050705438
 40
1.0
 40
1.0
 40
1.0
 40
1.0
 10
11.0428226334
 20
76.0795782873
 30
0.0
 10
11.0429282559
 20
76.079581318
 30
0.0
 10
11.0429044459
 20
76.078951509
 30
0.0
 10
11.0430932874
 20
76.078255375
 30
0.0
 10
11.0431533493
 20
76.0766268542
 30
0.0
 10
11.0433731128
 20
76.0734904406
 30
0.0
 10
11.0435932535
 20
76.0679355153
 30
0.0
 10
11.0439137652
 20
76.0595836094
 30
0.0
 10
11.0442533351
 20
76.0488413845
 30
0.0
 10
11.0446334037
 20
76.0357775599
 30
0.0
 10
11.0450436156
 20
76.020399342
 30
0.0
 10
11.045669778
 20
75.9953968854
 30
0.0
 10
11.0465145197
 20
75.9587162282
 30
0.0
 10
11.0475902448
 20
75.9084408311
 30
0.0
 10
11.0487654176
 20
75.8501805241
 30
0.0
 10
11.0500288675
 20
75.7844999104
 30
0.0
 10
11.0513680171
 20
75.712045743
 30
0.0
 10
11.0532965314
 20
75.6039549124
 30
0.0
 10
11.0557858457
 20
75.4574991196
 30
0.0
 10
11.0587696018
 20
75.2723322186
 30
0.0
 10
11.0607252905
 20
75.1447710373
 30
0.0
 10
11.0616964963
 20
75.0798026739
 30
0.0
  0
SPLINE
  5
334
100
AcDbEntity
  8
0
100
AcDbSpline
 62
7
  6
CONTINUOUS
 70
0
 71
3
 72
28
 73
24
 74
0
 42
0.0000001
 43
0.0000001
 44
0.0000000001
 40
0.0
 40
0.0
 40
0.0
 40
0.0
 40
0.0003162908
 40
0.0012266852
 40
0.0027370845
 40
0.0048467013
 40
0.0075539787
 40
0.010857149
 40
0.0192437228
 40
0.0299912917
 40
0.043083092
 40
0.0584852447
 40
0.0761524097
 40
0.1180994724
 40
0.168549516
 40
0.2270079872
 40
0.2929018608
 40
0.3656249829
 40
0.4444442751
 40
0.5285945164
 40
0.6172861545
 40
0.804969446
 40
1.0
 40
1.0
 40
1.0
 40
1.0
 10
10.7264641523
 20
92.2756390175
 30
0.0
 10
10.7266749233
 20
92.2756450653
 30
0.0
 10
10.7266288853
 20
92.2743887661
 30
0.0
 10
10.7270054518
 20
92.2729992232
 30
0.0
 10
10.7271254759
 20
92.2697466055
 30
0.0
 10
10.7274193983
 20
92.2656416368
 30
0.0
 10
10.7276697014
 20
92.2601939798
 30
0.0
 10
10.7280945112
 20
92.2506245543
 30
0.0
 10
10.7286377047
 20
92.2356637629
 30
0.0
 10
10.729329273
 20
92.2141966459
 30
0.0
 10
10.730084554
 20
92.1880448765
 30
0.0
 10
10.7309063121
 20
92.1572828291
 30
0.0
 10
10.7321577384
 20
92.1072879239
 30
0.0
 10
10.7338478437
 20
92.0339322835
 30
0.0
 10
10.7359985588
 20
91.9333861251
 30
0.0
 10
10.7383492397
 20
91.8168764415
 30
0.0
 10
10.7408767475
 20
91.6855188158
 30
0.0
 10
10.7435546345
 20
91.5405879234
 30
0.0
 10
10.746357648
 20
91.3834865454
 30
0.0
 10
10.7492579275
 20
91.2157396987
 30
0.0
 10
10.753294132
 20
90.975426628
 30
0.0
 10
10.7583576529
 20
90.6612011909
 30
0.0
 10
10.7622684589
 20
90.4060919263
 30
0.0
 10
10.7642118781
 20
90.2760877908
 30
0.0
  0
SPLINE
  5
335
100
AcDbEntity
  8
0
100
AcDbSpline
 62
7
  6
CONTINUOUS
 70
0
 71
3
 72
29
 73
25
 74
0
 42
0.0000001
 43
0.0000001
 44
0.0000000001
 40
0.0
 40
0.0
 40
0.0
 40
0.0
 40
0.0002979446
 40
0.0011062075
 40
0.0024403197
 40
0.0043020035
 40
0.0066912968
 40
0.0096077721
 40
0.0170197291
 40
0.0265322585
 40
0.038139206
 40
0.0518337384
 40
0.0676020817
 40
0.0854254299
 40
0.1052848378
 40
0.1510359698
 40
0.2046996217
 40
0.266063157
 40
0.334872293
 40
0.410871032
 40
0.4937781467
 40
0.5832813602
 40
0.780766852
 40
1.0
 40
1.0
 40
1.0
 40
1.0
 10
10.6300204707
 20
95.5739047963
 30
0.0
 10
10.6303481708
 20
95.57390968
 30
0.0
 10
10.6305892546
 20
95.5721831392
 30
0.0
 10
10.6311025175
 20
95.5700345753
 30
0.0
 10
10.6315318053
 20
95.565373806
 30
0.0
 10
10.6320727019
 20
95.5593757957
 30
0.0
 10
10.6326143939
 20
95.551462826
 30
0.0
 10
10.6334592385
 20
95.5375213696
 30
0.0
 10
10.6345378781
 20
95.515707917
 30
0.0
 10
10.6358676921
 20
95.4843581302
 30
0.0
 10
10.6372997576
 20
95.4460873487
 30
0.0
 10
10.6388344753
 20
95.4009377272
 30
0.0
 10
10.6404675235
 20
95.3489486276
 30
0.0
 10
10.6421972049
 20
95.2901783923
 30
0.0
 10
10.6447514817
 20
95.1984373367
 30
0.0
 10
10.648141509
 20
95.0672804798
 30
0.0
 10
10.6523964854
 20
94.8904768711
 30
0.0
 10
10.6569888486
 20
94.6883106388
 30
0.0
 10
10.6619003152
 20
94.4615770585
 30
0.0
 10
10.6671099916
 20
94.2111467311
 30
0.0
 10
10.6725978455
 20
93.9379540381
 30
0.0
 10
10.6805220717
 20
93.5311490428
 30
0.0
 10
10.6909155061
 20
92.9744063751
 30
0.0
 10
10.699097772
 20
92.5160925281
 30
0.0
 10
10.7033227681
 20
92.2749750086
 30
0.0
  0
ELLIPSE
  5
336
100
AcDbEntity
  8
0
100
AcDbEllipse
 62
7
  6
CONTINUOUS
 10
11.0594089783
 20
95.4088841213
 30
0.0
 11
0.0240332639
 21
0.5004109806
 31
0.0
 40
0.0646291644
 41
-2.3236863045
 42
-0.7667779736
  0
ELLIPSE
  5
337
100
AcDbEntity
  8
0
100
AcDbEllipse
 62
7
  6
CONTINUOUS
 10
11.0168856946
 20
97.647695302
 30
0.0
 11
0.0240332639
 21
0.5004109804
 31
0.0
 40
0.0646291644
 41
5.5164073336
 42
7.0733156644
  0
ENDSEC
  0
SECTION
  2
OBJECTS
  0
DICTIONARY
  5
C
100
AcDbDictionary
280
0
281
1
  3
ACAD_GROUP
350
D
  3
ACAD_MLINESTYLE
350
17
  3
ACAD_LAYOUT
350
1A
  3
ACAD_PLOTSETTINGS
350
19
  3
ACAD_PLOTSTYLENAME
350
E
  0
DICTIONARY
  5
D
102
{ACAD_REACTORS
330
C
102
}
100
AcDbDictionary
280
0
281
1
  0
ACDBDICTIONARYWDFLT
  5
E
102
{ACAD_REACTORS
330
C
102
}
100
AcDbDictionary
281
1
  3
Normal
350
F
100
AcDbDictionaryWithDefault
340
F
  0
DICTIONARY
  5
17
102
{ACAD_REACTORS
330
C
102
}
100
AcDbDictionary
280
0
281
1
  3
Standard
350
18
  0
DICTIONARY
  5
19
102
{ACAD_REACTORS
330
C
102
}
100
AcDbDictionary
281
1
  0
DICTIONARY
  5
1A
102
{ACAD_REACTORS
330
C
102
}
100
AcDbDictionary
281
1
  3
Model
350
338
  3
Layout1
350
339
  0
ACDBPLACEHOLDER
  5
F
102
{ACAD_REACTORS
330
E
102
}
  0
MLINESTYLE
  5
18
102
{ACAD_REACTORS
330
17
102
}
100
AcDbMlineStyle
  2
STANDARD
 70
0
  3

 62
256
 51
90.0
 52
90.0
 71
2
 49
0.5
 62
256
  6
BYLAYER
 49
-0.5
 62
256
  6
BYLAYER
  0
LAYOUT
  5
338
102
{ACAD_REACTORS
330
1A
102
}
100
AcDbPlotSettings
  1

  2
none_device
  4

  6

 40
0.0
 41
0.0
 42
0.0
 43
0.0
 44
210.0
 45
297.0
 46
0.0
 47
0.0
 48
0.0
 49
0.0
140
0.0
141
0.0
142
1.0
143
1.0
 70
1024
 72
1
 73
0
 74
0
  7

 75
0
147
1.0
148
0.0
149
0.0
100
AcDbLayout
  1
Model
 70
0
 71
0
 10
0.0
 20
0.0
 11
210.0
 21
297.0
 12
0.0
 22
0.0
 32
0.0
 14
0.0
 24
0.0
 34
0.0
 15
0.0
 25
0.0
 35
0.0
146
0.0
 13
0.0
 23
0.0
 33
0.0
 16
1.0
 26
0.0
 36
0.0
 17
0.0
 27
1.0
 37
0.0
 76
0
330
210
345
0
346
0
  0
LAYOUT
  5
339
102
{ACAD_REACTORS
330
1A
102
}
100
AcDbPlotSettings
  1

  2
none_device
  4

  6

 40
0.0
 41
0.0
 42
0.0
 43
0.0
 44
210.0
 45
297.0
 46
0.0
 47
0.0
 48
0.0
 49
0.0
140
0.0
141
0.0
142
1.0
143
1.0
 70
0
 72
1
 73
0
 74
0
  7

 75
0
147
1.0
148
0.0
149
0.0
100
AcDbLayout
  1
Layout1
 70
0
 71
1
 10
0.0
 20
0.0
 11
210.0
 21
297.0
 12
0.0
 22
0.0
 32
0.0
 14
0.0
 24
0.0
 34
0.0
 15
0.0
 25
0.0
 35
0.0
146
0.0
 13
0.0
 23
0.0
 33
0.0
 16
1.0
 26
0.0
 36
0.0
 17
0.0
 27
1.0
 37
0.0
 76
0
330
211
345
0
346
0
  0
ENDSEC
  0
EOF
