999
DXF file: C:\Users\sesa63760\Dev\_Creo\CAD\MCADPE0010442_3D-CAD\drw0001_1.dxf
999
Pro/ENGINEER 2019471 by Parametric Technology Corporation
  0
SECTION
  2
HEADER
  9
$ACADVER
  1
AC1024
  9
$DWGCODEPAGE
  3
ANSI_1252
  9
$EXTMAX
 10
39.1233949602
 20
55.3316585865
 30
0.0
  9
$EXTMIN
 10
0.0
 20
0.0
 30
0.0
  9
$LIMMIN
 10
0.0
 20
0.0
  9
$LIMMAX
 10
39.1233949602
 20
55.3316585865
  9
$VIEWCTR
 10
19.5616974801
 20
27.6658292933
  9
$VIEWSIZE
 40
55.3316585865
  9
$CLAYER
  8
0
  9
$LTSCALE
 40
3.6068044116
  9
$CELTYPE
  6
BYLAYER
  9
$DIMSCALE
 40
1.0
  9
$DIMASZ
 40
0.4657547019
  9
$DIMEXO
 40
1.0
  9
$DIMDLI
 40
2.4919739571
  9
$DIMEXE
 40
1.0
  9
$DIMCEN
 40
0.5902043583
  9
$DIMLFAC
 40
1.0
  9
$DIMBLK
  1
_FILLED
  9
$DIMALT
 70
0
  9
$DIMALTF
 40
0.0393700787
  9
$DIMTXT
 40
0.6520565827
  9
$DIMTOL
 70
1
  9
$DIMLIM
 70
0
  9
$DIMTFAC
 40
1.0
  9
$DIMTP
 40
0.01
  9
$DIMTM
 40
0.01
  9
$DIMGAP
 40
0.625
  9
$DIMDSEP
 70
46
  9
$AUNITS
 70
0
  9
$PDMODE
 70
3
  9
$PDSIZE
 40
0.3125
  9
$HANDSEED
  5
251
  9
$TILEMODE
 70
1
  9
$MEASUREMENT
 70
1
  9
$INSUNITS
 70
4
  0
ENDSEC
  0
SECTION
  2
CLASSES
  0
CLASS
  1
ACDBDICTIONARYWDFLT
  2
AcDbDictionaryWithDefault
  3
AutoCAD 2000
 90
0
 91
1
280
0
281
0
  0
CLASS
  1
ACDBPLACEHOLDER
  2
AcDbPlaceHolder
  3
AutoCAD 2000
 90
0
 91
1
280
0
281
0
  0
CLASS
  1
LAYOUT
  2
AcDbLayout
  3
AutoCAD 2000
 90
0
 91
0
280
0
281
0
  0
ENDSEC
  0
SECTION
  2
TABLES
  0
TABLE
  2
VPORT
  5
8
100
AcDbSymbolTable
 70
2
  0
VPORT
  5
1F4
100
AcDbSymbolTableRecord
100
AcDbViewportTableRecord
  2
*ACTIVE
 70
0
 10
0.0
 20
0.0
 11
1.0
 21
1.0
 12
19.5616974801
 22
27.6658292933
 13
0.0
 23
0.0
 14
1.0
 24
1.0
 15
0.0
 25
0.0
 16
0.0
 26
0.0
 36
1.0
 17
0.0
 27
0.0
 37
0.0
 40
55.3316585865
 41
0.7070707071
 42
50.0
 43
0.0
 44
0.0
 50
0.0
 51
0.0
 71
0
 72
100
 73
1
 74
1
 75
0
 76
0
 77
0
 78
0
  0
ENDTAB
  0
TABLE
  2
LTYPE
  5
5
100
AcDbSymbolTable
 70
6
  0
LTYPE
  5
14
100
AcDbSymbolTableRecord
100
AcDbLinetypeTableRecord
  2
BYBLOCK
 70
0
  3

 72
65
 73
0
 40
0.0
  0
LTYPE
  5
15
100
AcDbSymbolTableRecord
100
AcDbLinetypeTableRecord
  2
BYLAYER
 70
0
  3

 72
65
 73
0
 40
0.0
  0
LTYPE
  5
16
100
AcDbSymbolTableRecord
100
AcDbLinetypeTableRecord
  2
CONTINUOUS
 70
64
  3
Solid line
 72
65
 73
0
 40
0.0
  0
LTYPE
  5
1F5
100
AcDbSymbolTableRecord
100
AcDbLinetypeTableRecord
  2
CENTER
 70
64
  3
____ _ ____ _ ____ _ ____ _ ____ _ ____ _ ____
 72
65
 73
4
 40
0.6
 49
0.375
 74
0
 49
-0.075
 74
0
 49
0.075
 74
0
 49
-0.075
 74
0
  0
LTYPE
  5
1F6
100
AcDbSymbolTableRecord
100
AcDbLinetypeTableRecord
  2
HIDDEN
 70
64
  3
- - - - - - - - - - - - - - - - - - - -
 72
65
 73
2
 40
0.2
 49
0.1
 74
0
 49
-0.1
 74
0
  0
LTYPE
  5
1F7
100
AcDbSymbolTableRecord
100
AcDbLinetypeTableRecord
  2
PHANTOM
 70
64
  3
_____ _ _ _____ _ _ _____ _ _ _____
 72
65
 73
6
 40
0.8
 49
0.45
 74
0
 49
-0.05
 74
0
 49
0.1
 74
0
 49
-0.05
 74
0
 49
0.1
 74
0
 49
-0.05
 74
0
  0
LTYPE
  5
1F8
100
AcDbSymbolTableRecord
100
AcDbLinetypeTableRecord
  2
DOT
 70
64
  3
. . . . . . . . . . . . . . . . . . . .
 72
65
 73
2
 40
0.2
 49
0.1
 74
0
 49
-0.1
 74
0
  0
LTYPE
  5
1F9
100
AcDbSymbolTableRecord
100
AcDbLinetypeTableRecord
  2
DASHED
 70
64
  3
- - - - - - - - - - - - - - - - - - - -
 72
65
 73
2
 40
0.2
 49
0.1
 74
0
 49
-0.1
 74
0
  0
ENDTAB
  0
TABLE
  2
LAYER
  5
2
100
AcDbSymbolTable
 70
36
  0
LAYER
  5
10
100
AcDbSymbolTableRecord
100
AcDbLayerTableRecord
  2
0
 70
0
 62
7
  6
CONTINUOUS
370
-3
390
F
  0
LAYER
  5
1FA
100
AcDbSymbolTableRecord
100
AcDbLayerTableRecord
  2
DEFAULT_1
 70
0
 62
7
  6
CENTER
370
-3
390
F
  0
LAYER
  5
1FB
100
AcDbSymbolTableRecord
100
AcDbLayerTableRecord
  2
DEFAULT_2
 70
0
 62
7
  6
HIDDEN
370
-3
390
F
  0
LAYER
  5
1FC
100
AcDbSymbolTableRecord
100
AcDbLayerTableRecord
  2
DEFAULT_3
 70
0
 62
7
  6
PHANTOM
370
-3
390
F
  0
LAYER
  5
1FD
100
AcDbSymbolTableRecord
100
AcDbLayerTableRecord
  2
00_COMPONENTS
 70
0
 62
7
  6
CONTINUOUS
370
-3
390
F
  0
LAYER
  5
1FE
100
AcDbSymbolTableRecord
100
AcDbLayerTableRecord
  2
01_1_DEFAULT_DATUMS
 70
0
 62
7
  6
CONTINUOUS
370
-3
390
F
  0
LAYER
  5
1FF
100
AcDbSymbolTableRecord
100
AcDbLayerTableRecord
  2
01_PLANES
 70
0
 62
7
  6
CONTINUOUS
370
-3
390
F
  0
LAYER
  5
200
100
AcDbSymbolTableRecord
100
AcDbLayerTableRecord
  2
02_COORD_SYS
 70
0
 62
7
  6
CONTINUOUS
370
-3
390
F
  0
LAYER
  5
201
100
AcDbSymbolTableRecord
100
AcDbLayerTableRecord
  2
03_AXES
 70
0
 62
7
  6
CONTINUOUS
370
-3
390
F
  0
LAYER
  5
202
100
AcDbSymbolTableRecord
100
AcDbLayerTableRecord
  2
04_POINTS
 70
0
 62
7
  6
CONTINUOUS
370
-3
390
F
  0
LAYER
  5
203
100
AcDbSymbolTableRecord
100
AcDbLayerTableRecord
  2
05_CURVES
 70
0
 62
7
  6
CONTINUOUS
370
-3
390
F
  0
LAYER
  5
204
100
AcDbSymbolTableRecord
100
AcDbLayerTableRecord
  2
06_SURFS
 70
0
 62
7
  6
CONTINUOUS
370
-3
390
F
  0
LAYER
  5
205
100
AcDbSymbolTableRecord
100
AcDbLayerTableRecord
  2
07_COSMETICS
 70
0
 62
7
  6
CONTINUOUS
370
-3
390
F
  0
LAYER
  5
206
100
AcDbSymbolTableRecord
100
AcDbLayerTableRecord
  2
10_NOTES
 70
0
 62
7
  6
CONTINUOUS
370
-3
390
F
  0
LAYER
  5
207
100
AcDbSymbolTableRecord
100
AcDbLayerTableRecord
  2
11_NOTES_PUB
 70
0
 62
7
  6
CONTINUOUS
370
-3
390
F
  0
LAYER
  5
208
100
AcDbSymbolTableRecord
100
AcDbLayerTableRecord
  2
13_REF_GTOL
 70
0
 62
7
  6
CONTINUOUS
370
-3
390
F
  0
LAYER
  5
209
100
AcDbSymbolTableRecord
100
AcDbLayerTableRecord
  2
16_MISC
 70
0
 62
7
  6
CONTINUOUS
370
-3
390
F
  0
LAYER
  5
20A
100
AcDbSymbolTableRecord
100
AcDbLayerTableRecord
  2
17_NO_PRINT
 70
0
 62
7
  6
CONTINUOUS
370
-3
390
F
  0
LAYER
  5
20B
100
AcDbSymbolTableRecord
100
AcDbLayerTableRecord
  2
18_DATUM_CAMS_JOINTS
 70
0
 62
7
  6
CONTINUOUS
370
-3
390
F
  0
LAYER
  5
20C
100
AcDbSymbolTableRecord
100
AcDbLayerTableRecord
  2
19_DATUM_FUNCTIONAL
 70
0
 62
7
  6
CONTINUOUS
370
-3
390
F
  0
LAYER
  5
20D
100
AcDbSymbolTableRecord
100
AcDbLayerTableRecord
  2
20_DATUM_KINEMATIC_SCHEME
 70
0
 62
7
  6
CONTINUOUS
370
-3
390
F
  0
ENDTAB
  0
TABLE
  2
STYLE
  5
3
100
AcDbSymbolTable
 70
1
  0
STYLE
  5
11
100
AcDbSymbolTableRecord
100
AcDbTextStyleTableRecord
  2
STANDARD
 70
0
 40
0.0
 41
1.0
 50
0.0
 71
0
 42
0.2
  3
ARIAL.TTF
  4

  0
STYLE
  5
20E
100
AcDbSymbolTableRecord
100
AcDbTextStyleTableRecord
  2
TEXTSTYLE_1
 70
0
 40
0.0
 41
0.8
 50
0.0
 71
0
 42
0.2
  3
gdt
  4

  0
ENDTAB
  0
TABLE
  2
VIEW
  5
6
100
AcDbSymbolTable
 70
0
  0
ENDTAB
  0
TABLE
  2
UCS
  5
7
100
AcDbSymbolTable
 70
0
  0
ENDTAB
  0
TABLE
  2
APPID
  5
9
100
AcDbSymbolTable
 70
1
  0
APPID
  5
20F
100
AcDbSymbolTableRecord
100
AcDbRegAppTableRecord
  2
ACAD
 70
0
  0
ENDTAB
  0
TABLE
  2
BLOCK_RECORD
  5
1
100
AcDbSymbolTable
 70
0
  0
BLOCK_RECORD
  5
210
100
AcDbSymbolTableRecord
100
AcDbBlockTableRecord
  2
*Model_Space
  0
BLOCK_RECORD
  5
211
100
AcDbSymbolTableRecord
100
AcDbBlockTableRecord
  2
*Paper_Space
  0
BLOCK_RECORD
  5
212
100
AcDbSymbolTableRecord
100
AcDbBlockTableRecord
  2
_FILLED
  0
ENDTAB
  0
TABLE
  2
DIMSTYLE
  5
A
100
AcDbSymbolTable
 70
1
100
AcDbDimStyleTable
 71
0
  0
DIMSTYLE
105
213
100
AcDbSymbolTableRecord
100
AcDbDimStyleTableRecord
  2
STANDARD
 70
0
  3

  4

 40
1.0
 41
0.4657547019
 42
1.0
 43
0.38
 44
1.0
 45
0.0
 46
0.0
 47
0.01
 48
0.01
140
0.6520565827
141
0.09
142
0.0
143
25.4
144
1.0
145
0.0
146
1.0
147
0.625
 71
1
 72
0
 73
0
 74
0
 75
0
 76
0
 77
1
 78
8
 79
2
170
0
171
1
172
0
173
0
174
0
175
0
176
0
177
0
178
0
270
2
179
2
271
2
272
2
273
2
274
2
275
0
280
0
281
0
282
0
283
1
284
8
285
0
286
0
287
3
288
0
340
11
278
46
341
212
342
212
343
212
344
212
  0
ENDTAB
  0
ENDSEC
  0
SECTION
  2
BLOCKS
  0
BLOCK
  5
20
100
AcDbEntity
  8
0
100
AcDbBlockBegin
  2
*Model_Space
 70
0
 10
0.0
 20
0.0
 30
0.0
  3
*Model_Space
  1

  0
ENDBLK
  5
21
100
AcDbEntity
  8
0
100
AcDbBlockEnd
  0
BLOCK
  5
1C
100
AcDbEntity
  8
0
100
AcDbBlockBegin
  2
*Paper_Space
 70
0
 10
0.0
 20
0.0
 30
0.0
  3
*Paper_Space
  1

  0
ENDBLK
  5
1D
100
AcDbEntity
  8
0
100
AcDbBlockEnd
  0
BLOCK
  5
214
100
AcDbEntity
  8
0
100
AcDbBlockBegin
  2
_FILLED
 70
64
 10
0.0
 20
0.0
  3
_FILLED
  1

  0
SOLID
  5
215
100
AcDbEntity
  8
0
  6
BYBLOCK
 62
0
100
AcDbTrace
 10
0.0
 20
0.0
 11
-1.0
 21
0.25
 12
-1.0
 22
-0.25
 13
-1.0
 23
-0.25
  0
ENDBLK
  5
216
100
AcDbEntity
  8
0
  6
BYBLOCK
 62
0
100
AcDbBlockEnd
  0
ENDSEC
  0
SECTION
  2
ENTITIES
  0
LINE
  5
217
100
AcDbEntity
  8
0
100
AcDbLine
 62
7
  6
BYLAYER
 10
8.6125360585
 20
5.3846818669
 11
10.3803103714
 21
4.3640799806
  0
LINE
  5
218
100
AcDbEntity
  8
0
100
AcDbLine
 62
7
  6
BYLAYER
 10
9.9660857299
 20
5.2796522762
 11
8.198311417
 21
6.3002541625
  0
LINE
  5
219
100
AcDbEntity
  8
0
100
AcDbLine
 62
7
  6
BYLAYER
 10
28.3507707776
 20
51.0035604416
 11
9.6125190915
 21
40.185090364
  0
LINE
  5
21A
100
AcDbEntity
  8
0
100
AcDbLine
 62
7
  6
BYLAYER
 10
30.1185450905
 20
49.9829585553
 11
11.3802934043
 21
39.1644884777
  0
LINE
  5
21B
100
AcDbEntity
  8
0
100
AcDbLine
 62
7
  6
BYLAYER
 10
8.198311417
 20
37.735597222
 11
8.198311417
 21
6.3002541625
  0
LINE
  5
21C
100
AcDbEntity
  8
0
100
AcDbLine
 62
7
  6
BYLAYER
 10
9.9660857299
 20
36.7149953357
 11
9.9660857299
 21
5.2796522762
  0
LINE
  5
21D
100
AcDbEntity
  8
0
100
AcDbLine
 62
7
  6
BYLAYER
 10
29.6942827882
 20
40.5523598703
 11
31.5327527649
 21
41.6137946704
  0
LINE
  5
21E
100
AcDbEntity
  8
0
100
AcDbLine
 62
7
  6
BYLAYER
 10
31.5327527649
 20
40.4706912864
 11
29.6942827882
 21
39.4092564863
  0
LINE
  5
21F
100
AcDbEntity
  8
0
100
AcDbLine
 62
7
  6
BYLAYER
 10
29.9771243231
 20
38.6764427451
 11
29.1993101021
 21
38.2273741758
  0
LINE
  5
220
100
AcDbEntity
  8
0
100
AcDbLine
 62
7
  6
BYLAYER
 10
30.4013866254
 20
38.3886214102
 11
30.0174903023
 21
38.1669800877
  0
LINE
  5
221
100
AcDbEntity
  8
0
100
AcDbLine
 62
7
  6
BYLAYER
 10
30.4013866254
 20
38.3886214102
 11
31.1792008463
 21
39.3562386588
  0
LINE
  5
222
100
AcDbEntity
  8
0
100
AcDbLine
 62
7
  6
BYLAYER
 10
31.1792008463
 20
27.1330581854
 11
30.4013866254
 21
27.2025382955
  0
LINE
  5
223
100
AcDbEntity
  8
0
100
AcDbLine
 62
7
  6
BYLAYER
 10
29.1993101021
 20
28.1726078778
 11
29.4114265335
 21
28.1536600717
  0
LINE
  5
224
100
AcDbEntity
  8
0
100
AcDbLine
 62
7
  6
BYLAYER
 10
29.6942827882
 20
24.2223115277
 11
29.2043389971
 21
24.5051743082
  0
LINE
  5
225
100
AcDbEntity
  8
0
100
AcDbLine
 62
7
  6
BYLAYER
 10
31.3256392375
 20
27.0878524846
 11
31.1792008463
 21
27.1330581854
  0
LINE
  5
226
100
AcDbEntity
  8
0
100
AcDbLine
 62
7
  6
BYLAYER
 10
29.4114265335
 20
28.1536600717
 11
29.5578649246
 21
28.1084543709
  0
LINE
  5
227
100
AcDbEntity
  8
0
100
AcDbLine
 62
7
  6
BYLAYER
 10
8.198311417
 20
37.735597222
 11
9.9660857299
 21
36.7149953357
  0
LINE
  5
228
100
AcDbEntity
  8
0
100
AcDbLine
 62
7
  6
BYLAYER
 10
30.5427820428
 20
25.8552932606
 11
31.5327527649
 21
25.2837463278
  0
LINE
  5
229
100
AcDbEntity
  8
0
100
AcDbLine
 62
7
  6
BYLAYER
 10
29.1993101021
 20
26.8738850668
 11
29.9771243231
 21
26.424823976
  0
LINE
  5
22A
100
AcDbEntity
  8
0
100
AcDbLine
 62
7
  6
BYLAYER
 10
29.1993101021
 20
27.4532628455
 11
30.0174903023
 21
26.9808969731
  0
LINE
  5
22B
100
AcDbEntity
  8
0
100
AcDbLine
 62
7
  6
BYLAYER
 10
29.1993101021
 20
27.8965417994
 11
30.4013866254
 21
27.2025382955
  0
LINE
  5
22C
100
AcDbEntity
  8
0
100
AcDbLine
 62
7
  6
BYLAYER
 10
29.4114265335
 20
28.1536600717
 11
31.1792008463
 21
27.1330581854
  0
LINE
  5
22D
100
AcDbEntity
  8
0
100
AcDbLine
 62
7
  6
BYLAYER
 10
29.5578661313
 20
28.108456461
 11
31.3256404442
 21
27.0878545747
  0
LINE
  5
22E
100
AcDbEntity
  8
0
100
AcDbLine
 62
7
  6
BYLAYER
 10
30.0174903023
 20
26.9808969731
 11
30.4013866254
 21
27.2025382955
  0
LINE
  5
22F
100
AcDbEntity
  8
0
100
AcDbLine
 62
7
  6
BYLAYER
 10
29.1993101021
 20
25.9757554068
 11
29.9771243231
 21
26.424823976
  0
LINE
  5
230
100
AcDbEntity
  8
0
100
AcDbLine
 62
7
  6
BYLAYER
 10
29.6942827882
 20
25.3654149117
 11
31.5327527649
 21
26.4268497118
  0
LINE
  5
231
100
AcDbEntity
  8
0
100
AcDbLine
 62
7
  6
BYLAYER
 10
11.3802934043
 20
39.1644884777
 11
9.6125190915
 21
40.185090364
  0
LINE
  5
232
100
AcDbEntity
  8
0
100
AcDbLine
 62
7
  6
BYLAYER
 10
31.5327527649
 20
25.2837463278
 11
29.6942827882
 21
24.2223115277
  0
LINE
  5
233
100
AcDbEntity
  8
0
100
AcDbLine
 62
7
  6
BYLAYER
 10
29.1993101021
 20
25.9757554068
 11
29.1993101021
 21
38.2273741758
  0
LINE
  5
234
100
AcDbEntity
  8
0
100
AcDbLine
 62
7
  6
BYLAYER
 10
30.0174903023
 20
26.9808969731
 11
29.9771243231
 21
26.424823976
  0
LINE
  5
235
100
AcDbEntity
  8
0
100
AcDbLine
 62
7
  6
BYLAYER
 10
29.9771243231
 20
38.6764427451
 11
30.0174903023
 21
38.1669800877
  0
LINE
  5
236
100
AcDbEntity
  8
0
100
AcDbLine
 62
7
  6
BYLAYER
 10
31.5327527649
 20
40.4706912864
 11
31.5327527649
 21
40.2674725713
  0
LINE
  5
237
100
AcDbEntity
  8
0
100
AcDbLine
 62
7
  6
BYLAYER
 10
31.5327527649
 20
17.7310989693
 11
31.5327527649
 21
25.2837463278
  0
LINE
  5
238
100
AcDbEntity
  8
0
100
AcDbLine
 62
7
  6
BYLAYER
 10
31.5327527649
 20
26.4268497118
 11
31.5327527649
 21
26.6300684269
  0
LINE
  5
239
100
AcDbEntity
  8
0
100
AcDbLine
 62
7
  6
BYLAYER
 10
31.5327527649
 20
41.6137946704
 11
31.5327527649
 21
49.1664420288
  0
LINE
  5
23A
100
AcDbEntity
  8
0
100
AcDbLine
 62
7
  6
BYLAYER
 10
29.5560932336
 20
38.4333617832
 11
30.0174903023
 21
38.1669800877
  0
LINE
  5
23B
100
AcDbEntity
  8
0
100
AcDbLine
 62
7
  6
BYLAYER
 10
11.3802934043
 20
4.4631357497
 11
30.1185450905
 21
15.2816058273
  0
LINE
  5
23C
100
AcDbEntity
  8
0
100
AcDbLine
 62
7
  6
BYLAYER
 10
29.6942827882
 20
39.4092564863
 11
29.2043389971
 21
39.6921192668
  0
LINE
  5
23D
100
AcDbEntity
  8
0
100
AcDbLine
 62
7
  6
BYLAYER
 10
30.5427820428
 20
41.0422382192
 11
31.5327527649
 21
40.4706912864
  0
LINE
  5
23E
100
AcDbEntity
  8
0
100
AcDbLine
 62
7
  6
BYLAYER
 10
28.3507707776
 20
51.0035604416
 11
30.1185450905
 21
49.9829585553
  0
LINE
  5
23F
100
AcDbEntity
  8
0
100
AcDbLine
 62
7
  6
BYLAYER
 10
29.3507538106
 20
51.1026162107
 11
31.1185281235
 21
50.0820143244
  0
SPLINE
  5
240
100
AcDbEntity
  8
0
100
AcDbSpline
 62
7
  6
BYLAYER
 70
0
 71
3
 72
20
 73
16
 74
0
 42
0.0000001
 43
0.0000001
 44
0.0000000001
 40
0.0
 40
0.0
 40
0.0
 40
0.0
 40
0.0428302457
 40
0.087428971
 40
0.1352308213
 40
0.1871609826
 40
0.2436306657
 40
0.304611115
 40
0.3697364835
 40
0.4383715739
 40
0.582621924
 40
0.7296866113
 40
0.8711947531
 40
0.9376365295
 40
1.0
 40
1.0
 40
1.0
 40
1.0
 10
29.3442949685
 20
24.1876528648
 30
0.0
 10
29.3270341359
 20
24.1976089429
 30
0.0
 10
29.2943255614
 20
24.2226537141
 30
0.0
 10
29.2549525248
 20
24.2724272931
 30
0.0
 10
29.2255455904
 20
24.3333112388
 30
0.0
 10
29.206484595
 20
24.4037990759
 30
0.0
 10
29.1980143692
 20
24.4824185344
 30
0.0
 10
29.2001659103
 20
24.5675459204
 30
0.0
 10
29.2129007668
 20
24.6574313868
 30
0.0
 10
29.2440594116
 20
24.7831486842
 30
0.0
 10
29.3072038413
 20
24.939304943
 30
0.0
 10
29.413093294
 20
25.1115624738
 30
0.0
 10
29.5228125634
 20
25.2364294244
 30
0.0
 10
29.6192051875
 20
25.317492718
 30
0.0
 10
29.6691558849
 20
25.3509079739
 30
0.0
 10
29.6942827882
 20
25.3654149117
 30
0.0
  0
SPLINE
  5
241
100
AcDbEntity
  8
0
100
AcDbSpline
 62
7
  6
BYLAYER
 70
0
 71
3
 72
15
 73
11
 74
0
 42
0.0000001
 43
0.0000001
 44
0.0000000001
 40
0.0
 40
0.0
 40
0.0
 40
0.0
 40
0.1080113886
 40
0.2180657705
 40
0.3320018687
 40
0.4513381785
 40
0.5772450168
 40
0.7105257348
 40
0.8515199124
 40
1.0
 40
1.0
 40
1.0
 40
1.0
 10
10.380317722
 20
4.3640927126
 30
0.0
 10
10.4131070541
 20
4.3451622094
 30
0.0
 10
10.4827190637
 20
4.3125418608
 30
0.0
 10
10.5953765717
 20
4.2814292604
 30
0.0
 10
10.7154486524
 20
4.2680170194
 30
0.0
 10
10.8416794625
 20
4.272398391
 30
0.0
 10
10.972873457
 20
4.2944016145
 30
0.0
 10
11.107820615
 20
4.3337530176
 30
0.0
 10
11.245170592
 20
4.3900030998
 30
0.0
 10
11.3352190579
 20
4.437112219
 30
0.0
 10
11.3802934043
 20
4.4631357497
 30
0.0
  0
SPLINE
  5
242
100
AcDbEntity
  8
0
100
AcDbSpline
 62
7
  6
BYLAYER
 70
0
 71
3
 72
15
 73
11
 74
0
 42
0.0000001
 43
0.0000001
 44
0.0000000001
 40
0.0
 40
0.0
 40
0.0
 40
0.0
 40
0.1484800876
 40
0.2894742652
 40
0.4227549832
 40
0.5486618215
 40
0.6679981313
 40
0.7819342295
 40
0.8919886114
 40
1.0
 40
1.0
 40
1.0
 40
1.0
 10
28.3507707776
 20
51.0035604416
 30
0.0
 10
28.395845124
 20
51.0295839723
 30
0.0
 10
28.4858935899
 20
51.0766930916
 30
0.0
 10
28.623243567
 20
51.1329431738
 30
0.0
 10
28.7581907249
 20
51.1722945768
 30
0.0
 10
28.8893847194
 20
51.1942978003
 30
0.0
 10
29.0156155296
 20
51.198679172
 30
0.0
 10
29.1356876103
 20
51.185266931
 30
0.0
 10
29.2483451183
 20
51.1541543306
 30
0.0
 10
29.3179571278
 20
51.1215339819
 30
0.0
 10
29.3507464599
 20
51.1026034787
 30
0.0
  0
SPLINE
  5
243
100
AcDbEntity
  8
0
100
AcDbSpline
 62
7
  6
BYLAYER
 70
0
 71
3
 72
15
 73
11
 74
0
 42
0.0000001
 43
0.0000001
 44
0.0000000001
 40
0.0
 40
0.0
 40
0.0
 40
0.0
 40
0.1141475829
 40
0.2373370756
 40
0.3669780685
 40
0.5000016033
 40
0.6330249151
 40
0.7626652568
 40
0.8858537231
 40
1.0
 40
1.0
 40
1.0
 40
1.0
 10
8.198311417
 20
37.735597222
 30
0.0
 10
8.198311417
 20
37.847381294
 30
0.0
 10
8.2188008406
 20
38.0800193532
 30
0.0
 10
8.3004079309
 20
38.4309741792
 30
0.0
 10
8.4311996579
 20
38.786455693
 30
0.0
 10
8.6061898859
 20
39.1331062009
 30
0.0
 10
8.8189009773
 20
39.4579779501
 30
0.0
 10
9.0613587461
 20
39.7489872517
 30
0.0
 10
9.3244882558
 20
39.9951371606
 30
0.0
 10
9.5157122086
 20
40.1291992178
 30
0.0
 10
9.6125190915
 20
40.185090364
 30
0.0
  0
SPLINE
  5
244
100
AcDbEntity
  8
0
100
AcDbSpline
 62
7
  6
BYLAYER
 70
0
 71
3
 72
15
 73
11
 74
0
 42
0.0000001
 43
0.0000001
 44
0.0000000001
 40
0.0
 40
0.0
 40
0.0
 40
0.0
 40
0.1080106356
 40
0.2180643786
 40
0.3320000531
 40
0.4513362045
 40
0.5772431688
 40
0.710524282
 40
0.8515191002
 40
1.0
 40
1.0
 40
1.0
 40
1.0
 10
8.6125434092
 20
5.3846945989
 30
0.0
 10
8.5797530037
 20
5.4036257218
 30
0.0
 10
8.5166940874
 20
5.4476017401
 30
0.0
 10
8.433417216
 20
5.5296115765
 30
0.0
 10
8.3617625677
 20
5.6268939768
 30
0.0
 10
8.302438851
 20
5.7384078367
 30
0.0
 10
8.2558951733
 20
5.8630318084
 30
0.0
 10
8.222499544
 20
5.9995810156
 30
0.0
 10
8.2025379102
 20
6.1466611451
 30
0.0
 10
8.198311417
 20
6.2482045169
 30
0.0
 10
8.198311417
 20
6.3002541625
 30
0.0
  0
SPLINE
  5
245
100
AcDbEntity
  8
0
100
AcDbSpline
 62
7
  6
BYLAYER
 70
0
 71
3
 72
20
 73
16
 74
0
 42
0.0000001
 43
0.0000001
 44
0.0000000001
 40
0.0
 40
0.0
 40
0.0
 40
0.0
 40
0.0428302457
 40
0.087428971
 40
0.1352308213
 40
0.1871609826
 40
0.2436306657
 40
0.304611115
 40
0.3697364835
 40
0.4383715739
 40
0.582621924
 40
0.7296866113
 40
0.8711947531
 40
0.9376365295
 40
1.0
 40
1.0
 40
1.0
 40
1.0
 10
29.3442949685
 20
39.3745978234
 30
0.0
 10
29.3270341359
 20
39.3845539016
 30
0.0
 10
29.2943255614
 20
39.4095986727
 30
0.0
 10
29.2549525248
 20
39.4593722517
 30
0.0
 10
29.2255455904
 20
39.5202561974
 30
0.0
 10
29.206484595
 20
39.5907440345
 30
0.0
 10
29.1980143692
 20
39.669363493
 30
0.0
 10
29.2001659103
 20
39.754490879
 30
0.0
 10
29.2129007668
 20
39.8443763455
 30
0.0
 10
29.2440594116
 20
39.9700936428
 30
0.0
 10
29.3072038413
 20
40.1262499016
 30
0.0
 10
29.413093294
 20
40.2985074324
 30
0.0
 10
29.5228125634
 20
40.4233743831
 30
0.0
 10
29.6192051875
 20
40.5044376766
 30
0.0
 10
29.6691558849
 20
40.5378529325
 30
0.0
 10
29.6942827882
 20
40.5523598703
 30
0.0
  0
SPLINE
  5
246
100
AcDbEntity
  8
0
100
AcDbSpline
 62
7
  6
BYLAYER
 70
0
 71
3
 72
15
 73
11
 74
0
 42
0.0000001
 43
0.0000001
 44
0.0000000001
 40
0.0
 40
0.0
 40
0.0
 40
0.0
 40
0.1484808998
 40
0.289475718
 40
0.4227568312
 40
0.5486637955
 40
0.6679999469
 40
0.7819356214
 40
0.8919893644
 40
1.0
 40
1.0
 40
1.0
 40
1.0
 10
31.5327527649
 20
49.1664420288
 30
0.0
 10
31.5327527649
 20
49.2184916745
 30
0.0
 10
31.5285262718
 20
49.3200350463
 30
0.0
 10
31.5085646379
 20
49.4671151757
 30
0.0
 10
31.4751690087
 20
49.603664383
 30
0.0
 10
31.428625331
 20
49.7282883547
 30
0.0
 10
31.3693016143
 20
49.8398022146
 30
0.0
 10
31.2976469659
 20
49.9370846148
 30
0.0
 10
31.2143700946
 20
50.0190944513
 30
0.0
 10
31.1513111782
 20
50.0630704696
 30
0.0
 10
31.1185207728
 20
50.0820015924
 30
0.0
  0
SPLINE
  5
247
100
AcDbEntity
  8
0
100
AcDbSpline
 62
7
  6
BYLAYER
 70
0
 71
3
 72
15
 73
11
 74
0
 42
0.0000001
 43
0.0000001
 44
0.0000000001
 40
0.0
 40
0.0
 40
0.0
 40
0.0
 40
0.1141462769
 40
0.2373347432
 40
0.3669750849
 40
0.4999983967
 40
0.6330219315
 40
0.7626629244
 40
0.8858524171
 40
1.0
 40
1.0
 40
1.0
 40
1.0
 10
30.1185450905
 20
15.2816058273
 30
0.0
 10
30.2153519734
 20
15.3374969736
 30
0.0
 10
30.4065759262
 20
15.4715590307
 30
0.0
 10
30.6697054359
 20
15.7177089396
 30
0.0
 10
30.9121632046
 20
16.0087182413
 30
0.0
 10
31.1248742961
 20
16.3335899905
 30
0.0
 10
31.2998645241
 20
16.6802404983
 30
0.0
 10
31.4306562511
 20
17.0357220122
 30
0.0
 10
31.5122633414
 20
17.3866768382
 30
0.0
 10
31.5327527649
 20
17.6193148974
 30
0.0
 10
31.5327527649
 20
17.7310989693
 30
0.0
  0
SPLINE
  5
248
100
AcDbEntity
  8
0
100
AcDbSpline
 62
7
  6
BYLAYER
 70
0
 71
3
 72
13
 73
9
 74
0
 42
0.0000001
 43
0.0000001
 44
0.0000000001
 40
0.0
 40
0.0
 40
0.0
 40
0.0
 40
0.2893016946
 40
0.5483329464
 40
0.6677563624
 40
0.7817417397
 40
0.8918629468
 40
1.0
 40
1.0
 40
1.0
 40
1.0
 10
31.5327527649
 20
26.6300684269
 30
0.0
 10
31.5327527649
 20
26.6807361103
 30
0.0
 10
31.5250995732
 20
26.7770562116
 30
0.0
 10
31.4916461497
 20
26.8903689271
 30
0.0
 10
31.4510281694
 20
26.9667487614
 30
0.0
 10
31.4152100486
 20
27.0153877508
 30
0.0
 10
31.373562873
 20
27.0563767533
 30
0.0
 10
31.3420433172
 20
27.0783873985
 30
0.0
 10
31.3256392385
 20
27.0878524865
 30
0.0
  0
SPLINE
  5
249
100
AcDbEntity
  8
0
100
AcDbSpline
 62
7
  6
BYLAYER
 70
0
 71
3
 72
12
 73
8
 74
0
 42
0.0000001
 43
0.0000001
 44
0.0000000001
 40
0.0
 40
0.0
 40
0.0
 40
0.0
 40
0.2611528064
 40
0.5223060747
 40
0.7718058143
 40
0.8891852767
 40
1.0
 40
1.0
 40
1.0
 40
1.0
 10
31.1792008463
 20
39.3562386588
 30
0.0
 10
31.2334084205
 20
39.4236740211
 30
0.0
 10
31.3312515909
 20
39.5673770647
 30
0.0
 10
31.4426972086
 20
39.7984604309
 30
0.0
 10
31.503457841
 20
39.9986184093
 30
0.0
 10
31.5283249218
 20
40.1551124249
 30
0.0
 10
31.5327527649
 20
40.2307589379
 30
0.0
 10
31.5327527649
 20
40.2674725713
 30
0.0
  0
SPLINE
  5
24A
100
AcDbEntity
  8
0
100
AcDbSpline
 62
7
  6
BYLAYER
 70
0
 71
3
 72
15
 73
11
 74
0
 42
0.0000001
 43
0.0000001
 44
0.0000000001
 40
0.0
 40
0.0
 40
0.0
 40
0.0
 40
0.1080113886
 40
0.2180657705
 40
0.3320018687
 40
0.4513381785
 40
0.5772450168
 40
0.7105257348
 40
0.8515199124
 40
1.0
 40
1.0
 40
1.0
 40
1.0
 10
31.1185207728
 20
50.0820015924
 30
0.0
 10
31.0857314407
 20
50.1009320956
 30
0.0
 10
31.0161194312
 20
50.1335524443
 30
0.0
 10
30.9034619232
 20
50.1646650447
 30
0.0
 10
30.7833898425
 20
50.1780772857
 30
0.0
 10
30.6571590323
 20
50.173695914
 30
0.0
 10
30.5259650378
 20
50.1516926905
 30
0.0
 10
30.3910178799
 20
50.1123412875
 30
0.0
 10
30.2536679028
 20
50.0560912053
 30
0.0
 10
30.1636194369
 20
50.008982086
 30
0.0
 10
30.1185450905
 20
49.9829585553
 30
0.0
  0
SPLINE
  5
24B
100
AcDbEntity
  8
0
100
AcDbSpline
 62
7
  6
BYLAYER
 70
0
 71
3
 72
12
 73
8
 74
0
 42
0.0000001
 43
0.0000001
 44
0.0000000001
 40
0.0
 40
0.0
 40
0.0
 40
0.0
 40
0.2894229637
 40
0.5486968817
 40
0.7816465254
 40
0.8918325285
 40
1.0
 40
1.0
 40
1.0
 40
1.0
 10
29.6942827882
 20
24.2223115277
 30
0.0
 10
29.6635746724
 20
24.2045822946
 30
0.0
 10
29.6024495273
 20
24.1755350708
 30
0.0
 10
29.5086049339
 20
24.1527985741
 30
0.0
 10
29.4336344687
 20
24.1547896177
 30
0.0
 10
29.3801437
 20
24.1696302
 30
0.0
 10
29.3557743726
 20
24.1810315247
 30
0.0
 10
29.3442949685
 20
24.1876528648
 30
0.0
  0
SPLINE
  5
24C
100
AcDbEntity
  8
0
100
AcDbSpline
 62
7
  6
BYLAYER
 70
0
 71
3
 72
12
 73
8
 74
0
 42
0.0000001
 43
0.0000001
 44
0.0000000001
 40
0.0
 40
0.0
 40
0.0
 40
0.0
 40
0.2894229637
 40
0.5486968817
 40
0.7816465254
 40
0.8918325285
 40
1.0
 40
1.0
 40
1.0
 40
1.0
 10
29.6942827882
 20
39.4092564863
 30
0.0
 10
29.6635746724
 20
39.3915272532
 30
0.0
 10
29.6024495273
 20
39.3624800294
 30
0.0
 10
29.5086049339
 20
39.3397435327
 30
0.0
 10
29.4336344687
 20
39.3417345763
 30
0.0
 10
29.3801437
 20
39.3565751586
 30
0.0
 10
29.3557743726
 20
39.3679764833
 30
0.0
 10
29.3442949685
 20
39.3745978234
 30
0.0
  0
SPLINE
  5
24D
100
AcDbEntity
  8
0
100
AcDbSpline
 62
7
  6
BYLAYER
 70
0
 71
3
 72
15
 73
11
 74
0
 42
0.0000001
 43
0.0000001
 44
0.0000000001
 40
0.0
 40
0.0
 40
0.0
 40
0.0
 40
0.1141462769
 40
0.2373347432
 40
0.3669750849
 40
0.4999983967
 40
0.6330219315
 40
0.7626629244
 40
0.8858524171
 40
1.0
 40
1.0
 40
1.0
 40
1.0
 10
11.3802934043
 20
39.1644884777
 30
0.0
 10
11.2834865214
 20
39.1085973315
 30
0.0
 10
11.0922625687
 20
38.9745352743
 30
0.0
 10
10.829133059
 20
38.7283853654
 30
0.0
 10
10.5866752902
 20
38.4373760638
 30
0.0
 10
10.3739641987
 20
38.1125043146
 30
0.0
 10
10.1989739707
 20
37.7658538067
 30
0.0
 10
10.0681822437
 20
37.4103722929
 30
0.0
 10
9.9865751534
 20
37.0594174669
 30
0.0
 10
9.9660857299
 20
36.8267794077
 30
0.0
 10
9.9660857299
 20
36.7149953357
 30
0.0
  0
SPLINE
  5
24E
100
AcDbEntity
  8
0
100
AcDbSpline
 62
7
  6
BYLAYER
 70
0
 71
3
 72
15
 73
11
 74
0
 42
0.0000001
 43
0.0000001
 44
0.0000000001
 40
0.0
 40
0.0
 40
0.0
 40
0.0
 40
0.1484808998
 40
0.289475718
 40
0.4227568312
 40
0.5486637955
 40
0.6679999469
 40
0.7819356214
 40
0.8919893644
 40
1.0
 40
1.0
 40
1.0
 40
1.0
 10
9.9660857299
 20
5.2796522762
 30
0.0
 10
9.9660857299
 20
5.2276026306
 30
0.0
 10
9.9703122231
 20
5.1260592588
 30
0.0
 10
9.9902738569
 20
4.9789791293
 30
0.0
 10
10.0236694862
 20
4.8424299221
 30
0.0
 10
10.0702131638
 20
4.7178059504
 30
0.0
 10
10.1295368806
 20
4.6062920905
 30
0.0
 10
10.2011915289
 20
4.5090096902
 30
0.0
 10
10.2844684003
 20
4.4269998538
 30
0.0
 10
10.3475273166
 20
4.3830238355
 30
0.0
 10
10.380317722
 20
4.3640927126
 30
0.0
  0
ENDSEC
  0
SECTION
  2
OBJECTS
  0
DICTIONARY
  5
C
100
AcDbDictionary
280
0
281
1
  3
ACAD_GROUP
350
D
  3
ACAD_MLINESTYLE
350
17
  3
ACAD_LAYOUT
350
1A
  3
ACAD_PLOTSETTINGS
350
19
  3
ACAD_PLOTSTYLENAME
350
E
  0
DICTIONARY
  5
D
102
{ACAD_REACTORS
330
C
102
}
100
AcDbDictionary
280
0
281
1
  0
ACDBDICTIONARYWDFLT
  5
E
102
{ACAD_REACTORS
330
C
102
}
100
AcDbDictionary
281
1
  3
Normal
350
F
100
AcDbDictionaryWithDefault
340
F
  0
DICTIONARY
  5
17
102
{ACAD_REACTORS
330
C
102
}
100
AcDbDictionary
280
0
281
1
  3
Standard
350
18
  0
DICTIONARY
  5
19
102
{ACAD_REACTORS
330
C
102
}
100
AcDbDictionary
281
1
  0
DICTIONARY
  5
1A
102
{ACAD_REACTORS
330
C
102
}
100
AcDbDictionary
281
1
  3
Model
350
24F
  3
Layout1
350
250
  0
ACDBPLACEHOLDER
  5
F
102
{ACAD_REACTORS
330
E
102
}
  0
MLINESTYLE
  5
18
102
{ACAD_REACTORS
330
17
102
}
100
AcDbMlineStyle
  2
STANDARD
 70
0
  3

 62
256
 51
90.0
 52
90.0
 71
2
 49
0.5
 62
256
  6
BYLAYER
 49
-0.5
 62
256
  6
BYLAYER
  0
LAYOUT
  5
24F
102
{ACAD_REACTORS
330
1A
102
}
100
AcDbPlotSettings
  1

  2
none_device
  4

  6

 40
0.0
 41
0.0
 42
0.0
 43
0.0
 44
210.0
 45
297.0
 46
0.0
 47
0.0
 48
0.0
 49
0.0
140
0.0
141
0.0
142
1.0
143
1.0
 70
1024
 72
1
 73
0
 74
0
  7

 75
0
147
1.0
148
0.0
149
0.0
100
AcDbLayout
  1
Model
 70
0
 71
0
 10
0.0
 20
0.0
 11
210.0
 21
297.0
 12
0.0
 22
0.0
 32
0.0
 14
0.0
 24
0.0
 34
0.0
 15
0.0
 25
0.0
 35
0.0
146
0.0
 13
0.0
 23
0.0
 33
0.0
 16
1.0
 26
0.0
 36
0.0
 17
0.0
 27
1.0
 37
0.0
 76
0
330
210
345
0
346
0
  0
LAYOUT
  5
250
102
{ACAD_REACTORS
330
1A
102
}
100
AcDbPlotSettings
  1

  2
none_device
  4

  6

 40
0.0
 41
0.0
 42
0.0
 43
0.0
 44
210.0
 45
297.0
 46
0.0
 47
0.0
 48
0.0
 49
0.0
140
0.0
141
0.0
142
1.0
143
1.0
 70
0
 72
1
 73
0
 74
0
  7

 75
0
147
1.0
148
0.0
149
0.0
100
AcDbLayout
  1
Layout1
 70
0
 71
1
 10
0.0
 20
0.0
 11
210.0
 21
297.0
 12
0.0
 22
0.0
 32
0.0
 14
0.0
 24
0.0
 34
0.0
 15
0.0
 25
0.0
 35
0.0
146
0.0
 13
0.0
 23
0.0
 33
0.0
 16
1.0
 26
0.0
 36
0.0
 17
0.0
 27
1.0
 37
0.0
 76
0
330
211
345
0
346
0
  0
ENDSEC
  0
EOF
