999
DXF file: C:\Users\sesa63760\Dev\_Creo\CAD\MCADID0005720_3D-CAD\mcadid0005720_3d-simplified_4.dxf
999
Pro/ENGINEER 2019471 by Parametric Technology Corporation
  0
SECTION
  2
HEADER
  9
$ACADVER
  1
AC1024
  9
$DWGCODEPAGE
  3
ANSI_1252
  9
$EXTMAX
 10
47.4609468747
 20
67.1233391513
 30
0.0
  9
$EXTMIN
 10
0.0
 20
0.0
 30
0.0
  9
$LIMMIN
 10
0.0
 20
0.0
  9
$LIMMAX
 10
47.4609468747
 20
67.1233391513
  9
$VIEWCTR
 10
23.7304734373
 20
33.5616695757
  9
$VIEWSIZE
 40
67.1233391513
  9
$CLAYER
  8
0
  9
$LTSCALE
 40
4.3754472928
  9
$CELTYPE
  6
BYLAYER
  9
$DIMSCALE
 40
1.0
  9
$DIMASZ
 40
0.5650112723
  9
$DIMEXO
 40
1.0
  9
$DIMDLI
 40
3.0230363114
  9
$DIMEXE
 40
1.0
  9
$DIMCEN
 40
0.7159822843
  9
$DIMLFAC
 40
1.0
  9
$DIMBLK
  1
_FILLED
  9
$DIMALT
 70
0
  9
$DIMALTF
 40
0.0393700787
  9
$DIMTXT
 40
0.7910157812
  9
$DIMTOL
 70
1
  9
$DIMLIM
 70
0
  9
$DIMTFAC
 40
1.0
  9
$DIMTP
 40
0.01
  9
$DIMTM
 40
0.01
  9
$DIMGAP
 40
0.625
  9
$DIMDSEP
 70
46
  9
$AUNITS
 70
0
  9
$PDMODE
 70
3
  9
$PDSIZE
 40
0.3125
  9
$HANDSEED
  5
2ED
  9
$TILEMODE
 70
1
  9
$MEASUREMENT
 70
1
  9
$INSUNITS
 70
4
  0
ENDSEC
  0
SECTION
  2
CLASSES
  0
CLASS
  1
ACDBDICTIONARYWDFLT
  2
AcDbDictionaryWithDefault
  3
AutoCAD 2000
 90
0
 91
1
280
0
281
0
  0
CLASS
  1
ACDBPLACEHOLDER
  2
AcDbPlaceHolder
  3
AutoCAD 2000
 90
0
 91
1
280
0
281
0
  0
CLASS
  1
LAYOUT
  2
AcDbLayout
  3
AutoCAD 2000
 90
0
 91
0
280
0
281
0
  0
ENDSEC
  0
SECTION
  2
TABLES
  0
TABLE
  2
VPORT
  5
8
100
AcDbSymbolTable
 70
2
  0
VPORT
  5
1F4
100
AcDbSymbolTableRecord
100
AcDbViewportTableRecord
  2
*ACTIVE
 70
0
 10
0.0
 20
0.0
 11
1.0
 21
1.0
 12
23.7304734373
 22
33.5616695757
 13
0.0
 23
0.0
 14
1.0
 24
1.0
 15
0.0
 25
0.0
 16
0.0
 26
0.0
 36
1.0
 17
0.0
 27
0.0
 37
0.0
 40
67.1233391513
 41
0.7070707071
 42
50.0
 43
0.0
 44
0.0
 50
0.0
 51
0.0
 71
0
 72
100
 73
1
 74
1
 75
0
 76
0
 77
0
 78
0
  0
ENDTAB
  0
TABLE
  2
LTYPE
  5
5
100
AcDbSymbolTable
 70
6
  0
LTYPE
  5
14
100
AcDbSymbolTableRecord
100
AcDbLinetypeTableRecord
  2
BYBLOCK
 70
0
  3

 72
65
 73
0
 40
0.0
  0
LTYPE
  5
15
100
AcDbSymbolTableRecord
100
AcDbLinetypeTableRecord
  2
BYLAYER
 70
0
  3

 72
65
 73
0
 40
0.0
  0
LTYPE
  5
16
100
AcDbSymbolTableRecord
100
AcDbLinetypeTableRecord
  2
CONTINUOUS
 70
64
  3
Solid line
 72
65
 73
0
 40
0.0
  0
LTYPE
  5
1F5
100
AcDbSymbolTableRecord
100
AcDbLinetypeTableRecord
  2
CENTER
 70
64
  3
____ _ ____ _ ____ _ ____ _ ____ _ ____ _ ____
 72
65
 73
4
 40
0.6
 49
0.375
 74
0
 49
-0.075
 74
0
 49
0.075
 74
0
 49
-0.075
 74
0
  0
LTYPE
  5
1F6
100
AcDbSymbolTableRecord
100
AcDbLinetypeTableRecord
  2
HIDDEN
 70
64
  3
- - - - - - - - - - - - - - - - - - - -
 72
65
 73
2
 40
0.2
 49
0.1
 74
0
 49
-0.1
 74
0
  0
LTYPE
  5
1F7
100
AcDbSymbolTableRecord
100
AcDbLinetypeTableRecord
  2
PHANTOM
 70
64
  3
_____ _ _ _____ _ _ _____ _ _ _____
 72
65
 73
6
 40
0.8
 49
0.45
 74
0
 49
-0.05
 74
0
 49
0.1
 74
0
 49
-0.05
 74
0
 49
0.1
 74
0
 49
-0.05
 74
0
  0
LTYPE
  5
1F8
100
AcDbSymbolTableRecord
100
AcDbLinetypeTableRecord
  2
DOT
 70
64
  3
. . . . . . . . . . . . . . . . . . . .
 72
65
 73
2
 40
0.2
 49
0.1
 74
0
 49
-0.1
 74
0
  0
LTYPE
  5
1F9
100
AcDbSymbolTableRecord
100
AcDbLinetypeTableRecord
  2
DASHED
 70
64
  3
- - - - - - - - - - - - - - - - - - - -
 72
65
 73
2
 40
0.2
 49
0.1
 74
0
 49
-0.1
 74
0
  0
ENDTAB
  0
TABLE
  2
LAYER
  5
2
100
AcDbSymbolTable
 70
36
  0
LAYER
  5
10
100
AcDbSymbolTableRecord
100
AcDbLayerTableRecord
  2
0
 70
0
 62
7
  6
CONTINUOUS
370
-3
390
F
  0
LAYER
  5
1FA
100
AcDbSymbolTableRecord
100
AcDbLayerTableRecord
  2
DEFAULT_1
 70
0
 62
7
  6
CENTER
370
-3
390
F
  0
LAYER
  5
1FB
100
AcDbSymbolTableRecord
100
AcDbLayerTableRecord
  2
DEFAULT_2
 70
0
 62
7
  6
HIDDEN
370
-3
390
F
  0
LAYER
  5
1FC
100
AcDbSymbolTableRecord
100
AcDbLayerTableRecord
  2
DEFAULT_3
 70
0
 62
7
  6
PHANTOM
370
-3
390
F
  0
LAYER
  5
1FD
100
AcDbSymbolTableRecord
100
AcDbLayerTableRecord
  2
00_COMPONENTS
 70
0
 62
7
  6
CONTINUOUS
370
-3
390
F
  0
LAYER
  5
1FE
100
AcDbSymbolTableRecord
100
AcDbLayerTableRecord
  2
01_1_DEFAULT_DATUMS
 70
0
 62
7
  6
CONTINUOUS
370
-3
390
F
  0
LAYER
  5
1FF
100
AcDbSymbolTableRecord
100
AcDbLayerTableRecord
  2
01_PLANES
 70
0
 62
7
  6
CONTINUOUS
370
-3
390
F
  0
LAYER
  5
200
100
AcDbSymbolTableRecord
100
AcDbLayerTableRecord
  2
02_COORD_SYS
 70
0
 62
7
  6
CONTINUOUS
370
-3
390
F
  0
LAYER
  5
201
100
AcDbSymbolTableRecord
100
AcDbLayerTableRecord
  2
03_AXES
 70
0
 62
7
  6
CONTINUOUS
370
-3
390
F
  0
LAYER
  5
202
100
AcDbSymbolTableRecord
100
AcDbLayerTableRecord
  2
04_POINTS
 70
0
 62
7
  6
CONTINUOUS
370
-3
390
F
  0
LAYER
  5
203
100
AcDbSymbolTableRecord
100
AcDbLayerTableRecord
  2
05_CURVES
 70
0
 62
7
  6
CONTINUOUS
370
-3
390
F
  0
LAYER
  5
204
100
AcDbSymbolTableRecord
100
AcDbLayerTableRecord
  2
06_SURFS
 70
0
 62
7
  6
CONTINUOUS
370
-3
390
F
  0
LAYER
  5
205
100
AcDbSymbolTableRecord
100
AcDbLayerTableRecord
  2
07_COSMETICS
 70
0
 62
7
  6
CONTINUOUS
370
-3
390
F
  0
LAYER
  5
206
100
AcDbSymbolTableRecord
100
AcDbLayerTableRecord
  2
10_NOTES
 70
0
 62
7
  6
CONTINUOUS
370
-3
390
F
  0
LAYER
  5
207
100
AcDbSymbolTableRecord
100
AcDbLayerTableRecord
  2
11_NOTES_PUB
 70
0
 62
7
  6
CONTINUOUS
370
-3
390
F
  0
LAYER
  5
208
100
AcDbSymbolTableRecord
100
AcDbLayerTableRecord
  2
13_REF_GTOL
 70
0
 62
7
  6
CONTINUOUS
370
-3
390
F
  0
LAYER
  5
209
100
AcDbSymbolTableRecord
100
AcDbLayerTableRecord
  2
16_MISC
 70
0
 62
7
  6
CONTINUOUS
370
-3
390
F
  0
LAYER
  5
20A
100
AcDbSymbolTableRecord
100
AcDbLayerTableRecord
  2
17_NO_PRINT
 70
0
 62
7
  6
CONTINUOUS
370
-3
390
F
  0
LAYER
  5
20B
100
AcDbSymbolTableRecord
100
AcDbLayerTableRecord
  2
18_DATUM_CAMS_JOINTS
 70
0
 62
7
  6
CONTINUOUS
370
-3
390
F
  0
LAYER
  5
20C
100
AcDbSymbolTableRecord
100
AcDbLayerTableRecord
  2
19_DATUM_FUNCTIONAL
 70
0
 62
7
  6
CONTINUOUS
370
-3
390
F
  0
LAYER
  5
20D
100
AcDbSymbolTableRecord
100
AcDbLayerTableRecord
  2
20_DATUM_KINEMATIC_SCHEME
 70
0
 62
7
  6
CONTINUOUS
370
-3
390
F
  0
LAYER
  5
20E
100
AcDbSymbolTableRecord
100
AcDbLayerTableRecord
  2
INTFCLR_1
 70
0
 62
7
  6
CONTINUOUS
370
-3
390
F
  0
LAYER
  5
20F
100
AcDbSymbolTableRecord
100
AcDbLayerTableRecord
  2
INTFCLR_8
 70
0
 62
7
  6
CONTINUOUS
370
-3
390
F
  0
LAYER
  5
210
100
AcDbSymbolTableRecord
100
AcDbLayerTableRecord
  2
INTF_1
 70
0
 62
7
  6
CONTINUOUS
370
-3
390
F
  0
LAYER
  5
211
100
AcDbSymbolTableRecord
100
AcDbLayerTableRecord
  2
INTF_2
 70
0
 62
7
  6
CONTINUOUS
370
-3
390
F
  0
LAYER
  5
212
100
AcDbSymbolTableRecord
100
AcDbLayerTableRecord
  2
INTF_3
 70
0
 62
7
  6
CONTINUOUS
370
-3
390
F
  0
LAYER
  5
213
100
AcDbSymbolTableRecord
100
AcDbLayerTableRecord
  2
INTF_4
 70
0
 62
7
  6
CONTINUOUS
370
-3
390
F
  0
LAYER
  5
214
100
AcDbSymbolTableRecord
100
AcDbLayerTableRecord
  2
INTF_5
 70
0
 62
7
  6
CONTINUOUS
370
-3
390
F
  0
LAYER
  5
215
100
AcDbSymbolTableRecord
100
AcDbLayerTableRecord
  2
INTF_6
 70
0
 62
7
  6
CONTINUOUS
370
-3
390
F
  0
LAYER
  5
216
100
AcDbSymbolTableRecord
100
AcDbLayerTableRecord
  2
white
 70
0
 62
7
  6
CONTINUOUS
370
-3
390
F
  0
ENDTAB
  0
TABLE
  2
STYLE
  5
3
100
AcDbSymbolTable
 70
1
  0
STYLE
  5
11
100
AcDbSymbolTableRecord
100
AcDbTextStyleTableRecord
  2
STANDARD
 70
0
 40
0.0
 41
1.0
 50
0.0
 71
0
 42
0.2
  3
ARIAL.TTF
  4

  0
STYLE
  5
217
100
AcDbSymbolTableRecord
100
AcDbTextStyleTableRecord
  2
TEXTSTYLE_1
 70
0
 40
0.0
 41
0.8
 50
0.0
 71
0
 42
0.2
  3
gdt
  4

  0
ENDTAB
  0
TABLE
  2
VIEW
  5
6
100
AcDbSymbolTable
 70
0
  0
ENDTAB
  0
TABLE
  2
UCS
  5
7
100
AcDbSymbolTable
 70
0
  0
ENDTAB
  0
TABLE
  2
APPID
  5
9
100
AcDbSymbolTable
 70
1
  0
APPID
  5
218
100
AcDbSymbolTableRecord
100
AcDbRegAppTableRecord
  2
ACAD
 70
0
  0
ENDTAB
  0
TABLE
  2
BLOCK_RECORD
  5
1
100
AcDbSymbolTable
 70
0
  0
BLOCK_RECORD
  5
219
100
AcDbSymbolTableRecord
100
AcDbBlockTableRecord
  2
*Model_Space
  0
BLOCK_RECORD
  5
21A
100
AcDbSymbolTableRecord
100
AcDbBlockTableRecord
  2
*Paper_Space
  0
BLOCK_RECORD
  5
21B
100
AcDbSymbolTableRecord
100
AcDbBlockTableRecord
  2
_FILLED
  0
ENDTAB
  0
TABLE
  2
DIMSTYLE
  5
A
100
AcDbSymbolTable
 70
1
100
AcDbDimStyleTable
 71
0
  0
DIMSTYLE
105
21C
100
AcDbSymbolTableRecord
100
AcDbDimStyleTableRecord
  2
STANDARD
 70
0
  3

  4

 40
1.0
 41
0.5650112723
 42
1.0
 43
0.38
 44
1.0
 45
0.0
 46
0.0
 47
0.01
 48
0.01
140
0.7910157812
141
0.09
142
0.0
143
25.4
144
1.0
145
0.0
146
1.0
147
0.625
 71
1
 72
0
 73
0
 74
0
 75
0
 76
0
 77
1
 78
8
 79
2
170
0
171
1
172
0
173
0
174
0
175
0
176
0
177
0
178
0
270
2
179
2
271
2
272
2
273
2
274
2
275
0
280
0
281
0
282
0
283
1
284
8
285
0
286
0
287
3
288
0
340
11
278
46
341
21B
342
21B
343
21B
344
21B
  0
ENDTAB
  0
ENDSEC
  0
SECTION
  2
BLOCKS
  0
BLOCK
  5
20
100
AcDbEntity
  8
0
100
AcDbBlockBegin
  2
*Model_Space
 70
0
 10
0.0
 20
0.0
 30
0.0
  3
*Model_Space
  1

  0
ENDBLK
  5
21
100
AcDbEntity
  8
0
100
AcDbBlockEnd
  0
BLOCK
  5
1C
100
AcDbEntity
  8
0
100
AcDbBlockBegin
  2
*Paper_Space
 70
0
 10
0.0
 20
0.0
 30
0.0
  3
*Paper_Space
  1

  0
ENDBLK
  5
1D
100
AcDbEntity
  8
0
100
AcDbBlockEnd
  0
BLOCK
  5
21D
100
AcDbEntity
  8
0
100
AcDbBlockBegin
  2
_FILLED
 70
64
 10
0.0
 20
0.0
  3
_FILLED
  1

  0
SOLID
  5
21E
100
AcDbEntity
  8
0
  6
BYBLOCK
 62
0
100
AcDbTrace
 10
0.0
 20
0.0
 11
-1.0
 21
0.25
 12
-1.0
 22
-0.25
 13
-1.0
 23
-0.25
  0
ENDBLK
  5
21F
100
AcDbEntity
  8
0
  6
BYBLOCK
 62
0
100
AcDbBlockEnd
  0
ENDSEC
  0
SECTION
  2
ENTITIES
  0
LINE
  5
220
100
AcDbEntity
  8
INTFCLR_1
100
AcDbLine
 62
7
  6
BYLAYER
 10
37.4468100333
 20
4.8062823881
 11
35.446660761
 21
4.8062823881
  0
LINE
  5
221
100
AcDbEntity
  8
INTFCLR_1
100
AcDbLine
 62
7
  6
BYLAYER
 10
13.2466607613
 20
4.8062823881
 11
11.2465114893
 21
4.8062823881
  0
LINE
  5
222
100
AcDbEntity
  8
INTFCLR_1
100
AcDbLine
 62
7
  6
BYLAYER
 10
37.392199217
 20
6.7665588672
 11
35.4227102742
 21
6.7665588652
  0
LINE
  5
223
100
AcDbEntity
  8
INTFCLR_1
100
AcDbLine
 62
7
  6
BYLAYER
 10
13.2706112482
 20
6.7665588658
 11
11.2973216938
 21
6.766558867
  0
LINE
  5
224
100
AcDbEntity
  8
INTFCLR_1
100
AcDbLine
 62
7
  6
BYLAYER
 10
37.40465813
 20
8.2562823881
 11
35.4045089625
 21
8.2562823881
  0
LINE
  5
225
100
AcDbEntity
  8
INTFCLR_1
100
AcDbLine
 62
7
  6
BYLAYER
 10
11.2920094828
 20
8.2562823881
 11
13.2923780133
 21
8.2562823881
  0
LINE
  5
226
100
AcDbEntity
  8
INTFCLR_1
100
AcDbLine
 62
7
  6
BYLAYER
 10
36.6466607606
 20
8.3062823881
 11
35.4038981652
 21
8.3062823881
  0
LINE
  5
227
100
AcDbEntity
  8
INTFCLR_1
100
AcDbLine
 62
7
  6
BYLAYER
 10
13.28942333
 20
8.3062823881
 11
12.0466607619
 21
8.3062823881
  0
LINE
  5
228
100
AcDbEntity
  8
INTFCLR_1
100
AcDbLine
 62
7
  6
BYLAYER
 10
14.7966607617
 20
60.6062823887
 11
14.0975259124
 21
59.5295229249
  0
LINE
  5
229
100
AcDbEntity
  8
00_COMPONENTS
100
AcDbLine
 62
7
  6
BYLAYER
 10
18.6682881888
 20
57.6062823881
 11
13.8500643134
 21
54.1930776855
  0
LINE
  5
22A
100
AcDbEntity
  8
INTFCLR_1
100
AcDbLine
 62
7
  6
BYLAYER
 10
36.4004853516
 20
8.9224811609
 11
35.3963694047
 21
8.9224811618
  0
LINE
  5
22B
100
AcDbEntity
  8
INTFCLR_1
100
AcDbLine
 62
7
  6
BYLAYER
 10
13.2969521181
 20
8.9224811626
 11
12.2968692508
 21
8.9224811615
  0
LINE
  5
22C
100
AcDbEntity
  8
INTFCLR_1
100
AcDbLine
 62
7
  6
BYLAYER
 10
13.3040849508
 20
9.5062823881
 11
35.3892365717
 21
9.5062823881
  0
LINE
  5
22D
100
AcDbEntity
  8
00_COMPONENTS
100
AcDbLine
 62
7
  6
BYLAYER
 10
13.2466607613
 20
9.9062823881
 11
14.3556786413
 21
9.9062823881
  0
LINE
  5
22E
100
AcDbEntity
  8
00_COMPONENTS
100
AcDbLine
 62
7
  6
BYLAYER
 10
34.3376428813
 20
9.9062823881
 11
35.4466607613
 21
9.9062823881
  0
LINE
  5
22F
100
AcDbEntity
  8
INTFCLR_1
100
AcDbLine
 62
7
  6
BYLAYER
 10
37.3826659915
 20
10.0562823881
 11
35.3825167202
 21
10.0562823881
  0
LINE
  5
230
100
AcDbEntity
  8
INTFCLR_1
100
AcDbLine
 62
7
  6
BYLAYER
 10
13.3108048027
 20
10.0562823891
 11
11.3106555307
 21
10.0562823891
  0
LINE
  5
231
100
AcDbEntity
  8
INTFCLR_1
100
AcDbLine
 62
7
  6
BYLAYER
 10
37.3777788267
 20
10.4562823881
 11
35.3776296592
 21
10.4562823881
  0
LINE
  5
232
100
AcDbEntity
  8
INTFCLR_1
100
AcDbLine
 62
7
  6
BYLAYER
 10
11.3121961284
 20
10.4562823881
 11
13.3122189025
 21
10.4562823881
  0
LINE
  5
233
100
AcDbEntity
  8
00_COMPONENTS
100
AcDbLine
 62
7
  6
BYLAYER
 10
35.4466607613
 20
10.7062823881
 11
34.3376428813
 21
10.7062823881
  0
LINE
  5
234
100
AcDbEntity
  8
00_COMPONENTS
100
AcDbLine
 62
7
  6
BYLAYER
 10
14.3556786413
 20
10.7062823881
 11
13.2466607613
 21
10.7062823881
  0
LINE
  5
235
100
AcDbEntity
  8
INTFCLR_1
100
AcDbLine
 62
7
  6
BYLAYER
 10
13.3248554023
 20
11.2062823881
 11
35.3684661202
 21
11.2062823881
  0
LINE
  5
236
100
AcDbEntity
  8
INTFCLR_1
100
AcDbLine
 62
7
  6
BYLAYER
 10
37.3921992171
 20
6.7665588687
 11
37.423031274
 21
6.7525033549
  0
LINE
  5
237
100
AcDbEntity
  8
INTFCLR_1
100
AcDbLine
 62
7
  6
BYLAYER
 10
11.4083318942
 20
18.0508037516
 11
12.3863611061
 21
16.2471247419
  0
LINE
  5
238
100
AcDbEntity
  8
INTFCLR_1
100
AcDbLine
 62
7
  6
BYLAYER
 10
36.3109934965
 20
16.2471247403
 11
35.3068775489
 21
16.2471247354
  0
LINE
  5
239
100
AcDbEntity
  8
INTFCLR_1
100
AcDbLine
 62
7
  6
BYLAYER
 10
12.3863611061
 20
16.2471247419
 11
13.3864439739
 21
16.2471247362
  0
LINE
  5
23A
100
AcDbEntity
  8
INTFCLR_1
100
AcDbLine
 62
7
  6
BYLAYER
 10
12.0466607619
 20
8.3943190778
 11
12.046660761
 21
4.8062823881
  0
LINE
  5
23B
100
AcDbEntity
  8
INTFCLR_1
100
AcDbLine
 62
7
  6
BYLAYER
 10
11.2886619176
 20
8.2561702325
 11
11.3155437743
 21
10.4563706582
  0
LINE
  5
23C
100
AcDbEntity
  8
INTFCLR_1
100
AcDbLine
 62
7
  6
BYLAYER
 10
11.2465114893
 20
4.8062823881
 11
11.2886619176
 21
8.2561702325
  0
LINE
  5
23D
100
AcDbEntity
  8
INTFCLR_1
100
AcDbLine
 62
7
  6
BYLAYER
 10
11.3155437743
 20
10.4563706582
 11
11.9405337083
 21
61.6099474884
  0
LINE
  5
23E
100
AcDbEntity
  8
INTFCLR_1
100
AcDbLine
 62
7
  6
BYLAYER
 10
21.0966607607
 20
61.6062823881
 11
20.6966607615
 21
60.6062823881
  0
LINE
  5
23F
100
AcDbEntity
  8
INTFCLR_1
100
AcDbLine
 62
7
  6
BYLAYER
 10
26.9966607623
 20
60.6062823882
 11
26.2975259121
 21
59.5295229229
  0
LINE
  5
240
100
AcDbEntity
  8
00_COMPONENTS
100
AcDbLine
 62
7
  6
BYLAYER
 10
13.2466607614
 20
9.9062823881
 11
13.2466607614
 21
10.7062823881
  0
LINE
  5
241
100
AcDbEntity
  8
INTFCLR_1
100
AcDbLine
 62
7
  6
BYLAYER
 10
13.7747462767
 20
48.0584110942
 11
13.7747462767
 21
48.056282389
  0
LINE
  5
242
100
AcDbEntity
  8
INTFCLR_1
100
AcDbLine
 62
7
  6
BYLAYER
 10
13.7747462767
 20
48.0562823884
 11
13.7747462767
 21
48.0285192518
  0
LINE
  5
243
100
AcDbEntity
  8
INTFCLR_1
100
AcDbLine
 62
7
  6
BYLAYER
 10
12.3863611061
 20
16.2471247419
 11
12.2968692508
 21
8.9224811614
  0
LINE
  5
244
100
AcDbEntity
  8
INTFCLR_1
100
AcDbLine
 62
7
  6
BYLAYER
 10
12.9007626764
 20
40.3410044967
 11
13.0107487677
 21
49.3430406427
  0
LINE
  5
245
100
AcDbEntity
  8
INTFCLR_1
100
AcDbLine
 62
7
  6
BYLAYER
 10
13.7751114926
 20
48.0584110946
 11
13.7750854505
 21
48.0562796258
  0
LINE
  5
246
100
AcDbEntity
  8
INTFCLR_1
100
AcDbLine
 62
7
  6
BYLAYER
 10
13.8917665505
 20
57.6062823892
 11
13.7751114926
 21
48.0584110946
  0
LINE
  5
247
100
AcDbEntity
  8
INTFCLR_1
100
AcDbLine
 62
7
  6
BYLAYER
 10
13.2466605005
 20
4.8062610427
 11
13.3156933326
 21
10.4563940934
  0
LINE
  5
248
100
AcDbEntity
  8
INTFCLR_1
100
AcDbLine
 62
7
  6
BYLAYER
 10
13.3156933326
 20
10.4563940934
 11
13.7750854505
 21
48.0562796258
  0
LINE
  5
249
100
AcDbEntity
  8
00_COMPONENTS
100
AcDbLine
 62
7
  6
BYLAYER
 10
13.8500643134
 20
54.1930776855
 11
13.8917665504
 21
57.6062823881
  0
LINE
  5
24A
100
AcDbEntity
  8
00_COMPONENTS
100
AcDbLine
 62
7
  6
BYLAYER
 10
13.2763343715
 20
6.5062823883
 11
13.3356815926
 21
9.9062823881
  0
LINE
  5
24B
100
AcDbEntity
  8
00_COMPONENTS
100
AcDbLine
 62
7
  6
BYLAYER
 10
14.3556786413
 20
9.9062823881
 11
14.3556786413
 21
10.7062823881
  0
LINE
  5
24C
100
AcDbEntity
  8
INTFCLR_1
100
AcDbLine
 62
7
  6
BYLAYER
 10
14.7466607628
 20
61.9062823881
 11
14.7466607613
 21
61.6062823881
  0
LINE
  5
24D
100
AcDbEntity
  8
INTFCLR_1
100
AcDbLine
 62
7
  6
BYLAYER
 10
15.1466607591
 20
61.9062823881
 11
15.1466607609
 21
61.6062823881
  0
LINE
  5
24E
100
AcDbEntity
  8
INTFCLR_1
100
AcDbLine
 62
7
  6
BYLAYER
 10
17.6466607613
 20
60.6062823881
 11
17.6466607613
 21
61.6062823881
  0
LINE
  5
24F
100
AcDbEntity
  8
INTFCLR_1
100
AcDbLine
 62
7
  6
BYLAYER
 10
29.8466607604
 20
61.6062823881
 11
29.4466607615
 21
60.6062823881
  0
LINE
  5
250
100
AcDbEntity
  8
INTFCLR_1
100
AcDbLine
 62
7
  6
BYLAYER
 10
37.1536928134
 20
28.7970593342
 11
35.1535435436
 21
28.7970593223
  0
LINE
  5
251
100
AcDbEntity
  8
INTFCLR_1
100
AcDbLine
 62
7
  6
BYLAYER
 10
13.5397779789
 20
28.7970593231
 11
11.5396287088
 21
28.7970593283
  0
LINE
  5
252
100
AcDbEntity
  8
INTFCLR_1
100
AcDbLine
 62
7
  6
BYLAYER
 10
20.4966607613
 20
57.6062823869
 11
20.4966607613
 21
55.2144544115
  0
LINE
  5
253
100
AcDbEntity
  8
INTFCLR_1
100
AcDbLine
 62
7
  6
BYLAYER
 10
21.3466607613
 20
61.9062823881
 11
21.3466607613
 21
61.6062823881
  0
LINE
  5
254
100
AcDbEntity
  8
INTFCLR_1
100
AcDbLine
 62
7
  6
BYLAYER
 10
21.7466607635
 20
61.9062823881
 11
21.7466607613
 21
61.6062823881
  0
LINE
  5
255
100
AcDbEntity
  8
00_COMPONENTS
100
AcDbLine
 62
7
  6
BYLAYER
 10
14.2424863699
 20
9.9062823881
 11
13.2763343715
 21
6.5062823883
  0
LINE
  5
256
100
AcDbEntity
  8
INTFCLR_1
100
AcDbLine
 62
7
  6
BYLAYER
 10
33.2966607607
 20
61.6062823881
 11
32.8966607615
 21
60.6062823881
  0
LINE
  5
257
100
AcDbEntity
  8
INTFCLR_1
100
AcDbLine
 62
7
  6
BYLAYER
 10
22.5466607613
 20
49.7111625211
 11
22.5466607619
 21
52.4882018139
  0
LINE
  5
258
100
AcDbEntity
  8
INTFCLR_1
100
AcDbLine
 62
7
  6
BYLAYER
 10
22.5507025214
 20
52.5790505804
 11
22.5507025214
 21
52.6338664748
  0
LINE
  5
259
100
AcDbEntity
  8
INTFCLR_1
100
AcDbLine
 62
7
  6
BYLAYER
 10
22.9466607613
 20
61.9062823881
 11
22.9466607613
 21
58.1062823881
  0
LINE
  5
25A
100
AcDbEntity
  8
INTFCLR_1
100
AcDbLine
 62
7
  6
BYLAYER
 10
12.2968692508
 20
8.9224811615
 11
11.2973216938
 21
6.7665588671
  0
LINE
  5
25B
100
AcDbEntity
  8
INTFCLR_1
100
AcDbLine
 62
7
  6
BYLAYER
 10
25.7466607613
 20
61.9062823881
 11
25.7466607613
 21
58.1062823881
  0
LINE
  5
25C
100
AcDbEntity
  8
INTFCLR_1
100
AcDbLine
 62
7
  6
BYLAYER
 10
26.1426190011
 20
52.5790505804
 11
26.1426190011
 21
52.6338664748
  0
LINE
  5
25D
100
AcDbEntity
  8
INTFCLR_1
100
AcDbLine
 62
7
  6
BYLAYER
 10
26.1466607613
 20
52.4882017265
 11
26.1466607613
 21
49.7111625211
  0
LINE
  5
25E
100
AcDbEntity
  8
INTFCLR_1
100
AcDbLine
 62
7
  6
BYLAYER
 10
36.4004853516
 20
8.9224811604
 11
37.3921992171
 21
6.7665588687
  0
LINE
  5
25F
100
AcDbEntity
  8
INTFCLR_1
100
AcDbLine
 62
7
  6
BYLAYER
 10
15.3966607618
 20
61.6062823881
 11
15.796660761
 21
60.6062823881
  0
LINE
  5
260
100
AcDbEntity
  8
INTFCLR_1
100
AcDbLine
 62
7
  6
BYLAYER
 10
26.9466607645
 20
61.9062823881
 11
26.9466607613
 21
61.6062823881
  0
LINE
  5
261
100
AcDbEntity
  8
INTFCLR_1
100
AcDbLine
 62
7
  6
BYLAYER
 10
27.3466607608
 20
61.9062823881
 11
27.3466607609
 21
61.6062823881
  0
LINE
  5
262
100
AcDbEntity
  8
INTFCLR_1
100
AcDbLine
 62
7
  6
BYLAYER
 10
28.1966607613
 20
57.6062823881
 11
28.1966607613
 21
55.2144544127
  0
LINE
  5
263
100
AcDbEntity
  8
00_COMPONENTS
100
AcDbLine
 62
7
  6
BYLAYER
 10
35.416987151
 20
6.5062823883
 11
34.4508351526
 21
9.9062823881
  0
LINE
  5
264
100
AcDbEntity
  8
INTFCLR_1
100
AcDbLine
 62
7
  6
BYLAYER
 10
18.8466607621
 20
61.6062823881
 11
19.246660761
 21
60.6062823881
  0
LINE
  5
265
100
AcDbEntity
  8
INTFCLR_1
100
AcDbLine
 62
7
  6
BYLAYER
 10
31.0466607613
 20
61.6062823881
 11
31.0466607613
 21
60.6062823881
  0
LINE
  5
266
100
AcDbEntity
  8
INTFCLR_1
100
AcDbLine
 62
7
  6
BYLAYER
 10
37.0124677971
 20
40.3559092384
 11
35.0126170574
 21
40.331475234
  0
LINE
  5
267
100
AcDbEntity
  8
INTFCLR_1
100
AcDbLine
 62
7
  6
BYLAYER
 10
13.6807044649
 20
40.3314752333
 11
11.6808537253
 21
40.35590923
  0
LINE
  5
268
100
AcDbEntity
  8
00_COMPONENTS
100
AcDbLine
 62
7
  6
BYLAYER
 10
35.3576399299
 20
9.9062823881
 11
35.416987151
 21
6.5062823883
  0
LINE
  5
269
100
AcDbEntity
  8
INTFCLR_1
100
AcDbLine
 62
7
  6
BYLAYER
 10
34.9182360893
 20
48.0562782448
 11
34.9182100303
 21
48.0584110942
  0
LINE
  5
26A
100
AcDbEntity
  8
INTFCLR_1
100
AcDbLine
 62
7
  6
BYLAYER
 10
35.446660761
 20
4.8062823882
 11
34.9182360893
 21
48.0562782448
  0
LINE
  5
26B
100
AcDbEntity
  8
INTFCLR_1
100
AcDbLine
 62
7
  6
BYLAYER
 10
34.9155414852
 20
48.2768235994
 11
34.9029023455
 21
49.3112998581
  0
LINE
  5
26C
100
AcDbEntity
  8
INTFCLR_1
100
AcDbLine
 62
7
  6
BYLAYER
 10
34.9182100303
 20
48.0584110942
 11
34.9155414852
 21
48.2768235994
  0
LINE
  5
26D
100
AcDbEntity
  8
INTFCLR_1
100
AcDbLine
 62
7
  6
BYLAYER
 10
34.9029023455
 20
49.3112998581
 11
34.801554972
 21
57.6062823882
  0
LINE
  5
26E
100
AcDbEntity
  8
INTFCLR_1
100
AcDbLine
 62
7
  6
BYLAYER
 10
33.5466607613
 20
61.9062823881
 11
33.5466607613
 21
61.6062823881
  0
LINE
  5
26F
100
AcDbEntity
  8
INTFCLR_1
100
AcDbLine
 62
7
  6
BYLAYER
 10
33.9466607652
 20
61.9062823881
 11
33.9466607613
 21
61.6062823881
  0
LINE
  5
270
100
AcDbEntity
  8
00_COMPONENTS
100
AcDbLine
 62
7
  6
BYLAYER
 10
34.3376428813
 20
10.7062823881
 11
34.3376428813
 21
9.9062823881
  0
LINE
  5
271
100
AcDbEntity
  8
INTFCLR_1
100
AcDbLine
 62
7
  6
BYLAYER
 10
34.9185752458
 20
48.0562882797
 11
34.9185752458
 21
48.0285192518
  0
LINE
  5
272
100
AcDbEntity
  8
INTFCLR_1
100
AcDbLine
 62
7
  6
BYLAYER
 10
34.9185752458
 20
48.0584110939
 11
34.9185752458
 21
48.0562812928
  0
LINE
  5
273
100
AcDbEntity
  8
00_COMPONENTS
100
AcDbLine
 62
7
  6
BYLAYER
 10
34.8015549719
 20
57.6062823881
 11
34.5846661915
 21
54.1899182434
  0
LINE
  5
274
100
AcDbEntity
  8
INTFCLR_1
100
AcDbLine
 62
7
  6
BYLAYER
 10
35.682572008
 20
49.3431017694
 11
35.7925588461
 21
40.3410044967
  0
LINE
  5
275
100
AcDbEntity
  8
INTFCLR_1
100
AcDbLine
 62
7
  6
BYLAYER
 10
36.3109934963
 20
16.2471247404
 11
36.4004853516
 21
8.9224811604
  0
LINE
  5
276
100
AcDbEntity
  8
INTFCLR_1
100
AcDbLine
 62
7
  6
BYLAYER
 10
37.4468100341
 20
4.8062823881
 11
36.7491672203
 21
61.906282388
  0
LINE
  5
277
100
AcDbEntity
  8
00_COMPONENTS
100
AcDbLine
 62
7
  6
BYLAYER
 10
35.4466607612
 20
10.7062823881
 11
35.4466607612
 21
9.9062823881
  0
LINE
  5
278
100
AcDbEntity
  8
INTFCLR_1
100
AcDbLine
 62
7
  6
BYLAYER
 10
36.6466607613
 20
4.8062823881
 11
36.6466607611
 21
8.3943190776
  0
LINE
  5
279
100
AcDbEntity
  8
INTFCLR_1
100
AcDbLine
 62
7
  6
BYLAYER
 10
21.6966607612
 20
60.6062823882
 11
22.3957956113
 21
59.529522923
  0
LINE
  5
27A
100
AcDbEntity
  8
INTFCLR_1
100
AcDbLine
 62
7
  6
BYLAYER
 10
35.6985289299
 20
48.037046609
 11
35.4893001669
 21
48.0285192492
  0
LINE
  5
27B
100
AcDbEntity
  8
INTFCLR_1
100
AcDbLine
 62
7
  6
BYLAYER
 10
13.7752977294
 20
48.0736706439
 11
14.9446807797
 21
48.0740506485
  0
LINE
  5
27C
100
AcDbEntity
  8
INTFCLR_1
100
AcDbLine
 62
7
  6
BYLAYER
 10
35.4893001663
 20
48.0285192505
 11
34.9185752458
 21
48.0285192505
  0
LINE
  5
27D
100
AcDbEntity
  8
INTFCLR_1
100
AcDbLine
 62
7
  6
BYLAYER
 10
13.7747462767
 20
48.0285192504
 11
13.2040213556
 21
48.0285192504
  0
LINE
  5
27E
100
AcDbEntity
  8
INTFCLR_1
100
AcDbLine
 62
7
  6
BYLAYER
 10
34.9077769511
 20
48.0562823881
 11
33.6652290247
 21
48.0562823881
  0
LINE
  5
27F
100
AcDbEntity
  8
INTFCLR_1
100
AcDbLine
 62
7
  6
BYLAYER
 10
13.7747462763
 20
48.0562823881
 11
13.7855612573
 21
48.0562823881
  0
LINE
  5
280
100
AcDbEntity
  8
INTFCLR_1
100
AcDbLine
 62
7
  6
BYLAYER
 10
13.7855612573
 20
48.0562823881
 11
15.0280924163
 21
48.0562823881
  0
LINE
  5
281
100
AcDbEntity
  8
INTFCLR_1
100
AcDbLine
 62
7
  6
BYLAYER
 10
34.9077769511
 20
48.0562823881
 11
34.9185752463
 21
48.0562823881
  0
LINE
  5
282
100
AcDbEntity
  8
INTFCLR_1
100
AcDbLine
 62
7
  6
BYLAYER
 10
35.4886912807
 20
48.0584110939
 11
34.9185752458
 21
48.0584110939
  0
LINE
  5
283
100
AcDbEntity
  8
INTFCLR_1
100
AcDbLine
 62
7
  6
BYLAYER
 10
13.7747462767
 20
48.058411095
 11
13.2046302422
 21
48.058411095
  0
LINE
  5
284
100
AcDbEntity
  8
INTFCLR_1
100
AcDbLine
 62
7
  6
BYLAYER
 10
36.9178964369
 20
48.0962823937
 11
34.9177473843
 21
48.0962823937
  0
LINE
  5
285
100
AcDbEntity
  8
INTFCLR_1
100
AcDbLine
 62
7
  6
BYLAYER
 10
13.7755741363
 20
48.0962823915
 11
11.7754248643
 21
48.0962823915
  0
LINE
  5
286
100
AcDbEntity
  8
INTFCLR_1
100
AcDbLine
 62
7
  6
BYLAYER
 10
33.7486431034
 20
48.0740504908
 11
34.918023605
 21
48.0736703581
  0
LINE
  5
287
100
AcDbEntity
  8
INTFCLR_1
100
AcDbLine
 62
7
  6
BYLAYER
 10
13.2040213561
 20
48.0285192495
 11
12.994792772
 21
48.037046602
  0
LINE
  5
288
100
AcDbEntity
  8
INTFCLR_1
100
AcDbLine
 62
7
  6
BYLAYER
 10
27.5966607618
 20
61.6062823881
 11
27.996660761
 21
60.6062823881
  0
LINE
  5
289
100
AcDbEntity
  8
INTFCLR_1
100
AcDbLine
 62
7
  6
BYLAYER
 10
34.9029023237
 20
49.3113015674
 11
35.6825730194
 21
49.3430779467
  0
LINE
  5
28A
100
AcDbEntity
  8
INTFCLR_1
100
AcDbLine
 62
7
  6
BYLAYER
 10
36.8991074652
 20
49.6341169981
 11
34.8989582752
 21
49.6341169981
  0
LINE
  5
28B
100
AcDbEntity
  8
INTFCLR_1
100
AcDbLine
 62
7
  6
BYLAYER
 10
11.7942140573
 20
49.6341169981
 11
13.7943632325
 21
49.6341169981
  0
LINE
  5
28C
100
AcDbEntity
  8
INTFCLR_1
100
AcDbLine
 62
7
  6
BYLAYER
 10
26.1466607613
 20
49.7111625211
 11
22.5466607613
 21
49.7111625211
  0
LINE
  5
28D
100
AcDbEntity
  8
INTFCLR_1
100
AcDbLine
 62
7
  6
BYLAYER
 10
22.5466607613
 20
49.914920582
 11
26.1466607613
 21
49.914920582
  0
LINE
  5
28E
100
AcDbEntity
  8
INTFCLR_1
100
AcDbLine
 62
7
  6
BYLAYER
 10
13.7905542565
 20
49.3112960633
 11
13.0107492231
 21
49.3430779177
  0
LINE
  5
28F
100
AcDbEntity
  8
INTFCLR_1
100
AcDbLine
 62
7
  6
BYLAYER
 10
37.2849003971
 20
18.0581070935
 11
36.3109934963
 21
16.2471247404
  0
LINE
  5
290
100
AcDbEntity
  8
INTFCLR_1
100
AcDbLine
 62
7
  6
BYLAYER
 10
11.2973216938
 20
6.766558867
 11
11.2703127451
 21
6.7543447752
  0
LINE
  5
291
100
AcDbEntity
  8
INTFCLR_1
100
AcDbLine
 62
7
  6
BYLAYER
 10
26.1466607613
 20
50.9039781067
 11
22.5466607613
 21
50.9039781067
  0
LINE
  5
292
100
AcDbEntity
  8
INTFCLR_1
100
AcDbLine
 62
7
  6
BYLAYER
 10
26.1466607631
 20
51.5675366782
 11
22.5466607595
 21
51.5675366782
  0
LINE
  5
293
100
AcDbEntity
  8
INTFCLR_1
100
AcDbLine
 62
7
  6
BYLAYER
 10
26.1466607613
 20
51.7761416821
 11
22.5466607613
 21
51.7761416821
  0
LINE
  5
294
100
AcDbEntity
  8
INTFCLR_1
100
AcDbLine
 62
7
  6
BYLAYER
 10
26.1466607613
 20
51.7830233571
 11
22.5466607613
 21
51.7830233571
  0
LINE
  5
295
100
AcDbEntity
  8
INTFCLR_1
100
AcDbLine
 62
7
  6
BYLAYER
 10
26.1426275775
 20
52.6264291948
 11
22.5506931632
 21
52.6264291948
  0
LINE
  5
296
100
AcDbEntity
  8
00_COMPONENTS
100
AcDbLine
 62
7
  6
BYLAYER
 10
34.5846661915
 20
54.1899182434
 11
30.0250333336
 21
57.6062823881
  0
LINE
  5
297
100
AcDbEntity
  8
INTFCLR_1
100
AcDbLine
 62
7
  6
BYLAYER
 10
33.8966607576
 20
60.6062823866
 11
34.5957735837
 21
59.5295568589
  0
LINE
  5
298
100
AcDbEntity
  8
INTFCLR_1
100
AcDbLine
 62
7
  6
BYLAYER
 10
28.1966607613
 20
57.0667186805
 11
20.4966607613
 21
57.0667186805
  0
LINE
  5
299
100
AcDbEntity
  8
INTFCLR_1
100
AcDbLine
 62
7
  6
BYLAYER
 10
34.8015549748
 20
57.6062823881
 11
13.8917665478
 21
57.6062823881
  0
LINE
  5
29A
100
AcDbEntity
  8
00_COMPONENTS
100
AcDbLine
 62
7
  6
BYLAYER
 10
13.8917665504
 20
57.6062823881
 11
18.6682881888
 21
57.6062823881
  0
LINE
  5
29B
100
AcDbEntity
  8
00_COMPONENTS
100
AcDbLine
 62
7
  6
BYLAYER
 10
30.0250333336
 20
57.6062823881
 11
34.8015549719
 21
57.6062823881
  0
LINE
  5
29C
100
AcDbEntity
  8
INTFCLR_1
100
AcDbLine
 62
7
  6
BYLAYER
 10
36.8013856443
 20
57.6323587389
 11
11.8919358797
 21
57.6323587389
  0
LINE
  5
29D
100
AcDbEntity
  8
INTFCLR_1
100
AcDbLine
 62
7
  6
BYLAYER
 10
11.8928705948
 20
57.7088626621
 11
36.8004509292
 21
57.7088626621
  0
LINE
  5
29E
100
AcDbEntity
  8
INTFCLR_1
100
AcDbLine
 62
7
  6
BYLAYER
 10
36.797830511
 20
57.9233356812
 11
11.8954910116
 21
57.9233356812
  0
LINE
  5
29F
100
AcDbEntity
  8
INTFCLR_1
100
AcDbLine
 62
7
  6
BYLAYER
 10
25.7466607613
 20
58.1062823881
 11
22.9466607613
 21
58.1062823881
  0
LINE
  5
2A0
100
AcDbEntity
  8
INTFCLR_1
100
AcDbLine
 62
7
  6
BYLAYER
 10
11.8988797723
 20
58.2006959717
 11
36.7944417424
 21
58.2006959717
  0
LINE
  5
2A1
100
AcDbEntity
  8
INTFCLR_1
100
AcDbLine
 62
7
  6
BYLAYER
 10
36.7918476203
 20
58.4130175176
 11
11.9014739033
 21
58.4130175176
  0
LINE
  5
2A2
100
AcDbEntity
  8
INTFCLR_1
100
AcDbLine
 62
7
  6
BYLAYER
 10
11.9048626642
 20
58.6903778083
 11
36.7884588523
 21
58.6903778083
  0
LINE
  5
2A3
100
AcDbEntity
  8
INTFCLR_1
100
AcDbLine
 62
7
  6
BYLAYER
 10
36.7858647336
 20
58.9026993548
 11
11.9074567851
 21
58.9026993548
  0
LINE
  5
2A4
100
AcDbEntity
  8
INTFCLR_1
100
AcDbLine
 62
7
  6
BYLAYER
 10
22.144181538
 20
59.0661468634
 11
14.3491399878
 21
59.0661510867
  0
LINE
  5
2A5
100
AcDbEntity
  8
INTFCLR_1
100
AcDbLine
 62
7
  6
BYLAYER
 10
34.3441815356
 20
59.0661468632
 11
26.5491399854
 21
59.0661510867
  0
LINE
  5
2A6
100
AcDbEntity
  8
INTFCLR_1
100
AcDbLine
 62
7
  6
BYLAYER
 10
11.9108455524
 20
59.1800596447
 11
36.7824759626
 21
59.1800596447
  0
LINE
  5
2A7
100
AcDbEntity
  8
INTFCLR_1
100
AcDbLine
 62
7
  6
BYLAYER
 10
36.7798818436
 20
59.3923811918
 11
11.9134396751
 21
59.3923811918
  0
LINE
  5
2A8
100
AcDbEntity
  8
INTFCLR_1
100
AcDbLine
 62
7
  6
BYLAYER
 10
11.9168284398
 20
59.6697414804
 11
36.7764930726
 21
59.6697414804
  0
LINE
  5
2A9
100
AcDbEntity
  8
INTFCLR_1
100
AcDbLine
 62
7
  6
BYLAYER
 10
36.7738989537
 20
59.88206303
 11
11.9194225653
 21
59.88206303
  0
LINE
  5
2AA
100
AcDbEntity
  8
INTFCLR_1
100
AcDbLine
 62
7
  6
BYLAYER
 10
11.9228113302
 20
60.1594233157
 11
36.7705101826
 21
60.1594233157
  0
LINE
  5
2AB
100
AcDbEntity
  8
INTFCLR_1
100
AcDbLine
 62
7
  6
BYLAYER
 10
36.7679160639
 20
60.371744866
 11
11.9254054547
 21
60.371744866
  0
LINE
  5
2AC
100
AcDbEntity
  8
INTFCLR_1
100
AcDbLine
 62
7
  6
BYLAYER
 10
33.8966607576
 20
60.6062823881
 11
26.9966607625
 21
60.6062823881
  0
LINE
  5
2AD
100
AcDbEntity
  8
INTFCLR_1
100
AcDbLine
 62
7
  6
BYLAYER
 10
21.69666076
 20
60.6062823881
 11
14.7966607649
 21
60.6062823881
  0
LINE
  5
2AE
100
AcDbEntity
  8
INTFCLR_1
100
AcDbLine
 62
7
  6
BYLAYER
 10
11.9287942203
 20
60.6491051527
 11
36.7645272926
 21
60.6491051527
  0
LINE
  5
2AF
100
AcDbEntity
  8
INTFCLR_1
100
AcDbLine
 62
7
  6
BYLAYER
 10
36.7619331707
 20
60.8614266966
 11
11.9313883529
 21
60.8614266966
  0
LINE
  5
2B0
100
AcDbEntity
  8
INTFCLR_1
100
AcDbLine
 62
7
  6
BYLAYER
 10
11.9347771132
 20
61.1387869892
 11
36.7585444025
 21
61.1387869892
  0
LINE
  5
2B1
100
AcDbEntity
  8
INTFCLR_1
100
AcDbLine
 62
7
  6
BYLAYER
 10
36.755950281
 20
61.3511085338
 11
11.9373712422
 21
61.3511085338
  0
LINE
  5
2B2
100
AcDbEntity
  8
INTFCLR_1
100
AcDbLine
 62
7
  6
BYLAYER
 10
33.9466607613
 20
61.6062823881
 11
26.9466607613
 21
61.6062823881
  0
LINE
  5
2B3
100
AcDbEntity
  8
INTFCLR_1
100
AcDbLine
 62
7
  6
BYLAYER
 10
21.7466607613
 20
61.6062823881
 11
14.7466607613
 21
61.6062823881
  0
LINE
  5
2B4
100
AcDbEntity
  8
INTFCLR_1
100
AcDbLine
 62
7
  6
BYLAYER
 10
11.941332847
 20
61.6284688258
 11
36.7525615128
 21
61.6284688258
  0
LINE
  5
2B5
100
AcDbEntity
  8
INTFCLR_1
100
AcDbLine
 62
7
  6
BYLAYER
 10
36.749967393
 20
61.8407903765
 11
12.0534124122
 21
61.8407903765
  0
LINE
  5
2B6
100
AcDbEntity
  8
INTFCLR_1
100
AcDbLine
 62
7
  6
BYLAYER
 10
36.7491672237
 20
61.9062823881
 11
12.2405113157
 21
61.9062864756
  0
ARC
  5
2B7
100
AcDbEntity
  8
INTFCLR_1
100
AcDbCircle
 62
7
  6
BYLAYER
 10
28.7921369596
 20
52.6345261021
 40
2.6495228178
100
AcDbArc
 50
180.1750954997
 51
183.1653342009
  0
ARC
  5
2B8
100
AcDbEntity
  8
INTFCLR_1
100
AcDbCircle
 62
7
  6
BYLAYER
 10
19.952956522
 20
52.6330189394
 40
2.5977405299
100
AcDbArc
 50
356.805160931
 51
359.8546566518
  0
ARC
  5
2B9
100
AcDbEntity
  8
INTFCLR_1
100
AcDbCircle
 62
7
  6
BYLAYER
 10
13.7751114924
 20
48.0584110941
 40
1.2529822746
100
AcDbArc
 50
359.9026594943
 51
89.3000000112
  0
ARC
  5
2BA
100
AcDbEntity
  8
INTFCLR_1
100
AcDbCircle
 62
7
  6
BYLAYER
 10
34.9182100301
 20
48.0584110941
 40
1.2529822746
100
AcDbArc
 50
90.6999999576
 51
180.0973405055
  0
ARC
  5
2BB
100
AcDbEntity
  8
INTFCLR_1
100
AcDbCircle
 62
7
  6
BYLAYER
 10
12.2405113193
 20
61.6062823881
 40
0.3
100
AcDbArc
 50
175.7588305542
 51
179.2999999017
  0
ARC
  5
2BC
100
AcDbEntity
  8
INTFCLR_1
100
AcDbCircle
 62
7
  6
BYLAYER
 10
12.2405113193
 20
61.6062823881
 40
0.3
100
AcDbArc
 50
90.0000005131
 51
175.7588305542
  0
ARC
  5
2BD
100
AcDbEntity
  8
INTFCLR_1
100
AcDbCircle
 62
7
  6
BYLAYER
 10
26.5491399883
 20
59.3661510881
 40
0.3
100
AcDbArc
 50
147.0045255115
 51
269.9999997255
  0
ARC
  5
2BE
100
AcDbEntity
  8
INTFCLR_1
100
AcDbCircle
 62
7
  6
BYLAYER
 10
34.3441815343
 20
59.3661510881
 40
0.3
100
AcDbArc
 50
270.0000000945
 51
32.9954741369
  0
ARC
  5
2BF
100
AcDbEntity
  8
INTFCLR_1
100
AcDbCircle
 62
7
  6
BYLAYER
 10
22.1441815343
 20
59.3661510881
 40
0.3
100
AcDbArc
 50
270.0000003236
 51
32.9954744613
  0
ARC
  5
2C0
100
AcDbEntity
  8
INTFCLR_1
100
AcDbCircle
 62
7
  6
BYLAYER
 10
14.3491399883
 20
59.3661510881
 40
0.3
100
AcDbArc
 50
147.0045258358
 51
269.9999999547
  0
SPLINE
  5
2C1
100
AcDbEntity
  8
INTFCLR_1
100
AcDbSpline
 62
7
  6
BYLAYER
 70
0
 71
3
 72
27
 73
23
 74
0
 42
0.0000001
 43
0.0000001
 44
0.0000000001
 40
0.0
 40
0.0
 40
0.0
 40
0.0
 40
0.0031432524
 40
0.0123941408
 40
0.0277273665
 40
0.0490532644
 40
0.0762374767
 40
0.1091167031
 40
0.1474899632
 40
0.1911222725
 40
0.2397456825
 40
0.293058368
 40
0.3507277098
 40
0.412393134
 40
0.4776719701
 40
0.5461727324
 40
0.6174895448
 40
0.6911892649
 40
0.7666288247
 40
0.8435576102
 40
0.9215068927
 40
1.0
 40
1.0
 40
1.0
 40
1.0
 10
13.2894234552
 20
8.3062823881
 30
0.0
 10
13.2889692854
 20
8.3044967933
 30
0.0
 10
13.2876019522
 20
8.2973982008
 30
0.0
 10
13.2872713825
 20
8.2811513971
 30
0.0
 10
13.285946585
 20
8.2544372845
 30
0.0
 10
13.2850619234
 20
8.2171801465
 30
0.0
 10
13.2839633239
 20
8.1697158612
 30
0.0
 10
13.2829320466
 20
8.1122917915
 30
0.0
 10
13.2818696302
 20
8.0452744996
 30
0.0
 10
13.2808130334
 20
7.9690692891
 30
0.0
 10
13.2797515408
 20
7.8841477912
 30
0.0
 10
13.2786895428
 20
7.7910360363
 30
0.0
 10
13.2776263209
 20
7.6903148485
 30
0.0
 10
13.2765625445
 20
7.5826119443
 30
0.0
 10
13.2754982526
 20
7.4685894406
 30
0.0
 10
13.2744334743
 20
7.3489358489
 30
0.0
 10
13.2733681464
 20
7.2243691241
 30
0.0
 10
13.2723031754
 20
7.0957539873
 30
0.0
 10
13.2712384074
 20
6.9638645759
 30
0.0
 10
13.270173737
 20
6.8294957847
 30
0.0
 10
13.2691082052
 20
6.69334543
 30
0.0
 10
13.2683982972
 20
6.6020758258
 30
0.0
 10
13.2680421082
 20
6.5562823881
 30
0.0
  0
SPLINE
  5
2C2
100
AcDbEntity
  8
INTFCLR_1
100
AcDbSpline
 62
7
  6
BYLAYER
 70
0
 71
3
 72
27
 73
23
 74
0
 42
0.0000001
 43
0.0000001
 44
0.0000000001
 40
0.0
 40
0.0
 40
0.0
 40
0.0
 40
0.0784635392
 40
0.156441734
 40
0.2334547526
 40
0.3090286785
 40
0.3826863937
 40
0.4539865896
 40
0.5224909437
 40
0.5877774787
 40
0.649443009
 40
0.7071035949
 40
0.7604001252
 40
0.8090016868
 40
0.852609876
 40
0.8909644845
 40
0.9238354109
 40
0.9510175629
 40
0.9722927176
 40
0.9876057647
 40
0.9968544193
 40
1.0
 40
1.0
 40
1.0
 40
1.0
 10
13.2680421082
 20
6.5562823881
 30
0.0
 10
13.2676860533
 20
6.510506201
 30
0.0
 10
13.2669761483
 20
6.4192369802
 30
0.0
 10
13.2659102374
 20
6.2830378673
 30
0.0
 10
13.2648444159
 20
6.1485246776
 30
0.0
 10
13.2637787731
 20
6.0165322416
 30
0.0
 10
13.2627133531
 20
5.8878729168
 30
0.0
 10
13.2616482093
 20
5.7633382984
 30
0.0
 10
13.2605833499
 20
5.6436878158
 30
0.0
 10
13.2595188553
 20
5.5296586656
 30
0.0
 10
13.2584549047
 20
5.4219563189
 30
0.0
 10
13.2573916157
 20
5.3212496054
 30
0.0
 10
13.2563296709
 20
5.2281651332
 30
0.0
 10
13.255268342
 20
5.1432798811
 30
0.0
 10
13.2542119489
 20
5.0671123737
 30
0.0
 10
13.2531496695
 20
5.0001248786
 30
0.0
 10
13.2521182709
 20
4.9427177452
 30
0.0
 10
13.2510200094
 20
4.8952890953
 30
0.0
 10
13.2501353977
 20
4.8580746231
 30
0.0
 10
13.2488127767
 20
4.8314030097
 30
0.0
 10
13.248481958
 20
4.8151680833
 30
0.0
 10
13.2471151674
 20
4.8080693311
 30
0.0
 10
13.2466607613
 20
4.8062823881
 30
0.0
  0
SPLINE
  5
2C3
100
AcDbEntity
  8
INTFCLR_1
100
AcDbSpline
 62
7
  6
BYLAYER
 70
0
 71
3
 72
24
 73
20
 74
0
 42
0.0000001
 43
0.0000001
 44
0.0000000001
 40
0.0
 40
0.0
 40
0.0
 40
0.0
 40
0.0665852479
 40
0.1254750358
 40
0.1850252134
 40
0.2437521861
 40
0.3051974241
 40
0.364860989
 40
0.4219312641
 40
0.4793748414
 40
0.5366536298
 40
0.59313239
 40
0.65013139
 40
0.7070631339
 40
0.7640661435
 40
0.8209283707
 40
0.8780721926
 40
0.9364370443
 40
1.0
 40
1.0
 40
1.0
 40
1.0
 10
26.5491399854
 20
59.0661510867
 30
0.0
 10
26.534857801
 20
59.0664481602
 30
0.0
 10
26.507912847
 20
59.0681649951
 30
0.0
 10
26.4689163493
 20
59.076154876
 30
0.0
 10
26.4328486492
 20
59.0885035714
 30
0.0
 10
26.3983061174
 20
59.1058801533
 30
0.0
 10
26.3661721719
 20
59.1274031377
 30
0.0
 10
26.3371425348
 20
59.1524393506
 30
0.0
 10
26.3123193862
 20
59.1805156837
 30
0.0
 10
26.2914997189
 20
59.2110351838
 30
0.0
 10
26.2744494844
 20
59.2436640112
 30
0.0
 10
26.2614519142
 20
59.2780090278
 30
0.0
 10
26.2527606151
 20
59.3136215111
 30
0.0
 10
26.2486895175
 20
59.3501664697
 30
0.0
 10
26.2491547785
 20
59.3868963567
 30
0.0
 10
26.2540325749
 20
59.4233485002
 30
0.0
 10
26.263339831
 20
59.4592310794
 30
0.0
 10
26.2775056116
 20
59.4950543358
 30
0.0
 10
26.2903103598
 20
59.5179514139
 30
0.0
 10
26.2975259139
 20
59.529522928
 30
0.0
  0
SPLINE
  5
2C4
100
AcDbEntity
  8
INTFCLR_1
100
AcDbSpline
 62
7
  6
BYLAYER
 70
0
 71
3
 72
24
 73
20
 74
0
 42
0.0000001
 43
0.0000001
 44
0.0000000001
 40
0.0
 40
0.0
 40
0.0
 40
0.0
 40
0.0665852463
 40
0.1254750505
 40
0.1850252668
 40
0.2437522594
 40
0.3051975086
 40
0.3648610388
 40
0.4219312758
 40
0.4793748419
 40
0.5366536071
 40
0.5931323503
 40
0.6501313552
 40
0.7070631144
 40
0.7640661544
 40
0.8209284015
 40
0.8780722276
 40
0.936437066
 40
1.0
 40
1.0
 40
1.0
 40
1.0
 10
14.3491399878
 20
59.0661510867
 30
0.0
 10
14.3348578039
 20
59.06644816
 30
0.0
 10
14.307912847
 20
59.0681649961
 30
0.0
 10
14.2689163386
 20
59.0761548802
 30
0.0
 10
14.2328486242
 20
59.0885035833
 30
0.0
 10
14.1983060835
 20
59.1058801799
 30
0.0
 10
14.1661721375
 20
59.1274031612
 30
0.0
 10
14.1371425122
 20
59.1524393673
 30
0.0
 10
14.1123193794
 20
59.18051569
 30
0.0
 10
14.0914997276
 20
59.2110351813
 30
0.0
 10
14.0744494993
 20
59.2436639987
 30
0.0
 10
14.0614519289
 20
59.2780090067
 30
0.0
 10
14.0527606256
 20
59.3136214894
 30
0.0
 10
14.0486895247
 20
59.3501664584
 30
0.0
 10
14.0491547854
 20
59.3868963591
 30
0.0
 10
14.0540325826
 20
59.423348514
 30
0.0
 10
14.0633398372
 20
59.4592310955
 30
0.0
 10
14.0775056084
 20
59.4950543482
 30
0.0
 10
14.0903103546
 20
59.5179514189
 30
0.0
 10
14.0975259076
 20
59.529522928
 30
0.0
  0
SPLINE
  5
2C5
100
AcDbEntity
  8
INTFCLR_1
100
AcDbSpline
 62
7
  6
BYLAYER
 70
0
 71
3
 72
18
 73
14
 74
0
 42
0.0000001
 43
0.0000001
 44
0.0000000001
 40
0.0
 40
0.0
 40
0.0
 40
0.0
 40
0.0315885829
 40
0.0828363655
 40
0.1497873771
 40
0.2355143223
 40
0.333068599
 40
0.4196363701
 40
0.5264164185
 40
0.6377367878
 40
0.754489559
 40
0.8814286062
 40
1.0
 40
1.0
 40
1.0
 40
1.0
 10
12.0534124122
 20
61.8407903765
 30
0.0
 10
12.0549968973
 20
61.8422095283
 30
0.0
 10
12.0595010492
 20
61.8455186344
 30
0.0
 10
12.0675379046
 20
61.8516034889
 30
0.0
 10
12.0788829346
 20
61.8593587423
 30
0.0
 10
12.0933238001
 20
61.8680558427
 30
0.0
 10
12.1094229012
 20
61.8765169787
 30
0.0
 10
12.1273883095
 20
61.8843555439
 30
0.0
 10
12.1466477699
 20
61.8914586731
 30
0.0
 10
12.1682957164
 20
61.8978525243
 30
0.0
 10
12.191755768
 20
61.9025871191
 30
0.0
 10
12.2159862929
 20
61.9056104154
 30
0.0
 10
12.2325269601
 20
61.9062875182
 30
0.0
 10
12.2405113009
 20
61.9062823876
 30
0.0
  0
SPLINE
  5
2C6
100
AcDbEntity
  8
INTFCLR_1
100
AcDbSpline
 62
7
  6
BYLAYER
 70
0
 71
3
 72
12
 73
8
 74
0
 42
0.0000001
 43
0.0000001
 44
0.0000000001
 40
0.0
 40
0.0
 40
0.0
 40
0.0
 40
0.2147665008
 40
0.4255832449
 40
0.6287427785
 40
0.8210279634
 40
1.0
 40
1.0
 40
1.0
 40
1.0
 10
11.9756728944
 20
61.7472104891
 30
0.0
 10
11.9808396105
 20
61.7542387386
 30
0.0
 10
11.9910777638
 20
61.7681663037
 30
0.0
 10
12.0064830305
 20
61.7885355133
 30
0.0
 10
12.0218919154
 20
61.8077501394
 30
0.0
 10
12.0373081218
 20
61.8252748194
 30
0.0
 10
12.048014278
 20
61.8359219816
 30
0.0
 10
12.0534124115
 20
61.8407903767
 30
0.0
  0
SPLINE
  5
2C7
100
AcDbEntity
  8
INTFCLR_1
100
AcDbSpline
 62
7
  6
BYLAYER
 70
0
 71
3
 72
16
 73
12
 74
0
 42
0.0000001
 43
0.0000001
 44
0.0000000001
 40
0.0
 40
0.0
 40
0.0
 40
0.0
 40
0.0535724587
 40
0.1254139276
 40
0.2144011289
 40
0.3164555797
 40
0.4331391376
 40
0.5635249788
 40
0.6999117273
 40
0.8454990288
 40
1.0
 40
1.0
 40
1.0
 40
1.0
 10
11.941332847
 20
61.6284688246
 30
0.0
 10
11.941538453
 20
61.6306715121
 30
0.0
 10
11.942273943
 20
61.6358026316
 30
0.0
 10
11.9438980817
 20
61.644506584
 30
0.0
 10
11.9462217812
 20
61.6551125687
 30
0.0
 10
11.9492494892
 20
61.6674550584
 30
0.0
 10
11.9530077682
 20
61.6813749644
 30
0.0
 10
11.9574953431
 20
61.6965621408
 30
0.0
 10
11.9627284189
 20
61.7127683789
 30
0.0
 10
11.9687347075
 20
61.729765057
 30
0.0
 10
11.9732488457
 20
61.7413088412
 30
0.0
 10
11.9756728944
 20
61.7472104891
 30
0.0
  0
SPLINE
  5
2C8
100
AcDbEntity
  8
INTFCLR_1
100
AcDbSpline
 62
7
  6
BYLAYER
 70
0
 71
3
 72
24
 73
20
 74
0
 42
0.0000001
 43
0.0000001
 44
0.0000000001
 40
0.0
 40
0.0
 40
0.0
 40
0.0
 40
0.0664443313
 40
0.1255087804
 40
0.1848645146
 40
0.2427488866
 40
0.3061553626
 40
0.3639178867
 40
0.4197086899
 40
0.4766924106
 40
0.5349413673
 40
0.5914904888
 40
0.6489611237
 40
0.7072943872
 40
0.7657547648
 40
0.8227927741
 40
0.8787433652
 40
0.9363894382
 40
1.0
 40
1.0
 40
1.0
 40
1.0
 10
26.2975259121
 20
59.5295229229
 30
0.0
 10
26.2900074079
 20
59.5174116021
 30
0.0
 10
26.2767786323
 20
59.4938668168
 30
0.0
 10
26.2622418085
 20
59.4568444766
 30
0.0
 10
26.2530138243
 20
59.4200491935
 30
0.0
 10
26.2486430175
 20
59.3814299284
 30
0.0
 10
26.2493160885
 20
59.3429182791
 30
0.0
 10
26.2543911388
 20
59.3052000414
 30
0.0
 10
26.264005039
 20
59.2697919617
 30
0.0
 10
26.2780084407
 20
59.23577223
 30
0.0
 10
26.2962237983
 20
59.2036348087
 30
0.0
 10
26.3179254997
 20
59.1736204789
 30
0.0
 10
26.343228792
 20
59.1465103631
 30
0.0
 10
26.3722041944
 20
59.1227117036
 30
0.0
 10
26.4038939004
 20
59.1028696195
 30
0.0
 10
26.4372473453
 20
59.087153386
 30
0.0
 10
26.4720876738
 20
59.0756329962
 30
0.0
 10
26.5094641738
 20
59.0681397036
 30
0.0
 10
26.5354955673
 20
59.0664302174
 30
0.0
 10
26.5491399883
 20
59.0661510882
 30
0.0
  0
SPLINE
  5
2C9
100
AcDbEntity
  8
INTFCLR_1
100
AcDbSpline
 62
7
  6
BYLAYER
 70
0
 71
3
 72
24
 73
20
 74
0
 42
0.0000001
 43
0.0000001
 44
0.0000000001
 40
0.0
 40
0.0
 40
0.0
 40
0.0
 40
0.0664443312
 40
0.1255087804
 40
0.1848645145
 40
0.2427488865
 40
0.3061553626
 40
0.3639178867
 40
0.41970869
 40
0.4766924107
 40
0.5349413674
 40
0.5914904889
 40
0.6489611238
 40
0.7072943873
 40
0.7657547648
 40
0.8227927741
 40
0.8787433652
 40
0.9363894382
 40
1.0
 40
1.0
 40
1.0
 40
1.0
 10
14.0975259121
 20
59.5295229229
 30
0.0
 10
14.0900074079
 20
59.5174116021
 30
0.0
 10
14.0767786323
 20
59.4938668168
 30
0.0
 10
14.0622418085
 20
59.4568444767
 30
0.0
 10
14.0530138244
 20
59.4200491936
 30
0.0
 10
14.0486430175
 20
59.3814299285
 30
0.0
 10
14.0493160885
 20
59.3429182792
 30
0.0
 10
14.0543911388
 20
59.3052000414
 30
0.0
 10
14.064005039
 20
59.2697919617
 30
0.0
 10
14.0780084407
 20
59.23577223
 30
0.0
 10
14.0962237984
 20
59.2036348087
 30
0.0
 10
14.1179254997
 20
59.1736204789
 30
0.0
 10
14.1432287921
 20
59.1465103631
 30
0.0
 10
14.1722041944
 20
59.1227117036
 30
0.0
 10
14.2038939005
 20
59.1028696195
 30
0.0
 10
14.2372473453
 20
59.087153386
 30
0.0
 10
14.2720876738
 20
59.0756329962
 30
0.0
 10
14.3094641738
 20
59.0681397036
 30
0.0
 10
14.3354955673
 20
59.0664302174
 30
0.0
 10
14.3491399883
 20
59.0661510882
 30
0.0
  0
SPLINE
  5
2CA
100
AcDbEntity
  8
INTFCLR_1
100
AcDbSpline
 62
7
  6
BYLAYER
 70
0
 71
3
 72
28
 73
24
 74
0
 42
0.0000001
 43
0.0000001
 44
0.0000000001
 40
0.0
 40
0.0
 40
0.0
 40
0.0
 40
0.0476209352
 40
0.0935446336
 40
0.138969275
 40
0.1862709049
 40
0.2305173991
 40
0.2756061635
 40
0.3217175425
 40
0.3691583436
 40
0.4155937495
 40
0.4632446034
 40
0.5091198507
 40
0.5559581573
 40
0.6030253172
 40
0.6477897769
 40
0.6946441883
 40
0.7435074954
 40
0.7930672978
 40
0.842355006
 40
0.8941672254
 40
0.9452780429
 40
1.0
 40
1.0
 40
1.0
 40
1.0
 10
28.1966607613
 20
55.2144544109
 30
0.0
 10
28.1394371821
 20
55.1989237568
 30
0.0
 10
28.0279529469
 20
55.1648849801
 30
0.0
 10
27.8657935273
 20
55.1042266536
 30
0.0
 10
27.7079420619
 20
55.034071272
 30
0.0
 10
27.5565257466
 20
54.9553433465
 30
0.0
 10
27.4105350294
 20
54.867803053
 30
0.0
 10
27.2712080124
 20
54.7725978202
 30
0.0
 10
27.1347689331
 20
54.6666688668
 30
0.0
 10
27.0039450803
 20
54.5513119687
 30
0.0
 10
26.8792823625
 20
54.426605399
 30
0.0
 10
26.7640395199
 20
54.2957200041
 30
0.0
 10
26.6569897761
 20
54.1574310556
 30
0.0
 10
26.5592481852
 20
54.0132825938
 30
0.0
 10
26.4716255919
 20
53.8643685097
 30
0.0
 10
26.3935290867
 20
53.7102372747
 30
0.0
 10
26.3244091001
 20
53.5494233844
 30
0.0
 10
26.2640793837
 20
53.3787459276
 30
0.0
 10
26.2147456215
 20
53.2014158142
 30
0.0
 10
26.1770296209
 20
53.0175075949
 30
0.0
 10
26.1522043587
 20
52.8294454222
 30
0.0
 10
26.1407016878
 20
52.6333371826
 30
0.0
 10
26.1428804537
 20
52.5014208899
 30
0.0
 10
26.1466607631
 20
52.4333905637
 30
0.0
  0
SPLINE
  5
2CB
100
AcDbEntity
  8
INTFCLR_1
100
AcDbSpline
 62
7
  6
BYLAYER
 70
0
 71
3
 72
47
 73
43
 74
0
 42
0.0000001
 43
0.0000001
 44
0.0000000001
 40
0.0
 40
0.0
 40
0.0
 40
0.0
 40
0.0258944347
 40
0.0517354931
 40
0.0775213551
 40
0.1032458446
 40
0.1289004444
 40
0.1544874943
 40
0.1799945332
 40
0.2054273979
 40
0.2307771702
 40
0.2560525402
 40
0.2812403333
 40
0.3063501998
 40
0.3313789585
 40
0.3563204043
 40
0.3811867361
 40
0.4059750912
 40
0.4306966306
 40
0.4553542865
 40
0.479956512
 40
0.5045056466
 40
0.5290123085
 40
0.5534870163
 40
0.5779355852
 40
0.6023712826
 40
0.6267999459
 40
0.6512379237
 40
0.6756892322
 40
0.7001708599
 40
0.7246882061
 40
0.7492586943
 40
0.7738878727
 40
0.7985927279
 40
0.8233779231
 40
0.8482593543
 40
0.8732422974
 40
0.89834029
 40
0.9235571919
 40
0.9489035143
 40
0.9743830882
 40
1.0
 40
1.0
 40
1.0
 40
1.0
 10
28.1966607613
 20
55.2817186215
 30
0.0
 10
28.1666307978
 20
55.2735095346
 30
0.0
 10
28.1068992326
 20
55.256114892
 30
0.0
 10
28.0183101
 20
55.2271092884
 30
0.0
 10
27.9309165601
 20
55.1952681774
 30
0.0
 10
27.8448265051
 20
55.1606522056
 30
0.0
 10
27.7601382174
 20
55.1233246311
 30
0.0
 10
27.6769539721
 20
55.0833560525
 30
0.0
 10
27.5953568088
 20
55.0408137112
 30
0.0
 10
27.5154384113
 20
54.9957742389
 30
0.0
 10
27.4372649431
 20
54.9483046286
 30
0.0
 10
27.3609191686
 20
54.898485469
 30
0.0
 10
27.2864617154
 20
54.8463876417
 30
0.0
 10
27.2139619219
 20
54.7920916442
 30
0.0
 10
27.1434794522
 20
54.735674367
 30
0.0
 10
27.0750684157
 20
54.677212301
 30
0.0
 10
27.0087801435
 20
54.6167822221
 30
0.0
 10
26.9446487571
 20
54.5544467141
 30
0.0
 10
26.8827152902
 20
54.490275312
 30
0.0
 10
26.8230104671
 20
54.4243270012
 30
0.0
 10
26.7655716645
 20
54.3566676772
 30
0.0
 10
26.7104296562
 20
54.2873556271
 30
0.0
 10
26.6576137717
 20
54.2164462129
 30
0.0
 10
26.6071517197
 20
54.1439901758
 30
0.0
 10
26.559070518
 20
54.0700345373
 30
0.0
 10
26.5134016829
 20
53.9946300345
 30
0.0
 10
26.4701718168
 20
53.9178158147
 30
0.0
 10
26.4294153061
 20
53.8396398836
 30
0.0
 10
26.3911625058
 20
53.7601380512
 30
0.0
 10
26.3554521802
 20
53.6793577314
 30
0.0
 10
26.3223192057
 20
53.5973318208
 30
0.0
 10
26.2918069083
 20
53.5141062614
 30
0.0
 10
26.2639568436
 20
53.4297147911
 30
0.0
 10
26.2388188276
 20
53.3442068096
 30
0.0
 10
26.2164420843
 20
53.2576215186
 30
0.0
 10
26.1968825765
 20
53.1700137564
 30
0.0
 10
26.1801966593
 20
53.0814305465
 30
0.0
 10
26.1664461387
 20
52.9919360276
 30
0.0
 10
26.1556937614
 20
52.9015917548
 30
0.0
 10
26.1480053006
 20
52.8104742165
 30
0.0
 10
26.1434472417
 20
52.7186658021
 30
0.0
 10
26.1425424963
 20
52.6572264308
 30
0.0
 10
26.1426295076
 20
52.6264284262
 30
0.0
  0
SPLINE
  5
2CC
100
AcDbEntity
  8
INTFCLR_1
100
AcDbSpline
 62
7
  6
BYLAYER
 70
0
 71
3
 72
28
 73
24
 74
0
 42
0.0000001
 43
0.0000001
 44
0.0000000001
 40
0.0
 40
0.0
 40
0.0
 40
0.0
 40
0.0502514143
 40
0.1002386209
 40
0.1501912187
 40
0.1996070753
 40
0.2486128496
 40
0.2976137097
 40
0.3464001195
 40
0.394721873
 40
0.4415002049
 40
0.4879038574
 40
0.5347087711
 40
0.5818970937
 40
0.627835253
 40
0.673514723
 40
0.7192908625
 40
0.7654212501
 40
0.811906454
 40
0.8580324317
 40
0.9053422673
 40
0.9514112208
 40
1.0
 40
1.0
 40
1.0
 40
1.0
 10
20.4966607613
 20
55.2817186216
 30
0.0
 10
20.5549308553
 20
55.2657897222
 30
0.0
 10
20.6701796042
 20
55.2302756112
 30
0.0
 10
20.8390725181
 20
55.1661299932
 30
0.0
 10
21.0026206904
 20
55.0917516443
 30
0.0
 10
21.1600688422
 20
55.0076932459
 30
0.0
 10
21.3109318603
 20
54.9144826364
 30
0.0
 10
21.45503092
 20
54.8124262327
 30
0.0
 10
21.5917973833
 20
54.7020413243
 30
0.0
 10
21.7194368142
 20
54.5851439227
 30
0.0
 10
21.8376746423
 20
54.4627090239
 30
0.0
 10
21.9471369733
 20
54.3347621384
 30
0.0
 10
22.0489755011
 20
54.200046062
 30
0.0
 10
22.142083568
 20
54.0598222772
 30
0.0
 10
22.2258158006
 20
53.9153754571
 30
0.0
 10
22.2999676232
 20
53.7676825227
 30
0.0
 10
22.3651882627
 20
53.6155810245
 30
0.0
 10
22.4213769345
 20
53.4588839308
 30
0.0
 10
22.4679353341
 20
53.2986188874
 30
0.0
 10
22.5048019015
 20
53.1343989504
 30
0.0
 10
22.5312103674
 20
52.968672046
 30
0.0
 10
22.5473890005
 20
52.7986753334
 30
0.0
 10
22.550857004
 20
52.6848383402
 30
0.0
 10
22.550692017
 20
52.6264291947
 30
0.0
  0
SPLINE
  5
2CD
100
AcDbEntity
  8
INTFCLR_1
100
AcDbSpline
 62
7
  6
BYLAYER
 70
0
 71
3
 72
28
 73
24
 74
0
 42
0.0000001
 43
0.0000001
 44
0.0000000001
 40
0.0
 40
0.0
 40
0.0
 40
0.0
 40
0.046340559
 40
0.0920035316
 40
0.1372774707
 40
0.1840201653
 40
0.2282555038
 40
0.2730538084
 40
0.3190494246
 40
0.3661854425
 40
0.4133412101
 40
0.460424702
 40
0.5055340296
 40
0.5527633276
 40
0.6013858499
 40
0.6480291546
 40
0.6957583679
 40
0.744026138
 40
0.7941018295
 40
0.8436034335
 40
0.8951057897
 40
0.9457541823
 40
1.0
 40
1.0
 40
1.0
 40
1.0
 10
20.4966607613
 20
55.2144544127
 30
0.0
 10
20.5523457824
 20
55.1993413279
 30
0.0
 10
20.6620165566
 20
55.1659568492
 30
0.0
 10
20.8223123252
 20
55.1063350548
 30
0.0
 10
20.9792078352
 20
55.0370076947
 30
0.0
 10
21.1300270375
 20
54.9590859762
 30
0.0
 10
21.2753594056
 20
54.8725333912
 30
0.0
 10
21.4145584451
 20
54.7780668831
 30
0.0
 10
21.5506638923
 20
54.6731547732
 30
0.0
 10
21.6822014665
 20
54.5580477856
 30
0.0
 10
21.8071703679
 20
54.4339098008
 30
0.0
 10
21.9223508762
 20
54.3039929237
 30
0.0
 10
22.0292739872
 20
54.1670977634
 30
0.0
 10
22.1285119958
 20
54.0221869247
 30
0.0
 10
22.2190616639
 20
53.8694564671
 30
0.0
 10
22.2997409209
 20
53.7106046268
 30
0.0
 10
22.3697731369
 20
53.5472505268
 30
0.0
 10
22.4302365345
 20
53.375574383
 30
0.0
 10
22.4794249288
 20
53.1980261729
 30
0.0
 10
22.5169504022
 20
53.0135436954
 30
0.0
 10
22.5413961245
 20
52.8261357352
 30
0.0
 10
22.5526118204
 20
52.6315719843
 30
0.0
 10
22.5504081788
 20
52.500829044
 30
0.0
 10
22.5466607619
 20
52.4333906507
 30
0.0
  0
LINE
  5
2CE
100
AcDbEntity
  8
INTFCLR_1
100
AcDbLine
 62
7
  6
BYLAYER
 10
13.7751805591
 20
48.0584110856
 11
13.2046302417
 21
48.0584110945
  0
LINE
  5
2CF
100
AcDbEntity
  8
INTFCLR_1
100
AcDbLine
 62
7
  6
BYLAYER
 10
13.2046302422
 20
48.0584110947
 11
13.7751114926
 21
48.058411095
  0
LINE
  5
2D0
100
AcDbEntity
  8
INTFCLR_1
100
AcDbLine
 62
7
  6
BYLAYER
 10
13.777780168
 20
48.2768176878
 11
13.7905542565
 21
49.3112960633
  0
LINE
  5
2D1
100
AcDbEntity
  8
INTFCLR_1
100
AcDbLine
 62
7
  6
BYLAYER
 10
13.7905542565
 20
49.3112960633
 11
13.7751805591
 21
48.0584110856
  0
LINE
  5
2D2
100
AcDbEntity
  8
INTFCLR_1
100
AcDbLine
 62
7
  6
BYLAYER
 10
13.2046302422
 20
48.058411095
 11
13.2040213562
 21
48.028519251
  0
SPLINE
  5
2D3
100
AcDbEntity
  8
INTFCLR_1
100
AcDbSpline
 62
7
  6
BYLAYER
 70
0
 71
3
 72
13
 73
9
 74
0
 42
0.0000001
 43
0.0000001
 44
0.0000000001
 40
0.0
 40
0.0
 40
0.0
 40
0.0
 40
0.2359197269
 40
0.4411240489
 40
0.582270855
 40
0.7220870877
 40
0.8756223266
 40
1.0
 40
1.0
 40
1.0
 40
1.0
 10
13.7855340113
 20
48.0562940872
 30
0.0
 10
13.7847672071
 20
48.0563102475
 30
0.0
 10
13.7833324819
 20
48.0563115119
 30
0.0
 10
13.7814411779
 20
48.0562903678
 30
0.0
 10
13.7798566636
 20
48.0563557297
 30
0.0
 10
13.778458006
 20
48.056088714
 30
0.0
 10
13.7770959846
 20
48.0562051756
 30
0.0
 10
13.776196876
 20
48.056284303
 30
0.0
 10
13.7757971674
 20
48.0563454031
 30
0.0
  0
SPLINE
  5
2D4
100
AcDbEntity
  8
INTFCLR_1
100
AcDbSpline
 62
7
  6
BYLAYER
 70
0
 71
3
 72
12
 73
8
 74
0
 42
0.0000001
 43
0.0000001
 44
0.0000000001
 40
0.0
 40
0.0
 40
0.0
 40
0.0
 40
0.1565911958
 40
0.3805697053
 40
0.5718825655
 40
0.7798327172
 40
1.0
 40
1.0
 40
1.0
 40
1.0
 10
13.7757971674
 20
48.0563454031
 30
0.0
 10
13.7758952022
 20
48.0564122682
 30
0.0
 10
13.7761020601
 20
48.0566220827
 30
0.0
 10
13.7762950154
 20
48.0570164297
 30
0.0
 10
13.7764153187
 20
48.0574764156
 30
0.0
 10
13.7764051454
 20
48.0579533207
 30
0.0
 10
13.776275619
 20
48.0582643525
 30
0.0
 10
13.7761759528
 20
48.0583981584
 30
0.0
  0
SPLINE
  5
2D5
100
AcDbEntity
  8
INTFCLR_1
100
AcDbSpline
 62
7
  6
BYLAYER
 70
0
 71
3
 72
67
 73
63
 74
0
 42
0.0000001
 43
0.0000001
 44
0.0000000001
 40
0.0
 40
0.0
 40
0.0
 40
0.0
 40
0.0031740058
 40
0.0065102025
 40
0.0100335123
 40
0.0138113997
 40
0.018009902
 40
0.022739952
 40
0.0279759454
 40
0.033803566
 40
0.0407659129
 40
0.0483915446
 40
0.0576470664
 40
0.066919321
 40
0.0755777162
 40
0.0833922657
 40
0.0898917055
 40
0.0954724202
 40
0.1010614475
 40
0.1076222894
 40
0.1156625587
 40
0.1235555379
 40
0.1329344315
 40
0.1427320025
 40
0.1539109084
 40
0.1656951639
 40
0.1798688494
 40
0.1899103563
 40
0.202614956
 40
0.2192429677
 40
0.2361304257
 40
0.2471562254
 40
0.2616838432
 40
0.2820096953
 40
0.3031400637
 40
0.3201289822
 40
0.3436022107
 40
0.3679215236
 40
0.3922487386
 40
0.4180534701
 40
0.4409161936
 40
0.4606629318
 40
0.4814285188
 40
0.5012133364
 40
0.520669389
 40
0.5369156764
 40
0.5485487342
 40
0.5547750661
 40
0.555645314
 40
0.5601942355
 40
0.5701568579
 40
0.5854626438
 40
0.6060470902
 40
0.6317800776
 40
0.6625169437
 40
0.6981392587
 40
0.7383972832
 40
0.7831531308
 40
0.8319272143
 40
0.8848304947
 40
0.9405698761
 40
1.0
 40
1.0
 40
1.0
 40
1.0
 10
13.7761759528
 20
48.0583981584
 30
0.0
 10
13.7786374643
 20
48.0584105751
 30
0.0
 10
13.7837004184
 20
48.0590423006
 30
0.0
 10
13.7910608109
 20
48.0617512218
 30
0.0
 10
13.7980575057
 20
48.0662397707
 30
0.0
 10
13.8044532266
 20
48.0725407533
 30
0.0
 10
13.8100152457
 20
48.0807505006
 30
0.0
 10
13.8143469996
 20
48.090917634
 30
0.0
 10
13.8170192095
 20
48.1029365549
 30
0.0
 10
13.8176763215
 20
48.1169682081
 30
0.0
 10
13.8156724675
 20
48.1327496574
 30
0.0
 10
13.8105484018
 20
48.1505858364
 30
0.0
 10
13.802027235
 20
48.1690734113
 30
0.0
 10
13.7909249265
 20
48.1870407073
 30
0.0
 10
13.7790902955
 20
48.203123205
 30
0.0
 10
13.7682194924
 20
48.2172629981
 30
0.0
 10
13.7606780695
 20
48.2308024878
 30
0.0
 10
13.7560473362
 20
48.2437725296
 30
0.0
 10
13.7539436644
 20
48.2574452966
 30
0.0
 10
13.7546253999
 20
48.2731941845
 30
0.0
 10
13.758772857
 20
48.2902243163
 30
0.0
 10
13.7655630049
 20
48.3086621927
 30
0.0
 10
13.7742017341
 20
48.3277980434
 30
0.0
 10
13.779900077
 20
48.3509444953
 30
0.0
 10
13.7785594383
 20
48.3764715896
 30
0.0
 10
13.7795133955
 20
48.4052314819
 30
0.0
 10
13.7796565094
 20
48.4331600476
 30
0.0
 10
13.7800502875
 20
48.4617878411
 30
0.0
 10
13.7804087493
 20
48.4923222661
 30
0.0
 10
13.7808521723
 20
48.5281644263
 30
0.0
 10
13.7812727108
 20
48.5627051076
 30
0.0
 10
13.7816750838
 20
48.5956168901
 30
0.0
 10
13.7821096919
 20
48.631195078
 30
0.0
 10
13.7826401537
 20
48.6746090898
 30
0.0
 10
13.7831938926
 20
48.7199317793
 30
0.0
 10
13.7837774638
 20
48.7676951754
 30
0.0
 10
13.7843912464
 20
48.8179315216
 30
0.0
 10
13.7850745575
 20
48.8738585
 30
0.0
 10
13.7857799599
 20
48.9315936008
 30
0.0
 10
13.7864715568
 20
48.9881987647
 30
0.0
 10
13.7871197712
 20
49.0412531895
 30
0.0
 10
13.7877201902
 20
49.0903957103
 30
0.0
 10
13.7882916314
 20
49.1371664862
 30
0.0
 10
13.7888596515
 20
49.183657249
 30
0.0
 10
13.7893871653
 20
49.2268326943
 30
0.0
 10
13.7898305338
 20
49.2631210897
 30
0.0
 10
13.7901652337
 20
49.290515293
 30
0.0
 10
13.7903251654
 20
49.3036052262
 30
0.0
 10
13.790455967
 20
49.3143109625
 30
0.0
 10
13.790155404
 20
49.2897107694
 30
0.0
 10
13.7899880628
 20
49.2760143926
 30
0.0
 10
13.7894951768
 20
49.2356731319
 30
0.0
 10
13.7889356817
 20
49.1898801116
 30
0.0
 10
13.788196494
 20
49.1293797906
 30
0.0
 10
13.7873271435
 20
49.0582260302
 30
0.0
 10
13.7863159134
 20
48.9754598362
 30
0.0
 10
13.7851732687
 20
48.8819377556
 30
0.0
 10
13.7839055635
 20
48.7781798367
 30
0.0
 10
13.7825181895
 20
48.6646273848
 30
0.0
 10
13.7810267072
 20
48.5425539693
 30
0.0
 10
13.7794342752
 20
48.4122181288
 30
0.0
 10
13.7783430811
 20
48.3229071082
 30
0.0
 10
13.7777800001
 20
48.2768205894
 30
0.0
  0
SPLINE
  5
2D6
100
AcDbEntity
  8
INTFCLR_1
100
AcDbSpline
 62
7
  6
BYLAYER
 70
0
 71
3
 72
48
 73
44
 74
0
 42
0.0000001
 43
0.0000001
 44
0.0000000001
 40
0.0
 40
0.0
 40
0.0
 40
0.0
 40
0.0174758219
 40
0.034312013
 40
0.0501697923
 40
0.0650171272
 40
0.0791665611
 40
0.0927909686
 40
0.1060221028
 40
0.1189908653
 40
0.1318129361
 40
0.1445929358
 40
0.1574332301
 40
0.1704364765
 40
0.1837041281
 40
0.1973487844
 40
0.2114969672
 40
0.2262906936
 40
0.2418830859
 40
0.258462413
 40
0.2762418173
 40
0.2955072777
 40
0.3165913385
 40
0.3399075276
 40
0.3659178898
 40
0.3950444311
 40
0.4276090452
 40
0.4638386708
 40
0.5042136228
 40
0.5483162412
 40
0.5936937827
 40
0.6378869636
 40
0.6805181574
 40
0.7215905927
 40
0.7608596961
 40
0.7982084216
 40
0.8335563341
 40
0.8668108227
 40
0.8979139873
 40
0.9268120587
 40
0.9534742252
 40
0.9778750873
 40
1.0
 40
1.0
 40
1.0
 40
1.0
 10
13.7777799506
 20
48.2768165303
 30
0.0
 10
13.7847111116
 20
48.276731846
 30
0.0
 10
13.7983191078
 20
48.2765066605
 30
0.0
 10
13.8182125501
 20
48.2760051324
 30
0.0
 10
13.8370593428
 20
48.2753801567
 30
0.0
 10
13.854836265
 20
48.27466203
 30
0.0
 10
13.8717232124
 20
48.2738694075
 30
0.0
 10
13.8879649545
 20
48.2730100306
 30
0.0
 10
13.9037342252
 20
48.2720890842
 30
0.0
 10
13.9191810185
 20
48.2711084918
 30
0.0
 10
13.9344444788
 20
48.2700671865
 30
0.0
 10
13.9496523405
 20
48.2689618605
 30
0.0
 10
13.9649270641
 20
48.2677870584
 30
0.0
 10
13.9803897281
 20
48.2665352012
 30
0.0
 10
13.9961653163
 20
48.2651963446
 30
0.0
 10
14.0123880869
 20
48.263757747
 30
0.0
 10
14.0292081378
 20
48.2622031487
 30
0.0
 10
14.046791346
 20
48.2605125082
 30
0.0
 10
14.0653276925
 20
48.2586608503
 30
0.0
 10
14.0850348806
 20
48.2566173181
 30
0.0
 10
14.1061825709
 20
48.2543417881
 30
0.0
 10
14.1290966886
 20
48.2517829456
 30
0.0
 10
14.1541812624
 20
48.2488738482
 30
0.0
 10
14.1819084359
 20
48.24553027
 30
0.0
 10
14.2127838327
 20
48.2416514996
 30
0.0
 10
14.2472746889
 20
48.2371261163
 30
0.0
 10
14.2857528435
 20
48.2318370958
 30
0.0
 10
14.3286092553
 20
48.2256432215
 30
0.0
 10
14.3759393966
 20
48.2184186454
 30
0.0
 10
14.4267832577
 20
48.2101796604
 30
0.0
 10
14.479031276
 20
48.2011544402
 30
0.0
 10
14.5305995435
 20
48.1916418874
 30
0.0
 10
14.5803726442
 20
48.1818308087
 30
0.0
 10
14.628100823
 20
48.1717656255
 30
0.0
 10
14.6736350654
 20
48.1614735512
 30
0.0
 10
14.7167934837
 20
48.150993552
 30
0.0
 10
14.7574520117
 20
48.1403549497
 30
0.0
 10
14.7955078185
 20
48.1295845798
 30
0.0
 10
14.8308661893
 20
48.1187098104
 30
0.0
 10
14.8634531054
 20
48.1077552345
 30
0.0
 10
14.8932022565
 20
48.0967431985
 30
0.0
 10
14.9200574987
 20
48.0857024086
 30
0.0
 10
14.9368132459
 20
48.0779490363
 30
0.0
 10
14.9446741035
 20
48.0740477499
 30
0.0
  0
SPLINE
  5
2D7
100
AcDbEntity
  8
INTFCLR_1
100
AcDbSpline
 62
7
  6
BYLAYER
 70
0
 71
3
 72
10
 73
6
 74
0
 42
0.0000001
 43
0.0000001
 44
0.0000000001
 40
0.0
 40
0.0
 40
0.0
 40
0.0
 40
0.4088417359
 40
0.7397947368
 40
1.0
 40
1.0
 40
1.0
 40
1.0
 10
14.9446853703
 20
48.0740829605
 30
0.0
 10
14.9519082521
 20
48.0704970953
 30
0.0
 10
14.9651791766
 20
48.0643700984
 30
0.0
 10
14.9839291267
 20
48.0581215814
 30
0.0
 10
14.9955725883
 20
48.0563369474
 30
0.0
 10
15.0007048944
 20
48.0563359653
 30
0.0
  0
LINE
  5
2D8
100
AcDbEntity
  8
INTFCLR_1
100
AcDbLine
 62
7
  6
BYLAYER
 10
13.7749158891
 20
48.0562823881
 11
13.7747462763
 21
48.0562823881
  0
LINE
  5
2D9
100
AcDbEntity
  8
INTFCLR_1
100
AcDbLine
 62
7
  6
BYLAYER
 10
35.4886912801
 20
48.0584110952
 11
35.4893001663
 21
48.0285192505
  0
SPLINE
  5
2DA
100
AcDbEntity
  8
INTFCLR_1
100
AcDbSpline
 62
7
  6
BYLAYER
 70
0
 71
3
 72
22
 73
18
 74
0
 42
0.0000001
 43
0.0000001
 44
0.0000000001
 40
0.0
 40
0.0
 40
0.0
 40
0.0
 40
0.1174634409
 40
0.2297684874
 40
0.3363222023
 40
0.4365616073
 40
0.5298667869
 40
0.6158415148
 40
0.6940402453
 40
0.7640499215
 40
0.8255026762
 40
0.8780764768
 40
0.9214890847
 40
0.9554743561
 40
0.9799273334
 40
0.994737392
 40
1.0
 40
1.0
 40
1.0
 40
1.0
 10
34.9182100306
 20
48.0584110941
 30
0.0
 10
34.9169889776
 20
48.1074783781
 30
0.0
 10
34.9146287073
 20
48.2034588675
 30
0.0
 10
34.9112777134
 20
48.3439522348
 30
0.0
 10
34.9082192363
 20
48.4772533617
 30
0.0
 10
34.9054824161
 20
48.6026205703
 30
0.0
 10
34.9030938156
 20
48.7193941901
 30
0.0
 10
34.9010768857
 20
48.8269637455
 30
0.0
 10
34.8994553443
 20
48.924804178
 30
0.0
 10
34.8982413375
 20
49.0124047485
 30
0.0
 10
34.897474952
 20
49.0892975012
 30
0.0
 10
34.8970987583
 20
49.1550942522
 30
0.0
 10
34.8973219514
 20
49.2093737138
 30
0.0
 10
34.8975960798
 20
49.2520082042
 30
0.0
 10
34.8992234221
 20
49.2824242105
 30
0.0
 10
34.8993481592
 20
49.3013109709
 30
0.0
 10
34.9019707753
 20
49.3092691602
 30
0.0
 10
34.9029023237
 20
49.3113015674
 30
0.0
  0
LINE
  5
2DB
100
AcDbEntity
  8
INTFCLR_1
100
AcDbLine
 62
7
  6
BYLAYER
 10
35.4886912802
 20
48.058411095
 11
34.9182100306
 21
48.0584110941
  0
SPLINE
  5
2DC
100
AcDbEntity
  8
INTFCLR_1
100
AcDbSpline
 62
7
  6
BYLAYER
 70
0
 71
3
 72
21
 73
17
 74
0
 42
0.0000001
 43
0.0000001
 44
0.0000000001
 40
0.0
 40
0.0
 40
0.0
 40
0.0
 40
0.0058330117
 40
0.0224884321
 40
0.0500487122
 40
0.0884119176
 40
0.1373229473
 40
0.196582243
 40
0.2659395013
 40
0.3450717981
 40
0.4335945572
 40
0.5310528142
 40
0.6369223937
 40
0.7507393721
 40
0.8719578048
 40
1.0
 40
1.0
 40
1.0
 40
1.0
 10
34.9029023236
 20
49.3113015674
 30
0.0
 10
34.902154997
 20
49.3094056026
 30
0.0
 10
34.9000247752
 20
49.3019514626
 30
0.0
 10
34.8999596092
 20
49.2844816448
 30
0.0
 10
34.8986427921
 20
49.2561297131
 30
0.0
 10
34.8984638659
 20
49.2164575622
 30
0.0
 10
34.8983426562
 20
49.1659260123
 30
0.0
 10
34.8987463891
 20
49.1046735575
 30
0.0
 10
34.8995106243
 20
49.0330086225
 30
0.0
 10
34.900693915
 20
48.9512489201
 30
0.0
 10
34.9022731263
 20
48.8598009335
 30
0.0
 10
34.9042467347
 20
48.7591341592
 30
0.0
 10
34.9066073224
 20
48.6497473674
 30
0.0
 10
34.9093290729
 20
48.5321694958
 30
0.0
 10
34.9124631406
 20
48.4069500276
 30
0.0
 10
34.9145903498
 20
48.3209835713
 30
0.0
 10
34.915690449
 20
48.2768238142
 30
0.0
  0
LINE
  5
2DD
100
AcDbEntity
  8
INTFCLR_1
100
AcDbLine
 62
7
  6
BYLAYER
 10
34.9182100303
 20
48.0584110945
 11
35.4886912807
 21
48.0584110937
  0
LINE
  5
2DE
100
AcDbEntity
  8
INTFCLR_1
100
AcDbLine
 62
7
  6
BYLAYER
 10
34.9185752463
 20
48.0562823881
 11
34.9184056354
 21
48.0562823881
  0
SPLINE
  5
2DF
100
AcDbEntity
  8
INTFCLR_1
100
AcDbSpline
 62
7
  6
BYLAYER
 70
0
 71
3
 72
10
 73
6
 74
0
 42
0.0000001
 43
0.0000001
 44
0.0000000001
 40
0.0
 40
0.0
 40
0.0
 40
0.0
 40
0.2599946034
 40
0.5903440755
 40
1.0
 40
1.0
 40
1.0
 40
1.0
 10
33.6926166216
 20
48.0563394471
 30
0.0
 10
33.6977408225
 20
48.0563404245
 30
0.0
 10
33.7093374457
 20
48.0583253582
 30
0.0
 10
33.7280433757
 20
48.0645654278
 30
0.0
 10
33.741404268
 20
48.0704923381
 30
0.0
 10
33.7486359637
 20
48.0740825676
 30
0.0
  0
SPLINE
  5
2E0
100
AcDbEntity
  8
INTFCLR_1
100
AcDbSpline
 62
7
  6
BYLAYER
 70
0
 71
3
 72
48
 73
44
 74
0
 42
0.0000001
 43
0.0000001
 44
0.0000000001
 40
0.0
 40
0.0
 40
0.0
 40
0.0
 40
0.0221129206
 40
0.046497532
 40
0.0731373291
 40
0.1020134625
 40
0.1330883424
 40
0.1663137538
 40
0.2016300744
 40
0.2389449814
 40
0.278173604
 40
0.3192023252
 40
0.3618342721
 40
0.4058873285
 40
0.4512891811
 40
0.4956802289
 40
0.536171406
 40
0.5725443295
 40
0.6053880676
 40
0.6348178085
 40
0.6611033296
 40
0.6846478084
 40
0.7059058756
 40
0.7252911536
 40
0.7431536739
 40
0.7597718103
 40
0.7753827685
 40
0.7901680891
 40
0.8042985504
 40
0.8179104341
 40
0.8311330209
 40
0.8440741932
 40
0.8568412574
 40
0.8695360345
 40
0.8822624787
 40
0.895123263
 40
0.9082344337
 40
0.9217238517
 40
0.9357204882
 40
0.9504027762
 40
0.9660510551
 40
0.9826549216
 40
1.0
 40
1.0
 40
1.0
 40
1.0
 10
33.7486431346
 20
48.074047751
 30
0.0
 10
33.7564997552
 20
48.0779469398
 30
0.0
 10
33.7732463825
 20
48.0856934687
 30
0.0
 10
33.8000821919
 20
48.0967288108
 30
0.0
 10
33.8298084739
 20
48.1077337923
 30
0.0
 10
33.8623674588
 20
48.1186813902
 30
0.0
 10
33.8976951252
 20
48.1295494033
 30
0.0
 10
33.9357162839
 20
48.1403130888
 30
0.0
 10
33.9763378443
 20
48.1509454509
 30
0.0
 10
34.0194547309
 20
48.1614190942
 30
0.0
 10
34.0649425929
 20
48.1717047266
 30
0.0
 10
34.1126376579
 20
48.1817673003
 30
0.0
 10
34.1623388549
 20
48.1915685206
 30
0.0
 10
34.2138615047
 20
48.2010776884
 30
0.0
 10
34.2661762735
 20
48.2101197608
 30
0.0
 10
34.317187815
 20
48.2183888168
 30
0.0
 10
34.3647328963
 20
48.2256466998
 30
0.0
 10
34.4078010113
 20
48.2318704414
 30
0.0
 10
34.4465647431
 20
48.2371964071
 30
0.0
 10
34.4813934731
 20
48.2417620193
 30
0.0
 10
34.5125871151
 20
48.2456752526
 30
0.0
 10
34.5405819276
 20
48.249044634
 30
0.0
 10
34.5658731062
 20
48.2519706461
 30
0.0
 10
34.5889366968
 20
48.2545388389
 30
0.0
 10
34.6101805868
 20
48.2568172484
 30
0.0
 10
34.6299440355
 20
48.2588591204
 30
0.0
 10
34.6485005064
 20
48.2607053327
 30
0.0
 10
34.6660814905
 20
48.2623883594
 30
0.0
 10
34.6828790048
 20
48.2639335319
 30
0.0
 10
34.6990647153
 20
48.2653615343
 30
0.0
 10
34.7147856708
 20
48.2666884727
 30
0.0
 10
34.7301776575
 20
48.2679273572
 30
0.0
 10
34.7453657671
 20
48.2690882907
 30
0.0
 10
34.7604736794
 20
48.2701791989
 30
0.0
 10
34.7756233716
 20
48.2712056654
 30
0.0
 10
34.7909425692
 20
48.2721711963
 30
0.0
 10
34.8065685732
 20
48.2730769973
 30
0.0
 10
34.8226492009
 20
48.2739213649
 30
0.0
 10
34.8393570648
 20
48.2746995606
 30
0.0
 10
34.8569252567
 20
48.275403939
 30
0.0
 10
34.8755316632
 20
48.2760166896
 30
0.0
 10
34.8951981845
 20
48.2765103094
 30
0.0
 10
34.9086622479
 20
48.2767320692
 30
0.0
 10
34.9155415766
 20
48.2768161202
 30
0.0
  0
SPLINE
  5
2E1
100
AcDbEntity
  8
INTFCLR_1
100
AcDbSpline
 62
7
  6
BYLAYER
 70
0
 71
3
 72
56
 73
52
 74
0
 42
0.0000001
 43
0.0000001
 44
0.0000000001
 40
0.0
 40
0.0
 40
0.0
 40
0.0
 40
0.0053185538
 40
0.020841449
 40
0.0450523727
 40
0.0762764375
 40
0.1209469911
 40
0.1640297888
 40
0.2015326976
 40
0.2481022799
 40
0.292457136
 40
0.326925142
 40
0.3621912546
 40
0.4023485403
 40
0.4473643573
 40
0.483043727
 40
0.5269075274
 40
0.5605080867
 40
0.5856565508
 40
0.6155133831
 40
0.6388356684
 40
0.6626348207
 40
0.6873782845
 40
0.7066014387
 40
0.7263636002
 40
0.7451214653
 40
0.7595552362
 40
0.7741034929
 40
0.7888625612
 40
0.8006376474
 40
0.8106560276
 40
0.8221675029
 40
0.8312359709
 40
0.8396998594
 40
0.8478206714
 40
0.8558937911
 40
0.8644174584
 40
0.8732962687
 40
0.88341939
 40
0.8953328482
 40
0.9093214403
 40
0.9261284945
 40
0.9394578858
 40
0.9492211064
 40
0.9562126756
 40
0.9656860958
 40
0.9736173816
 40
0.9808504992
 40
0.987739144
 40
0.994189593
 40
1.0
 40
1.0
 40
1.0
 40
1.0
 10
34.9029023455
 20
49.3112998581
 30
0.0
 10
34.9029303255
 20
49.3090097533
 30
0.0
 10
34.9030399691
 20
49.3000356777
 30
0.0
 10
34.9032769852
 20
49.2806366717
 30
0.0
 10
34.9036502861
 20
49.2500830665
 30
0.0
 10
34.90417693
 20
49.2069788325
 30
0.0
 10
34.9048028564
 20
49.1557485982
 30
0.0
 10
34.9054618153
 20
49.1018147698
 30
0.0
 10
34.9061307646
 20
49.0470632425
 30
0.0
 10
34.9068064061
 20
48.9917639824
 30
0.0
 10
34.9074660814
 20
48.9377715146
 30
0.0
 10
34.9080662904
 20
48.8886461839
 30
0.0
 10
34.9086444165
 20
48.8413282763
 30
0.0
 10
34.9092780331
 20
48.7894686089
 30
0.0
 10
34.9099138251
 20
48.7374309981
 30
0.0
 10
34.9105691126
 20
48.6837974069
 30
0.0
 10
34.9111643591
 20
48.6350790873
 30
0.0
 10
34.9117041633
 20
48.5908952488
 30
0.0
 10
34.9121704075
 20
48.5527426389
 30
0.0
 10
34.9125821271
 20
48.5190157376
 30
0.0
 10
34.9129882444
 20
48.4858698069
 30
0.0
 10
34.9133621636
 20
48.4549257235
 30
0.0
 10
34.9137337151
 20
48.4257463424
 30
0.0
 10
34.9140310205
 20
48.3983063725
 30
0.0
 10
34.9144274927
 20
48.3734392572
 30
0.0
 10
34.914454689
 20
48.3506505878
 30
0.0
 10
34.9148236915
 20
48.3300521349
 30
0.0
 10
34.9190341079
 20
48.3115007399
 30
0.0
 10
34.9265597949
 20
48.295449125
 30
0.0
 10
34.9322594105
 20
48.2807666416
 30
0.0
 10
34.9362980082
 20
48.266983753
 30
0.0
 10
34.9382153178
 20
48.2538657445
 30
0.0
 10
34.9376155019
 20
48.2413068132
 30
0.0
 10
34.9351764161
 20
48.2304780828
 30
0.0
 10
34.9311430348
 20
48.2206074328
 30
0.0
 10
34.9257533849
 20
48.2114045212
 30
0.0
 10
34.9194779087
 20
48.2023989867
 30
0.0
 10
34.9122308022
 20
48.1930189324
 30
0.0
 10
34.9042459633
 20
48.1823616507
 30
0.0
 10
34.8958052238
 20
48.1693287838
 30
0.0
 10
34.8870990948
 20
48.1530910002
 30
0.0
 10
34.8806096702
 20
48.135121728
 30
0.0
 10
34.8776793954
 20
48.118097078
 30
0.0
 10
34.8777456263
 20
48.1050860545
 30
0.0
 10
34.8794097746
 20
48.0938862852
 30
0.0
 10
34.882708329
 20
48.0838309081
 30
0.0
 10
34.8879654364
 20
48.0745330443
 30
0.0
 10
34.8943455915
 20
48.067400873
 30
0.0
 10
34.9016076306
 20
48.0621876138
 30
0.0
 10
34.9093493204
 20
48.0591142558
 30
0.0
 10
34.9146435337
 20
48.0584125843
 30
0.0
 10
34.9171455697
 20
48.0583981584
 30
0.0
  0
SPLINE
  5
2E2
100
AcDbEntity
  8
INTFCLR_1
100
AcDbSpline
 62
7
  6
BYLAYER
 70
0
 71
3
 72
11
 73
7
 74
0
 42
0.0000001
 43
0.0000001
 44
0.0000000001
 40
0.0
 40
0.0
 40
0.0
 40
0.0
 40
0.221174868
 40
0.4710222131
 40
0.8037015583
 40
1.0
 40
1.0
 40
1.0
 40
1.0
 10
34.9171455697
 20
48.0583981584
 30
0.0
 10
34.9170467409
 20
48.0582631841
 30
0.0
 10
34.9169048756
 20
48.0579215686
 30
0.0
 10
34.9169165523
 20
48.057301436
 30
0.0
 10
34.9171469341
 20
48.0567388747
 30
0.0
 10
34.9174077413
 20
48.0564338095
 30
0.0
 10
34.9174897096
 20
48.0563100146
 30
0.0
  0
SPLINE
  5
2E3
100
AcDbEntity
  8
INTFCLR_1
100
AcDbSpline
 62
7
  6
BYLAYER
 70
0
 71
3
 72
14
 73
10
 74
0
 42
0.0000001
 43
0.0000001
 44
0.0000000001
 40
0.0
 40
0.0
 40
0.0
 40
0.0
 40
0.1227643097
 40
0.275611818
 40
0.4017622208
 40
0.5111897733
 40
0.6526478813
 40
0.8188814933
 40
1.0
 40
1.0
 40
1.0
 40
1.0
 10
34.9174897096
 20
48.0563100146
 30
0.0
 10
34.9170956717
 20
48.0562613957
 30
0.0
 10
34.9162081023
 20
48.0561931641
 30
0.0
 10
34.9149039304
 20
48.05610127
 30
0.0
 10
34.9136609641
 20
48.0563263344
 30
0.0
 10
34.912438914
 20
48.0563317106
 30
0.0
 10
34.9110916997
 20
48.0562625656
 30
0.0
 10
34.9095104086
 20
48.0563087113
 30
0.0
 10
34.9083870365
 20
48.0563042634
 30
0.0
 10
34.9078014012
 20
48.0562928475
 30
0.0
  0
LINE
  5
2E4
100
AcDbEntity
  8
INTFCLR_1
100
AcDbLine
 62
7
  6
BYLAYER
 10
35.4893001668
 20
48.0285192509
 11
35.4886912807
 21
48.0584110939
  0
SPLINE
  5
2E5
100
AcDbEntity
  8
INTFCLR_1
100
AcDbSpline
 62
7
  6
BYLAYER
 70
0
 71
3
 72
43
 73
39
 74
0
 42
0.0000001
 43
0.0000001
 44
0.0000000001
 40
0.0
 40
0.0
 40
0.0
 40
0.0
 40
0.0435705678
 40
0.0868268443
 40
0.1293954779
 40
0.1709640796
 40
0.2113393963
 40
0.2500436338
 40
0.2868034183
 40
0.3213737635
 40
0.3535256574
 40
0.3830092354
 40
0.409552503
 40
0.4330162067
 40
0.4531564624
 40
0.4698656881
 40
0.482994226
 40
0.492441483
 40
0.4981175886
 40
0.4999998943
 40
0.5019190307
 40
0.5076266035
 40
0.5170639804
 40
0.5301621844
 40
0.5468647747
 40
0.5669710318
 40
0.5903540647
 40
0.6168887823
 40
0.6463684907
 40
0.6785320971
 40
0.7131190528
 40
0.7500036616
 40
0.7887431901
 40
0.8290351124
 40
0.8705632691
 40
0.9131565025
 40
0.956409244
 40
1.0
 40
1.0
 40
1.0
 40
1.0
 10
11.3021029924
 20
9.3562823881
 30
0.0
 10
11.30173751
 20
9.3243313615
 30
0.0
 10
11.301028595
 20
9.2606595602
 30
0.0
 10
11.3000221835
 20
9.1657708162
 30
0.0
 10
11.2990744748
 20
9.0723497148
 30
0.0
 10
11.2981850034
 20
8.9810409309
 30
0.0
 10
11.2973543383
 20
8.892565737
 30
0.0
 10
11.2965829029
 20
8.8076167262
 30
0.0
 10
11.2958716452
 20
8.726924639
 30
0.0
 10
11.2952201642
 20
8.6510370276
 30
0.0
 10
11.2946283148
 20
8.580486705
 30
0.0
 10
11.2940963938
 20
8.5158179642
 30
0.0
 10
11.2936247929
 20
8.4575362734
 30
0.0
 10
11.2932133875
 20
8.4060573867
 30
0.0
 10
11.2928641381
 20
8.3619371927
 30
0.0
 10
11.2925718147
 20
8.3249764357
 30
0.0
 10
11.2923521719
 20
8.2969728861
 30
0.0
 10
11.2921676518
 20
8.2744155708
 30
0.0
 10
11.2920975168
 20
8.2651786271
 30
0.0
 10
11.2919926117
 20
8.2540397265
 30
0.0
 10
11.2920548376
 20
8.2653035003
 30
0.0
 10
11.2921220551
 20
8.2745178153
 30
0.0
 10
11.2922758652
 20
8.2970932818
 30
0.0
 10
11.2924790005
 20
8.325053421
 30
0.0
 10
11.2927503109
 20
8.3619661495
 30
0.0
 10
11.2930824715
 20
8.4059962712
 30
0.0
 10
11.2934785801
 20
8.4573852838
 30
0.0
 10
11.2939383219
 20
8.5155986482
 30
0.0
 10
11.294462351
 20
8.5802669867
 30
0.0
 10
11.2950504577
 20
8.6508352584
 30
0.0
 10
11.2957034484
 20
8.7268351795
 30
0.0
 10
11.2964213208
 20
8.8076568165
 30
0.0
 10
11.2972041333
 20
8.8926619909
 30
0.0
 10
11.2980508204
 20
8.9810720923
 30
0.0
 10
11.2989623819
 20
9.0723078767
 30
0.0
 10
11.2999394159
 20
9.1657144635
 30
0.0
 10
11.3009827268
 20
9.2606330654
 30
0.0
 10
11.3017212893
 20
9.3243167446
 30
0.0
 10
11.3021029924
 20
9.3562823878
 30
0.0
  0
SPLINE
  5
2E6
100
AcDbEntity
  8
INTFCLR_1
100
AcDbSpline
 62
7
  6
BYLAYER
 70
0
 71
3
 72
43
 73
39
 74
0
 42
0.0000001
 43
0.0000001
 44
0.0000000001
 40
0.0
 40
0.0
 40
0.0
 40
0.0
 40
0.0436129307
 40
0.0868787971
 40
0.1294324928
 40
0.1710082658
 40
0.2114250606
 40
0.2501236685
 40
0.2868476106
 40
0.3214083965
 40
0.3535889286
 40
0.3830767783
 40
0.4095938485
 40
0.4330658613
 40
0.4532106844
 40
0.4699108528
 40
0.4830189191
 40
0.4924680698
 40
0.4981318804
 40
0.50000027
 40
0.5019269907
 40
0.5076420936
 40
0.5170707828
 40
0.5301274328
 40
0.5468300865
 40
0.5669286399
 40
0.5902900714
 40
0.6168086998
 40
0.6463202928
 40
0.6785104296
 40
0.7130834567
 40
0.7500278302
 40
0.7888057416
 40
0.8290871472
 40
0.8706024598
 40
0.9132023572
 40
0.9564284099
 40
1.0
 40
1.0
 40
1.0
 40
1.0
 10
13.3024912426
 20
9.3562823878
 30
0.0
 10
13.3021333425
 20
9.3243002314
 30
0.0
 10
13.301438621
 20
9.260590222
 30
0.0
 10
13.3004503633
 20
9.1656742159
 30
0.0
 10
13.2995176917
 20
9.0722517004
 30
0.0
 10
13.2986398044
 20
8.9809181529
 30
0.0
 10
13.2978176005
 20
8.8924113998
 30
0.0
 10
13.2970519864
 20
8.8074623995
 30
0.0
 10
13.2963440892
 20
8.7268077724
 30
0.0
 10
13.2956931194
 20
8.6509325123
 30
0.0
 10
13.2950990929
 20
8.5803651357
 30
0.0
 10
13.2945627908
 20
8.515691573
 30
0.0
 10
13.294084885
 20
8.457419913
 30
0.0
 10
13.2936650538
 20
8.4059510341
 30
0.0
 10
13.2933061078
 20
8.361827769
 30
0.0
 10
13.2930011283
 20
8.3248868396
 30
0.0
 10
13.292771925
 20
8.2968994906
 30
0.0
 10
13.2925669186
 20
8.2743731911
 30
0.0
 10
13.2924960594
 20
8.265134046
 30
0.0
 10
13.2923607955
 20
8.2540437155
 30
0.0
 10
13.2923921862
 20
8.265333798
 30
0.0
 10
13.2924558692
 20
8.2745345827
 30
0.0
 10
13.2925857958
 20
8.2970840333
 30
0.0
 10
13.2927739198
 20
8.3250063603
 30
0.0
 10
13.2930260333
 20
8.3618842212
 30
0.0
 10
13.2933407754
 20
8.4058925618
 30
0.0
 10
13.2937192757
 20
8.4572484991
 30
0.0
 10
13.2941624484
 20
8.5154576412
 30
0.0
 10
13.2946710361
 20
8.5801571142
 30
0.0
 10
13.2952448838
 20
8.650758067
 30
0.0
 10
13.2958851748
 20
8.7268111107
 30
0.0
 10
13.2965920578
 20
8.8076945456
 30
0.0
 10
13.2973658224
 20
8.8927640041
 30
0.0
 10
13.2982050986
 20
8.9811851235
 30
0.0
 10
13.2991113511
 20
9.0724086436
 30
0.0
 10
13.3000855255
 20
9.1657910806
 30
0.0
 10
13.3011287161
 20
9.2606808665
 30
0.0
 10
13.3018691145
 20
9.324330844
 30
0.0
 10
13.3022522634
 20
9.3562823881
 30
0.0
  0
SPLINE
  5
2E7
100
AcDbEntity
  8
INTFCLR_1
100
AcDbSpline
 62
7
  6
BYLAYER
 70
0
 71
3
 72
43
 73
39
 74
0
 42
0.0000001
 43
0.0000001
 44
0.0000000001
 40
0.0
 40
0.0
 40
0.0
 40
0.0
 40
0.0435403778
 40
0.0867889274
 40
0.1293807026
 40
0.1709393571
 40
0.2112808625
 40
0.2500160143
 40
0.286840251
 40
0.3214086906
 40
0.3535383096
 40
0.383013024
 40
0.4095750594
 40
0.4330102228
 40
0.4531446857
 40
0.4698558967
 40
0.4829791078
 40
0.4924179076
 40
0.4981051793
 40
0.5000004662
 40
0.501908715
 40
0.5076045371
 40
0.5170458709
 40
0.5301626569
 40
0.5468565205
 40
0.5669688572
 40
0.5903810678
 40
0.6169156982
 40
0.64637588
 40
0.6785182879
 40
0.7131095036
 40
0.7499309166
 40
0.7886514459
 40
0.8289769511
 40
0.8705183455
 40
0.9131051701
 40
0.9563834067
 40
1.0
 40
1.0
 40
1.0
 40
1.0
 10
13.3022522634
 20
9.3562823881
 30
0.0
 10
13.302618928
 20
9.3882111941
 30
0.0
 10
13.3033295986
 20
9.4518550374
 30
0.0
 10
13.3043366193
 20
9.5467327451
 30
0.0
 10
13.3052829458
 20
9.6401576798
 30
0.0
 10
13.30616891
 20
9.7314511911
 30
0.0
 10
13.3069944309
 20
9.8199168325
 30
0.0
 10
13.3077597167
 20
9.9049108698
 30
0.0
 10
13.3084637291
 20
9.9856713985
 30
0.0
 10
13.309106561
 20
10.0615884652
 30
0.0
 10
13.3096884977
 20
10.1321144877
 30
0.0
 10
13.3102100354
 20
10.1967741242
 30
0.0
 10
13.31067088
 20
10.2550420588
 30
0.0
 10
13.3110713493
 20
10.3065096358
 30
0.0
 10
13.3114098917
 20
10.3506056769
 30
0.0
 10
13.3116913498
 20
10.3875610869
 30
0.0
 10
13.3119024916
 20
10.4155528854
 30
0.0
 10
13.3120753575
 20
10.4381154215
 30
0.0
 10
13.3121433847
 20
10.4473431732
 30
0.0
 10
13.3122352294
 20
10.4585263777
 30
0.0
 10
13.3121643059
 20
10.4473020352
 30
0.0
 10
13.3120979637
 20
10.4380794339
 30
0.0
 10
13.3119407546
 20
10.4155037069
 30
0.0
 10
13.3117391372
 20
10.3875307929
 30
0.0
 10
13.3114704489
 20
10.3506078637
 30
0.0
 10
13.3111439312
 20
10.3065578808
 30
0.0
 10
13.3107561526
 20
10.2551432391
 30
0.0
 10
13.3103080829
 20
10.1969228365
 30
0.0
 10
13.309799419
 20
10.1322844589
 30
0.0
 10
13.309230322
 20
10.0617429127
 30
0.0
 10
13.3086005563
 20
9.9858017224
 30
0.0
 10
13.3079101034
 20
9.9050371682
 30
0.0
 10
13.3071589939
 20
9.8200675337
 30
0.0
 10
13.3063481368
 20
9.7316368735
 30
0.0
 10
13.3054772028
 20
9.6403712414
 30
0.0
 10
13.3045460274
 20
9.5469406714
 30
0.0
 10
13.3035539106
 20
9.4519887683
 30
0.0
 10
13.3028530769
 20
9.3882671462
 30
0.0
 10
13.3024912426
 20
9.3562823878
 30
0.0
  0
SPLINE
  5
2E8
100
AcDbEntity
  8
INTFCLR_1
100
AcDbSpline
 62
7
  6
BYLAYER
 70
0
 71
3
 72
43
 73
39
 74
0
 42
0.0000001
 43
0.0000001
 44
0.0000000001
 40
0.0
 40
0.0
 40
0.0
 40
0.0
 40
0.0435706756
 40
0.086826976
 40
0.1293955538
 40
0.1709641774
 40
0.2113396048
 40
0.2500437937
 40
0.2868034372
 40
0.3213737672
 40
0.35352574
 40
0.3830093467
 40
0.4095525181
 40
0.4330162947
 40
0.4531565624
 40
0.4698657788
 40
0.4829942929
 40
0.4924415642
 40
0.4981176322
 40
0.499999894
 40
0.5019190602
 40
0.5076266626
 40
0.5170640218
 40
0.5301621333
 40
0.5468647362
 40
0.5669709737
 40
0.5903539339
 40
0.6168886214
 40
0.6463684043
 40
0.6785320866
 40
0.713118999
 40
0.7500038043
 40
0.7887434175
 40
0.829035277
 40
0.8705633964
 40
0.9131566484
 40
0.9564093111
 40
1.0
 40
1.0
 40
1.0
 40
1.0
 10
11.3021029924
 20
9.3562823878
 30
0.0
 10
11.3024684407
 20
9.3882334938
 30
0.0
 10
11.303177291
 20
9.4519053922
 30
0.0
 10
11.3041836163
 20
9.5467941925
 30
0.0
 10
11.3051312497
 20
9.640215287
 30
0.0
 10
11.3060206574
 20
9.7315241276
 30
0.0
 10
11.3068512691
 20
9.8199993833
 30
0.0
 10
11.30762266
 20
9.9049483364
 30
0.0
 10
11.3083338819
 20
9.9856402735
 30
0.0
 10
11.3089853368
 20
10.0615278283
 30
0.0
 10
11.3095771694
 20
10.1320782185
 30
0.0
 10
11.3101090809
 20
10.1967469675
 30
0.0
 10
11.3105806792
 20
10.2550286623
 30
0.0
 10
11.3109920889
 20
10.3065075401
 30
0.0
 10
11.311341348
 20
10.3506277907
 30
0.0
 10
11.3116336889
 20
10.3875885277
 30
0.0
 10
11.3118533455
 20
10.4155920749
 30
0.0
 10
11.3120379019
 20
10.4381493303
 30
0.0
 10
11.3121080371
 20
10.4473862908
 30
0.0
 10
11.3122129997
 20
10.4585250407
 30
0.0
 10
11.3121508358
 20
10.4472611626
 30
0.0
 10
11.312083626
 20
10.4380468822
 30
0.0
 10
11.3119298652
 20
10.415471453
 30
0.0
 10
11.3117267617
 20
10.3875113918
 30
0.0
 10
11.3114554917
 20
10.3505987319
 30
0.0
 10
11.3111233679
 20
10.30656867
 30
0.0
 10
11.3107272962
 20
10.2551797467
 30
0.0
 10
11.3102675886
 20
10.1969664031
 30
0.0
 10
11.3097435903
 20
10.1322979762
 30
0.0
 10
11.309155511
 20
10.061729626
 30
0.0
 10
11.3085025429
 20
9.9857295369
 30
0.0
 10
11.3077846883
 20
9.9049077256
 30
0.0
 10
11.307001888
 20
9.819902391
 30
0.0
 10
11.3061552085
 20
9.7314923011
 30
0.0
 10
11.3052436481
 20
9.6402565768
 30
0.0
 10
11.3042666078
 20
9.5468500619
 30
0.0
 10
11.3032232825
 20
9.4519315538
 30
0.0
 10
11.3024847047
 20
9.3882479819
 30
0.0
 10
11.3021029924
 20
9.3562823881
 30
0.0
  0
ELLIPSE
  5
2E9
100
AcDbEntity
  8
INTFCLR_1
100
AcDbEllipse
 62
7
  6
BYLAYER
 10
36.2356101568
 20
10.0562823881
 30
0.0
 11
0.0
 21
1.75
 31
0.0
 40
0.7499999995
 41
-2.8230515259
 42
-2.062276416
  0
ELLIPSE
  5
2EA
100
AcDbEntity
  8
INTFCLR_1
100
AcDbEllipse
 62
7
  6
BYLAYER
 10
12.4577113658
 20
10.0562823881
 30
0.0
 11
0.0
 21
1.75
 31
0.0
 40
0.7499999995
 41
-4.2209088912
 42
-3.4601337814
  0
ENDSEC
  0
SECTION
  2
OBJECTS
  0
DICTIONARY
  5
C
100
AcDbDictionary
280
0
281
1
  3
ACAD_GROUP
350
D
  3
ACAD_MLINESTYLE
350
17
  3
ACAD_LAYOUT
350
1A
  3
ACAD_PLOTSETTINGS
350
19
  3
ACAD_PLOTSTYLENAME
350
E
  0
DICTIONARY
  5
D
102
{ACAD_REACTORS
330
C
102
}
100
AcDbDictionary
280
0
281
1
  0
ACDBDICTIONARYWDFLT
  5
E
102
{ACAD_REACTORS
330
C
102
}
100
AcDbDictionary
281
1
  3
Normal
350
F
100
AcDbDictionaryWithDefault
340
F
  0
DICTIONARY
  5
17
102
{ACAD_REACTORS
330
C
102
}
100
AcDbDictionary
280
0
281
1
  3
Standard
350
18
  0
DICTIONARY
  5
19
102
{ACAD_REACTORS
330
C
102
}
100
AcDbDictionary
281
1
  0
DICTIONARY
  5
1A
102
{ACAD_REACTORS
330
C
102
}
100
AcDbDictionary
281
1
  3
Model
350
2EB
  3
Layout1
350
2EC
  0
ACDBPLACEHOLDER
  5
F
102
{ACAD_REACTORS
330
E
102
}
  0
MLINESTYLE
  5
18
102
{ACAD_REACTORS
330
17
102
}
100
AcDbMlineStyle
  2
STANDARD
 70
0
  3

 62
256
 51
90.0
 52
90.0
 71
2
 49
0.5
 62
256
  6
BYLAYER
 49
-0.5
 62
256
  6
BYLAYER
  0
LAYOUT
  5
2EB
102
{ACAD_REACTORS
330
1A
102
}
100
AcDbPlotSettings
  1

  2
none_device
  4

  6

 40
0.0
 41
0.0
 42
0.0
 43
0.0
 44
210.0
 45
297.0
 46
0.0
 47
0.0
 48
0.0
 49
0.0
140
0.0
141
0.0
142
1.0
143
1.0
 70
1024
 72
1
 73
0
 74
0
  7

 75
0
147
1.0
148
0.0
149
0.0
100
AcDbLayout
  1
Model
 70
0
 71
0
 10
0.0
 20
0.0
 11
210.0
 21
297.0
 12
0.0
 22
0.0
 32
0.0
 14
0.0
 24
0.0
 34
0.0
 15
0.0
 25
0.0
 35
0.0
146
0.0
 13
0.0
 23
0.0
 33
0.0
 16
1.0
 26
0.0
 36
0.0
 17
0.0
 27
1.0
 37
0.0
 76
0
330
219
345
0
346
0
  0
LAYOUT
  5
2EC
102
{ACAD_REACTORS
330
1A
102
}
100
AcDbPlotSettings
  1

  2
none_device
  4

  6

 40
0.0
 41
0.0
 42
0.0
 43
0.0
 44
210.0
 45
297.0
 46
0.0
 47
0.0
 48
0.0
 49
0.0
140
0.0
141
0.0
142
1.0
143
1.0
 70
0
 72
1
 73
0
 74
0
  7

 75
0
147
1.0
148
0.0
149
0.0
100
AcDbLayout
  1
Layout1
 70
0
 71
1
 10
0.0
 20
0.0
 11
210.0
 21
297.0
 12
0.0
 22
0.0
 32
0.0
 14
0.0
 24
0.0
 34
0.0
 15
0.0
 25
0.0
 35
0.0
146
0.0
 13
0.0
 23
0.0
 33
0.0
 16
1.0
 26
0.0
 36
0.0
 17
0.0
 27
1.0
 37
0.0
 76
0
330
21A
345
0
346
0
  0
ENDSEC
  0
EOF
