999
DXF file: C:\Users\sesa63760\OneDrive - Schneider Electric\Documents\7-Dev\_Creo\CAD\MCADUE0000011_3D-CAD\drw0001_1.dxf
999
Pro/ENGINEER 2019471 by Parametric Technology Corporation
  0
SECTION
  2
HEADER
  9
$ACADVER
  1
AC1024
  9
$DWGCODEPAGE
  3
ANSI_1252
  9
$EXTMAX
 10
1291.4527911083
 20
1826.4832331389
 30
0.0
  9
$EXTMIN
 10
0.0
 20
0.0
 30
0.0
  9
$LIMMIN
 10
0.0
 20
0.0
  9
$LIMMAX
 10
1291.4527911083
 20
1826.4832331389
  9
$VIEWCTR
 10
645.7263955542
 20
913.2416165695
  9
$VIEWSIZE
 40
1826.4832331389
  9
$CLAYER
  8
0
  9
$LTSCALE
 40
119.0596477898
  9
$CELTYPE
  6
BYLAYER
  9
$DIMSCALE
 40
1.0
  9
$DIMASZ
 40
15.3744379894
  9
$DIMEXO
 40
1.0
  9
$DIMDLI
 40
82.2593930184
  9
$DIMEXE
 40
1.0
  9
$DIMCEN
 40
19.4824878201
  9
$DIMLFAC
 40
1.0
  9
$DIMBLK
  1
_FILLED
  9
$DIMALT
 70
0
  9
$DIMALTF
 40
0.0393700787
  9
$DIMTXT
 40
21.5242131851
  9
$DIMTOL
 70
1
  9
$DIMLIM
 70
0
  9
$DIMTFAC
 40
1.0
  9
$DIMTP
 40
0.01
  9
$DIMTM
 40
0.01
  9
$DIMGAP
 40
0.625
  9
$DIMDSEP
 70
46
  9
$AUNITS
 70
0
  9
$PDMODE
 70
3
  9
$PDSIZE
 40
0.3125
  9
$HANDSEED
  5
3A0
  9
$TILEMODE
 70
1
  9
$MEASUREMENT
 70
1
  9
$INSUNITS
 70
4
  0
ENDSEC
  0
SECTION
  2
CLASSES
  0
CLASS
  1
ACDBDICTIONARYWDFLT
  2
AcDbDictionaryWithDefault
  3
AutoCAD 2000
 90
0
 91
1
280
0
281
0
  0
CLASS
  1
ACDBPLACEHOLDER
  2
AcDbPlaceHolder
  3
AutoCAD 2000
 90
0
 91
1
280
0
281
0
  0
CLASS
  1
LAYOUT
  2
AcDbLayout
  3
AutoCAD 2000
 90
0
 91
0
280
0
281
0
  0
ENDSEC
  0
SECTION
  2
TABLES
  0
TABLE
  2
VPORT
  5
8
100
AcDbSymbolTable
 70
2
  0
VPORT
  5
1F4
100
AcDbSymbolTableRecord
100
AcDbViewportTableRecord
  2
*ACTIVE
 70
0
 10
0.0
 20
0.0
 11
1.0
 21
1.0
 12
645.7263955542
 22
913.2416165695
 13
0.0
 23
0.0
 14
1.0
 24
1.0
 15
0.0
 25
0.0
 16
0.0
 26
0.0
 36
1.0
 17
0.0
 27
0.0
 37
0.0
 40
1826.4832331389
 41
0.7070707071
 42
50.0
 43
0.0
 44
0.0
 50
0.0
 51
0.0
 71
0
 72
100
 73
1
 74
1
 75
0
 76
0
 77
0
 78
0
  0
ENDTAB
  0
TABLE
  2
LTYPE
  5
5
100
AcDbSymbolTable
 70
6
  0
LTYPE
  5
14
100
AcDbSymbolTableRecord
100
AcDbLinetypeTableRecord
  2
BYBLOCK
 70
0
  3

 72
65
 73
0
 40
0.0
  0
LTYPE
  5
15
100
AcDbSymbolTableRecord
100
AcDbLinetypeTableRecord
  2
BYLAYER
 70
0
  3

 72
65
 73
0
 40
0.0
  0
LTYPE
  5
16
100
AcDbSymbolTableRecord
100
AcDbLinetypeTableRecord
  2
CONTINUOUS
 70
64
  3
Solid line
 72
65
 73
0
 40
0.0
  0
LTYPE
  5
1F5
100
AcDbSymbolTableRecord
100
AcDbLinetypeTableRecord
  2
CENTER
 70
64
  3
____ _ ____ _ ____ _ ____ _ ____ _ ____ _ ____
 72
65
 73
4
 40
0.6
 49
0.375
 74
0
 49
-0.075
 74
0
 49
0.075
 74
0
 49
-0.075
 74
0
  0
LTYPE
  5
1F6
100
AcDbSymbolTableRecord
100
AcDbLinetypeTableRecord
  2
HIDDEN
 70
64
  3
- - - - - - - - - - - - - - - - - - - -
 72
65
 73
2
 40
0.2
 49
0.1
 74
0
 49
-0.1
 74
0
  0
LTYPE
  5
1F7
100
AcDbSymbolTableRecord
100
AcDbLinetypeTableRecord
  2
PHANTOM
 70
64
  3
_____ _ _ _____ _ _ _____ _ _ _____
 72
65
 73
6
 40
0.8
 49
0.45
 74
0
 49
-0.05
 74
0
 49
0.1
 74
0
 49
-0.05
 74
0
 49
0.1
 74
0
 49
-0.05
 74
0
  0
LTYPE
  5
1F8
100
AcDbSymbolTableRecord
100
AcDbLinetypeTableRecord
  2
DOT
 70
64
  3
. . . . . . . . . . . . . . . . . . . .
 72
65
 73
2
 40
0.2
 49
0.1
 74
0
 49
-0.1
 74
0
  0
LTYPE
  5
1F9
100
AcDbSymbolTableRecord
100
AcDbLinetypeTableRecord
  2
DASHED
 70
64
  3
- - - - - - - - - - - - - - - - - - - -
 72
65
 73
2
 40
0.2
 49
0.1
 74
0
 49
-0.1
 74
0
  0
ENDTAB
  0
TABLE
  2
LAYER
  5
2
100
AcDbSymbolTable
 70
36
  0
LAYER
  5
10
100
AcDbSymbolTableRecord
100
AcDbLayerTableRecord
  2
0
 70
0
 62
7
  6
CONTINUOUS
370
-3
390
F
  0
LAYER
  5
1FA
100
AcDbSymbolTableRecord
100
AcDbLayerTableRecord
  2
DEFAULT_1
 70
0
 62
7
  6
CENTER
370
-3
390
F
  0
LAYER
  5
1FB
100
AcDbSymbolTableRecord
100
AcDbLayerTableRecord
  2
DEFAULT_2
 70
0
 62
8
  6
HIDDEN
370
-3
390
F
  0
LAYER
  5
1FC
100
AcDbSymbolTableRecord
100
AcDbLayerTableRecord
  2
DEFAULT_3
 70
0
 62
7
  6
PHANTOM
370
-3
390
F
  0
LAYER
  5
1FD
100
AcDbSymbolTableRecord
100
AcDbLayerTableRecord
  2
00_COMPONENTS
 70
0
 62
7
  6
CONTINUOUS
370
-3
390
F
  0
LAYER
  5
1FE
100
AcDbSymbolTableRecord
100
AcDbLayerTableRecord
  2
01_1_DEFAULT_DATUMS
 70
0
 62
7
  6
CONTINUOUS
370
-3
390
F
  0
LAYER
  5
1FF
100
AcDbSymbolTableRecord
100
AcDbLayerTableRecord
  2
01_PLANES
 70
0
 62
7
  6
CONTINUOUS
370
-3
390
F
  0
LAYER
  5
200
100
AcDbSymbolTableRecord
100
AcDbLayerTableRecord
  2
02_COORD_SYS
 70
0
 62
7
  6
CONTINUOUS
370
-3
390
F
  0
LAYER
  5
201
100
AcDbSymbolTableRecord
100
AcDbLayerTableRecord
  2
03_AXES
 70
0
 62
7
  6
CONTINUOUS
370
-3
390
F
  0
LAYER
  5
202
100
AcDbSymbolTableRecord
100
AcDbLayerTableRecord
  2
04_POINTS
 70
0
 62
7
  6
CONTINUOUS
370
-3
390
F
  0
LAYER
  5
203
100
AcDbSymbolTableRecord
100
AcDbLayerTableRecord
  2
05_CURVES
 70
0
 62
7
  6
CONTINUOUS
370
-3
390
F
  0
LAYER
  5
204
100
AcDbSymbolTableRecord
100
AcDbLayerTableRecord
  2
06_SURFS
 70
0
 62
7
  6
CONTINUOUS
370
-3
390
F
  0
LAYER
  5
205
100
AcDbSymbolTableRecord
100
AcDbLayerTableRecord
  2
07_COSMETICS
 70
0
 62
7
  6
CONTINUOUS
370
-3
390
F
  0
LAYER
  5
206
100
AcDbSymbolTableRecord
100
AcDbLayerTableRecord
  2
10_NOTES
 70
0
 62
7
  6
CONTINUOUS
370
-3
390
F
  0
LAYER
  5
207
100
AcDbSymbolTableRecord
100
AcDbLayerTableRecord
  2
11_NOTES_PUB
 70
0
 62
7
  6
CONTINUOUS
370
-3
390
F
  0
LAYER
  5
208
100
AcDbSymbolTableRecord
100
AcDbLayerTableRecord
  2
13_REF_GTOL
 70
0
 62
7
  6
CONTINUOUS
370
-3
390
F
  0
LAYER
  5
209
100
AcDbSymbolTableRecord
100
AcDbLayerTableRecord
  2
16_MISC
 70
0
 62
7
  6
CONTINUOUS
370
-3
390
F
  0
LAYER
  5
20A
100
AcDbSymbolTableRecord
100
AcDbLayerTableRecord
  2
17_NO_PRINT
 70
0
 62
7
  6
CONTINUOUS
370
-3
390
F
  0
LAYER
  5
20B
100
AcDbSymbolTableRecord
100
AcDbLayerTableRecord
  2
18_DATUM_CAMS_JOINTS
 70
0
 62
7
  6
CONTINUOUS
370
-3
390
F
  0
LAYER
  5
20C
100
AcDbSymbolTableRecord
100
AcDbLayerTableRecord
  2
19_DATUM_FUNCTIONAL
 70
0
 62
7
  6
CONTINUOUS
370
-3
390
F
  0
LAYER
  5
20D
100
AcDbSymbolTableRecord
100
AcDbLayerTableRecord
  2
20_DATUM_KINEMATIC_SCHEME
 70
0
 62
7
  6
CONTINUOUS
370
-3
390
F
  0
ENDTAB
  0
TABLE
  2
STYLE
  5
3
100
AcDbSymbolTable
 70
1
  0
STYLE
  5
11
100
AcDbSymbolTableRecord
100
AcDbTextStyleTableRecord
  2
STANDARD
 70
0
 40
0.0
 41
0.8
 50
0.0
 71
0
 42
0.2
  3
txt
  4

  0
STYLE
  5
20E
100
AcDbSymbolTableRecord
100
AcDbTextStyleTableRecord
  2
TEXTSTYLE_1
 70
0
 40
0.0
 41
0.8
 50
0.0
 71
0
 42
0.2
  3
gdt
  4

  0
ENDTAB
  0
TABLE
  2
VIEW
  5
6
100
AcDbSymbolTable
 70
0
  0
ENDTAB
  0
TABLE
  2
UCS
  5
7
100
AcDbSymbolTable
 70
0
  0
ENDTAB
  0
TABLE
  2
APPID
  5
9
100
AcDbSymbolTable
 70
1
  0
APPID
  5
20F
100
AcDbSymbolTableRecord
100
AcDbRegAppTableRecord
  2
ACAD
 70
0
  0
ENDTAB
  0
TABLE
  2
BLOCK_RECORD
  5
1
100
AcDbSymbolTable
 70
0
  0
BLOCK_RECORD
  5
210
100
AcDbSymbolTableRecord
100
AcDbBlockTableRecord
  2
*Model_Space
  0
BLOCK_RECORD
  5
211
100
AcDbSymbolTableRecord
100
AcDbBlockTableRecord
  2
*Paper_Space
  0
BLOCK_RECORD
  5
212
100
AcDbSymbolTableRecord
100
AcDbBlockTableRecord
  2
_FILLED
  0
ENDTAB
  0
TABLE
  2
DIMSTYLE
  5
A
100
AcDbSymbolTable
 70
1
100
AcDbDimStyleTable
 71
0
  0
DIMSTYLE
105
213
100
AcDbSymbolTableRecord
100
AcDbDimStyleTableRecord
  2
STANDARD
 70
0
  3

  4

 40
1.0
 41
15.3744379894
 42
1.0
 43
0.38
 44
1.0
 45
0.0
 46
0.0
 47
0.01
 48
0.01
140
21.5242131851
141
0.09
142
0.0
143
25.4
144
1.0
145
0.0
146
1.0
147
0.625
 71
1
 72
0
 73
0
 74
0
 75
0
 76
0
 77
1
 78
8
 79
2
170
0
171
1
172
0
173
0
174
0
175
0
176
0
177
0
178
0
270
2
179
2
271
2
272
2
273
2
274
2
275
0
280
0
281
0
282
0
283
1
284
8
285
0
286
0
287
3
288
0
340
11
278
46
341
212
342
212
343
212
344
212
  0
ENDTAB
  0
ENDSEC
  0
SECTION
  2
BLOCKS
  0
BLOCK
  5
20
100
AcDbEntity
  8
0
100
AcDbBlockBegin
  2
*Model_Space
 70
0
 10
0.0
 20
0.0
 30
0.0
  3
*Model_Space
  1

  0
ENDBLK
  5
21
100
AcDbEntity
  8
0
100
AcDbBlockEnd
  0
BLOCK
  5
1C
100
AcDbEntity
  8
0
100
AcDbBlockBegin
  2
*Paper_Space
 70
0
 10
0.0
 20
0.0
 30
0.0
  3
*Paper_Space
  1

  0
ENDBLK
  5
1D
100
AcDbEntity
  8
0
100
AcDbBlockEnd
  0
BLOCK
  5
214
100
AcDbEntity
  8
0
100
AcDbBlockBegin
  2
_FILLED
 70
64
 10
0.0
 20
0.0
  3
_FILLED
  1

  0
SOLID
  5
215
100
AcDbEntity
  8
0
  6
BYBLOCK
 62
0
100
AcDbTrace
 10
0.0
 20
0.0
 11
-1.0
 21
0.25
 12
-1.0
 22
-0.25
 13
-1.0
 23
-0.25
  0
ENDBLK
  5
216
100
AcDbEntity
  8
0
  6
BYBLOCK
 62
0
100
AcDbBlockEnd
  0
ENDSEC
  0
SECTION
  2
ENTITIES
  0
LINE
  5
217
100
AcDbEntity
  8
0
100
AcDbLine
 62
7
  6
CONTINUOUS
 10
881.919441008
 20
178.3618876221
 11
888.726653522
 21
179.3450997427
  0
LINE
  5
218
100
AcDbEntity
  8
0
100
AcDbLine
 62
7
  6
CONTINUOUS
 10
484.619940629
 20
1646.7046169409
 11
481.9481246569
 21
1645.1620524781
  0
LINE
  5
219
100
AcDbEntity
  8
0
100
AcDbLine
 62
7
  6
CONTINUOUS
 10
492.1810771154
 20
1639.2541882753
 11
491.1911316906
 21
1638.6826464295
  0
LINE
  5
21A
100
AcDbEntity
  8
0
100
AcDbLine
 62
7
  6
CONTINUOUS
 10
839.3687612065
 20
200.7116398123
 11
844.9529103501
 21
200.6698014914
  0
LINE
  5
21B
100
AcDbEntity
  8
0
100
AcDbLine
 62
7
  6
CONTINUOUS
 10
484.9895121513
 20
1647.067792352
 11
484.619940629
 21
1646.7046169409
  0
LINE
  5
21C
100
AcDbEntity
  8
0
100
AcDbLine
 62
7
  6
CONTINUOUS
 10
484.0393438237
 20
1647.7105287663
 11
481.8282524902
 21
1645.6702178593
  0
LINE
  5
21D
100
AcDbEntity
  8
0
100
AcDbLine
 62
7
  6
CONTINUOUS
 10
839.168261449
 20
200.2182397516
 11
845.450670369
 21
199.3442484399
  0
LINE
  5
21E
100
AcDbEntity
  8
0
100
AcDbLine
 62
7
  6
CONTINUOUS
 10
844.9529103501
 20
200.6698014914
 11
845.5822789828
 21
200.582162072
  0
LINE
  5
21F
100
AcDbEntity
  8
0
100
AcDbLine
 62
7
  6
CONTINUOUS
 10
484.0393438237
 20
1684.013891644
 11
488.2984166557
 21
1689.4197642091
  0
LINE
  5
220
100
AcDbEntity
  8
0
100
AcDbLine
 62
7
  6
CONTINUOUS
 10
421.3697749684
 20
371.9202954718
 11
820.6911354201
 21
141.3772161032
  0
LINE
  5
221
100
AcDbEntity
  8
0
100
AcDbLine
 62
7
  6
CONTINUOUS
 10
818.5529973388
 20
143.599166175
 11
422.2484083377
 21
372.4005511369
  0
LINE
  5
222
100
AcDbEntity
  8
0
100
AcDbLine
 62
7
  6
CONTINUOUS
 10
873.5400419231
 20
184.4961171989
 11
874.0885116466
 21
184.183043026
  0
LINE
  5
223
100
AcDbEntity
  8
0
100
AcDbLine
 62
7
  6
CONTINUOUS
 10
830.0634111516
 20
205.4748086022
 11
839.168261449
 21
200.2182397516
  0
LINE
  5
224
100
AcDbEntity
  8
0
100
AcDbLine
 62
7
  6
CONTINUOUS
 10
830.0634111516
 20
206.0839646331
 11
839.3687612065
 21
200.7116398123
  0
LINE
  5
225
100
AcDbEntity
  8
0
100
AcDbLine
 62
7
  6
CONTINUOUS
 10
845.450670369
 20
199.3442484399
 11
873.4992650169
 21
183.1507511154
  0
LINE
  5
226
100
AcDbEntity
  8
0
100
AcDbLine
 62
7
  6
CONTINUOUS
 10
873.5808188292
 20
183.1760844658
 11
881.919441008
 21
178.3618876179
  0
LINE
  5
227
100
AcDbEntity
  8
0
100
AcDbLine
 62
7
  6
CONTINUOUS
 10
844.9529103501
 20
200.6698014914
 11
830.0634111516
 21
209.2660633883
  0
LINE
  5
228
100
AcDbEntity
  8
0
100
AcDbLine
 62
7
  6
CONTINUOUS
 10
845.4914472751
 20
200.6896145234
 11
874.0860894991
 21
184.1816378966
  0
LINE
  5
229
100
AcDbEntity
  8
0
100
AcDbLine
 62
7
  6
CONTINUOUS
 10
830.1996048236
 20
211.6750550849
 11
831.6138242739
 21
210.8585735759
  0
LINE
  5
22A
100
AcDbEntity
  8
0
100
AcDbLine
 62
7
  6
CONTINUOUS
 10
831.6138242739
 20
213.2394154022
 11
830.1996048236
 21
214.0558969113
  0
LINE
  5
22B
100
AcDbEntity
  8
0
100
AcDbLine
 62
7
  6
CONTINUOUS
 10
830.0634111516
 20
217.8086933764
 11
880.7484463
 21
188.5463366926
  0
LINE
  5
22C
100
AcDbEntity
  8
0
100
AcDbLine
 62
7
  6
CONTINUOUS
 10
866.2824070208
 20
218.7942029476
 11
875.2929201635
 21
213.5920985072
  0
LINE
  5
22D
100
AcDbEntity
  8
0
100
AcDbLine
 62
7
  6
CONTINUOUS
 10
830.346786184
 20
209.4802753175
 11
845.4914472751
 21
200.6896145234
  0
LINE
  5
22E
100
AcDbEntity
  8
0
100
AcDbLine
 62
7
  6
CONTINUOUS
 10
878.3854867441
 20
1416.7229713925
 11
881.919441008
 21
1417.9995443086
  0
LINE
  5
22F
100
AcDbEntity
  8
0
100
AcDbLine
 62
7
  6
CONTINUOUS
 10
880.43468771
 20
1418.4834442555
 11
880.7322391757
 21
1418.5907912151
  0
LINE
  5
230
100
AcDbEntity
  8
0
100
AcDbLine
 62
7
  6
CONTINUOUS
 10
888.726653522
 20
1458.2376439016
 11
881.919441008
 21
1454.3029071863
  0
LINE
  5
231
100
AcDbEntity
  8
0
100
AcDbLine
 62
7
  6
CONTINUOUS
 10
866.2824070208
 20
1422.1284967563
 11
867.2723524456
 21
1422.7000386022
  0
LINE
  5
232
100
AcDbEntity
  8
0
100
AcDbLine
 62
7
  6
CONTINUOUS
 10
827.4724455742
 20
1387.905862025
 11
829.563664741
 21
1389.1132207669
  0
LINE
  5
233
100
AcDbEntity
  8
0
100
AcDbLine
 62
7
  6
CONTINUOUS
 10
877.5053049041
 20
1416.7921743994
 11
880.43468771
 21
1418.4834442555
  0
LINE
  5
234
100
AcDbEntity
  8
0
100
AcDbLine
 62
7
  6
CONTINUOUS
 10
827.4724455742
 20
1422.8681073564
 11
823.2133727421
 21
1420.413759386
  0
LINE
  5
235
100
AcDbEntity
  8
0
100
AcDbLine
 62
7
  6
CONTINUOUS
 10
421.3702869859
 20
371.9189943536
 11
421.3702869859
 21
1649.4441624703
  0
LINE
  5
236
100
AcDbEntity
  8
0
100
AcDbLine
 62
7
  6
CONTINUOUS
 10
422.2484083377
 20
372.4005511369
 11
422.2484083377
 21
1646.5173978741
  0
LINE
  5
237
100
AcDbEntity
  8
0
100
AcDbLine
 62
7
  6
CONTINUOUS
 10
430.7795502222
 20
1590.6447993457
 11
430.7795502222
 21
1582.6672466651
  0
LINE
  5
238
100
AcDbEntity
  8
0
100
AcDbLine
 62
7
  6
CONTINUOUS
 10
430.7795502222
 20
1223.2187116374
 11
430.7795502222
 21
1215.2411589568
  0
LINE
  5
239
100
AcDbEntity
  8
0
100
AcDbLine
 62
7
  6
CONTINUOUS
 10
430.7795502222
 20
794.5549426444
 11
430.7795502222
 21
786.5773899638
  0
LINE
  5
23A
100
AcDbEntity
  8
0
100
AcDbLine
 62
7
  6
CONTINUOUS
 10
430.7795502222
 20
427.1288549361
 11
430.7795502222
 21
419.1513022555
  0
LINE
  5
23B
100
AcDbEntity
  8
0
100
AcDbLine
 62
7
  6
CONTINUOUS
 10
431.0771016878
 20
1590.3327489511
 11
431.0771016878
 21
1582.6369903223
  0
LINE
  5
23C
100
AcDbEntity
  8
0
100
AcDbLine
 62
7
  6
CONTINUOUS
 10
431.0771016878
 20
1222.9066612428
 11
431.0771016878
 21
1215.210902614
  0
LINE
  5
23D
100
AcDbEntity
  8
0
100
AcDbLine
 62
7
  6
CONTINUOUS
 10
431.0771016878
 20
794.2428922498
 11
431.0771016878
 21
786.5471336209
  0
LINE
  5
23E
100
AcDbEntity
  8
0
100
AcDbLine
 62
7
  6
CONTINUOUS
 10
431.0771016878
 20
426.8168045415
 11
431.0771016878
 21
419.1210459126
  0
LINE
  5
23F
100
AcDbEntity
  8
0
100
AcDbLine
 62
7
  6
CONTINUOUS
 10
827.4724455742
 20
1386.5647444787
 11
829.6835369077
 21
1388.6050553857
  0
LINE
  5
240
100
AcDbEntity
  8
0
100
AcDbLine
 62
7
  6
CONTINUOUS
 10
481.4483782462
 20
1619.2659243513
 11
481.4483782462
 21
1621.4607041187
  0
LINE
  5
241
100
AcDbEntity
  8
0
100
AcDbLine
 62
7
  6
CONTINUOUS
 10
481.4483782462
 20
1625.466170834
 11
481.4483782462
 21
1644.9053613153
  0
LINE
  5
242
100
AcDbEntity
  8
0
100
AcDbLine
 62
7
  6
CONTINUOUS
 10
482.1806186532
 20
1618.9890309404
 11
482.1806186532
 21
1621.4607041187
  0
LINE
  5
243
100
AcDbEntity
  8
0
100
AcDbLine
 62
7
  6
CONTINUOUS
 10
482.1806186532
 20
1625.0434212018
 11
482.1806186532
 21
1643.8847509306
  0
LINE
  5
244
100
AcDbEntity
  8
0
100
AcDbLine
 62
7
  6
CONTINUOUS
 10
484.0393438237
 20
1647.7105287663
 11
484.0393438237
 21
1684.013891644
  0
LINE
  5
245
100
AcDbEntity
  8
0
100
AcDbLine
 62
7
  6
CONTINUOUS
 10
484.619940629
 20
1623.6351098626
 11
484.619940629
 21
1625.8927140005
  0
LINE
  5
246
100
AcDbEntity
  8
0
100
AcDbLine
 62
7
  6
CONTINUOUS
 10
484.619940629
 20
1643.6195137042
 11
484.619940629
 21
1646.7046169409
  0
LINE
  5
247
100
AcDbEntity
  8
0
100
AcDbLine
 62
7
  6
CONTINUOUS
 10
484.9895121513
 20
1647.067792352
 11
484.9895121513
 21
1643.4061463133
  0
LINE
  5
248
100
AcDbEntity
  8
0
100
AcDbLine
 62
7
  6
CONTINUOUS
 10
484.9895121513
 20
1625.8927140005
 11
484.9895121513
 21
1623.4217424718
  0
LINE
  5
249
100
AcDbEntity
  8
0
100
AcDbLine
 62
7
  6
CONTINUOUS
 10
485.1600253861
 20
1626.0441570434
 11
485.1600253861
 21
1623.3232988369
  0
LINE
  5
24A
100
AcDbEntity
  8
0
100
AcDbLine
 62
7
  6
CONTINUOUS
 10
485.1600253861
 20
1620.967517265
 11
485.1600253861
 21
1620.7533885762
  0
LINE
  5
24B
100
AcDbEntity
  8
0
100
AcDbLine
 62
7
  6
CONTINUOUS
 10
485.5547958216
 20
1620.967517265
 11
485.5547958216
 21
1621.8396075626
  0
LINE
  5
24C
100
AcDbEntity
  8
0
100
AcDbLine
 62
7
  6
CONTINUOUS
 10
486.9690152719
 20
1621.0231260536
 11
486.9690152719
 21
1620.1510357559
  0
LINE
  5
24D
100
AcDbEntity
  8
0
100
AcDbLine
 62
7
  6
CONTINUOUS
 10
491.1911316906
 20
1638.6826464295
 11
491.1911316906
 21
1619.8413167614
  0
LINE
  5
24E
100
AcDbEntity
  8
0
100
AcDbLine
 62
7
  6
CONTINUOUS
 10
492.1810771154
 20
1639.2541882753
 11
492.1810771154
 21
1619.2697844337
  0
LINE
  5
24F
100
AcDbEntity
  8
0
100
AcDbLine
 62
7
  6
CONTINUOUS
 10
492.2718406802
 20
1677.8325772327
 11
492.2718406802
 21
1639.2541882753
  0
LINE
  5
250
100
AcDbEntity
  8
0
100
AcDbLine
 62
7
  6
CONTINUOUS
 10
492.3779660025
 20
1677.8561196499
 11
492.3779660025
 21
1679.1996948003
  0
LINE
  5
251
100
AcDbEntity
  8
0
100
AcDbLine
 62
7
  6
CONTINUOUS
 10
485.2008022922
 20
1681.9997633083
 11
485.1608329069
 21
1647.7092215478
  0
LINE
  5
252
100
AcDbEntity
  8
0
100
AcDbLine
 62
7
  6
CONTINUOUS
 10
485.1608329069
 20
1647.7092215478
 11
485.1600253861
 21
1643.3077026784
  0
LINE
  5
253
100
AcDbEntity
  8
0
100
AcDbLine
 62
7
  6
CONTINUOUS
 10
520.4265878046
 20
1658.4833415274
 11
520.3450068381
 21
1662.9373611573
  0
LINE
  5
254
100
AcDbEntity
  8
0
100
AcDbLine
 62
7
  6
CONTINUOUS
 10
520.3450068381
 20
1662.9373611573
 11
520.3450068381
 21
1661.6811210597
  0
LINE
  5
255
100
AcDbEntity
  8
0
100
AcDbLine
 62
7
  6
CONTINUOUS
 10
542.1231027987
 20
1653.6270495747
 11
542.1231027987
 21
1656.007891401
  0
LINE
  5
256
100
AcDbEntity
  8
0
100
AcDbLine
 62
7
  6
CONTINUOUS
 10
543.537322249
 20
1655.191409892
 11
543.537322249
 21
1652.8105680656
  0
LINE
  5
257
100
AcDbEntity
  8
0
100
AcDbLine
 62
7
  6
CONTINUOUS
 10
520.4239841912
 20
1658.1041961768
 11
520.4265878046
 21
1658.4833415274
  0
LINE
  5
258
100
AcDbEntity
  8
0
100
AcDbLine
 62
7
  6
CONTINUOUS
 10
791.0852015932
 20
1446.701311725
 11
791.1667825598
 21
1443.9011348834
  0
LINE
  5
259
100
AcDbEntity
  8
0
100
AcDbLine
 62
7
  6
CONTINUOUS
 10
773.6312978465
 20
1454.6502338734
 11
773.6312978465
 21
1455.5223241711
  0
LINE
  5
25A
100
AcDbEntity
  8
0
100
AcDbLine
 62
7
  6
CONTINUOUS
 10
775.0455172968
 20
1454.705842662
 11
775.0455172968
 21
1453.8337523644
  0
LINE
  5
25B
100
AcDbEntity
  8
0
100
AcDbLine
 62
7
  6
CONTINUOUS
 10
818.5529973388
 20
1417.7160129122
 11
818.5529973388
 21
143.599166175
  0
LINE
  5
25C
100
AcDbEntity
  8
0
100
AcDbLine
 62
7
  6
CONTINUOUS
 10
823.2133727421
 20
141.5212152271
 11
823.2133727421
 21
1420.413759386
  0
LINE
  5
25D
100
AcDbEntity
  8
0
100
AcDbLine
 62
7
  6
CONTINUOUS
 10
827.4724455742
 20
146.9270877922
 11
827.4724455742
 21
183.2304506699
  0
LINE
  5
25E
100
AcDbEntity
  8
0
100
AcDbLine
 62
7
  6
CONTINUOUS
 10
827.4724455742
 20
1386.5647444787
 11
827.4724455742
 21
1422.8681073564
  0
LINE
  5
25F
100
AcDbEntity
  8
0
100
AcDbLine
 62
7
  6
CONTINUOUS
 10
829.6835369077
 20
1388.6050553857
 11
829.6835369077
 21
185.2707615769
  0
LINE
  5
260
100
AcDbEntity
  8
0
100
AcDbLine
 62
7
  6
CONTINUOUS
 10
830.0634111516
 20
186.0356181209
 11
830.0634111516
 21
1389.3699119297
  0
LINE
  5
261
100
AcDbEntity
  8
0
100
AcDbLine
 62
7
  6
CONTINUOUS
 10
830.1996048236
 20
211.6750550849
 11
830.1996048236
 21
214.0558969113
  0
LINE
  5
262
100
AcDbEntity
  8
0
100
AcDbLine
 62
7
  6
CONTINUOUS
 10
830.1996048236
 20
1487.3097661831
 11
830.1996048236
 21
1489.6906080095
  0
LINE
  5
263
100
AcDbEntity
  8
0
100
AcDbLine
 62
7
  6
CONTINUOUS
 10
831.6138242739
 20
1488.8741265004
 11
831.6138242739
 21
1486.4932846741
  0
LINE
  5
264
100
AcDbEntity
  8
0
100
AcDbLine
 62
7
  6
CONTINUOUS
 10
831.6138242739
 20
213.2394154022
 11
831.6138242739
 21
210.8585735759
  0
LINE
  5
265
100
AcDbEntity
  8
0
100
AcDbLine
 62
7
  6
CONTINUOUS
 10
845.450670369
 20
1475.2417650444
 11
845.450670369
 21
1473.9199413781
  0
LINE
  5
266
100
AcDbEntity
  8
0
100
AcDbLine
 62
7
  6
CONTINUOUS
 10
845.450670369
 20
200.6660721062
 11
845.450670369
 21
199.3442484399
  0
LINE
  5
267
100
AcDbEntity
  8
0
100
AcDbLine
 62
7
  6
CONTINUOUS
 10
866.2824070208
 20
1422.1284967563
 11
866.2824070208
 21
218.7942029476
  0
LINE
  5
268
100
AcDbEntity
  8
0
100
AcDbLine
 62
7
  6
CONTINUOUS
 10
873.5808188292
 20
1459.1171040384
 11
873.5808188292
 21
1457.773528888
  0
LINE
  5
269
100
AcDbEntity
  8
0
100
AcDbLine
 62
7
  6
CONTINUOUS
 10
873.5808188292
 20
184.5196596161
 11
873.5808188292
 21
183.1760844658
  0
LINE
  5
26A
100
AcDbEntity
  8
0
100
AcDbLine
 62
7
  6
CONTINUOUS
 10
875.2929201635
 20
1416.926392316
 11
875.2929201635
 21
213.5920985072
  0
LINE
  5
26B
100
AcDbEntity
  8
0
100
AcDbLine
 62
7
  6
CONTINUOUS
 10
878.3854867441
 20
213.3886775837
 11
878.3854867441
 21
1416.7229713925
  0
LINE
  5
26C
100
AcDbEntity
  8
0
100
AcDbLine
 62
7
  6
CONTINUOUS
 10
880.7579825395
 20
180.3760159578
 11
880.7184671681
 21
214.2314218301
  0
LINE
  5
26D
100
AcDbEntity
  8
0
100
AcDbLine
 62
7
  6
CONTINUOUS
 10
881.919441008
 20
214.6652504998
 11
881.919441008
 21
178.3618876221
  0
LINE
  5
26E
100
AcDbEntity
  8
0
100
AcDbLine
 62
7
  6
CONTINUOUS
 10
881.919441008
 20
1417.9995443086
 11
881.919441008
 21
1454.3029071905
  0
LINE
  5
26F
100
AcDbEntity
  8
0
100
AcDbLine
 62
7
  6
CONTINUOUS
 10
888.726653522
 20
1458.2376439016
 11
888.726653522
 21
179.3450997427
  0
LINE
  5
270
100
AcDbEntity
  8
0
100
AcDbLine
 62
7
  6
CONTINUOUS
 10
890.1415024119
 20
181.4968633632
 11
890.1415024119
 21
1459.0220314799
  0
LINE
  5
271
100
AcDbEntity
  8
0
100
AcDbLine
 62
7
  6
CONTINUOUS
 10
880.7172056333
 20
1418.6465550809
 11
880.7579825395
 21
1453.6298852296
  0
LINE
  5
272
100
AcDbEntity
  8
0
100
AcDbLine
 62
7
  6
CONTINUOUS
 10
839.168261449
 20
1474.4619135678
 11
839.3687612065
 21
1473.9655090841
  0
LINE
  5
273
100
AcDbEntity
  8
0
100
AcDbLine
 62
7
  6
CONTINUOUS
 10
839.3687612065
 20
200.7116398123
 11
839.168261449
 21
200.2182397516
  0
LINE
  5
274
100
AcDbEntity
  8
0
100
AcDbLine
 62
7
  6
CONTINUOUS
 10
845.5822789828
 20
1474.0018793004
 11
844.9529103501
 21
1473.9236707633
  0
LINE
  5
275
100
AcDbEntity
  8
0
100
AcDbLine
 62
7
  6
CONTINUOUS
 10
845.450670369
 20
1475.2417650444
 11
839.168261449
 21
1474.4619135678
  0
LINE
  5
276
100
AcDbEntity
  8
0
100
AcDbLine
 62
7
  6
CONTINUOUS
 10
829.563664741
 20
1389.1132207669
 11
827.4724455742
 21
1390.3205594022
  0
LINE
  5
277
100
AcDbEntity
  8
0
100
AcDbLine
 62
7
  6
CONTINUOUS
 10
827.4724455742
 20
1391.4636335274
 11
829.3311707447
 21
1390.3905223143
  0
LINE
  5
278
100
AcDbEntity
  8
0
100
AcDbLine
 62
7
  6
CONTINUOUS
 10
422.2484083377
 20
1646.5173978741
 11
818.5529973388
 21
1417.7160129122
  0
LINE
  5
279
100
AcDbEntity
  8
0
100
AcDbLine
 62
7
  6
CONTINUOUS
 10
823.2183367676
 20
1420.4166199724
 11
422.7930698036
 21
1651.5970256448
  0
LINE
  5
27A
100
AcDbEntity
  8
0
100
AcDbLine
 62
7
  6
CONTINUOUS
 10
479.8979651239
 20
1620.0824058603
 11
481.3121845742
 21
1619.2659243513
  0
LINE
  5
27B
100
AcDbEntity
  8
0
100
AcDbLine
 62
7
  6
CONTINUOUS
 10
767.9744671488
 20
1453.7651224688
 11
769.3886865991
 21
1452.9486409597
  0
LINE
  5
27C
100
AcDbEntity
  8
0
100
AcDbLine
 62
7
  6
CONTINUOUS
 10
429.5923483898
 20
1652.5790918184
 11
437.9309705686
 21
1647.7648949704
  0
LINE
  5
27D
100
AcDbEntity
  8
0
100
AcDbLine
 62
7
  6
CONTINUOUS
 10
819.1338233954
 20
1427.6823042085
 11
827.4724455742
 21
1422.8681073606
  0
LINE
  5
27E
100
AcDbEntity
  8
0
100
AcDbLine
 62
7
  6
CONTINUOUS
 10
438.0125243809
 20
1647.7902283208
 11
466.0611190289
 21
1631.5967309963
  0
LINE
  5
27F
100
AcDbEntity
  8
0
100
AcDbLine
 62
7
  6
CONTINUOUS
 10
791.1667825598
 20
1443.9011348834
 11
819.2153772077
 21
1427.7076375589
  0
LINE
  5
280
100
AcDbEntity
  8
0
100
AcDbLine
 62
7
  6
CONTINUOUS
 10
485.5547958216
 20
1620.967517265
 11
486.9690152719
 21
1620.1510357559
  0
LINE
  5
281
100
AcDbEntity
  8
0
100
AcDbLine
 62
7
  6
CONTINUOUS
 10
773.6312978465
 20
1454.6502338734
 11
775.0455172968
 21
1453.8337523644
  0
LINE
  5
282
100
AcDbEntity
  8
0
100
AcDbLine
 62
7
  6
CONTINUOUS
 10
775.0455172968
 20
1454.705842662
 11
773.6312978465
 21
1455.5223241711
  0
LINE
  5
283
100
AcDbEntity
  8
0
100
AcDbLine
 62
7
  6
CONTINUOUS
 10
486.9690152719
 20
1621.0231260536
 11
485.5547958216
 21
1621.8396075626
  0
LINE
  5
284
100
AcDbEntity
  8
0
100
AcDbLine
 62
7
  6
CONTINUOUS
 10
472.3435279488
 20
1630.7227396846
 11
791.0852015932
 21
1446.701311725
  0
LINE
  5
285
100
AcDbEntity
  8
0
100
AcDbLine
 62
7
  6
CONTINUOUS
 10
875.2929201635
 20
1416.926392316
 11
866.2824070208
 21
1422.1284967563
  0
LINE
  5
286
100
AcDbEntity
  8
0
100
AcDbLine
 62
7
  6
CONTINUOUS
 10
491.1911316906
 20
1638.6826464295
 11
482.1806186532
 21
1643.8847509306
  0
LINE
  5
287
100
AcDbEntity
  8
0
100
AcDbLine
 62
7
  6
CONTINUOUS
 10
481.9481246569
 20
1645.1620524781
 11
492.1810771154
 21
1639.2541882753
  0
LINE
  5
288
100
AcDbEntity
  8
0
100
AcDbLine
 62
7
  6
CONTINUOUS
 10
867.2723524456
 20
1422.7000386022
 11
877.5053049041
 21
1416.7921743994
  0
LINE
  5
289
100
AcDbEntity
  8
0
100
AcDbLine
 62
7
  6
CONTINUOUS
 10
844.9529103501
 20
1473.9236707633
 11
839.3687612065
 21
1473.9655090841
  0
LINE
  5
28A
100
AcDbEntity
  8
0
100
AcDbLine
 62
7
  6
CONTINUOUS
 10
880.7579825395
 20
1453.6298852296
 11
873.5400419231
 21
1457.7499864708
  0
LINE
  5
28B
100
AcDbEntity
  8
0
100
AcDbLine
 62
7
  6
CONTINUOUS
 10
484.0393438237
 20
1647.7105287663
 11
485.2008022922
 21
1647.0399755767
  0
LINE
  5
28C
100
AcDbEntity
  8
0
100
AcDbLine
 62
7
  6
CONTINUOUS
 10
880.7579825395
 20
1418.6700974981
 11
881.919441008
 21
1417.9995443086
  0
LINE
  5
28D
100
AcDbEntity
  8
0
100
AcDbLine
 62
7
  6
CONTINUOUS
 10
839.3687612065
 20
1473.9655090841
 11
520.4239841912
 21
1658.1041961768
  0
LINE
  5
28E
100
AcDbEntity
  8
0
100
AcDbLine
 62
7
  6
CONTINUOUS
 10
839.168261449
 20
1474.4619135678
 11
520.4265878046
 21
1658.4833415274
  0
LINE
  5
28F
100
AcDbEntity
  8
0
100
AcDbLine
 62
7
  6
CONTINUOUS
 10
536.466272101
 20
1651.2331866414
 11
537.8804915513
 21
1650.4167051323
  0
LINE
  5
290
100
AcDbEntity
  8
0
100
AcDbLine
 62
7
  6
CONTINUOUS
 10
824.5427741259
 20
1484.9159032498
 11
825.9569935762
 21
1484.0994217408
  0
LINE
  5
291
100
AcDbEntity
  8
0
100
AcDbLine
 62
7
  6
CONTINUOUS
 10
873.5400419231
 20
1457.7499864708
 11
845.4914472751
 21
1473.9434837953
  0
LINE
  5
292
100
AcDbEntity
  8
0
100
AcDbLine
 62
7
  6
CONTINUOUS
 10
520.3857837442
 20
1661.6390799082
 11
492.3371890963
 21
1677.8325772327
  0
LINE
  5
293
100
AcDbEntity
  8
0
100
AcDbLine
 62
7
  6
CONTINUOUS
 10
873.4992650169
 20
1459.0482677199
 11
845.450670369
 21
1475.2417650444
  0
LINE
  5
294
100
AcDbEntity
  8
0
100
AcDbLine
 62
7
  6
CONTINUOUS
 10
520.3450068381
 20
1662.9373611573
 11
492.2964121901
 21
1679.1308584818
  0
LINE
  5
295
100
AcDbEntity
  8
0
100
AcDbLine
 62
7
  6
CONTINUOUS
 10
881.919441008
 20
1454.3029071905
 11
873.5808188292
 21
1459.1171040384
  0
LINE
  5
296
100
AcDbEntity
  8
0
100
AcDbLine
 62
7
  6
CONTINUOUS
 10
492.3779660025
 20
1679.1996948003
 11
484.0393438237
 21
1684.0138916482
  0
LINE
  5
297
100
AcDbEntity
  8
0
100
AcDbLine
 62
7
  6
CONTINUOUS
 10
542.1231027987
 20
1653.6270495747
 11
543.537322249
 21
1652.8105680656
  0
LINE
  5
298
100
AcDbEntity
  8
0
100
AcDbLine
 62
7
  6
CONTINUOUS
 10
830.1996048236
 20
1487.3097661831
 11
831.6138242739
 21
1486.4932846741
  0
LINE
  5
299
100
AcDbEntity
  8
0
100
AcDbLine
 62
7
  6
CONTINUOUS
 10
831.6138242739
 20
1488.8741265004
 11
830.1996048236
 21
1489.6906080095
  0
LINE
  5
29A
100
AcDbEntity
  8
0
100
AcDbLine
 62
7
  6
CONTINUOUS
 10
543.537322249
 20
1655.191409892
 11
542.1231027987
 21
1656.007891401
  0
LINE
  5
29B
100
AcDbEntity
  8
0
100
AcDbLine
 62
7
  6
CONTINUOUS
 10
488.2934526303
 20
1689.4134635681
 11
888.7187195943
 21
1458.2330578957
  0
LINE
  5
29C
100
AcDbEntity
  8
0
100
AcDbLine
 62
7
  6
CONTINUOUS
 10
890.1420384621
 20
1459.0206700895
 11
490.8206780105
 21
1689.563749458
  0
LINE
  5
29D
100
AcDbEntity
  8
0
100
AcDbLine
 62
7
  6
CONTINUOUS
 10
492.3371890963
 20
1677.8325772327
 11
485.2008022922
 21
1681.9997633083
  0
LINE
  5
29E
100
AcDbEntity
  8
0
100
AcDbLine
 62
7
  6
CONTINUOUS
 10
823.2133727421
 20
141.5212152271
 11
827.4724455742
 21
146.9270877922
  0
LINE
  5
29F
100
AcDbEntity
  8
0
100
AcDbLine
 62
7
  6
CONTINUOUS
 10
829.6835369077
 20
185.2707615769
 11
827.4724455742
 21
183.2304506699
  0
LINE
  5
2A0
100
AcDbEntity
  8
0
100
AcDbLine
 62
7
  6
CONTINUOUS
 10
466.0611190289
 20
1631.5967309963
 11
472.3435279488
 21
1630.7227396846
  0
LINE
  5
2A1
100
AcDbEntity
  8
0
100
AcDbLine
 62
7
  6
CONTINUOUS
 10
881.919441008
 20
214.6652504998
 11
878.3854867441
 21
213.3886775837
  0
LINE
  5
2A2
100
AcDbEntity
  8
0
100
AcDbLine
 62
7
  6
CONTINUOUS
 10
422.7851358758
 20
1651.5958796935
 11
429.5923483898
 21
1652.5790918141
  0
ARC
  5
2A3
100
AcDbEntity
  8
0
100
AcDbCircle
 62
7
  6
CONTINUOUS
 10
426.6896671929
 20
427.409074773
 40
2.4561300704
100
AcDbArc
 50
97.6472831796
 51
103.0546408675
  0
ARC
  5
2A4
100
AcDbEntity
  8
0
100
AcDbCircle
 62
7
  6
CONTINUOUS
 10
426.689667193
 20
794.8351624811
 40
2.4561300705
100
AcDbArc
 50
97.6472831798
 51
103.0546408673
  0
ARC
  5
2A5
100
AcDbEntity
  8
0
100
AcDbCircle
 62
7
  6
CONTINUOUS
 10
430.751799707
 20
787.8082157168
 40
2.443404607
100
AcDbArc
 50
316.9342114487
 51
322.291326004
  0
ARC
  5
2A6
100
AcDbEntity
  8
0
100
AcDbCircle
 62
7
  6
CONTINUOUS
 10
430.7517997069
 20
420.3821280085
 40
2.4434046071
100
AcDbArc
 50
316.9342114487
 51
322.2913260039
  0
ARC
  5
2A7
100
AcDbEntity
  8
0
100
AcDbCircle
 62
7
  6
CONTINUOUS
 10
493.508900752
 20
1624.8240629249
 40
9.4211166334
100
AcDbArc
 50
210.0064038734
 51
216.8377762682
  0
ARC
  5
2A8
100
AcDbEntity
  8
0
100
AcDbCircle
 62
7
  6
CONTINUOUS
 10
493.4780704929
 20
1624.8110780792
 40
9.387925817
100
AcDbArc
 50
202.9980875477
 51
210.0318761213
  0
ARC
  5
2A9
100
AcDbEntity
  8
0
100
AcDbCircle
 62
7
  6
CONTINUOUS
 10
492.4131599614
 20
1624.1830646472
 40
9.2947360615
100
AcDbArc
 50
210.1691952677
 51
219.82415652
  0
ARC
  5
2AA
100
AcDbEntity
  8
0
100
AcDbCircle
 62
7
  6
CONTINUOUS
 10
541.8058745728
 20
1649.8058087157
 40
3.4679229817
100
AcDbArc
 50
55.156915227
 51
60.047945842
  0
ARC
  5
2AB
100
AcDbEntity
  8
0
100
AcDbCircle
 62
7
  6
CONTINUOUS
 10
481.6294015949
 20
1617.9627743274
 40
3.4679031443
100
AcDbArc
 50
119.9524784472
 51
124.8429415668
  0
ARC
  5
2AC
100
AcDbEntity
  8
0
100
AcDbCircle
 62
7
  6
CONTINUOUS
 10
537.8580488199
 20
1651.7193669515
 40
2.5764861856
100
AcDbArc
 50
151.0952899404
 51
156.1822467935
  0
ARC
  5
2AD
100
AcDbEntity
  8
0
100
AcDbCircle
 62
7
  6
CONTINUOUS
 10
496.3393951585
 20
1631.1370683392
 40
2.4561300702
100
AcDbArc
 50
97.6472831794
 51
103.0546408677
  0
ARC
  5
2AE
100
AcDbEntity
  8
0
100
AcDbCircle
 62
7
  6
CONTINUOUS
 10
426.6896671929
 20
1223.4989314744
 40
2.4561300703
100
AcDbArc
 50
97.6472831794
 51
103.0546408676
  0
ARC
  5
2AF
100
AcDbEntity
  8
0
100
AcDbCircle
 62
7
  6
CONTINUOUS
 10
426.6896671929
 20
1590.9250191826
 40
2.4561300704
100
AcDbArc
 50
97.6472831796
 51
103.0546408675
  0
ARC
  5
2B0
100
AcDbEntity
  8
0
100
AcDbCircle
 62
7
  6
CONTINUOUS
 10
500.4015276726
 20
1624.1101215744
 40
2.4434046069
100
AcDbArc
 50
316.9342114486
 51
322.2913260042
  0
ARC
  5
2B1
100
AcDbEntity
  8
0
100
AcDbCircle
 62
7
  6
CONTINUOUS
 10
430.7517997068
 20
1583.8980724182
 40
2.4434046072
100
AcDbArc
 50
316.9342114489
 51
322.2913260038
  0
ARC
  5
2B2
100
AcDbEntity
  8
0
100
AcDbCircle
 62
7
  6
CONTINUOUS
 10
430.7517997069
 20
1216.4719847099
 40
2.4434046071
100
AcDbArc
 50
316.9342114488
 51
322.2913260039
  0
ARC
  5
2B3
100
AcDbEntity
  8
0
100
AcDbCircle
 62
7
  6
CONTINUOUS
 10
485.3549108067
 20
1624.0195722742
 40
2.1298469332
100
AcDbArc
 50
95.3883498646
 51
101.3039068432
  0
ARC
  5
2B4
100
AcDbEntity
  8
0
100
AcDbCircle
 62
7
  6
CONTINUOUS
 10
486.2400215974
 20
1618.256485106
 40
1.964541233
100
AcDbArc
 50
33.4559426981
 51
38.7148775291
  0
ARC
  5
2B5
100
AcDbEntity
  8
0
100
AcDbCircle
 62
7
  6
CONTINUOUS
 10
829.9609160815
 20
216.0962665028
 40
6.7141555493
100
AcDbArc
 50
270.8769651336
 51
273.0917806602
  0
ARC
  5
2B6
100
AcDbEntity
  8
0
100
AcDbCircle
 62
7
  6
CONTINUOUS
 10
829.882388038
 20
212.9782047264
 40
3.4679026956
100
AcDbArc
 50
299.9524782357
 51
304.84295213
  0
ARC
  5
2B7
100
AcDbEntity
  8
0
100
AcDbCircle
 62
7
  6
CONTINUOUS
 10
830.4547744514
 20
212.2485335028
 40
2.539145516
100
AcDbArc
 50
312.3265767235
 51
315.8283927465
  0
ARC
  5
2B8
100
AcDbEntity
  8
0
100
AcDbCircle
 62
7
  6
CONTINUOUS
 10
809.9431382226
 20
206.1425858229
 40
2.4561300704
100
AcDbArc
 50
97.6472831797
 51
103.0546408675
  0
ARC
  5
2B9
100
AcDbEntity
  8
0
100
AcDbCircle
 62
7
  6
CONTINUOUS
 10
809.9431382226
 20
573.5686735313
 40
2.4561300704
100
AcDbArc
 50
97.6472831796
 51
103.0546408675
  0
ARC
  5
2BA
100
AcDbEntity
  8
0
100
AcDbCircle
 62
7
  6
CONTINUOUS
 10
814.0052707366
 20
566.5417267668
 40
2.443404607
100
AcDbArc
 50
316.9342114487
 51
322.2913260039
  0
ARC
  5
2BB
100
AcDbEntity
  8
0
100
AcDbCircle
 62
7
  6
CONTINUOUS
 10
814.0052707366
 20
199.1156390585
 40
2.4434046071
100
AcDbArc
 50
316.9342114488
 51
322.2913260039
  0
ARC
  5
2BC
100
AcDbEntity
  8
0
100
AcDbCircle
 62
7
  6
CONTINUOUS
 10
868.6083818327
 20
239.2371388335
 40
2.1298470026
100
AcDbArc
 50
95.3883495335
 51
101.303906633
  0
ARC
  5
2BD
100
AcDbEntity
  8
0
100
AcDbCircle
 62
7
  6
CONTINUOUS
 10
868.6083818327
 20
606.6632265417
 40
2.1298470027
100
AcDbArc
 50
95.3883495335
 51
101.3039066329
  0
ARC
  5
2BE
100
AcDbEntity
  8
0
100
AcDbCircle
 62
7
  6
CONTINUOUS
 10
871.9973724088
 20
600.8009874394
 40
2.1189266522
100
AcDbArc
 50
318.6952515198
 51
324.5564466722
  0
ARC
  5
2BF
100
AcDbEntity
  8
0
100
AcDbCircle
 62
7
  6
CONTINUOUS
 10
871.9973724089
 20
233.374899731
 40
2.1189266521
100
AcDbArc
 50
318.6952515197
 51
324.5564466724
  0
ARC
  5
2C0
100
AcDbEntity
  8
0
100
AcDbCircle
 62
7
  6
CONTINUOUS
 10
952.3690571422
 20
1345.2834331384
 40
129.648466196
100
AcDbArc
 50
119.1259778514
 51
119.3908946427
  0
ARC
  5
2C1
100
AcDbEntity
  8
0
100
AcDbCircle
 62
7
  6
CONTINUOUS
 10
829.8823765976
 20
1483.4885253241
 40
3.4679229817
100
AcDbArc
 50
55.156915227
 51
60.047945842
  0
ARC
  5
2C2
100
AcDbEntity
  8
0
100
AcDbCircle
 62
7
  6
CONTINUOUS
 10
769.7059036197
 20
1451.6454909359
 40
3.4679031442
100
AcDbArc
 50
119.9524784471
 51
124.8429415669
  0
ARC
  5
2C3
100
AcDbEntity
  8
0
100
AcDbCircle
 62
7
  6
CONTINUOUS
 10
825.9345508447
 20
1485.40208356
 40
2.5764861856
100
AcDbArc
 50
151.0952899403
 51
156.1822467935
  0
ARC
  5
2C4
100
AcDbEntity
  8
0
100
AcDbCircle
 62
7
  6
CONTINUOUS
 10
809.9431382226
 20
1002.2324425242
 40
2.4561300705
100
AcDbArc
 50
97.6472831796
 51
103.0546408673
  0
ARC
  5
2C5
100
AcDbEntity
  8
0
100
AcDbCircle
 62
7
  6
CONTINUOUS
 10
809.9431382226
 20
1369.6585302327
 40
2.4561300703
100
AcDbArc
 50
97.6472831796
 51
103.0546408677
  0
ARC
  5
2C6
100
AcDbEntity
  8
0
100
AcDbCircle
 62
7
  6
CONTINUOUS
 10
814.0052707366
 20
1362.6315834681
 40
2.443404607
100
AcDbArc
 50
316.9342114487
 51
322.291326004
  0
ARC
  5
2C7
100
AcDbEntity
  8
0
100
AcDbCircle
 62
7
  6
CONTINUOUS
 10
814.0052707366
 20
995.2054957598
 40
2.4434046071
100
AcDbArc
 50
316.9342114487
 51
322.2913260039
  0
ARC
  5
2C8
100
AcDbEntity
  8
0
100
AcDbCircle
 62
7
  6
CONTINUOUS
 10
868.6083818327
 20
1035.3269955348
 40
2.1298470026
100
AcDbArc
 50
95.3883495335
 51
101.3039066331
  0
ARC
  5
2C9
100
AcDbEntity
  8
0
100
AcDbCircle
 62
7
  6
CONTINUOUS
 10
868.6083818327
 20
1402.753083243
 40
2.1298470027
100
AcDbArc
 50
95.3883495337
 51
101.303906633
  0
ARC
  5
2CA
100
AcDbEntity
  8
0
100
AcDbCircle
 62
7
  6
CONTINUOUS
 10
871.9973724087
 20
1396.8908441408
 40
2.1189266524
100
AcDbArc
 50
318.69525152
 51
324.5564466721
  0
ARC
  5
2CB
100
AcDbEntity
  8
0
100
AcDbCircle
 62
7
  6
CONTINUOUS
 10
871.9973724089
 20
1029.4647564324
 40
2.1189266522
100
AcDbArc
 50
318.6952515198
 51
324.5564466723
  0
ARC
  5
2CC
100
AcDbEntity
  8
0
100
AcDbCircle
 62
7
  6
CONTINUOUS
 10
774.3165236222
 20
1451.9392017144
 40
1.9645412331
100
AcDbArc
 50
33.4559426982
 51
38.7148775289
  0
SPLINE
  5
2CD
100
AcDbEntity
  8
0
100
AcDbSpline
 62
7
  6
CONTINUOUS
 70
0
 71
3
 72
8
 73
4
 74
0
 42
0.0000001
 43
0.0000001
 44
0.0000000001
 40
0.0
 40
0.0
 40
0.0
 40
0.0
 40
1.0
 40
1.0
 40
1.0
 40
1.0
 10
888.726653522
 20
179.3424863219
 30
0.0
 10
888.9106073912
 20
179.3711920015
 30
0.0
 10
889.1182496285
 20
179.421907625
 30
0.0
 10
889.2398784859
 20
179.562866708
 30
0.0
  0
SPLINE
  5
2CE
100
AcDbEntity
  8
0
100
AcDbSpline
 62
7
  6
CONTINUOUS
 70
0
 71
3
 72
9
 73
5
 74
0
 42
0.0000001
 43
0.0000001
 44
0.0000000001
 40
0.0
 40
0.0
 40
0.0
 40
0.0
 40
0.2407194189
 40
1.0
 40
1.0
 40
1.0
 40
1.0
 10
542.1231027987
 20
1653.6270495747
 30
0.0
 10
541.7215398875
 20
1653.8588867847
 30
0.0
 10
539.9019194022
 20
1654.5149614533
 30
0.0
 10
537.732858666
 20
1654.358309304
 30
0.0
 10
536.4662485493
 20
1653.6270359773
 30
0.0
  0
SPLINE
  5
2CF
100
AcDbEntity
  8
0
100
AcDbSpline
 62
7
  6
CONTINUOUS
 70
0
 71
3
 72
8
 73
4
 74
0
 42
0.0000001
 43
0.0000001
 44
0.0000000001
 40
0.0
 40
0.0
 40
0.0
 40
0.0
 40
1.0
 40
1.0
 40
1.0
 40
1.0
 10
824.5427505742
 20
1487.3097525857
 30
0.0
 10
824.2180859038
 20
1487.1223084697
 30
0.0
 10
823.9103960135
 20
1486.880387568
 30
0.0
 10
823.6885006726
 20
1486.578220557
 30
0.0
  0
SPLINE
  5
2D0
100
AcDbEntity
  8
0
100
AcDbSpline
 62
7
  6
CONTINUOUS
 70
0
 71
3
 72
9
 73
5
 74
0
 42
0.0000001
 43
0.0000001
 44
0.0000000001
 40
0.0
 40
0.0
 40
0.0
 40
0.0
 40
0.2407194189
 40
1.0
 40
1.0
 40
1.0
 40
1.0
 10
830.1996048236
 20
1487.3097661831
 30
0.0
 10
829.7980419124
 20
1487.5416033932
 30
0.0
 10
827.978421427
 20
1488.1976780617
 30
0.0
 10
825.8093606909
 20
1488.0410259124
 30
0.0
 10
824.5427505742
 20
1487.3097525857
 30
0.0
  0
SPLINE
  5
2D1
100
AcDbEntity
  8
0
100
AcDbSpline
 62
7
  6
CONTINUOUS
 70
0
 71
3
 72
8
 73
4
 74
0
 42
0.0000001
 43
0.0000001
 44
0.0000000001
 40
0.0
 40
0.0
 40
0.0
 40
0.0
 40
1.0
 40
1.0
 40
1.0
 40
1.0
 10
536.4662485493
 20
1653.6270359773
 30
0.0
 10
536.1415838789
 20
1653.4395918613
 30
0.0
 10
535.8338939886
 20
1653.1976709596
 30
0.0
 10
535.6119986477
 20
1652.8955039486
 30
0.0
  0
SPLINE
  5
2D2
100
AcDbEntity
  8
0
100
AcDbSpline
 62
7
  6
CONTINUOUS
 70
0
 71
3
 72
8
 73
4
 74
0
 42
0.0000001
 43
0.0000001
 44
0.0000000001
 40
0.0
 40
0.0
 40
0.0
 40
0.0
 40
1.0
 40
1.0
 40
1.0
 40
1.0
 10
831.6138478256
 20
209.9734757686
 30
0.0
 10
831.221345447
 20
209.7468657674
 30
0.0
 10
830.7870114283
 20
209.5880340486
 30
0.0
 10
830.346786184
 20
209.4802753175
 30
0.0
  0
SPLINE
  5
2D3
100
AcDbEntity
  8
0
100
AcDbSpline
 62
7
  6
CONTINUOUS
 70
0
 71
3
 72
9
 73
5
 74
0
 42
0.0000001
 43
0.0000001
 44
0.0000000001
 40
0.0
 40
0.0
 40
0.0
 40
0.0
 40
0.2245236873
 40
1.0
 40
1.0
 40
1.0
 40
1.0
 10
484.7398952927
 20
1625.9022974441
 30
0.0
 10
484.6510363261
 20
1625.7776478783
 30
0.0
 10
484.3138011348
 20
1625.1801558243
 30
0.0
 10
484.2108757773
 20
1624.4752256165
 30
0.0
 10
484.2108757773
 20
1623.946507364
 30
0.0
  0
SPLINE
  5
2D4
100
AcDbEntity
  8
0
100
AcDbSpline
 62
7
  6
CONTINUOUS
 70
0
 71
3
 72
8
 73
4
 74
0
 42
0.0000001
 43
0.0000001
 44
0.0000000001
 40
0.0
 40
0.0
 40
0.0
 40
0.0
 40
1.0
 40
1.0
 40
1.0
 40
1.0
 10
484.3600885442
 20
1625.8927149484
 30
0.0
 10
484.5380329234
 20
1625.9953149823
 30
0.0
 10
484.7360388868
 20
1626.0677130869
 30
0.0
 10
484.9374331001
 20
1626.1081029356
 30
0.0
  0
SPLINE
  5
2D5
100
AcDbEntity
  8
0
100
AcDbSpline
 62
7
  6
CONTINUOUS
 70
0
 71
3
 72
9
 73
5
 74
0
 42
0.0000001
 43
0.0000001
 44
0.0000000001
 40
0.0
 40
0.0
 40
0.0
 40
0.0
 40
0.2245627704
 40
1.0
 40
1.0
 40
1.0
 40
1.0
 10
485.154905655
 20
1626.1400075829
 30
0.0
 10
485.3058063816
 20
1626.1543405537
 30
0.0
 10
485.9849478503
 20
1626.1483201092
 30
0.0
 10
486.640645223
 20
1625.889191255
 30
0.0
 10
487.094829182
 20
1625.6290266156
 30
0.0
  0
SPLINE
  5
2D6
100
AcDbEntity
  8
0
100
AcDbSpline
 62
7
  6
CONTINUOUS
 70
0
 71
3
 72
9
 73
5
 74
0
 42
0.0000001
 43
0.0000001
 44
0.0000000001
 40
0.0
 40
0.0
 40
0.0
 40
0.0
 40
0.2330003093
 40
1.0
 40
1.0
 40
1.0
 40
1.0
 10
487.094829182
 20
1625.6290266156
 30
0.0
 10
487.552698115
 20
1625.3667511576
 30
0.0
 10
489.3385023947
 20
1623.9512747693
 30
0.0
 10
490.5266530571
 20
1621.8077898849
 30
0.0
 10
490.869812089
 20
1620.105029373
 30
0.0
  0
SPLINE
  5
2D7
100
AcDbEntity
  8
0
100
AcDbSpline
 62
7
  6
CONTINUOUS
 70
0
 71
3
 72
9
 73
5
 74
0
 42
0.0000001
 43
0.0000001
 44
0.0000000001
 40
0.0
 40
0.0
 40
0.0
 40
0.0
 40
0.2236097662
 40
1.0
 40
1.0
 40
1.0
 40
1.0
 10
495.5735260619
 20
1633.3198845705
 30
0.0
 10
495.458754756
 20
1633.1716063576
 30
0.0
 10
495.0200477976
 20
1632.4497538374
 30
0.0
 10
494.8881378313
 20
1631.5785177162
 30
0.0
 10
494.8881378313
 20
1630.9274789959
 30
0.0
  0
SPLINE
  5
2D8
100
AcDbEntity
  8
0
100
AcDbSpline
 62
7
  6
CONTINUOUS
 70
0
 71
3
 72
8
 73
4
 74
0
 42
0.0000001
 43
0.0000001
 44
0.0000000001
 40
0.0
 40
0.0
 40
0.0
 40
0.0
 40
1.0
 40
1.0
 40
1.0
 40
1.0
 10
495.1737598911
 20
1633.2906347918
 30
0.0
 10
495.3631839218
 20
1633.3998538188
 30
0.0
 10
495.5716238886
 20
1633.480225517
 30
0.0
 10
495.7846040742
 20
1633.5297199591
 30
0.0
  0
SPLINE
  5
2D9
100
AcDbEntity
  8
0
100
AcDbSpline
 62
7
  6
CONTINUOUS
 70
0
 71
3
 72
9
 73
5
 74
0
 42
0.0000001
 43
0.0000001
 44
0.0000000001
 40
0.0
 40
0.0
 40
0.0
 40
0.0
 40
0.223710445
 40
1.0
 40
1.0
 40
1.0
 40
1.0
 10
496.0125472632
 20
1633.5713537323
 30
0.0
 10
496.1966982795
 20
1633.596174513
 30
0.0
 10
497.0330633992
 20
1633.6156917591
 30
0.0
 10
497.8462231226
 20
1633.2994963873
 30
0.0
 10
498.4057261184
 20
1632.9790031365
 30
0.0
  0
SPLINE
  5
2DA
100
AcDbEntity
  8
0
100
AcDbSpline
 62
7
  6
CONTINUOUS
 70
0
 71
3
 72
9
 73
5
 74
0
 42
0.0000001
 43
0.0000001
 44
0.0000000001
 40
0.0
 40
0.0
 40
0.0
 40
0.0
 40
0.4997026044
 40
1.0
 40
1.0
 40
1.0
 40
1.0
 10
498.4057261184
 20
1632.9790031365
 30
0.0
 10
499.774660823
 20
1632.1948530304
 30
0.0
 10
501.9388961292
 20
1629.70401956
 30
0.0
 10
503.0199085024
 20
1626.5874772127
 30
0.0
 10
503.0199085024
 20
1625.0079829563
 30
0.0
  0
SPLINE
  5
2DB
100
AcDbEntity
  8
0
100
AcDbSpline
 62
7
  6
CONTINUOUS
 70
0
 71
3
 72
9
 73
5
 74
0
 42
0.0000001
 43
0.0000001
 44
0.0000000001
 40
0.0
 40
0.0
 40
0.0
 40
0.0
 40
0.2807306068
 40
1.0
 40
1.0
 40
1.0
 40
1.0
 10
503.0199085024
 20
1625.0079829563
 30
0.0
 10
503.0199085024
 20
1624.7729756511
 30
0.0
 10
502.9725032346
 20
1623.9406204103
 30
0.0
 10
502.7031019445
 20
1623.0917939747
 30
0.0
 10
502.3345806682
 20
1622.6156209255
 30
0.0
  0
SPLINE
  5
2DC
100
AcDbEntity
  8
0
100
AcDbSpline
 62
7
  6
CONTINUOUS
 70
0
 71
3
 72
8
 73
4
 74
0
 42
0.0000001
 43
0.0000001
 44
0.0000000001
 40
0.0
 40
0.0
 40
0.0
 40
0.0
 40
1.0
 40
1.0
 40
1.0
 40
1.0
 10
502.186606096
 20
1622.4416728651
 30
0.0
 10
502.0371703405
 20
1622.2819443547
 30
0.0
 10
501.8631220254
 20
1622.1417187654
 30
0.0
 10
501.6736306868
 20
1622.0324609296
 30
0.0
  0
SPLINE
  5
2DD
100
AcDbEntity
  8
0
100
AcDbSpline
 62
7
  6
CONTINUOUS
 70
0
 71
3
 72
9
 73
5
 74
0
 42
0.0000001
 43
0.0000001
 44
0.0000000001
 40
0.0
 40
0.0
 40
0.0
 40
0.0
 40
0.7661701884
 40
1.0
 40
1.0
 40
1.0
 40
1.0
 10
878.3854867441
 20
213.3886775837
 30
0.0
 10
877.6290710177
 20
213.1157879985
 30
0.0
 10
876.4897962596
 20
213.087191359
 30
0.0
 10
875.5054582716
 20
213.4693923493
 30
0.0
 10
875.2929201635
 20
213.5920985072
 30
0.0
  0
SPLINE
  5
2DE
100
AcDbEntity
  8
0
100
AcDbSpline
 62
7
  6
CONTINUOUS
 70
0
 71
3
 72
9
 73
5
 74
0
 42
0.0000001
 43
0.0000001
 44
0.0000000001
 40
0.0
 40
0.0
 40
0.0
 40
0.0
 40
0.4997671378
 40
1.0
 40
1.0
 40
1.0
 40
1.0
 10
867.464346807
 20
1402.680018414
 30
0.0
 10
867.464346807
 20
1401.3505465258
 30
0.0
 10
868.371403374
 20
1398.7237899198
 30
0.0
 10
870.1880671822
 20
1396.6221044686
 30
0.0
 10
871.3382456125
 20
1395.952865489
 30
0.0
  0
SPLINE
  5
2DF
100
AcDbEntity
  8
0
100
AcDbSpline
 62
7
  6
CONTINUOUS
 70
0
 71
3
 72
9
 73
5
 74
0
 42
0.0000001
 43
0.0000001
 44
0.0000000001
 40
0.0
 40
0.0
 40
0.0
 40
0.0
 40
0.280349595
 40
1.0
 40
1.0
 40
1.0
 40
1.0
 10
871.3382456125
 20
1395.952865489
 30
0.0
 10
871.5048410808
 20
1395.8559308063
 30
0.0
 10
872.1148226849
 20
1395.5440244502
 30
0.0
 10
872.8220857853
 20
1395.3768510548
 30
0.0
 10
873.3145132242
 20
1395.42493941
 30
0.0
  0
SPLINE
  5
2E0
100
AcDbEntity
  8
0
100
AcDbSpline
 62
7
  6
CONTINUOUS
 70
0
 71
3
 72
9
 73
5
 74
0
 42
0.0000001
 43
0.0000001
 44
0.0000000001
 40
0.0
 40
0.0
 40
0.0
 40
0.0
 40
0.2245236876
 40
1.0
 40
1.0
 40
1.0
 40
1.0
 10
867.993366305
 20
241.11986406
 30
0.0
 10
867.9045073412
 20
240.9952144946
 30
0.0
 10
867.5672721615
 20
240.3977224457
 30
0.0
 10
867.464346807
 20
239.692792249
 30
0.0
 10
867.464346807
 20
239.1640740044
 30
0.0
  0
SPLINE
  5
2E1
100
AcDbEntity
  8
0
100
AcDbSpline
 62
7
  6
CONTINUOUS
 70
0
 71
3
 72
9
 73
5
 74
0
 42
0.0000001
 43
0.0000001
 44
0.0000000001
 40
0.0
 40
0.0
 40
0.0
 40
0.0
 40
0.4997671378
 40
1.0
 40
1.0
 40
1.0
 40
1.0
 10
867.464346807
 20
606.5901617127
 30
0.0
 10
867.464346807
 20
605.2606898245
 30
0.0
 10
868.371403374
 20
602.6339332185
 30
0.0
 10
870.1880671822
 20
600.5322477673
 30
0.0
 10
871.3382456125
 20
599.8630087877
 30
0.0
  0
SPLINE
  5
2E2
100
AcDbEntity
  8
0
100
AcDbSpline
 62
7
  6
CONTINUOUS
 70
0
 71
3
 72
9
 73
5
 74
0
 42
0.0000001
 43
0.0000001
 44
0.0000000001
 40
0.0
 40
0.0
 40
0.0
 40
0.0
 40
0.280349595
 40
1.0
 40
1.0
 40
1.0
 40
1.0
 10
871.3382456125
 20
599.8630087877
 30
0.0
 10
871.5048410808
 20
599.766074105
 30
0.0
 10
872.1148226849
 20
599.4541677489
 30
0.0
 10
872.8220857853
 20
599.2869943534
 30
0.0
 10
873.3145132242
 20
599.3350827087
 30
0.0
  0
SPLINE
  5
2E3
100
AcDbEntity
  8
0
100
AcDbSpline
 62
7
  6
CONTINUOUS
 70
0
 71
3
 72
8
 73
4
 74
0
 42
0.0000001
 43
0.0000001
 44
0.0000000001
 40
0.0
 40
0.0
 40
0.0
 40
0.0
 40
1.0
 40
1.0
 40
1.0
 40
1.0
 10
867.6135595417
 20
241.1102815702
 30
0.0
 10
867.7915039277
 20
241.212881608
 30
0.0
 10
867.989509899
 20
241.285279715
 30
0.0
 10
868.1909041202
 20
241.3256695644
 30
0.0
  0
SPLINE
  5
2E4
100
AcDbEntity
  8
0
100
AcDbSpline
 62
7
  6
CONTINUOUS
 70
0
 71
3
 72
9
 73
5
 74
0
 42
0.0000001
 43
0.0000001
 44
0.0000000001
 40
0.0
 40
0.0
 40
0.0
 40
0.0
 40
0.2245627712
 40
1.0
 40
1.0
 40
1.0
 40
1.0
 10
868.4083766868
 20
241.3575742124
 30
0.0
 10
868.5592774135
 20
241.3719071824
 30
0.0
 10
869.23841888
 20
241.3658867363
 30
0.0
 10
869.8941162517
 20
241.1067578896
 30
0.0
 10
870.3483002115
 20
240.8465932558
 30
0.0
  0
SPLINE
  5
2E5
100
AcDbEntity
  8
0
100
AcDbSpline
 62
7
  6
CONTINUOUS
 70
0
 71
3
 72
9
 73
5
 74
0
 42
0.0000001
 43
0.0000001
 44
0.0000000001
 40
0.0
 40
0.0
 40
0.0
 40
0.0
 40
0.4997026048
 40
1.0
 40
1.0
 40
1.0
 40
1.0
 10
870.3483002115
 20
240.8465932558
 30
0.0
 10
871.5066295815
 20
240.1830816327
 30
0.0
 10
873.3379056217
 20
238.0754533199
 30
0.0
 10
874.2526084054
 20
235.4383790251
 30
0.0
 10
874.2526084054
 20
234.1018838857
 30
0.0
  0
SPLINE
  5
2E6
100
AcDbEntity
  8
0
100
AcDbSpline
 62
7
  6
CONTINUOUS
 70
0
 71
3
 72
9
 73
5
 74
0
 42
0.0000001
 43
0.0000001
 44
0.0000000001
 40
0.0
 40
0.0
 40
0.0
 40
0.0
 40
0.4997671378
 40
1.0
 40
1.0
 40
1.0
 40
1.0
 10
867.464346807
 20
1035.2539307057
 30
0.0
 10
867.464346807
 20
1033.9244588175
 30
0.0
 10
868.371403374
 20
1031.2977022115
 30
0.0
 10
870.1880671822
 20
1029.1960167603
 30
0.0
 10
871.3382456125
 20
1028.5267777807
 30
0.0
  0
SPLINE
  5
2E7
100
AcDbEntity
  8
0
100
AcDbSpline
 62
7
  6
CONTINUOUS
 70
0
 71
3
 72
9
 73
5
 74
0
 42
0.0000001
 43
0.0000001
 44
0.0000000001
 40
0.0
 40
0.0
 40
0.0
 40
0.0
 40
0.280349595
 40
1.0
 40
1.0
 40
1.0
 40
1.0
 10
871.3382456125
 20
1028.5267777807
 30
0.0
 10
871.5048410808
 20
1028.429843098
 30
0.0
 10
872.1148226849
 20
1028.1179367419
 30
0.0
 10
872.8220857853
 20
1027.9507633465
 30
0.0
 10
873.3145132242
 20
1027.9988517017
 30
0.0
  0
SPLINE
  5
2E8
100
AcDbEntity
  8
0
100
AcDbSpline
 62
7
  6
CONTINUOUS
 70
0
 71
3
 72
9
 73
5
 74
0
 42
0.0000001
 43
0.0000001
 44
0.0000000001
 40
0.0
 40
0.0
 40
0.0
 40
0.0
 40
0.4997671378
 40
1.0
 40
1.0
 40
1.0
 40
1.0
 10
867.464346807
 20
239.1640740044
 30
0.0
 10
867.464346807
 20
237.8346021162
 30
0.0
 10
868.371403374
 20
235.2078455102
 30
0.0
 10
870.1880671822
 20
233.106160059
 30
0.0
 10
871.3382456125
 20
232.4369210794
 30
0.0
  0
SPLINE
  5
2E9
100
AcDbEntity
  8
0
100
AcDbSpline
 62
7
  6
CONTINUOUS
 70
0
 71
3
 72
9
 73
5
 74
0
 42
0.0000001
 43
0.0000001
 44
0.0000000001
 40
0.0
 40
0.0
 40
0.0
 40
0.0
 40
0.280349595
 40
1.0
 40
1.0
 40
1.0
 40
1.0
 10
871.3382456125
 20
232.4369210794
 30
0.0
 10
871.5048410808
 20
232.3399863967
 30
0.0
 10
872.1148226849
 20
232.0280800406
 30
0.0
 10
872.8220857853
 20
231.8609066451
 30
0.0
 10
873.3145132242
 20
231.9089950004
 30
0.0
  0
SPLINE
  5
2EA
100
AcDbEntity
  8
0
100
AcDbSpline
 62
7
  6
CONTINUOUS
 70
0
 71
3
 72
9
 73
5
 74
0
 42
0.0000001
 43
0.0000001
 44
0.0000000001
 40
0.0
 40
0.0
 40
0.0
 40
0.0
 40
0.2790951709
 40
1.0
 40
1.0
 40
1.0
 40
1.0
 10
874.2526084054
 20
1397.6178282954
 30
0.0
 10
874.2526084054
 20
1397.4278147186
 30
0.0
 10
874.215405823
 20
1396.7503713143
 30
0.0
 10
874.0085110855
 20
1396.0617477403
 30
0.0
 10
873.7236348731
 20
1395.662077254
 30
0.0
  0
SPLINE
  5
2EB
100
AcDbEntity
  8
0
100
AcDbSpline
 62
7
  6
CONTINUOUS
 70
0
 71
3
 72
8
 73
4
 74
0
 42
0.0000001
 43
0.0000001
 44
0.0000000001
 40
0.0
 40
0.0
 40
0.0
 40
0.0
 40
1.0
 40
1.0
 40
1.0
 40
1.0
 10
873.5891300962
 20
1395.4922170917
 30
0.0
 10
873.4533959503
 20
1395.3379338502
 30
0.0
 10
873.2914707542
 20
1395.2027228124
 30
0.0
 10
873.113450247
 20
1395.1000788843
 30
0.0
  0
SPLINE
  5
2EC
100
AcDbEntity
  8
0
100
AcDbSpline
 62
7
  6
CONTINUOUS
 70
0
 71
3
 72
9
 73
5
 74
0
 42
0.0000001
 43
0.0000001
 44
0.0000000001
 40
0.0
 40
0.0
 40
0.0
 40
0.0
 40
0.2790951709
 40
1.0
 40
1.0
 40
1.0
 40
1.0
 10
874.2526084054
 20
601.527971594
 30
0.0
 10
874.2526084054
 20
601.3379580173
 30
0.0
 10
874.215405823
 20
600.660514613
 30
0.0
 10
874.0085110855
 20
599.9718910389
 30
0.0
 10
873.7236348731
 20
599.5722205526
 30
0.0
  0
SPLINE
  5
2ED
100
AcDbEntity
  8
0
100
AcDbSpline
 62
7
  6
CONTINUOUS
 70
0
 71
3
 72
8
 73
4
 74
0
 42
0.0000001
 43
0.0000001
 44
0.0000000001
 40
0.0
 40
0.0
 40
0.0
 40
0.0
 40
1.0
 40
1.0
 40
1.0
 40
1.0
 10
873.5891300962
 20
599.4023603903
 30
0.0
 10
873.4533959503
 20
599.2480771489
 30
0.0
 10
873.2914707542
 20
599.1128661111
 30
0.0
 10
873.113450247
 20
599.010222183
 30
0.0
  0
SPLINE
  5
2EE
100
AcDbEntity
  8
0
100
AcDbSpline
 62
7
  6
CONTINUOUS
 70
0
 71
3
 72
9
 73
5
 74
0
 42
0.0000001
 43
0.0000001
 44
0.0000000001
 40
0.0
 40
0.0
 40
0.0
 40
0.0
 40
0.2790951709
 40
1.0
 40
1.0
 40
1.0
 40
1.0
 10
874.2526084054
 20
1030.1917405871
 30
0.0
 10
874.2526084054
 20
1030.0017270103
 30
0.0
 10
874.215405823
 20
1029.324283606
 30
0.0
 10
874.0085110855
 20
1028.635660032
 30
0.0
 10
873.7236348731
 20
1028.2359895457
 30
0.0
  0
SPLINE
  5
2EF
100
AcDbEntity
  8
0
100
AcDbSpline
 62
7
  6
CONTINUOUS
 70
0
 71
3
 72
8
 73
4
 74
0
 42
0.0000001
 43
0.0000001
 44
0.0000000001
 40
0.0
 40
0.0
 40
0.0
 40
0.0
 40
1.0
 40
1.0
 40
1.0
 40
1.0
 10
873.5891300962
 20
1028.0661293833
 30
0.0
 10
873.4533959503
 20
1027.9118461419
 30
0.0
 10
873.2914707542
 20
1027.7766351041
 30
0.0
 10
873.113450247
 20
1027.673991176
 30
0.0
  0
SPLINE
  5
2F0
100
AcDbEntity
  8
0
100
AcDbSpline
 62
7
  6
CONTINUOUS
 70
0
 71
3
 72
9
 73
5
 74
0
 42
0.0000001
 43
0.0000001
 44
0.0000000001
 40
0.0
 40
0.0
 40
0.0
 40
0.0
 40
0.2790951709
 40
1.0
 40
1.0
 40
1.0
 40
1.0
 10
874.2526084054
 20
234.1018838857
 30
0.0
 10
874.2526084054
 20
233.911870309
 30
0.0
 10
874.215405823
 20
233.2344269047
 30
0.0
 10
874.0085110855
 20
232.5458033306
 30
0.0
 10
873.7236348731
 20
232.1461328443
 30
0.0
  0
SPLINE
  5
2F1
100
AcDbEntity
  8
0
100
AcDbSpline
 62
7
  6
CONTINUOUS
 70
0
 71
3
 72
8
 73
4
 74
0
 42
0.0000001
 43
0.0000001
 44
0.0000000001
 40
0.0
 40
0.0
 40
0.0
 40
0.0
 40
1.0
 40
1.0
 40
1.0
 40
1.0
 10
873.5891300962
 20
231.976272682
 30
0.0
 10
873.4533959503
 20
231.8219894406
 30
0.0
 10
873.2914707542
 20
231.6867784028
 30
0.0
 10
873.113450247
 20
231.5841344747
 30
0.0
  0
SPLINE
  5
2F2
100
AcDbEntity
  8
0
100
AcDbSpline
 62
7
  6
CONTINUOUS
 70
0
 71
3
 72
9
 73
5
 74
0
 42
0.0000001
 43
0.0000001
 44
0.0000000001
 40
0.0
 40
0.0
 40
0.0
 40
0.0
 40
0.2245236876
 40
1.0
 40
1.0
 40
1.0
 40
1.0
 10
867.993366305
 20
1037.2097207613
 30
0.0
 10
867.9045073412
 20
1037.0850711959
 30
0.0
 10
867.5672721615
 20
1036.487579147
 30
0.0
 10
867.464346807
 20
1035.7826489504
 30
0.0
 10
867.464346807
 20
1035.2539307057
 30
0.0
  0
SPLINE
  5
2F3
100
AcDbEntity
  8
0
100
AcDbSpline
 62
7
  6
CONTINUOUS
 70
0
 71
3
 72
8
 73
4
 74
0
 42
0.0000001
 43
0.0000001
 44
0.0000000001
 40
0.0
 40
0.0
 40
0.0
 40
0.0
 40
1.0
 40
1.0
 40
1.0
 40
1.0
 10
867.6135595417
 20
1037.2001382716
 30
0.0
 10
867.7915039277
 20
1037.3027383094
 30
0.0
 10
867.989509899
 20
1037.3751364163
 30
0.0
 10
868.1909041202
 20
1037.4155262658
 30
0.0
  0
SPLINE
  5
2F4
100
AcDbEntity
  8
0
100
AcDbSpline
 62
7
  6
CONTINUOUS
 70
0
 71
3
 72
9
 73
5
 74
0
 42
0.0000001
 43
0.0000001
 44
0.0000000001
 40
0.0
 40
0.0
 40
0.0
 40
0.0
 40
0.2245627712
 40
1.0
 40
1.0
 40
1.0
 40
1.0
 10
868.4083766868
 20
1037.4474309137
 30
0.0
 10
868.5592774135
 20
1037.4617638837
 30
0.0
 10
869.23841888
 20
1037.4557434377
 30
0.0
 10
869.8941162517
 20
1037.1966145909
 30
0.0
 10
870.3483002115
 20
1036.9364499571
 30
0.0
  0
SPLINE
  5
2F5
100
AcDbEntity
  8
0
100
AcDbSpline
 62
7
  6
CONTINUOUS
 70
0
 71
3
 72
9
 73
5
 74
0
 42
0.0000001
 43
0.0000001
 44
0.0000000001
 40
0.0
 40
0.0
 40
0.0
 40
0.0
 40
0.4997026048
 40
1.0
 40
1.0
 40
1.0
 40
1.0
 10
870.3483002115
 20
1036.9364499571
 30
0.0
 10
871.5066295815
 20
1036.272938334
 30
0.0
 10
873.3379056217
 20
1034.1653100212
 30
0.0
 10
874.2526084054
 20
1031.5282357265
 30
0.0
 10
874.2526084054
 20
1030.1917405871
 30
0.0
  0
SPLINE
  5
2F6
100
AcDbEntity
  8
0
100
AcDbSpline
 62
7
  6
CONTINUOUS
 70
0
 71
3
 72
9
 73
5
 74
0
 42
0.0000001
 43
0.0000001
 44
0.0000000001
 40
0.0
 40
0.0
 40
0.0
 40
0.0
 40
0.4997671378
 40
1.0
 40
1.0
 40
1.0
 40
1.0
 10
494.8881378313
 20
1630.9274789959
 30
0.0
 10
494.8881378313
 20
1629.3562849462
 30
0.0
 10
495.9601137742
 20
1626.25193623
 30
0.0
 10
498.1070800929
 20
1623.7681261513
 30
0.0
 10
499.4663818742
 20
1622.9772073572
 30
0.0
  0
SPLINE
  5
2F7
100
AcDbEntity
  8
0
100
AcDbSpline
 62
7
  6
CONTINUOUS
 70
0
 71
3
 72
9
 73
5
 74
0
 42
0.0000001
 43
0.0000001
 44
0.0000000001
 40
0.0
 40
0.0
 40
0.0
 40
0.0
 40
0.2819479132
 40
1.0
 40
1.0
 40
1.0
 40
1.0
 10
499.4663818742
 20
1622.9772073572
 30
0.0
 10
499.6722813384
 20
1622.8574033827
 30
0.0
 10
500.4221848344
 20
1622.4758030834
 30
0.0
 10
501.3007723803
 20
1622.2825011684
 30
0.0
 10
501.9018172639
 20
1622.3650085978
 30
0.0
  0
SPLINE
  5
2F8
100
AcDbEntity
  8
0
100
AcDbSpline
 62
7
  6
CONTINUOUS
 70
0
 71
3
 72
9
 73
5
 74
0
 42
0.0000001
 43
0.0000001
 44
0.0000000001
 40
0.0
 40
0.0
 40
0.0
 40
0.0
 40
0.2245236876
 40
1.0
 40
1.0
 40
1.0
 40
1.0
 10
867.993366305
 20
608.5459517683
 30
0.0
 10
867.9045073412
 20
608.4213022029
 30
0.0
 10
867.5672721615
 20
607.823810154
 30
0.0
 10
867.464346807
 20
607.1188799573
 30
0.0
 10
867.464346807
 20
606.5901617127
 30
0.0
  0
SPLINE
  5
2F9
100
AcDbEntity
  8
0
100
AcDbSpline
 62
7
  6
CONTINUOUS
 70
0
 71
3
 72
8
 73
4
 74
0
 42
0.0000001
 43
0.0000001
 44
0.0000000001
 40
0.0
 40
0.0
 40
0.0
 40
0.0
 40
1.0
 40
1.0
 40
1.0
 40
1.0
 10
867.6135595417
 20
608.5363692785
 30
0.0
 10
867.7915039277
 20
608.6389693163
 30
0.0
 10
867.989509899
 20
608.7113674233
 30
0.0
 10
868.1909041202
 20
608.7517572727
 30
0.0
  0
SPLINE
  5
2FA
100
AcDbEntity
  8
0
100
AcDbSpline
 62
7
  6
CONTINUOUS
 70
0
 71
3
 72
9
 73
5
 74
0
 42
0.0000001
 43
0.0000001
 44
0.0000000001
 40
0.0
 40
0.0
 40
0.0
 40
0.0
 40
0.2245627712
 40
1.0
 40
1.0
 40
1.0
 40
1.0
 10
868.4083766868
 20
608.7836619207
 30
0.0
 10
868.5592774135
 20
608.7979948907
 30
0.0
 10
869.23841888
 20
608.7919744446
 30
0.0
 10
869.8941162517
 20
608.5328455979
 30
0.0
 10
870.3483002115
 20
608.2726809641
 30
0.0
  0
SPLINE
  5
2FB
100
AcDbEntity
  8
0
100
AcDbSpline
 62
7
  6
CONTINUOUS
 70
0
 71
3
 72
9
 73
5
 74
0
 42
0.0000001
 43
0.0000001
 44
0.0000000001
 40
0.0
 40
0.0
 40
0.0
 40
0.0
 40
0.4997026048
 40
1.0
 40
1.0
 40
1.0
 40
1.0
 10
870.3483002115
 20
608.2726809641
 30
0.0
 10
871.5066295815
 20
607.609169341
 30
0.0
 10
873.3379056217
 20
605.5015410282
 30
0.0
 10
874.2526084054
 20
602.8644667334
 30
0.0
 10
874.2526084054
 20
601.527971594
 30
0.0
  0
SPLINE
  5
2FC
100
AcDbEntity
  8
0
100
AcDbSpline
 62
7
  6
CONTINUOUS
 70
0
 71
3
 72
9
 73
5
 74
0
 42
0.0000001
 43
0.0000001
 44
0.0000000001
 40
0.0
 40
0.0
 40
0.0
 40
0.0
 40
0.2245236876
 40
1.0
 40
1.0
 40
1.0
 40
1.0
 10
867.993366305
 20
1404.6358084696
 30
0.0
 10
867.9045073412
 20
1404.5111589042
 30
0.0
 10
867.5672721615
 20
1403.9136668553
 30
0.0
 10
867.464346807
 20
1403.2087366587
 30
0.0
 10
867.464346807
 20
1402.680018414
 30
0.0
  0
SPLINE
  5
2FD
100
AcDbEntity
  8
0
100
AcDbSpline
 62
7
  6
CONTINUOUS
 70
0
 71
3
 72
8
 73
4
 74
0
 42
0.0000001
 43
0.0000001
 44
0.0000000001
 40
0.0
 40
0.0
 40
0.0
 40
0.0
 40
1.0
 40
1.0
 40
1.0
 40
1.0
 10
867.6135595417
 20
1404.6262259799
 30
0.0
 10
867.7915039277
 20
1404.7288260177
 30
0.0
 10
867.989509899
 20
1404.8012241246
 30
0.0
 10
868.1909041202
 20
1404.8416139741
 30
0.0
  0
SPLINE
  5
2FE
100
AcDbEntity
  8
0
100
AcDbSpline
 62
7
  6
CONTINUOUS
 70
0
 71
3
 72
9
 73
5
 74
0
 42
0.0000001
 43
0.0000001
 44
0.0000000001
 40
0.0
 40
0.0
 40
0.0
 40
0.0
 40
0.2245627712
 40
1.0
 40
1.0
 40
1.0
 40
1.0
 10
868.4083766868
 20
1404.873518622
 30
0.0
 10
868.5592774135
 20
1404.887851592
 30
0.0
 10
869.23841888
 20
1404.881831146
 30
0.0
 10
869.8941162517
 20
1404.6227022992
 30
0.0
 10
870.3483002115
 20
1404.3625376654
 30
0.0
  0
SPLINE
  5
2FF
100
AcDbEntity
  8
0
100
AcDbSpline
 62
7
  6
CONTINUOUS
 70
0
 71
3
 72
9
 73
5
 74
0
 42
0.0000001
 43
0.0000001
 44
0.0000000001
 40
0.0
 40
0.0
 40
0.0
 40
0.0
 40
0.4997026048
 40
1.0
 40
1.0
 40
1.0
 40
1.0
 10
870.3483002115
 20
1404.3625376654
 30
0.0
 10
871.5066295815
 20
1403.6990260423
 30
0.0
 10
873.3379056217
 20
1401.5913977295
 30
0.0
 10
874.2526084054
 20
1398.9543234348
 30
0.0
 10
874.2526084054
 20
1397.6178282954
 30
0.0
  0
SPLINE
  5
300
100
AcDbEntity
  8
0
100
AcDbSpline
 62
7
  6
CONTINUOUS
 70
0
 71
3
 72
8
 73
4
 74
0
 42
0.0000001
 43
0.0000001
 44
0.0000000001
 40
0.0
 40
0.0
 40
0.0
 40
0.0
 40
1.0
 40
1.0
 40
1.0
 40
1.0
 10
488.2984166557
 20
1689.4223776299
 30
0.0
 10
488.4121588032
 20
1689.5652875279
 30
0.0
 10
488.5573790991
 20
1689.7163275751
 30
0.0
 10
488.7366451924
 20
1689.7513158995
 30
0.0
  0
SPLINE
  5
301
100
AcDbEntity
  8
0
100
AcDbSpline
 62
7
  6
CONTINUOUS
 70
0
 71
3
 72
8
 73
4
 74
0
 42
0.0000001
 43
0.0000001
 44
0.0000000001
 40
0.0
 40
0.0
 40
0.0
 40
0.0
 40
1.0
 40
1.0
 40
1.0
 40
1.0
 10
832.7853221533
 20
211.6064387867
 30
0.0
 10
832.7853221293
 20
211.1941265759
 30
0.0
 10
832.5631467656
 20
210.7751094549
 30
0.0
 10
832.2759918016
 20
210.4792321393
 30
0.0
  0
SPLINE
  5
302
100
AcDbEntity
  8
0
100
AcDbSpline
 62
7
  6
CONTINUOUS
 70
0
 71
3
 72
8
 73
4
 74
0
 42
0.0000001
 43
0.0000001
 44
0.0000000001
 40
0.0
 40
0.0
 40
0.0
 40
0.0
 40
1.0
 40
1.0
 40
1.0
 40
1.0
 10
832.1645221006
 20
210.3712953912
 30
0.0
 10
832.069838775
 20
210.2849757808
 30
0.0
 10
831.9687914972
 20
210.2053180994
 30
0.0
 10
831.8637013713
 20
210.1320236743
 30
0.0
  0
SPLINE
  5
303
100
AcDbEntity
  8
0
100
AcDbSpline
 62
7
  6
CONTINUOUS
 70
0
 71
3
 72
8
 73
4
 74
0
 42
0.0000001
 43
0.0000001
 44
0.0000000001
 40
0.0
 40
0.0
 40
0.0
 40
0.0
 40
1.0
 40
1.0
 40
1.0
 40
1.0
 10
481.8282524902
 20
1645.6702178593
 30
0.0
 10
481.6191575439
 20
1645.477024809
 30
0.0
 10
481.4483647137
 20
1645.1900463538
 30
0.0
 10
481.4482573516
 20
1644.9053636538
 30
0.0
  0
SPLINE
  5
304
100
AcDbEntity
  8
0
100
AcDbSpline
 62
7
  6
CONTINUOUS
 70
0
 71
3
 72
8
 73
4
 74
0
 42
0.0000001
 43
0.0000001
 44
0.0000000001
 40
0.0
 40
0.0
 40
0.0
 40
0.0
 40
1.0
 40
1.0
 40
1.0
 40
1.0
 10
832.3879124726
 20
1485.8635990531
 30
0.0
 10
832.2370436032
 20
1486.0436888293
 30
0.0
 10
832.0564039342
 20
1486.2003232653
 30
0.0
 10
831.8637081101
 20
1486.3347184386
 30
0.0
  0
SPLINE
  5
305
100
AcDbEntity
  8
0
100
AcDbSpline
 62
7
  6
CONTINUOUS
 70
0
 71
3
 72
8
 73
4
 74
0
 42
0.0000001
 43
0.0000001
 44
0.0000000001
 40
0.0
 40
0.0
 40
0.0
 40
0.0
 40
1.0
 40
1.0
 40
1.0
 40
1.0
 10
544.3114104477
 20
1652.1808824447
 30
0.0
 10
544.1605415784
 20
1652.3609722209
 30
0.0
 10
543.9799019093
 20
1652.5176066569
 30
0.0
 10
543.7872060852
 20
1652.6520018301
 30
0.0
  0
SPLINE
  5
306
100
AcDbEntity
  8
0
100
AcDbSpline
 62
7
  6
CONTINUOUS
 70
0
 71
3
 72
9
 73
5
 74
0
 42
0.0000001
 43
0.0000001
 44
0.0000000001
 40
0.0
 40
0.0
 40
0.0
 40
0.0
 40
0.2713437023
 40
1.0
 40
1.0
 40
1.0
 40
1.0
 10
490.8210989955
 20
1689.5638755208
 30
0.0
 10
490.6523709169
 20
1689.6609617603
 30
0.0
 10
490.0162142093
 20
1689.9802177252
 30
0.0
 10
489.1914110578
 20
1690.0211887038
 30
0.0
 10
488.7252702984
 20
1689.7845888024
 30
0.0
  0
SPLINE
  5
307
100
AcDbEntity
  8
0
100
AcDbSpline
 62
7
  6
CONTINUOUS
 70
0
 71
3
 72
8
 73
4
 74
0
 42
0.0000001
 43
0.0000001
 44
0.0000000001
 40
0.0
 40
0.0
 40
0.0
 40
0.0
 40
1.0
 40
1.0
 40
1.0
 40
1.0
 10
485.9688396085
 20
1619.1756191947
 30
0.0
 10
486.2135349338
 20
1618.8491756717
 30
0.0
 10
486.4804941102
 20
1618.5378942918
 30
0.0
 10
486.7693655356
 20
1618.2498066741
 30
0.0
  0
SPLINE
  5
308
100
AcDbEntity
  8
0
100
AcDbSpline
 62
7
  6
CONTINUOUS
 70
0
 71
3
 72
9
 73
5
 74
0
 42
0.0000001
 43
0.0000001
 44
0.0000000001
 40
0.0
 40
0.0
 40
0.0
 40
0.0
 40
0.2700852843
 40
1.0
 40
1.0
 40
1.0
 40
1.0
 10
890.1415131351
 20
181.4970868532
 30
0.0
 10
890.1414881472
 20
181.2996837042
 30
0.0
 10
890.0996218833
 20
180.5756322416
 30
0.0
 10
889.7129533587
 20
179.827406245
 30
0.0
 10
889.265064989
 20
179.5375678937
 30
0.0
  0
SPLINE
  5
309
100
AcDbEntity
  8
0
100
AcDbSpline
 62
7
  6
CONTINUOUS
 70
0
 71
3
 72
10
 73
6
 74
0
 42
0.0000001
 43
0.0000001
 44
0.0000000001
 40
0.0
 40
0.0
 40
0.0
 40
0.0
 40
0.422604688
 40
0.7223352739
 40
1.0
 40
1.0
 40
1.0
 40
1.0
 10
501.6736306868
 20
1622.0324609296
 30
0.0
 10
500.1423984766
 20
1621.1495756296
 30
0.0
 10
496.5485005459
 20
1623.2973411049
 30
0.0
 10
494.5171631977
 20
1626.7193756157
 30
0.0
 10
493.8274820755
 20
1629.1537900174
 30
0.0
 10
493.8274820755
 20
1630.3151127651
 30
0.0
  0
SPLINE
  5
30A
100
AcDbEntity
  8
0
100
AcDbSpline
 62
7
  6
CONTINUOUS
 70
0
 71
3
 72
8
 73
4
 74
0
 42
0.0000001
 43
0.0000001
 44
0.0000000001
 40
0.0
 40
0.0
 40
0.0
 40
0.0
 40
1.0
 40
1.0
 40
1.0
 40
1.0
 10
493.8274820755
 20
1630.3151127651
 30
0.0
 10
493.8274820755
 20
1630.7006410468
 30
0.0
 10
493.8644385497
 20
1631.0894685317
 30
0.0
 10
493.9515693665
 20
1631.4650218259
 30
0.0
  0
SPLINE
  5
30B
100
AcDbEntity
  8
0
100
AcDbSpline
 62
7
  6
CONTINUOUS
 70
0
 71
3
 72
9
 73
5
 74
0
 42
0.0000001
 43
0.0000001
 44
0.0000000001
 40
0.0
 40
0.0
 40
0.0
 40
0.0
 40
0.2787808137
 40
1.0
 40
1.0
 40
1.0
 40
1.0
 10
493.9515693665
 20
1631.4650218259
 30
0.0
 10
493.9984226156
 20
1631.6669698015
 30
0.0
 10
494.212977512
 20
1632.3767196171
 30
0.0
 10
494.7091343442
 20
1633.0227387387
 30
0.0
 10
495.1737598911
 20
1633.2906347918
 30
0.0
  0
SPLINE
  5
30C
100
AcDbEntity
  8
0
100
AcDbSpline
 62
7
  6
CONTINUOUS
 70
0
 71
3
 72
9
 73
5
 74
0
 42
0.0000001
 43
0.0000001
 44
0.0000000001
 40
0.0
 40
0.0
 40
0.0
 40
0.0
 40
0.2211638406
 40
1.0
 40
1.0
 40
1.0
 40
1.0
 10
873.113450247
 20
231.5841344747
 30
0.0
 10
872.9329136992
 20
231.4800398356
 30
0.0
 10
872.0274278006
 20
231.1514224254
 30
0.0
 10
871.0155108257
 20
231.483051731
 30
0.0
 10
870.3787095772
 20
231.8478227891
 30
0.0
  0
SPLINE
  5
30D
100
AcDbEntity
  8
0
100
AcDbSpline
 62
7
  6
CONTINUOUS
 70
0
 71
3
 72
9
 73
5
 74
0
 42
0.0000001
 43
0.0000001
 44
0.0000000001
 40
0.0
 40
0.0
 40
0.0
 40
0.0
 40
0.4997026048
 40
1.0
 40
1.0
 40
1.0
 40
1.0
 10
870.3787095772
 20
231.8478227891
 30
0.0
 10
869.2203802072
 20
232.5113344122
 30
0.0
 10
867.389104167
 20
234.618962725
 30
0.0
 10
866.4744013833
 20
237.2560370198
 30
0.0
 10
866.4744013833
 20
238.5925321592
 30
0.0
  0
SPLINE
  5
30E
100
AcDbEntity
  8
0
100
AcDbSpline
 62
7
  6
CONTINUOUS
 70
0
 71
3
 72
9
 73
5
 74
0
 42
0.0000001
 43
0.0000001
 44
0.0000000001
 40
0.0
 40
0.0
 40
0.0
 40
0.0
 40
0.2338288157
 40
1.0
 40
1.0
 40
1.0
 40
1.0
 10
875.2929201635
 20
1416.926392316
 30
0.0
 10
875.5054573759
 20
1416.8036866752
 30
0.0
 10
876.4897944777
 20
1416.4214834697
 30
0.0
 10
877.6290700008
 20
1416.4500814403
 30
0.0
 10
878.3854867441
 20
1416.7229713925
 30
0.0
  0
SPLINE
  5
30F
100
AcDbEntity
  8
0
100
AcDbSpline
 62
7
  6
CONTINUOUS
 70
0
 71
3
 72
8
 73
4
 74
0
 42
0.0000001
 43
0.0000001
 44
0.0000000001
 40
0.0
 40
0.0
 40
0.0
 40
0.0
 40
1.0
 40
1.0
 40
1.0
 40
1.0
 10
866.4744013833
 20
1402.1084765688
 30
0.0
 10
866.4744013833
 20
1402.4676970098
 30
0.0
 10
866.5122336599
 20
1402.8309200191
 30
0.0
 10
866.6033300714
 20
1403.1783977435
 30
0.0
  0
SPLINE
  5
310
100
AcDbEntity
  8
0
100
AcDbSpline
 62
7
  6
CONTINUOUS
 70
0
 71
3
 72
9
 73
5
 74
0
 42
0.0000001
 43
0.0000001
 44
0.0000000001
 40
0.0
 40
0.0
 40
0.0
 40
0.0
 40
0.2768213698
 40
1.0
 40
1.0
 40
1.0
 40
1.0
 10
866.6033300714
 20
1403.1783977435
 30
0.0
 10
866.6452391161
 20
1403.3382554068
 30
0.0
 10
866.8336998966
 20
1403.9032679821
 30
0.0
 10
867.2395453958
 20
1404.4105750882
 30
0.0
 10
867.6135595417
 20
1404.6262259799
 30
0.0
  0
SPLINE
  5
311
100
AcDbEntity
  8
0
100
AcDbSpline
 62
7
  6
CONTINUOUS
 70
0
 71
3
 72
8
 73
4
 74
0
 42
0.0000001
 43
0.0000001
 44
0.0000000001
 40
0.0
 40
0.0
 40
0.0
 40
0.0
 40
1.0
 40
1.0
 40
1.0
 40
1.0
 10
866.4744013833
 20
606.0186198675
 30
0.0
 10
866.4744013833
 20
606.3778403084
 30
0.0
 10
866.5122336599
 20
606.7410633178
 30
0.0
 10
866.6033300714
 20
607.0885410422
 30
0.0
  0
SPLINE
  5
312
100
AcDbEntity
  8
0
100
AcDbSpline
 62
7
  6
CONTINUOUS
 70
0
 71
3
 72
9
 73
5
 74
0
 42
0.0000001
 43
0.0000001
 44
0.0000000001
 40
0.0
 40
0.0
 40
0.0
 40
0.0
 40
0.2768213698
 40
1.0
 40
1.0
 40
1.0
 40
1.0
 10
866.6033300714
 20
607.0885410422
 30
0.0
 10
866.6452391161
 20
607.2483987054
 30
0.0
 10
866.8336998966
 20
607.8134112807
 30
0.0
 10
867.2395453958
 20
608.3207183869
 30
0.0
 10
867.6135595417
 20
608.5363692785
 30
0.0
  0
SPLINE
  5
313
100
AcDbEntity
  8
0
100
AcDbSpline
 62
7
  6
CONTINUOUS
 70
0
 71
3
 72
8
 73
4
 74
0
 42
0.0000001
 43
0.0000001
 44
0.0000000001
 40
0.0
 40
0.0
 40
0.0
 40
0.0
 40
1.0
 40
1.0
 40
1.0
 40
1.0
 10
866.4744013833
 20
1034.6823888605
 30
0.0
 10
866.4744013833
 20
1035.0416093015
 30
0.0
 10
866.5122336599
 20
1035.4048323108
 30
0.0
 10
866.6033300714
 20
1035.7523100352
 30
0.0
  0
SPLINE
  5
314
100
AcDbEntity
  8
0
100
AcDbSpline
 62
7
  6
CONTINUOUS
 70
0
 71
3
 72
9
 73
5
 74
0
 42
0.0000001
 43
0.0000001
 44
0.0000000001
 40
0.0
 40
0.0
 40
0.0
 40
0.0
 40
0.2768213698
 40
1.0
 40
1.0
 40
1.0
 40
1.0
 10
866.6033300714
 20
1035.7523100352
 30
0.0
 10
866.6452391161
 20
1035.9121676985
 30
0.0
 10
866.8336998966
 20
1036.4771802737
 30
0.0
 10
867.2395453958
 20
1036.9844873799
 30
0.0
 10
867.6135595417
 20
1037.2001382716
 30
0.0
  0
SPLINE
  5
315
100
AcDbEntity
  8
0
100
AcDbSpline
 62
7
  6
CONTINUOUS
 70
0
 71
3
 72
8
 73
4
 74
0
 42
0.0000001
 43
0.0000001
 44
0.0000000001
 40
0.0
 40
0.0
 40
0.0
 40
0.0
 40
1.0
 40
1.0
 40
1.0
 40
1.0
 10
874.0860894991
 20
184.1816378966
 30
0.0
 10
876.3060453709
 20
182.906095379
 30
0.0
 10
878.5406721866
 20
181.6561517263
 30
0.0
 10
880.7579825395
 20
180.3760159578
 30
0.0
  0
SPLINE
  5
316
100
AcDbEntity
  8
0
100
AcDbSpline
 62
7
  6
CONTINUOUS
 70
0
 71
3
 72
8
 73
4
 74
0
 42
0.0000001
 43
0.0000001
 44
0.0000000001
 40
0.0
 40
0.0
 40
0.0
 40
0.0
 40
1.0
 40
1.0
 40
1.0
 40
1.0
 10
866.4744013833
 20
238.5925321592
 30
0.0
 10
866.4744013833
 20
238.9517526001
 30
0.0
 10
866.5122336599
 20
239.3149756094
 30
0.0
 10
866.6033300714
 20
239.6624533339
 30
0.0
  0
SPLINE
  5
317
100
AcDbEntity
  8
0
100
AcDbSpline
 62
7
  6
CONTINUOUS
 70
0
 71
3
 72
9
 73
5
 74
0
 42
0.0000001
 43
0.0000001
 44
0.0000000001
 40
0.0
 40
0.0
 40
0.0
 40
0.0
 40
0.2768213698
 40
1.0
 40
1.0
 40
1.0
 40
1.0
 10
866.6033300714
 20
239.6624533339
 30
0.0
 10
866.6452391161
 20
239.8223109971
 30
0.0
 10
866.8336998966
 20
240.3873235724
 30
0.0
 10
867.2395453958
 20
240.8946306786
 30
0.0
 10
867.6135595417
 20
241.1102815702
 30
0.0
  0
SPLINE
  5
318
100
AcDbEntity
  8
0
100
AcDbSpline
 62
7
  6
CONTINUOUS
 70
0
 71
3
 72
8
 73
4
 74
0
 42
0.0000001
 43
0.0000001
 44
0.0000000001
 40
0.0
 40
0.0
 40
0.0
 40
0.0
 40
1.0
 40
1.0
 40
1.0
 40
1.0
 10
831.6138242739
 20
213.2394154022
 30
0.0
 10
831.7639906726
 20
213.1527187529
 30
0.0
 10
831.908626456
 20
213.0551179025
 30
0.0
 10
832.0432528531
 20
212.9458384923
 30
0.0
  0
SPLINE
  5
319
100
AcDbEntity
  8
0
100
AcDbSpline
 62
7
  6
CONTINUOUS
 70
0
 71
3
 72
9
 73
5
 74
0
 42
0.0000001
 43
0.0000001
 44
0.0000000001
 40
0.0
 40
0.0
 40
0.0
 40
0.0
 40
0.2837212947
 40
1.0
 40
1.0
 40
1.0
 40
1.0
 10
832.0432528531
 20
212.9458384923
 30
0.0
 10
832.1577038259
 20
212.8529359483
 30
0.0
 10
832.5369367438
 20
212.5014015345
 30
0.0
 10
832.785322175
 20
211.9785896658
 30
0.0
 10
832.7853221533
 20
211.6064387867
 30
0.0
  0
SPLINE
  5
31A
100
AcDbEntity
  8
0
100
AcDbSpline
 62
7
  6
CONTINUOUS
 70
0
 71
3
 72
9
 73
5
 74
0
 42
0.0000001
 43
0.0000001
 44
0.0000000001
 40
0.0
 40
0.0
 40
0.0
 40
0.0
 40
0.2211638406
 40
1.0
 40
1.0
 40
1.0
 40
1.0
 10
873.113450247
 20
1027.673991176
 30
0.0
 10
872.9329136992
 20
1027.569896537
 30
0.0
 10
872.0274278006
 20
1027.2412791267
 30
0.0
 10
871.0155108257
 20
1027.5729084323
 30
0.0
 10
870.3787095773
 20
1027.9376794905
 30
0.0
  0
SPLINE
  5
31B
100
AcDbEntity
  8
0
100
AcDbSpline
 62
7
  6
CONTINUOUS
 70
0
 71
3
 72
9
 73
5
 74
0
 42
0.0000001
 43
0.0000001
 44
0.0000000001
 40
0.0
 40
0.0
 40
0.0
 40
0.0
 40
0.4997026048
 40
1.0
 40
1.0
 40
1.0
 40
1.0
 10
870.3787095773
 20
1027.9376794905
 30
0.0
 10
869.2203802072
 20
1028.6011911136
 30
0.0
 10
867.389104167
 20
1030.7088194264
 30
0.0
 10
866.4744013833
 20
1033.3458937211
 30
0.0
 10
866.4744013833
 20
1034.6823888605
 30
0.0
  0
SPLINE
  5
31C
100
AcDbEntity
  8
0
100
AcDbSpline
 62
7
  6
CONTINUOUS
 70
0
 71
3
 72
9
 73
5
 74
0
 42
0.0000001
 43
0.0000001
 44
0.0000000001
 40
0.0
 40
0.0
 40
0.0
 40
0.0
 40
0.2211638406
 40
1.0
 40
1.0
 40
1.0
 40
1.0
 10
873.113450247
 20
599.010222183
 30
0.0
 10
872.9329136992
 20
598.9061275439
 30
0.0
 10
872.0274278006
 20
598.5775101337
 30
0.0
 10
871.0155108257
 20
598.9091394393
 30
0.0
 10
870.3787095773
 20
599.2739104974
 30
0.0
  0
SPLINE
  5
31D
100
AcDbEntity
  8
0
100
AcDbSpline
 62
7
  6
CONTINUOUS
 70
0
 71
3
 72
9
 73
5
 74
0
 42
0.0000001
 43
0.0000001
 44
0.0000000001
 40
0.0
 40
0.0
 40
0.0
 40
0.0
 40
0.4997026048
 40
1.0
 40
1.0
 40
1.0
 40
1.0
 10
870.3787095773
 20
599.2739104974
 30
0.0
 10
869.2203802072
 20
599.9374221206
 30
0.0
 10
867.389104167
 20
602.0450504334
 30
0.0
 10
866.4744013833
 20
604.6821247281
 30
0.0
 10
866.4744013833
 20
606.0186198675
 30
0.0
  0
SPLINE
  5
31E
100
AcDbEntity
  8
0
100
AcDbSpline
 62
7
  6
CONTINUOUS
 70
0
 71
3
 72
9
 73
5
 74
0
 42
0.0000001
 43
0.0000001
 44
0.0000000001
 40
0.0
 40
0.0
 40
0.0
 40
0.0
 40
0.2211638406
 40
1.0
 40
1.0
 40
1.0
 40
1.0
 10
873.113450247
 20
1395.1000788843
 30
0.0
 10
872.9329136992
 20
1394.9959842453
 30
0.0
 10
872.0274278006
 20
1394.6673668351
 30
0.0
 10
871.0155108257
 20
1394.9989961407
 30
0.0
 10
870.3787095773
 20
1395.3637671988
 30
0.0
  0
SPLINE
  5
31F
100
AcDbEntity
  8
0
100
AcDbSpline
 62
7
  6
CONTINUOUS
 70
0
 71
3
 72
9
 73
5
 74
0
 42
0.0000001
 43
0.0000001
 44
0.0000000001
 40
0.0
 40
0.0
 40
0.0
 40
0.0
 40
0.4997026048
 40
1.0
 40
1.0
 40
1.0
 40
1.0
 10
870.3787095773
 20
1395.3637671988
 30
0.0
 10
869.2203802072
 20
1396.0272788219
 30
0.0
 10
867.389104167
 20
1398.1349071347
 30
0.0
 10
866.4744013833
 20
1400.7719814294
 30
0.0
 10
866.4744013833
 20
1402.1084765688
 30
0.0
  0
SPLINE
  5
320
100
AcDbEntity
  8
0
100
AcDbSpline
 62
7
  6
CONTINUOUS
 70
0
 71
3
 72
8
 73
4
 74
0
 42
0.0000001
 43
0.0000001
 44
0.0000000001
 40
0.0
 40
0.0
 40
0.0
 40
0.0
 40
1.0
 40
1.0
 40
1.0
 40
1.0
 10
484.3774412328
 20
1619.5119466902
 30
0.0
 10
484.0033011117
 20
1620.154287939
 30
0.0
 10
483.6997730516
 20
1620.845444989
 30
0.0
 10
483.4952624948
 20
1621.5601187204
 30
0.0
  0
SPLINE
  5
321
100
AcDbEntity
  8
0
100
AcDbSpline
 62
7
  6
CONTINUOUS
 70
0
 71
3
 72
9
 73
5
 74
0
 42
0.0000001
 43
0.0000001
 44
0.0000000001
 40
0.0
 40
0.0
 40
0.0
 40
0.0
 40
0.2768097453
 40
1.0
 40
1.0
 40
1.0
 40
1.0
 10
483.3500073964
 20
1624.4454522382
 30
0.0
 10
483.3919286203
 20
1624.605245446
 30
0.0
 10
483.5804263817
 20
1625.1700490223
 30
0.0
 10
483.9861867978
 20
1625.6771288647
 30
0.0
 10
484.3600885442
 20
1625.8927149484
 30
0.0
  0
SPLINE
  5
322
100
AcDbEntity
  8
0
100
AcDbSpline
 62
7
  6
CONTINUOUS
 70
0
 71
3
 72
9
 73
5
 74
0
 42
0.0000001
 43
0.0000001
 44
0.0000000001
 40
0.0
 40
0.0
 40
0.0
 40
0.0
 40
0.7053985205
 40
1.0
 40
1.0
 40
1.0
 40
1.0
 10
481.4482573516
 20
1644.9053636538
 30
0.0
 10
481.4481433407
 20
1644.6030508903
 30
0.0
 10
481.7196368896
 20
1644.184291865
 30
0.0
 10
482.071275906
 20
1643.947878567
 30
0.0
 10
482.1806186532
 20
1643.8847509306
 30
0.0
  0
SPLINE
  5
323
100
AcDbEntity
  8
0
100
AcDbSpline
 62
7
  6
CONTINUOUS
 70
0
 71
3
 72
9
 73
5
 74
0
 42
0.0000001
 43
0.0000001
 44
0.0000000001
 40
0.0
 40
0.0
 40
0.0
 40
0.0
 40
0.7672995695
 40
1.0
 40
1.0
 40
1.0
 40
1.0
 10
889.265064989
 20
1458.5380620121
 30
0.0
 10
889.4933608417
 20
1458.6538698349
 30
0.0
 10
889.786336205
 20
1458.7379729269
 30
0.0
 10
890.0666747836
 20
1459.0422802043
 30
0.0
 10
890.1414447853
 20
1459.0213867645
 30
0.0
  0
SPLINE
  5
324
100
AcDbEntity
  8
0
100
AcDbSpline
 62
7
  6
CONTINUOUS
 70
0
 71
3
 72
8
 73
4
 74
0
 42
0.0000001
 43
0.0000001
 44
0.0000000001
 40
0.0
 40
0.0
 40
0.0
 40
0.0
 40
1.0
 40
1.0
 40
1.0
 40
1.0
 10
425.5240319256
 20
429.5626412258
 30
0.0
 10
425.7134559562
 20
429.6718602528
 30
0.0
 10
425.9218959231
 20
429.752231951
 30
0.0
 10
426.1348761086
 20
429.8017263931
 30
0.0
  0
SPLINE
  5
325
100
AcDbEntity
  8
0
100
AcDbSpline
 62
7
  6
CONTINUOUS
 70
0
 71
3
 72
9
 73
5
 74
0
 42
0.0000001
 43
0.0000001
 44
0.0000000001
 40
0.0
 40
0.0
 40
0.0
 40
0.0
 40
0.223710445
 40
1.0
 40
1.0
 40
1.0
 40
1.0
 10
426.3628192976
 20
429.8433601663
 30
0.0
 10
426.5469703139
 20
429.8681809471
 30
0.0
 10
427.3833354337
 20
429.8876981932
 30
0.0
 10
428.196495157
 20
429.5715028213
 30
0.0
 10
428.7559981528
 20
429.2510095705
 30
0.0
  0
SPLINE
  5
326
100
AcDbEntity
  8
0
100
AcDbSpline
 62
7
  6
CONTINUOUS
 70
0
 71
3
 72
9
 73
5
 74
0
 42
0.0000001
 43
0.0000001
 44
0.0000000001
 40
0.0
 40
0.0
 40
0.0
 40
0.0
 40
0.4997026044
 40
1.0
 40
1.0
 40
1.0
 40
1.0
 10
428.7559981528
 20
429.2510095705
 30
0.0
 10
430.1249328574
 20
428.4668594644
 30
0.0
 10
432.2891681636
 20
425.976025994
 30
0.0
 10
433.3701805368
 20
422.8594836467
 30
0.0
 10
433.3701805368
 20
421.2799893903
 30
0.0
  0
SPLINE
  5
327
100
AcDbEntity
  8
0
100
AcDbSpline
 62
7
  6
CONTINUOUS
 70
0
 71
3
 72
8
 73
4
 74
0
 42
0.0000001
 43
0.0000001
 44
0.0000000001
 40
0.0
 40
0.0
 40
0.0
 40
0.0
 40
1.0
 40
1.0
 40
1.0
 40
1.0
 10
422.2467244089
 20
1651.4034115425
 30
0.0
 10
422.3999368593
 20
1651.4947319773
 30
0.0
 10
422.6030593748
 20
1651.5802222602
 30
0.0
 10
422.7697000737
 20
1651.5166270226
 30
0.0
  0
SPLINE
  5
328
100
AcDbEntity
  8
0
100
AcDbSpline
 62
7
  6
CONTINUOUS
 70
0
 71
3
 72
8
 73
4
 74
0
 42
0.0000001
 43
0.0000001
 44
0.0000000001
 40
0.0
 40
0.0
 40
0.0
 40
0.0
 40
1.0
 40
1.0
 40
1.0
 40
1.0
 10
422.2467244089
 20
1651.4034115425
 30
0.0
 10
421.8614658624
 20
1651.1539863629
 30
0.0
 10
421.5822925119
 20
1650.712479269
 30
0.0
 10
421.4678657347
 20
1650.268020519
 30
0.0
  0
SPLINE
  5
329
100
AcDbEntity
  8
0
100
AcDbSpline
 62
7
  6
CONTINUOUS
 70
0
 71
3
 72
8
 73
4
 74
0
 42
0.0000001
 43
0.0000001
 44
0.0000000001
 40
0.0
 40
0.0
 40
0.0
 40
0.0
 40
1.0
 40
1.0
 40
1.0
 40
1.0
 10
421.4678657347
 20
1650.268020519
 30
0.0
 10
421.3988989327
 20
1650.0001383033
 30
0.0
 10
421.370315283
 20
1649.7205434269
 30
0.0
 10
421.3702765933
 20
1649.4439258213
 30
0.0
  0
SPLINE
  5
32A
100
AcDbEntity
  8
0
100
AcDbSpline
 62
7
  6
CONTINUOUS
 70
0
 71
3
 72
9
 73
5
 74
0
 42
0.0000001
 43
0.0000001
 44
0.0000000001
 40
0.0
 40
0.0
 40
0.0
 40
0.0
 40
0.2236097662
 40
1.0
 40
1.0
 40
1.0
 40
1.0
 10
425.9237980964
 20
429.5918910045
 30
0.0
 10
425.8090267905
 20
429.4436127916
 30
0.0
 10
425.3703198321
 20
428.7217602714
 30
0.0
 10
425.2384098658
 20
427.8505241502
 30
0.0
 10
425.2384098658
 20
427.1994854299
 30
0.0
  0
SPLINE
  5
32B
100
AcDbEntity
  8
0
100
AcDbSpline
 62
7
  6
CONTINUOUS
 70
0
 71
3
 72
8
 73
4
 74
0
 42
0.0000001
 43
0.0000001
 44
0.0000000001
 40
0.0
 40
0.0
 40
0.0
 40
0.0
 40
1.0
 40
1.0
 40
1.0
 40
1.0
 10
425.5240319256
 20
1225.6524979271
 30
0.0
 10
425.7134559562
 20
1225.7617169541
 30
0.0
 10
425.9218959231
 20
1225.8420886524
 30
0.0
 10
426.1348761086
 20
1225.8915830945
 30
0.0
  0
SPLINE
  5
32C
100
AcDbEntity
  8
0
100
AcDbSpline
 62
7
  6
CONTINUOUS
 70
0
 71
3
 72
9
 73
5
 74
0
 42
0.0000001
 43
0.0000001
 44
0.0000000001
 40
0.0
 40
0.0
 40
0.0
 40
0.0
 40
0.223710445
 40
1.0
 40
1.0
 40
1.0
 40
1.0
 10
426.3628192976
 20
1225.9332168676
 30
0.0
 10
426.5469703139
 20
1225.9580376484
 30
0.0
 10
427.3833354337
 20
1225.9775548945
 30
0.0
 10
428.196495157
 20
1225.6613595226
 30
0.0
 10
428.7559981528
 20
1225.3408662719
 30
0.0
  0
SPLINE
  5
32D
100
AcDbEntity
  8
0
100
AcDbSpline
 62
7
  6
CONTINUOUS
 70
0
 71
3
 72
9
 73
5
 74
0
 42
0.0000001
 43
0.0000001
 44
0.0000000001
 40
0.0
 40
0.0
 40
0.0
 40
0.0
 40
0.4997026044
 40
1.0
 40
1.0
 40
1.0
 40
1.0
 10
428.7559981528
 20
1225.3408662719
 30
0.0
 10
430.1249328574
 20
1224.5567161657
 30
0.0
 10
432.2891681636
 20
1222.0658826954
 30
0.0
 10
433.3701805368
 20
1218.949340348
 30
0.0
 10
433.3701805368
 20
1217.3698460917
 30
0.0
  0
SPLINE
  5
32E
100
AcDbEntity
  8
0
100
AcDbSpline
 62
7
  6
CONTINUOUS
 70
0
 71
3
 72
9
 73
5
 74
0
 42
0.0000001
 43
0.0000001
 44
0.0000000001
 40
0.0
 40
0.0
 40
0.0
 40
0.0
 40
0.2236097662
 40
1.0
 40
1.0
 40
1.0
 40
1.0
 10
425.9237980964
 20
1225.6817477058
 30
0.0
 10
425.8090267905
 20
1225.533469493
 30
0.0
 10
425.3703198321
 20
1224.8116169728
 30
0.0
 10
425.2384098658
 20
1223.9403808516
 30
0.0
 10
425.2384098658
 20
1223.2893421312
 30
0.0
  0
SPLINE
  5
32F
100
AcDbEntity
  8
0
100
AcDbSpline
 62
7
  6
CONTINUOUS
 70
0
 71
3
 72
8
 73
4
 74
0
 42
0.0000001
 43
0.0000001
 44
0.0000000001
 40
0.0
 40
0.0
 40
0.0
 40
0.0
 40
1.0
 40
1.0
 40
1.0
 40
1.0
 10
425.5240319256
 20
796.9887289341
 30
0.0
 10
425.7134559562
 20
797.0979479611
 30
0.0
 10
425.9218959231
 20
797.1783196594
 30
0.0
 10
426.1348761086
 20
797.2278141015
 30
0.0
  0
SPLINE
  5
330
100
AcDbEntity
  8
0
100
AcDbSpline
 62
7
  6
CONTINUOUS
 70
0
 71
3
 72
9
 73
5
 74
0
 42
0.0000001
 43
0.0000001
 44
0.0000000001
 40
0.0
 40
0.0
 40
0.0
 40
0.0
 40
0.223710445
 40
1.0
 40
1.0
 40
1.0
 40
1.0
 10
426.3628192976
 20
797.2694478746
 30
0.0
 10
426.5469703139
 20
797.2942686554
 30
0.0
 10
427.3833354337
 20
797.3137859015
 30
0.0
 10
428.196495157
 20
796.9975905296
 30
0.0
 10
428.7559981528
 20
796.6770972788
 30
0.0
  0
SPLINE
  5
331
100
AcDbEntity
  8
0
100
AcDbSpline
 62
7
  6
CONTINUOUS
 70
0
 71
3
 72
9
 73
5
 74
0
 42
0.0000001
 43
0.0000001
 44
0.0000000001
 40
0.0
 40
0.0
 40
0.0
 40
0.0
 40
0.4997026044
 40
1.0
 40
1.0
 40
1.0
 40
1.0
 10
428.7559981528
 20
796.6770972788
 30
0.0
 10
430.1249328574
 20
795.8929471727
 30
0.0
 10
432.2891681636
 20
793.4021137023
 30
0.0
 10
433.3701805368
 20
790.285571355
 30
0.0
 10
433.3701805368
 20
788.7060770986
 30
0.0
  0
SPLINE
  5
332
100
AcDbEntity
  8
0
100
AcDbSpline
 62
7
  6
CONTINUOUS
 70
0
 71
3
 72
9
 73
5
 74
0
 42
0.0000001
 43
0.0000001
 44
0.0000000001
 40
0.0
 40
0.0
 40
0.0
 40
0.0
 40
0.2236097662
 40
1.0
 40
1.0
 40
1.0
 40
1.0
 10
425.9237980964
 20
797.0179787128
 30
0.0
 10
425.8090267905
 20
796.8697004999
 30
0.0
 10
425.3703198321
 20
796.1478479798
 30
0.0
 10
425.2384098658
 20
795.2766118585
 30
0.0
 10
425.2384098658
 20
794.6255731382
 30
0.0
  0
SPLINE
  5
333
100
AcDbEntity
  8
0
100
AcDbSpline
 62
7
  6
CONTINUOUS
 70
0
 71
3
 72
9
 73
5
 74
0
 42
0.0000001
 43
0.0000001
 44
0.0000000001
 40
0.0
 40
0.0
 40
0.0
 40
0.0
 40
0.5077497469
 40
1.0
 40
1.0
 40
1.0
 40
1.0
 10
767.7245905549
 20
1454.4916727215
 30
0.0
 10
767.6753746036
 20
1454.4573473899
 30
0.0
 10
767.5802883326
 20
1454.387054449
 30
0.0
 10
767.4895264868
 20
1454.3112401683
 30
0.0
 10
767.4461020272
 20
1454.2725323313
 30
0.0
  0
SPLINE
  5
334
100
AcDbEntity
  8
0
100
AcDbSpline
 62
7
  6
CONTINUOUS
 70
0
 71
3
 72
8
 73
4
 74
0
 42
0.0000001
 43
0.0000001
 44
0.0000000001
 40
0.0
 40
0.0
 40
0.0
 40
0.0
 40
1.0
 40
1.0
 40
1.0
 40
1.0
 10
769.2415052388
 20
1455.1434207272
 30
0.0
 10
768.9399455411
 20
1455.0696046733
 30
0.0
 10
768.6426343977
 20
1454.9718606502
 30
0.0
 10
768.3590507222
 20
1454.8454986302
 30
0.0
  0
SPLINE
  5
335
100
AcDbEntity
  8
0
100
AcDbSpline
 62
7
  6
CONTINUOUS
 70
0
 71
3
 72
8
 73
4
 74
0
 42
0.0000001
 43
0.0000001
 44
0.0000000001
 40
0.0
 40
0.0
 40
0.0
 40
0.0
 40
1.0
 40
1.0
 40
1.0
 40
1.0
 10
768.3590507222
 20
1454.8454986302
 30
0.0
 10
768.2277180547
 20
1454.7869781208
 30
0.0
 10
768.0989616117
 20
1454.7221103561
 30
0.0
 10
767.9744435971
 20
1454.650220276
 30
0.0
  0
SPLINE
  5
336
100
AcDbEntity
  8
0
100
AcDbSpline
 62
7
  6
CONTINUOUS
 70
0
 71
3
 72
8
 73
4
 74
0
 42
0.0000001
 43
0.0000001
 44
0.0000000001
 40
0.0
 40
0.0
 40
0.0
 40
0.0
 40
1.0
 40
1.0
 40
1.0
 40
1.0
 10
425.5240319256
 20
1593.0785856354
 30
0.0
 10
425.7134559562
 20
1593.1878046624
 30
0.0
 10
425.9218959231
 20
1593.2681763607
 30
0.0
 10
426.1348761086
 20
1593.3176708028
 30
0.0
  0
SPLINE
  5
337
100
AcDbEntity
  8
0
100
AcDbSpline
 62
7
  6
CONTINUOUS
 70
0
 71
3
 72
9
 73
5
 74
0
 42
0.0000001
 43
0.0000001
 44
0.0000000001
 40
0.0
 40
0.0
 40
0.0
 40
0.0
 40
0.223710445
 40
1.0
 40
1.0
 40
1.0
 40
1.0
 10
426.3628192976
 20
1593.3593045759
 30
0.0
 10
426.5469703139
 20
1593.3841253567
 30
0.0
 10
427.3833354337
 20
1593.4036426028
 30
0.0
 10
428.196495157
 20
1593.0874472309
 30
0.0
 10
428.7559981528
 20
1592.7669539802
 30
0.0
  0
SPLINE
  5
338
100
AcDbEntity
  8
0
100
AcDbSpline
 62
7
  6
CONTINUOUS
 70
0
 71
3
 72
9
 73
5
 74
0
 42
0.0000001
 43
0.0000001
 44
0.0000000001
 40
0.0
 40
0.0
 40
0.0
 40
0.0
 40
0.4997026044
 40
1.0
 40
1.0
 40
1.0
 40
1.0
 10
428.7559981528
 20
1592.7669539802
 30
0.0
 10
430.1249328574
 20
1591.982803874
 30
0.0
 10
432.2891681636
 20
1589.4919704037
 30
0.0
 10
433.3701805368
 20
1586.3754280563
 30
0.0
 10
433.3701805368
 20
1584.7959338
 30
0.0
  0
SPLINE
  5
339
100
AcDbEntity
  8
0
100
AcDbSpline
 62
7
  6
CONTINUOUS
 70
0
 71
3
 72
9
 73
5
 74
0
 42
0.0000001
 43
0.0000001
 44
0.0000000001
 40
0.0
 40
0.0
 40
0.0
 40
0.0
 40
0.2236097662
 40
1.0
 40
1.0
 40
1.0
 40
1.0
 10
425.9237980964
 20
1593.1078354141
 30
0.0
 10
425.8090267905
 20
1592.9595572013
 30
0.0
 10
425.3703198321
 20
1592.2377046811
 30
0.0
 10
425.2384098658
 20
1591.3664685599
 30
0.0
 10
425.2384098658
 20
1590.7154298395
 30
0.0
  0
SPLINE
  5
33A
100
AcDbEntity
  8
0
100
AcDbSpline
 62
7
  6
CONTINUOUS
 70
0
 71
3
 72
9
 73
5
 74
0
 42
0.0000001
 43
0.0000001
 44
0.0000000001
 40
0.0
 40
0.0
 40
0.0
 40
0.0
 40
0.5077497469
 40
1.0
 40
1.0
 40
1.0
 40
1.0
 10
479.64808853
 20
1620.808956113
 30
0.0
 10
479.5988725787
 20
1620.7746307815
 30
0.0
 10
479.5037863077
 20
1620.7043378405
 30
0.0
 10
479.4130244619
 20
1620.6285235599
 30
0.0
 10
479.3696000023
 20
1620.5898157228
 30
0.0
  0
SPLINE
  5
33B
100
AcDbEntity
  8
0
100
AcDbSpline
 62
7
  6
CONTINUOUS
 70
0
 71
3
 72
8
 73
4
 74
0
 42
0.0000001
 43
0.0000001
 44
0.0000000001
 40
0.0
 40
0.0
 40
0.0
 40
0.0
 40
1.0
 40
1.0
 40
1.0
 40
1.0
 10
481.1650032139
 20
1621.4607041187
 30
0.0
 10
480.8634435162
 20
1621.3868880648
 30
0.0
 10
480.5661323728
 20
1621.2891440418
 30
0.0
 10
480.2825486974
 20
1621.1627820218
 30
0.0
  0
SPLINE
  5
33C
100
AcDbEntity
  8
0
100
AcDbSpline
 62
7
  6
CONTINUOUS
 70
0
 71
3
 72
8
 73
4
 74
0
 42
0.0000001
 43
0.0000001
 44
0.0000000001
 40
0.0
 40
0.0
 40
0.0
 40
0.0
 40
1.0
 40
1.0
 40
1.0
 40
1.0
 10
480.2825486974
 20
1621.1627820218
 30
0.0
 10
480.1512160298
 20
1621.1042615123
 30
0.0
 10
480.0224595868
 20
1621.0393937477
 30
0.0
 10
479.8979415722
 20
1620.9675036676
 30
0.0
  0
SPLINE
  5
33D
100
AcDbEntity
  8
0
100
AcDbSpline
 62
7
  6
CONTINUOUS
 70
0
 71
3
 72
8
 73
4
 74
0
 42
0.0000001
 43
0.0000001
 44
0.0000000001
 40
0.0
 40
0.0
 40
0.0
 40
0.0
 40
1.0
 40
1.0
 40
1.0
 40
1.0
 10
808.7775029552
 20
208.2961522758
 30
0.0
 10
808.9669269859
 20
208.4053713028
 30
0.0
 10
809.1753669527
 20
208.485743001
 30
0.0
 10
809.3883471383
 20
208.5352374431
 30
0.0
  0
SPLINE
  5
33E
100
AcDbEntity
  8
0
100
AcDbSpline
 62
7
  6
CONTINUOUS
 70
0
 71
3
 72
9
 73
5
 74
0
 42
0.0000001
 43
0.0000001
 44
0.0000000001
 40
0.0
 40
0.0
 40
0.0
 40
0.0
 40
0.223710445
 40
1.0
 40
1.0
 40
1.0
 40
1.0
 10
809.6162903273
 20
208.5768712163
 30
0.0
 10
809.8004413436
 20
208.601691997
 30
0.0
 10
810.6368064633
 20
208.6212092431
 30
0.0
 10
811.4499661867
 20
208.3050138713
 30
0.0
 10
812.0094691825
 20
207.9845206205
 30
0.0
  0
SPLINE
  5
33F
100
AcDbEntity
  8
0
100
AcDbSpline
 62
7
  6
CONTINUOUS
 70
0
 71
3
 72
9
 73
5
 74
0
 42
0.0000001
 43
0.0000001
 44
0.0000000001
 40
0.0
 40
0.0
 40
0.0
 40
0.0
 40
0.4997026044
 40
1.0
 40
1.0
 40
1.0
 40
1.0
 10
812.0094691825
 20
207.9845206205
 30
0.0
 10
813.3784038871
 20
207.2003705144
 30
0.0
 10
815.5426391933
 20
204.709537044
 30
0.0
 10
816.6236515665
 20
201.5929946967
 30
0.0
 10
816.6236515665
 20
200.0135004403
 30
0.0
  0
SPLINE
  5
340
100
AcDbEntity
  8
0
100
AcDbSpline
 62
7
  6
CONTINUOUS
 70
0
 71
3
 72
9
 73
5
 74
0
 42
0.0000001
 43
0.0000001
 44
0.0000000001
 40
0.0
 40
0.0
 40
0.0
 40
0.0
 40
0.2236097662
 40
1.0
 40
1.0
 40
1.0
 40
1.0
 10
809.177269126
 20
208.3254020545
 30
0.0
 10
809.0624978201
 20
208.1771238416
 30
0.0
 10
808.6237908618
 20
207.4552713214
 30
0.0
 10
808.4918808954
 20
206.5840352002
 30
0.0
 10
808.4918808954
 20
205.9329964799
 30
0.0
  0
SPLINE
  5
341
100
AcDbEntity
  8
0
100
AcDbSpline
 62
7
  6
CONTINUOUS
 70
0
 71
3
 72
8
 73
4
 74
0
 42
0.0000001
 43
0.0000001
 44
0.0000000001
 40
0.0
 40
0.0
 40
0.0
 40
0.0
 40
1.0
 40
1.0
 40
1.0
 40
1.0
 10
808.7775029552
 20
1004.3860089771
 30
0.0
 10
808.9669269859
 20
1004.4952280041
 30
0.0
 10
809.1753669527
 20
1004.5755997024
 30
0.0
 10
809.3883471383
 20
1004.6250941445
 30
0.0
  0
SPLINE
  5
342
100
AcDbEntity
  8
0
100
AcDbSpline
 62
7
  6
CONTINUOUS
 70
0
 71
3
 72
9
 73
5
 74
0
 42
0.0000001
 43
0.0000001
 44
0.0000000001
 40
0.0
 40
0.0
 40
0.0
 40
0.0
 40
0.223710445
 40
1.0
 40
1.0
 40
1.0
 40
1.0
 10
809.6162903273
 20
1004.6667279176
 30
0.0
 10
809.8004413436
 20
1004.6915486984
 30
0.0
 10
810.6368064633
 20
1004.7110659445
 30
0.0
 10
811.4499661867
 20
1004.3948705726
 30
0.0
 10
812.0094691825
 20
1004.0743773219
 30
0.0
  0
SPLINE
  5
343
100
AcDbEntity
  8
0
100
AcDbSpline
 62
7
  6
CONTINUOUS
 70
0
 71
3
 72
9
 73
5
 74
0
 42
0.0000001
 43
0.0000001
 44
0.0000000001
 40
0.0
 40
0.0
 40
0.0
 40
0.0
 40
0.4997026044
 40
1.0
 40
1.0
 40
1.0
 40
1.0
 10
812.0094691825
 20
1004.0743773219
 30
0.0
 10
813.3784038871
 20
1003.2902272157
 30
0.0
 10
815.5426391933
 20
1000.7993937454
 30
0.0
 10
816.6236515665
 20
997.682851398
 30
0.0
 10
816.6236515665
 20
996.1033571417
 30
0.0
  0
SPLINE
  5
344
100
AcDbEntity
  8
0
100
AcDbSpline
 62
7
  6
CONTINUOUS
 70
0
 71
3
 72
9
 73
5
 74
0
 42
0.0000001
 43
0.0000001
 44
0.0000000001
 40
0.0
 40
0.0
 40
0.0
 40
0.0
 40
0.2236097662
 40
1.0
 40
1.0
 40
1.0
 40
1.0
 10
809.177269126
 20
1004.4152587558
 30
0.0
 10
809.0624978201
 20
1004.266980543
 30
0.0
 10
808.6237908618
 20
1003.5451280228
 30
0.0
 10
808.4918808954
 20
1002.6738919016
 30
0.0
 10
808.4918808954
 20
1002.0228531812
 30
0.0
  0
SPLINE
  5
345
100
AcDbEntity
  8
0
100
AcDbSpline
 62
7
  6
CONTINUOUS
 70
0
 71
3
 72
8
 73
4
 74
0
 42
0.0000001
 43
0.0000001
 44
0.0000000001
 40
0.0
 40
0.0
 40
0.0
 40
0.0
 40
1.0
 40
1.0
 40
1.0
 40
1.0
 10
808.7775029552
 20
575.7222399841
 30
0.0
 10
808.9669269859
 20
575.8314590111
 30
0.0
 10
809.1753669527
 20
575.9118307093
 30
0.0
 10
809.3883471383
 20
575.9613251514
 30
0.0
  0
SPLINE
  5
346
100
AcDbEntity
  8
0
100
AcDbSpline
 62
7
  6
CONTINUOUS
 70
0
 71
3
 72
9
 73
5
 74
0
 42
0.0000001
 43
0.0000001
 44
0.0000000001
 40
0.0
 40
0.0
 40
0.0
 40
0.0
 40
0.223710445
 40
1.0
 40
1.0
 40
1.0
 40
1.0
 10
809.6162903273
 20
576.0029589246
 30
0.0
 10
809.8004413436
 20
576.0277797054
 30
0.0
 10
810.6368064633
 20
576.0472969515
 30
0.0
 10
811.4499661867
 20
575.7311015796
 30
0.0
 10
812.0094691825
 20
575.4106083288
 30
0.0
  0
SPLINE
  5
347
100
AcDbEntity
  8
0
100
AcDbSpline
 62
7
  6
CONTINUOUS
 70
0
 71
3
 72
9
 73
5
 74
0
 42
0.0000001
 43
0.0000001
 44
0.0000000001
 40
0.0
 40
0.0
 40
0.0
 40
0.0
 40
0.4997026044
 40
1.0
 40
1.0
 40
1.0
 40
1.0
 10
812.0094691825
 20
575.4106083288
 30
0.0
 10
813.3784038871
 20
574.6264582227
 30
0.0
 10
815.5426391933
 20
572.1356247523
 30
0.0
 10
816.6236515665
 20
569.019082405
 30
0.0
 10
816.6236515665
 20
567.4395881486
 30
0.0
  0
SPLINE
  5
348
100
AcDbEntity
  8
0
100
AcDbSpline
 62
7
  6
CONTINUOUS
 70
0
 71
3
 72
9
 73
5
 74
0
 42
0.0000001
 43
0.0000001
 44
0.0000000001
 40
0.0
 40
0.0
 40
0.0
 40
0.0
 40
0.2236097662
 40
1.0
 40
1.0
 40
1.0
 40
1.0
 10
809.177269126
 20
575.7514897628
 30
0.0
 10
809.0624978201
 20
575.6032115499
 30
0.0
 10
808.6237908618
 20
574.8813590297
 30
0.0
 10
808.4918808954
 20
574.0101229085
 30
0.0
 10
808.4918808954
 20
573.3590841882
 30
0.0
  0
SPLINE
  5
349
100
AcDbEntity
  8
0
100
AcDbSpline
 62
7
  6
CONTINUOUS
 70
0
 71
3
 72
8
 73
4
 74
0
 42
0.0000001
 43
0.0000001
 44
0.0000000001
 40
0.0
 40
0.0
 40
0.0
 40
0.0
 40
1.0
 40
1.0
 40
1.0
 40
1.0
 10
769.2652435496
 20
1455.2318120864
 30
0.0
 10
769.4187044787
 20
1455.2402054503
 30
0.0
 10
769.5725313889
 20
1455.2428457313
 30
0.0
 10
769.7262148294
 20
1455.2413947245
 30
0.0
  0
SPLINE
  5
34A
100
AcDbEntity
  8
0
100
AcDbSpline
 62
7
  6
CONTINUOUS
 70
0
 71
3
 72
9
 73
5
 74
0
 42
0.0000001
 43
0.0000001
 44
0.0000000001
 40
0.0
 40
0.0
 40
0.0
 40
0.0
 40
0.2293767747
 40
1.0
 40
1.0
 40
1.0
 40
1.0
 10
485.5547958216
 20
1620.967517265
 30
0.0
 10
485.290524454
 20
1621.1200909585
 30
0.0
 10
484.0604133799
 20
1621.644902373
 30
0.0
 10
482.6618243897
 20
1621.7219888647
 30
0.0
 10
481.6497128045
 20
1621.5586781161
 30
0.0
  0
SPLINE
  5
34B
100
AcDbEntity
  8
0
100
AcDbSpline
 62
7
  6
CONTINUOUS
 70
0
 71
3
 72
9
 73
5
 74
0
 42
0.0000001
 43
0.0000001
 44
0.0000000001
 40
0.0
 40
0.0
 40
0.0
 40
0.0
 40
0.2293767747
 40
1.0
 40
1.0
 40
1.0
 40
1.0
 10
773.6312978465
 20
1454.6502338734
 30
0.0
 10
773.3670264789
 20
1454.8028075669
 30
0.0
 10
772.1369154048
 20
1455.3276189814
 30
0.0
 10
770.7383264145
 20
1455.4047054731
 30
0.0
 10
769.7262148294
 20
1455.2413947245
 30
0.0
  0
SPLINE
  5
34C
100
AcDbEntity
  8
0
100
AcDbSpline
 62
7
  6
CONTINUOUS
 70
0
 71
3
 72
9
 73
5
 74
0
 42
0.0000001
 43
0.0000001
 44
0.0000000001
 40
0.0
 40
0.0
 40
0.0
 40
0.0
 40
0.7053985205
 40
1.0
 40
1.0
 40
1.0
 40
1.0
 10
830.0635320462
 20
1389.3699095912
 30
0.0
 10
830.0636460571
 20
1389.6722223547
 30
0.0
 10
829.7921525083
 20
1390.0909813799
 30
0.0
 10
829.4405134918
 20
1390.327394678
 30
0.0
 10
829.3311707447
 20
1390.3905223143
 30
0.0
  0
SPLINE
  5
34D
100
AcDbEntity
  8
0
100
AcDbSpline
 62
7
  6
CONTINUOUS
 70
0
 71
3
 72
8
 73
4
 74
0
 42
0.0000001
 43
0.0000001
 44
0.0000000001
 40
0.0
 40
0.0
 40
0.0
 40
0.0
 40
1.0
 40
1.0
 40
1.0
 40
1.0
 10
830.0635320213
 20
186.035615801
 30
0.0
 10
830.0634243011
 20
185.7509330992
 30
0.0
 10
829.8926318553
 20
185.4639546284
 30
0.0
 10
829.6835369077
 20
185.2707615769
 30
0.0
  0
SPLINE
  5
34E
100
AcDbEntity
  8
0
100
AcDbSpline
 62
7
  6
CONTINUOUS
 70
0
 71
3
 72
8
 73
4
 74
0
 42
0.0000001
 43
0.0000001
 44
0.0000000001
 40
0.0
 40
0.0
 40
0.0
 40
0.0
 40
1.0
 40
1.0
 40
1.0
 40
1.0
 10
481.1887415247
 20
1621.5490954779
 30
0.0
 10
481.3422024538
 20
1621.5574888419
 30
0.0
 10
481.496029364
 20
1621.5601291229
 30
0.0
 10
481.6497128045
 20
1621.5586781161
 30
0.0
  0
SPLINE
  5
34F
100
AcDbEntity
  8
0
100
AcDbSpline
 62
7
  6
CONTINUOUS
 70
0
 71
3
 72
8
 73
4
 74
0
 42
0.0000001
 43
0.0000001
 44
0.0000000001
 40
0.0
 40
0.0
 40
0.0
 40
0.0
 40
1.0
 40
1.0
 40
1.0
 40
1.0
 10
808.7775029552
 20
1371.8120966854
 30
0.0
 10
808.9669269859
 20
1371.9213157124
 30
0.0
 10
809.1753669527
 20
1372.0016874107
 30
0.0
 10
809.3883471383
 20
1372.0511818528
 30
0.0
  0
SPLINE
  5
350
100
AcDbEntity
  8
0
100
AcDbSpline
 62
7
  6
CONTINUOUS
 70
0
 71
3
 72
9
 73
5
 74
0
 42
0.0000001
 43
0.0000001
 44
0.0000000001
 40
0.0
 40
0.0
 40
0.0
 40
0.0
 40
0.223710445
 40
1.0
 40
1.0
 40
1.0
 40
1.0
 10
809.6162903273
 20
1372.0928156259
 30
0.0
 10
809.8004413436
 20
1372.1176364067
 30
0.0
 10
810.6368064633
 20
1372.1371536528
 30
0.0
 10
811.4499661867
 20
1371.8209582809
 30
0.0
 10
812.0094691825
 20
1371.5004650302
 30
0.0
  0
SPLINE
  5
351
100
AcDbEntity
  8
0
100
AcDbSpline
 62
7
  6
CONTINUOUS
 70
0
 71
3
 72
9
 73
5
 74
0
 42
0.0000001
 43
0.0000001
 44
0.0000000001
 40
0.0
 40
0.0
 40
0.0
 40
0.0
 40
0.4997026044
 40
1.0
 40
1.0
 40
1.0
 40
1.0
 10
812.0094691825
 20
1371.5004650302
 30
0.0
 10
813.3784038871
 20
1370.716314924
 30
0.0
 10
815.5426391933
 20
1368.2254814537
 30
0.0
 10
816.6236515665
 20
1365.1089391063
 30
0.0
 10
816.6236515665
 20
1363.52944485
 30
0.0
  0
SPLINE
  5
352
100
AcDbEntity
  8
0
100
AcDbSpline
 62
7
  6
CONTINUOUS
 70
0
 71
3
 72
9
 73
5
 74
0
 42
0.0000001
 43
0.0000001
 44
0.0000000001
 40
0.0
 40
0.0
 40
0.0
 40
0.0
 40
0.2236097662
 40
1.0
 40
1.0
 40
1.0
 40
1.0
 10
809.177269126
 20
1371.8413464641
 30
0.0
 10
809.0624978201
 20
1371.6930682513
 30
0.0
 10
808.6237908618
 20
1370.9712157311
 30
0.0
 10
808.4918808954
 20
1370.0999796099
 30
0.0
 10
808.4918808954
 20
1369.4489408895
 30
0.0
  0
SPLINE
  5
353
100
AcDbEntity
  8
0
100
AcDbSpline
 62
7
  6
CONTINUOUS
 70
0
 71
3
 72
8
 73
4
 74
0
 42
0.0000001
 43
0.0000001
 44
0.0000000001
 40
0.0
 40
0.0
 40
0.0
 40
0.0
 40
1.0
 40
1.0
 40
1.0
 40
1.0
 10
487.7728903138
 20
1619.485198154
 30
0.0
 10
487.5554958674
 20
1619.7568620982
 30
0.0
 10
487.2703411088
 20
1619.9770691386
 30
0.0
 10
486.9690152719
 20
1620.1510357559
 30
0.0
  0
SPLINE
  5
354
100
AcDbEntity
  8
0
100
AcDbSpline
 62
7
  6
CONTINUOUS
 70
0
 71
3
 72
8
 73
4
 74
0
 42
0.0000001
 43
0.0000001
 44
0.0000000001
 40
0.0
 40
0.0
 40
0.0
 40
0.0
 40
1.0
 40
1.0
 40
1.0
 40
1.0
 10
775.8493923387
 20
1453.1679147625
 30
0.0
 10
775.6319978923
 20
1453.4395787066
 30
0.0
 10
775.3468431336
 20
1453.659785747
 30
0.0
 10
775.0455172968
 20
1453.8337523644
 30
0.0
  0
SPLINE
  5
355
100
AcDbEntity
  8
0
100
AcDbSpline
 62
7
  6
CONTINUOUS
 70
0
 71
3
 72
9
 73
5
 74
0
 42
0.0000001
 43
0.0000001
 44
0.0000000001
 40
0.0
 40
0.0
 40
0.0
 40
0.0
 40
0.4997671378
 40
1.0
 40
1.0
 40
1.0
 40
1.0
 10
808.4918808954
 20
1369.4489408895
 30
0.0
 10
808.4918808954
 20
1367.8777468398
 30
0.0
 10
809.5638568383
 20
1364.7733981237
 30
0.0
 10
811.710823157
 20
1362.289588045
 30
0.0
 10
813.0701249383
 20
1361.4986692509
 30
0.0
  0
SPLINE
  5
356
100
AcDbEntity
  8
0
100
AcDbSpline
 62
7
  6
CONTINUOUS
 70
0
 71
3
 72
9
 73
5
 74
0
 42
0.0000001
 43
0.0000001
 44
0.0000000001
 40
0.0
 40
0.0
 40
0.0
 40
0.0
 40
0.2819479132
 40
1.0
 40
1.0
 40
1.0
 40
1.0
 10
813.0701249383
 20
1361.4986692509
 30
0.0
 10
813.2760244025
 20
1361.3788652764
 30
0.0
 10
814.0259278985
 20
1360.997264977
 30
0.0
 10
814.9045154444
 20
1360.8039630621
 30
0.0
 10
815.505560328
 20
1360.8864704915
 30
0.0
  0
SPLINE
  5
357
100
AcDbEntity
  8
0
100
AcDbSpline
 62
7
  6
CONTINUOUS
 70
0
 71
3
 72
9
 73
5
 74
0
 42
0.0000001
 43
0.0000001
 44
0.0000000001
 40
0.0
 40
0.0
 40
0.0
 40
0.0
 40
0.4997671378
 40
1.0
 40
1.0
 40
1.0
 40
1.0
 10
808.4918808954
 20
573.3590841882
 30
0.0
 10
808.4918808954
 20
571.7878901385
 30
0.0
 10
809.5638568383
 20
568.6835414224
 30
0.0
 10
811.710823157
 20
566.1997313436
 30
0.0
 10
813.0701249383
 20
565.4088125495
 30
0.0
  0
SPLINE
  5
358
100
AcDbEntity
  8
0
100
AcDbSpline
 62
7
  6
CONTINUOUS
 70
0
 71
3
 72
9
 73
5
 74
0
 42
0.0000001
 43
0.0000001
 44
0.0000000001
 40
0.0
 40
0.0
 40
0.0
 40
0.0
 40
0.2819479132
 40
1.0
 40
1.0
 40
1.0
 40
1.0
 10
813.0701249383
 20
565.4088125495
 30
0.0
 10
813.2760244025
 20
565.289008575
 30
0.0
 10
814.0259278985
 20
564.9074082757
 30
0.0
 10
814.9045154444
 20
564.7141063607
 30
0.0
 10
815.505560328
 20
564.7966137901
 30
0.0
  0
SPLINE
  5
359
100
AcDbEntity
  8
0
100
AcDbSpline
 62
7
  6
CONTINUOUS
 70
0
 71
3
 72
9
 73
5
 74
0
 42
0.0000001
 43
0.0000001
 44
0.0000000001
 40
0.0
 40
0.0
 40
0.0
 40
0.0
 40
0.4997671378
 40
1.0
 40
1.0
 40
1.0
 40
1.0
 10
808.4918808954
 20
1002.0228531812
 30
0.0
 10
808.4918808954
 20
1000.4516591315
 30
0.0
 10
809.5638568383
 20
997.3473104154
 30
0.0
 10
811.710823157
 20
994.8635003367
 30
0.0
 10
813.0701249383
 20
994.0725815426
 30
0.0
  0
SPLINE
  5
35A
100
AcDbEntity
  8
0
100
AcDbSpline
 62
7
  6
CONTINUOUS
 70
0
 71
3
 72
9
 73
5
 74
0
 42
0.0000001
 43
0.0000001
 44
0.0000000001
 40
0.0
 40
0.0
 40
0.0
 40
0.0
 40
0.2819479132
 40
1.0
 40
1.0
 40
1.0
 40
1.0
 10
813.0701249383
 20
994.0725815426
 30
0.0
 10
813.2760244025
 20
993.9527775681
 30
0.0
 10
814.0259278985
 20
993.5711772687
 30
0.0
 10
814.9045154444
 20
993.3778753537
 30
0.0
 10
815.505560328
 20
993.4603827831
 30
0.0
  0
SPLINE
  5
35B
100
AcDbEntity
  8
0
100
AcDbSpline
 62
7
  6
CONTINUOUS
 70
0
 71
3
 72
9
 73
5
 74
0
 42
0.0000001
 43
0.0000001
 44
0.0000000001
 40
0.0
 40
0.0
 40
0.0
 40
0.0
 40
0.4997671378
 40
1.0
 40
1.0
 40
1.0
 40
1.0
 10
808.4918808954
 20
205.9329964799
 30
0.0
 10
808.4918808954
 20
204.3618024302
 30
0.0
 10
809.5638568383
 20
201.257453714
 30
0.0
 10
811.710823157
 20
198.7736436353
 30
0.0
 10
813.0701249383
 20
197.9827248412
 30
0.0
  0
SPLINE
  5
35C
100
AcDbEntity
  8
0
100
AcDbSpline
 62
7
  6
CONTINUOUS
 70
0
 71
3
 72
9
 73
5
 74
0
 42
0.0000001
 43
0.0000001
 44
0.0000000001
 40
0.0
 40
0.0
 40
0.0
 40
0.0
 40
0.2819479132
 40
1.0
 40
1.0
 40
1.0
 40
1.0
 10
813.0701249383
 20
197.9827248412
 30
0.0
 10
813.2760244025
 20
197.8629208667
 30
0.0
 10
814.0259278985
 20
197.4813205674
 30
0.0
 10
814.9045154444
 20
197.2880186524
 30
0.0
 10
815.505560328
 20
197.3705260818
 30
0.0
  0
SPLINE
  5
35D
100
AcDbEntity
  8
0
100
AcDbSpline
 62
7
  6
CONTINUOUS
 70
0
 71
3
 72
9
 73
5
 74
0
 42
0.0000001
 43
0.0000001
 44
0.0000000001
 40
0.0
 40
0.0
 40
0.0
 40
0.0
 40
0.4997671378
 40
1.0
 40
1.0
 40
1.0
 40
1.0
 10
425.2384098658
 20
1590.7154298395
 30
0.0
 10
425.2384098658
 20
1589.1442357898
 30
0.0
 10
426.3103858086
 20
1586.0398870737
 30
0.0
 10
428.4573521273
 20
1583.556076995
 30
0.0
 10
429.8166539086
 20
1582.7651582009
 30
0.0
  0
SPLINE
  5
35E
100
AcDbEntity
  8
0
100
AcDbSpline
 62
7
  6
CONTINUOUS
 70
0
 71
3
 72
9
 73
5
 74
0
 42
0.0000001
 43
0.0000001
 44
0.0000000001
 40
0.0
 40
0.0
 40
0.0
 40
0.0
 40
0.2819479132
 40
1.0
 40
1.0
 40
1.0
 40
1.0
 10
429.8166539086
 20
1582.7651582009
 30
0.0
 10
430.0225533728
 20
1582.6453542264
 30
0.0
 10
430.7724568688
 20
1582.263753927
 30
0.0
 10
431.6510444148
 20
1582.0704520121
 30
0.0
 10
432.2520892983
 20
1582.1529594415
 30
0.0
  0
SPLINE
  5
35F
100
AcDbEntity
  8
0
100
AcDbSpline
 62
7
  6
CONTINUOUS
 70
0
 71
3
 72
9
 73
5
 74
0
 42
0.0000001
 43
0.0000001
 44
0.0000000001
 40
0.0
 40
0.0
 40
0.0
 40
0.0
 40
0.4997671378
 40
1.0
 40
1.0
 40
1.0
 40
1.0
 10
425.2384098658
 20
794.6255731382
 30
0.0
 10
425.2384098658
 20
793.0543790885
 30
0.0
 10
426.3103858086
 20
789.9500303724
 30
0.0
 10
428.4573521273
 20
787.4662202936
 30
0.0
 10
429.8166539086
 20
786.6753014995
 30
0.0
  0
SPLINE
  5
360
100
AcDbEntity
  8
0
100
AcDbSpline
 62
7
  6
CONTINUOUS
 70
0
 71
3
 72
9
 73
5
 74
0
 42
0.0000001
 43
0.0000001
 44
0.0000000001
 40
0.0
 40
0.0
 40
0.0
 40
0.0
 40
0.2819479132
 40
1.0
 40
1.0
 40
1.0
 40
1.0
 10
429.8166539086
 20
786.6753014995
 30
0.0
 10
430.0225533728
 20
786.5554975251
 30
0.0
 10
430.7724568688
 20
786.1738972257
 30
0.0
 10
431.6510444148
 20
785.9805953107
 30
0.0
 10
432.2520892983
 20
786.0631027401
 30
0.0
  0
SPLINE
  5
361
100
AcDbEntity
  8
0
100
AcDbSpline
 62
7
  6
CONTINUOUS
 70
0
 71
3
 72
9
 73
5
 74
0
 42
0.0000001
 43
0.0000001
 44
0.0000000001
 40
0.0
 40
0.0
 40
0.0
 40
0.0
 40
0.4997671378
 40
1.0
 40
1.0
 40
1.0
 40
1.0
 10
425.2384098658
 20
1223.2893421312
 30
0.0
 10
425.2384098658
 20
1221.7181480815
 30
0.0
 10
426.3103858086
 20
1218.6137993654
 30
0.0
 10
428.4573521273
 20
1216.1299892867
 30
0.0
 10
429.8166539086
 20
1215.3390704926
 30
0.0
  0
SPLINE
  5
362
100
AcDbEntity
  8
0
100
AcDbSpline
 62
7
  6
CONTINUOUS
 70
0
 71
3
 72
9
 73
5
 74
0
 42
0.0000001
 43
0.0000001
 44
0.0000000001
 40
0.0
 40
0.0
 40
0.0
 40
0.0
 40
0.2819479132
 40
1.0
 40
1.0
 40
1.0
 40
1.0
 10
429.8166539086
 20
1215.3390704926
 30
0.0
 10
430.0225533728
 20
1215.2192665181
 30
0.0
 10
430.7724568688
 20
1214.8376662187
 30
0.0
 10
431.6510444148
 20
1214.6443643037
 30
0.0
 10
432.2520892983
 20
1214.7268717332
 30
0.0
  0
SPLINE
  5
363
100
AcDbEntity
  8
0
100
AcDbSpline
 62
7
  6
CONTINUOUS
 70
0
 71
3
 72
9
 73
5
 74
0
 42
0.0000001
 43
0.0000001
 44
0.0000000001
 40
0.0
 40
0.0
 40
0.0
 40
0.0
 40
0.4997671378
 40
1.0
 40
1.0
 40
1.0
 40
1.0
 10
425.2384098658
 20
427.1994854299
 30
0.0
 10
425.2384098658
 20
425.6282913802
 30
0.0
 10
426.3103858086
 20
422.523942664
 30
0.0
 10
428.4573521273
 20
420.0401325853
 30
0.0
 10
429.8166539086
 20
419.2492137912
 30
0.0
  0
SPLINE
  5
364
100
AcDbEntity
  8
0
100
AcDbSpline
 62
7
  6
CONTINUOUS
 70
0
 71
3
 72
9
 73
5
 74
0
 42
0.0000001
 43
0.0000001
 44
0.0000000001
 40
0.0
 40
0.0
 40
0.0
 40
0.0
 40
0.2819479132
 40
1.0
 40
1.0
 40
1.0
 40
1.0
 10
429.8166539086
 20
419.2492137912
 30
0.0
 10
430.0225533728
 20
419.1294098167
 30
0.0
 10
430.7724568688
 20
418.7478095174
 30
0.0
 10
431.6510444148
 20
418.5545076024
 30
0.0
 10
432.2520892983
 20
418.6370150318
 30
0.0
  0
SPLINE
  5
365
100
AcDbEntity
  8
0
100
AcDbSpline
 62
7
  6
CONTINUOUS
 70
0
 71
3
 72
9
 73
5
 74
0
 42
0.0000001
 43
0.0000001
 44
0.0000000001
 40
0.0
 40
0.0
 40
0.0
 40
0.0
 40
0.2807306068
 40
1.0
 40
1.0
 40
1.0
 40
1.0
 10
816.6236515665
 20
1363.52944485
 30
0.0
 10
816.6236515665
 20
1363.2944375448
 30
0.0
 10
816.5762462987
 20
1362.462082304
 30
0.0
 10
816.3068450086
 20
1361.6132558683
 30
0.0
 10
815.9383237323
 20
1361.1370828192
 30
0.0
  0
SPLINE
  5
366
100
AcDbEntity
  8
0
100
AcDbSpline
 62
7
  6
CONTINUOUS
 70
0
 71
3
 72
8
 73
4
 74
0
 42
0.0000001
 43
0.0000001
 44
0.0000000001
 40
0.0
 40
0.0
 40
0.0
 40
0.0
 40
1.0
 40
1.0
 40
1.0
 40
1.0
 10
815.7903491601
 20
1360.9631347588
 30
0.0
 10
815.6409134046
 20
1360.8034062484
 30
0.0
 10
815.4668650895
 20
1360.663180659
 30
0.0
 10
815.2773737509
 20
1360.5539228233
 30
0.0
  0
SPLINE
  5
367
100
AcDbEntity
  8
0
100
AcDbSpline
 62
7
  6
CONTINUOUS
 70
0
 71
3
 72
9
 73
5
 74
0
 42
0.0000001
 43
0.0000001
 44
0.0000000001
 40
0.0
 40
0.0
 40
0.0
 40
0.0
 40
0.2807306068
 40
1.0
 40
1.0
 40
1.0
 40
1.0
 10
816.6236515665
 20
567.4395881486
 30
0.0
 10
816.6236515665
 20
567.2045808434
 30
0.0
 10
816.5762462987
 20
566.3722256026
 30
0.0
 10
816.3068450086
 20
565.523399167
 30
0.0
 10
815.9383237323
 20
565.0472261178
 30
0.0
  0
SPLINE
  5
368
100
AcDbEntity
  8
0
100
AcDbSpline
 62
7
  6
CONTINUOUS
 70
0
 71
3
 72
8
 73
4
 74
0
 42
0.0000001
 43
0.0000001
 44
0.0000000001
 40
0.0
 40
0.0
 40
0.0
 40
0.0
 40
1.0
 40
1.0
 40
1.0
 40
1.0
 10
815.7903491601
 20
564.8732780575
 30
0.0
 10
815.6409134046
 20
564.713549547
 30
0.0
 10
815.4668650895
 20
564.5733239577
 30
0.0
 10
815.2773737509
 20
564.4640661219
 30
0.0
  0
SPLINE
  5
369
100
AcDbEntity
  8
0
100
AcDbSpline
 62
7
  6
CONTINUOUS
 70
0
 71
3
 72
9
 73
5
 74
0
 42
0.0000001
 43
0.0000001
 44
0.0000000001
 40
0.0
 40
0.0
 40
0.0
 40
0.0
 40
0.2807306068
 40
1.0
 40
1.0
 40
1.0
 40
1.0
 10
816.6236515665
 20
996.1033571417
 30
0.0
 10
816.6236515665
 20
995.8683498364
 30
0.0
 10
816.5762462987
 20
995.0359945957
 30
0.0
 10
816.3068450086
 20
994.18716816
 30
0.0
 10
815.9383237323
 20
993.7109951109
 30
0.0
  0
SPLINE
  5
36A
100
AcDbEntity
  8
0
100
AcDbSpline
 62
7
  6
CONTINUOUS
 70
0
 71
3
 72
8
 73
4
 74
0
 42
0.0000001
 43
0.0000001
 44
0.0000000001
 40
0.0
 40
0.0
 40
0.0
 40
0.0
 40
1.0
 40
1.0
 40
1.0
 40
1.0
 10
815.7903491601
 20
993.5370470505
 30
0.0
 10
815.6409134046
 20
993.37731854
 30
0.0
 10
815.4668650895
 20
993.2370929507
 30
0.0
 10
815.2773737509
 20
993.127835115
 30
0.0
  0
SPLINE
  5
36B
100
AcDbEntity
  8
0
100
AcDbSpline
 62
7
  6
CONTINUOUS
 70
0
 71
3
 72
9
 73
5
 74
0
 42
0.0000001
 43
0.0000001
 44
0.0000000001
 40
0.0
 40
0.0
 40
0.0
 40
0.0
 40
0.2807306068
 40
1.0
 40
1.0
 40
1.0
 40
1.0
 10
816.6236515665
 20
200.0135004403
 30
0.0
 10
816.6236515665
 20
199.7784931351
 30
0.0
 10
816.5762462987
 20
198.9461378943
 30
0.0
 10
816.3068450086
 20
198.0973114587
 30
0.0
 10
815.9383237323
 20
197.6211384095
 30
0.0
  0
SPLINE
  5
36C
100
AcDbEntity
  8
0
100
AcDbSpline
 62
7
  6
CONTINUOUS
 70
0
 71
3
 72
8
 73
4
 74
0
 42
0.0000001
 43
0.0000001
 44
0.0000000001
 40
0.0
 40
0.0
 40
0.0
 40
0.0
 40
1.0
 40
1.0
 40
1.0
 40
1.0
 10
815.7903491601
 20
197.4471903491
 30
0.0
 10
815.6409134046
 20
197.2874618387
 30
0.0
 10
815.4668650895
 20
197.1472362494
 30
0.0
 10
815.2773737509
 20
197.0379784136
 30
0.0
  0
SPLINE
  5
36D
100
AcDbEntity
  8
0
100
AcDbSpline
 62
7
  6
CONTINUOUS
 70
0
 71
3
 72
9
 73
5
 74
0
 42
0.0000001
 43
0.0000001
 44
0.0000000001
 40
0.0
 40
0.0
 40
0.0
 40
0.0
 40
0.2807306068
 40
1.0
 40
1.0
 40
1.0
 40
1.0
 10
433.3701805368
 20
1584.7959338
 30
0.0
 10
433.3701805368
 20
1584.5609264948
 30
0.0
 10
433.322775269
 20
1583.728571254
 30
0.0
 10
433.053373979
 20
1582.8797448183
 30
0.0
 10
432.6848527026
 20
1582.4035717692
 30
0.0
  0
SPLINE
  5
36E
100
AcDbEntity
  8
0
100
AcDbSpline
 62
7
  6
CONTINUOUS
 70
0
 71
3
 72
8
 73
4
 74
0
 42
0.0000001
 43
0.0000001
 44
0.0000000001
 40
0.0
 40
0.0
 40
0.0
 40
0.0
 40
1.0
 40
1.0
 40
1.0
 40
1.0
 10
432.5368781305
 20
1582.2296237088
 30
0.0
 10
432.3874423749
 20
1582.0698951984
 30
0.0
 10
432.2133940598
 20
1581.929669609
 30
0.0
 10
432.0239027212
 20
1581.8204117733
 30
0.0
  0
SPLINE
  5
36F
100
AcDbEntity
  8
0
100
AcDbSpline
 62
7
  6
CONTINUOUS
 70
0
 71
3
 72
9
 73
5
 74
0
 42
0.0000001
 43
0.0000001
 44
0.0000000001
 40
0.0
 40
0.0
 40
0.0
 40
0.0
 40
0.2807306068
 40
1.0
 40
1.0
 40
1.0
 40
1.0
 10
433.3701805368
 20
788.7060770986
 30
0.0
 10
433.3701805368
 20
788.4710697934
 30
0.0
 10
433.322775269
 20
787.6387145526
 30
0.0
 10
433.053373979
 20
786.789888117
 30
0.0
 10
432.6848527026
 20
786.3137150679
 30
0.0
  0
SPLINE
  5
370
100
AcDbEntity
  8
0
100
AcDbSpline
 62
7
  6
CONTINUOUS
 70
0
 71
3
 72
8
 73
4
 74
0
 42
0.0000001
 43
0.0000001
 44
0.0000000001
 40
0.0
 40
0.0
 40
0.0
 40
0.0
 40
1.0
 40
1.0
 40
1.0
 40
1.0
 10
432.5368781305
 20
786.1397670075
 30
0.0
 10
432.3874423749
 20
785.980038497
 30
0.0
 10
432.2133940598
 20
785.8398129077
 30
0.0
 10
432.0239027212
 20
785.7305550719
 30
0.0
  0
SPLINE
  5
371
100
AcDbEntity
  8
0
100
AcDbSpline
 62
7
  6
CONTINUOUS
 70
0
 71
3
 72
9
 73
5
 74
0
 42
0.0000001
 43
0.0000001
 44
0.0000000001
 40
0.0
 40
0.0
 40
0.0
 40
0.0
 40
0.2807306068
 40
1.0
 40
1.0
 40
1.0
 40
1.0
 10
433.3701805368
 20
1217.3698460917
 30
0.0
 10
433.3701805368
 20
1217.1348387865
 30
0.0
 10
433.322775269
 20
1216.3024835457
 30
0.0
 10
433.053373979
 20
1215.45365711
 30
0.0
 10
432.6848527026
 20
1214.9774840609
 30
0.0
  0
SPLINE
  5
372
100
AcDbEntity
  8
0
100
AcDbSpline
 62
7
  6
CONTINUOUS
 70
0
 71
3
 72
8
 73
4
 74
0
 42
0.0000001
 43
0.0000001
 44
0.0000000001
 40
0.0
 40
0.0
 40
0.0
 40
0.0
 40
1.0
 40
1.0
 40
1.0
 40
1.0
 10
432.5368781305
 20
1214.8035360005
 30
0.0
 10
432.3874423749
 20
1214.64380749
 30
0.0
 10
432.2133940598
 20
1214.5035819007
 30
0.0
 10
432.0239027212
 20
1214.394324065
 30
0.0
  0
SPLINE
  5
373
100
AcDbEntity
  8
0
100
AcDbSpline
 62
7
  6
CONTINUOUS
 70
0
 71
3
 72
9
 73
5
 74
0
 42
0.0000001
 43
0.0000001
 44
0.0000000001
 40
0.0
 40
0.0
 40
0.0
 40
0.0
 40
0.2807306068
 40
1.0
 40
1.0
 40
1.0
 40
1.0
 10
433.3701805368
 20
421.2799893903
 30
0.0
 10
433.3701805368
 20
421.0449820851
 30
0.0
 10
433.322775269
 20
420.2126268443
 30
0.0
 10
433.053373979
 20
419.3638004087
 30
0.0
 10
432.6848527026
 20
418.8876273595
 30
0.0
  0
SPLINE
  5
374
100
AcDbEntity
  8
0
100
AcDbSpline
 62
7
  6
CONTINUOUS
 70
0
 71
3
 72
8
 73
4
 74
0
 42
0.0000001
 43
0.0000001
 44
0.0000000001
 40
0.0
 40
0.0
 40
0.0
 40
0.0
 40
1.0
 40
1.0
 40
1.0
 40
1.0
 10
432.5368781305
 20
418.7136792992
 30
0.0
 10
432.3874423749
 20
418.5539507887
 30
0.0
 10
432.2133940598
 20
418.4137251994
 30
0.0
 10
432.0239027212
 20
418.3044673636
 30
0.0
  0
SPLINE
  5
375
100
AcDbEntity
  8
0
100
AcDbSpline
 62
7
  6
CONTINUOUS
 70
0
 71
3
 72
9
 73
5
 74
0
 42
0.0000001
 43
0.0000001
 44
0.0000000001
 40
0.0
 40
0.0
 40
0.0
 40
0.0
 40
0.728666338
 40
1.0
 40
1.0
 40
1.0
 40
1.0
 10
822.7865190994
 20
141.1563906338
 30
0.0
 10
822.3203197309
 20
140.9199013012
 30
0.0
 10
821.4955884923
 20
140.9607453863
 30
0.0
 10
820.8594298232
 20
141.2800188624
 30
0.0
 10
820.6907041673
 20
141.3770911582
 30
0.0
  0
SPLINE
  5
376
100
AcDbEntity
  8
0
100
AcDbSpline
 62
7
  6
CONTINUOUS
 70
0
 71
3
 72
8
 73
4
 74
0
 42
0.0000001
 43
0.0000001
 44
0.0000000001
 40
0.0
 40
0.0
 40
0.0
 40
0.0
 40
1.0
 40
1.0
 40
1.0
 40
1.0
 10
822.7865190994
 20
141.1563906338
 30
0.0
 10
822.9397505988
 20
141.2419942837
 30
0.0
 10
823.1120997868
 20
141.3746554713
 30
0.0
 10
823.1382967699
 20
141.5482112127
 30
0.0
  0
SPLINE
  5
377
100
AcDbEntity
  8
0
100
AcDbSpline
 62
7
  6
CONTINUOUS
 70
0
 71
3
 72
10
 73
6
 74
0
 42
0.0000001
 43
0.0000001
 44
0.0000000001
 40
0.0
 40
0.0
 40
0.0
 40
0.0
 40
0.7189569585
 40
0.9242284444
 40
1.0
 40
1.0
 40
1.0
 40
1.0
 10
422.2484083377
 20
372.4022157592
 30
0.0
 10
422.0190961472
 20
372.3305232836
 30
0.0
 10
421.7172934404
 20
372.1754991281
 30
0.0
 10
421.4984266479
 20
371.969719292
 30
0.0
 10
421.3696314904
 20
371.9449866118
 30
0.0
 10
421.3702762627
 20
371.9196738072
 30
0.0
  0
SPLINE
  5
378
100
AcDbEntity
  8
0
100
AcDbSpline
 62
7
  6
CONTINUOUS
 70
0
 71
3
 72
8
 73
4
 74
0
 42
0.0000001
 43
0.0000001
 44
0.0000000001
 40
0.0
 40
0.0
 40
0.0
 40
0.0
 40
1.0
 40
1.0
 40
1.0
 40
1.0
 10
820.6907041673
 20
141.3770911582
 30
0.0
 10
819.7994752176
 20
141.8898385511
 30
0.0
 10
819.1327438247
 20
142.7516548122
 30
0.0
 10
818.5529973388
 20
143.6008267276
 30
0.0
  0
SPLINE
  5
379
100
AcDbEntity
  8
0
100
AcDbSpline
 62
7
  6
CONTINUOUS
 70
0
 71
3
 72
8
 73
4
 74
0
 42
0.0000001
 43
0.0000001
 44
0.0000000001
 40
0.0
 40
0.0
 40
0.0
 40
0.0
 40
1.0
 40
1.0
 40
1.0
 40
1.0
 10
421.3702765933
 20
1649.4439258213
 30
0.0
 10
421.3701340675
 20
1648.4249174216
 30
0.0
 10
421.6729849944
 20
1647.3567284718
 30
0.0
 10
422.2484083377
 20
1646.5157373215
 30
0.0
  0
SPLINE
  5
37A
100
AcDbEntity
  8
0
100
AcDbSpline
 62
7
  6
CONTINUOUS
 70
0
 71
3
 72
10
 73
6
 74
0
 42
0.0000001
 43
0.0000001
 44
0.0000000001
 40
0.0
 40
0.0
 40
0.0
 40
0.0
 40
0.422604688
 40
0.7223352739
 40
1.0
 40
1.0
 40
1.0
 40
1.0
 10
432.0239027212
 20
785.7305550719
 30
0.0
 10
430.492670511
 20
784.8476697719
 30
0.0
 10
426.8987725804
 20
786.9954352472
 30
0.0
 10
424.8674352321
 20
790.4174697581
 30
0.0
 10
424.1777541099
 20
792.8518841597
 30
0.0
 10
424.1777541099
 20
794.0132069074
 30
0.0
  0
SPLINE
  5
37B
100
AcDbEntity
  8
0
100
AcDbSpline
 62
7
  6
CONTINUOUS
 70
0
 71
3
 72
10
 73
6
 74
0
 42
0.0000001
 43
0.0000001
 44
0.0000000001
 40
0.0
 40
0.0
 40
0.0
 40
0.0
 40
0.422604688
 40
0.7223352739
 40
1.0
 40
1.0
 40
1.0
 40
1.0
 10
815.2773737509
 20
197.0379784136
 30
0.0
 10
813.7461415407
 20
196.1550931136
 30
0.0
 10
810.15224361
 20
198.3028585889
 30
0.0
 10
808.1209062618
 20
201.7248930997
 30
0.0
 10
807.4312251396
 20
204.1593075014
 30
0.0
 10
807.4312251396
 20
205.3206302491
 30
0.0
  0
SPLINE
  5
37C
100
AcDbEntity
  8
0
100
AcDbSpline
 62
7
  6
CONTINUOUS
 70
0
 71
3
 72
10
 73
6
 74
0
 42
0.0000001
 43
0.0000001
 44
0.0000000001
 40
0.0
 40
0.0
 40
0.0
 40
0.0
 40
0.422604688
 40
0.7223352739
 40
1.0
 40
1.0
 40
1.0
 40
1.0
 10
815.2773737509
 20
1360.5539228233
 30
0.0
 10
813.7461415407
 20
1359.6710375233
 30
0.0
 10
810.15224361
 20
1361.8188029985
 30
0.0
 10
808.1209062618
 20
1365.2408375094
 30
0.0
 10
807.4312251396
 20
1367.6752519111
 30
0.0
 10
807.4312251396
 20
1368.8365746587
 30
0.0
  0
SPLINE
  5
37D
100
AcDbEntity
  8
0
100
AcDbSpline
 62
7
  6
CONTINUOUS
 70
0
 71
3
 72
8
 73
4
 74
0
 42
0.0000001
 43
0.0000001
 44
0.0000000001
 40
0.0
 40
0.0
 40
0.0
 40
0.0
 40
1.0
 40
1.0
 40
1.0
 40
1.0
 10
807.4312251396
 20
1368.8365746587
 30
0.0
 10
807.4312251396
 20
1369.2221029404
 30
0.0
 10
807.4681816138
 20
1369.6109304254
 30
0.0
 10
807.5553124306
 20
1369.9864837195
 30
0.0
  0
SPLINE
  5
37E
100
AcDbEntity
  8
0
100
AcDbSpline
 62
7
  6
CONTINUOUS
 70
0
 71
3
 72
9
 73
5
 74
0
 42
0.0000001
 43
0.0000001
 44
0.0000000001
 40
0.0
 40
0.0
 40
0.0
 40
0.0
 40
0.2787808137
 40
1.0
 40
1.0
 40
1.0
 40
1.0
 10
807.5553124306
 20
1369.9864837195
 30
0.0
 10
807.6021656797
 20
1370.1884316951
 30
0.0
 10
807.8167205761
 20
1370.8981815107
 30
0.0
 10
808.3128774083
 20
1371.5442006324
 30
0.0
 10
808.7775029552
 20
1371.8120966854
 30
0.0
  0
SPLINE
  5
37F
100
AcDbEntity
  8
0
100
AcDbSpline
 62
7
  6
CONTINUOUS
 70
0
 71
3
 72
8
 73
4
 74
0
 42
0.0000001
 43
0.0000001
 44
0.0000000001
 40
0.0
 40
0.0
 40
0.0
 40
0.0
 40
1.0
 40
1.0
 40
1.0
 40
1.0
 10
807.4312251396
 20
572.7467179574
 30
0.0
 10
807.4312251396
 20
573.1322462391
 30
0.0
 10
807.4681816138
 20
573.521073724
 30
0.0
 10
807.5553124306
 20
573.8966270182
 30
0.0
  0
SPLINE
  5
380
100
AcDbEntity
  8
0
100
AcDbSpline
 62
7
  6
CONTINUOUS
 70
0
 71
3
 72
9
 73
5
 74
0
 42
0.0000001
 43
0.0000001
 44
0.0000000001
 40
0.0
 40
0.0
 40
0.0
 40
0.0
 40
0.2787808137
 40
1.0
 40
1.0
 40
1.0
 40
1.0
 10
807.5553124306
 20
573.8966270182
 30
0.0
 10
807.6021656797
 20
574.0985749938
 30
0.0
 10
807.8167205761
 20
574.8083248094
 30
0.0
 10
808.3128774083
 20
575.454343931
 30
0.0
 10
808.7775029552
 20
575.7222399841
 30
0.0
  0
SPLINE
  5
381
100
AcDbEntity
  8
0
100
AcDbSpline
 62
7
  6
CONTINUOUS
 70
0
 71
3
 72
8
 73
4
 74
0
 42
0.0000001
 43
0.0000001
 44
0.0000000001
 40
0.0
 40
0.0
 40
0.0
 40
0.0
 40
1.0
 40
1.0
 40
1.0
 40
1.0
 10
807.4312251396
 20
1001.4104869504
 30
0.0
 10
807.4312251396
 20
1001.7960152321
 30
0.0
 10
807.4681816138
 20
1002.184842717
 30
0.0
 10
807.5553124306
 20
1002.5603960112
 30
0.0
  0
SPLINE
  5
382
100
AcDbEntity
  8
0
100
AcDbSpline
 62
7
  6
CONTINUOUS
 70
0
 71
3
 72
9
 73
5
 74
0
 42
0.0000001
 43
0.0000001
 44
0.0000000001
 40
0.0
 40
0.0
 40
0.0
 40
0.0
 40
0.2787808137
 40
1.0
 40
1.0
 40
1.0
 40
1.0
 10
807.5553124306
 20
1002.5603960112
 30
0.0
 10
807.6021656797
 20
1002.7623439868
 30
0.0
 10
807.8167205761
 20
1003.4720938024
 30
0.0
 10
808.3128774083
 20
1004.1181129241
 30
0.0
 10
808.7775029552
 20
1004.3860089771
 30
0.0
  0
SPLINE
  5
383
100
AcDbEntity
  8
0
100
AcDbSpline
 62
7
  6
CONTINUOUS
 70
0
 71
3
 72
8
 73
4
 74
0
 42
0.0000001
 43
0.0000001
 44
0.0000000001
 40
0.0
 40
0.0
 40
0.0
 40
0.0
 40
1.0
 40
1.0
 40
1.0
 40
1.0
 10
807.4312251396
 20
205.3206302491
 30
0.0
 10
807.4312251396
 20
205.7061585308
 30
0.0
 10
807.4681816138
 20
206.0949860157
 30
0.0
 10
807.5553124306
 20
206.4705393099
 30
0.0
  0
SPLINE
  5
384
100
AcDbEntity
  8
0
100
AcDbSpline
 62
7
  6
CONTINUOUS
 70
0
 71
3
 72
9
 73
5
 74
0
 42
0.0000001
 43
0.0000001
 44
0.0000000001
 40
0.0
 40
0.0
 40
0.0
 40
0.0
 40
0.2787808137
 40
1.0
 40
1.0
 40
1.0
 40
1.0
 10
807.5553124306
 20
206.4705393099
 30
0.0
 10
807.6021656797
 20
206.6724872855
 30
0.0
 10
807.8167205761
 20
207.3822371011
 30
0.0
 10
808.3128774083
 20
208.0282562227
 30
0.0
 10
808.7775029552
 20
208.2961522758
 30
0.0
  0
SPLINE
  5
385
100
AcDbEntity
  8
0
100
AcDbSpline
 62
7
  6
CONTINUOUS
 70
0
 71
3
 72
8
 73
4
 74
0
 42
0.0000001
 43
0.0000001
 44
0.0000000001
 40
0.0
 40
0.0
 40
0.0
 40
0.0
 40
1.0
 40
1.0
 40
1.0
 40
1.0
 10
424.1777541099
 20
1590.1030636087
 30
0.0
 10
424.1777541099
 20
1590.4885918904
 30
0.0
 10
424.2147105842
 20
1590.8774193754
 30
0.0
 10
424.3018414009
 20
1591.2529726695
 30
0.0
  0
SPLINE
  5
386
100
AcDbEntity
  8
0
100
AcDbSpline
 62
7
  6
CONTINUOUS
 70
0
 71
3
 72
9
 73
5
 74
0
 42
0.0000001
 43
0.0000001
 44
0.0000000001
 40
0.0
 40
0.0
 40
0.0
 40
0.0
 40
0.2787808137
 40
1.0
 40
1.0
 40
1.0
 40
1.0
 10
424.3018414009
 20
1591.2529726695
 30
0.0
 10
424.34869465
 20
1591.4549206451
 30
0.0
 10
424.5632495464
 20
1592.1646704607
 30
0.0
 10
425.0594063787
 20
1592.8106895824
 30
0.0
 10
425.5240319256
 20
1593.0785856354
 30
0.0
  0
SPLINE
  5
387
100
AcDbEntity
  8
0
100
AcDbSpline
 62
7
  6
CONTINUOUS
 70
0
 71
3
 72
8
 73
4
 74
0
 42
0.0000001
 43
0.0000001
 44
0.0000000001
 40
0.0
 40
0.0
 40
0.0
 40
0.0
 40
1.0
 40
1.0
 40
1.0
 40
1.0
 10
424.1777541099
 20
794.0132069074
 30
0.0
 10
424.1777541099
 20
794.3987351891
 30
0.0
 10
424.2147105842
 20
794.787562674
 30
0.0
 10
424.3018414009
 20
795.1631159682
 30
0.0
  0
SPLINE
  5
388
100
AcDbEntity
  8
0
100
AcDbSpline
 62
7
  6
CONTINUOUS
 70
0
 71
3
 72
9
 73
5
 74
0
 42
0.0000001
 43
0.0000001
 44
0.0000000001
 40
0.0
 40
0.0
 40
0.0
 40
0.0
 40
0.2787808137
 40
1.0
 40
1.0
 40
1.0
 40
1.0
 10
424.3018414009
 20
795.1631159682
 30
0.0
 10
424.34869465
 20
795.3650639438
 30
0.0
 10
424.5632495464
 20
796.0748137594
 30
0.0
 10
425.0594063787
 20
796.720832881
 30
0.0
 10
425.5240319256
 20
796.9887289341
 30
0.0
  0
SPLINE
  5
389
100
AcDbEntity
  8
0
100
AcDbSpline
 62
7
  6
CONTINUOUS
 70
0
 71
3
 72
8
 73
4
 74
0
 42
0.0000001
 43
0.0000001
 44
0.0000000001
 40
0.0
 40
0.0
 40
0.0
 40
0.0
 40
1.0
 40
1.0
 40
1.0
 40
1.0
 10
424.1777541099
 20
1222.6769759004
 30
0.0
 10
424.1777541099
 20
1223.0625041821
 30
0.0
 10
424.2147105842
 20
1223.451331667
 30
0.0
 10
424.3018414009
 20
1223.8268849612
 30
0.0
  0
SPLINE
  5
38A
100
AcDbEntity
  8
0
100
AcDbSpline
 62
7
  6
CONTINUOUS
 70
0
 71
3
 72
9
 73
5
 74
0
 42
0.0000001
 43
0.0000001
 44
0.0000000001
 40
0.0
 40
0.0
 40
0.0
 40
0.0
 40
0.2787808137
 40
1.0
 40
1.0
 40
1.0
 40
1.0
 10
424.3018414009
 20
1223.8268849612
 30
0.0
 10
424.34869465
 20
1224.0288329368
 30
0.0
 10
424.5632495464
 20
1224.7385827524
 30
0.0
 10
425.0594063787
 20
1225.3846018741
 30
0.0
 10
425.5240319256
 20
1225.6524979271
 30
0.0
  0
SPLINE
  5
38B
100
AcDbEntity
  8
0
100
AcDbSpline
 62
7
  6
CONTINUOUS
 70
0
 71
3
 72
10
 73
6
 74
0
 42
0.0000001
 43
0.0000001
 44
0.0000000001
 40
0.0
 40
0.0
 40
0.0
 40
0.0
 40
0.422604688
 40
0.7223352739
 40
1.0
 40
1.0
 40
1.0
 40
1.0
 10
432.0239027212
 20
418.3044673636
 30
0.0
 10
430.492670511
 20
417.4215820636
 30
0.0
 10
426.8987725804
 20
419.5693475389
 30
0.0
 10
424.8674352321
 20
422.9913820498
 30
0.0
 10
424.1777541099
 20
425.4257964514
 30
0.0
 10
424.1777541099
 20
426.5871191991
 30
0.0
  0
SPLINE
  5
38C
100
AcDbEntity
  8
0
100
AcDbSpline
 62
7
  6
CONTINUOUS
 70
0
 71
3
 72
8
 73
4
 74
0
 42
0.0000001
 43
0.0000001
 44
0.0000000001
 40
0.0
 40
0.0
 40
0.0
 40
0.0
 40
1.0
 40
1.0
 40
1.0
 40
1.0
 10
424.1777541099
 20
426.5871191991
 30
0.0
 10
424.1777541099
 20
426.9726474808
 30
0.0
 10
424.2147105842
 20
427.3614749657
 30
0.0
 10
424.3018414009
 20
427.7370282599
 30
0.0
  0
SPLINE
  5
38D
100
AcDbEntity
  8
0
100
AcDbSpline
 62
7
  6
CONTINUOUS
 70
0
 71
3
 72
9
 73
5
 74
0
 42
0.0000001
 43
0.0000001
 44
0.0000000001
 40
0.0
 40
0.0
 40
0.0
 40
0.0
 40
0.2787808137
 40
1.0
 40
1.0
 40
1.0
 40
1.0
 10
424.3018414009
 20
427.7370282599
 30
0.0
 10
424.34869465
 20
427.9389762355
 30
0.0
 10
424.5632495464
 20
428.6487260511
 30
0.0
 10
425.0594063787
 20
429.2947451727
 30
0.0
 10
425.5240319256
 20
429.5626412258
 30
0.0
  0
SPLINE
  5
38E
100
AcDbEntity
  8
0
100
AcDbSpline
 62
7
  6
CONTINUOUS
 70
0
 71
3
 72
10
 73
6
 74
0
 42
0.0000001
 43
0.0000001
 44
0.0000000001
 40
0.0
 40
0.0
 40
0.0
 40
0.0
 40
0.196088151
 40
0.4408581976
 40
1.0
 40
1.0
 40
1.0
 40
1.0
 10
818.5529973388
 20
1417.7143482898
 30
0.0
 10
818.8579846185
 20
1417.809572726
 30
0.0
 10
819.4609538788
 20
1418.2247949513
 30
0.0
 10
820.8724306094
 20
1419.0236756104
 30
0.0
 10
822.0216344504
 20
1419.6619111816
 30
0.0
 10
822.7865190994
 20
1420.1568847522
 30
0.0
  0
SPLINE
  5
38F
100
AcDbEntity
  8
0
100
AcDbSpline
 62
7
  6
CONTINUOUS
 70
0
 71
3
 72
8
 73
4
 74
0
 42
0.0000001
 43
0.0000001
 44
0.0000000001
 40
0.0
 40
0.0
 40
0.0
 40
0.0
 40
1.0
 40
1.0
 40
1.0
 40
1.0
 10
823.2133727421
 20
1420.4163728068
 30
0.0
 10
823.0674976103
 20
1420.3281466611
 30
0.0
 10
822.9236601079
 20
1420.2363986346
 30
0.0
 10
822.7751442055
 20
1420.1526941928
 30
0.0
  0
SPLINE
  5
390
100
AcDbEntity
  8
0
100
AcDbSpline
 62
7
  6
CONTINUOUS
 70
0
 71
3
 72
8
 73
4
 74
0
 42
0.0000001
 43
0.0000001
 44
0.0000000001
 40
0.0
 40
0.0
 40
0.0
 40
0.0
 40
1.0
 40
1.0
 40
1.0
 40
1.0
 10
829.6835369077
 20
1388.6050553857
 30
0.0
 10
829.8926318539
 20
1388.7982484359
 30
0.0
 10
830.0634246841
 20
1389.0852268912
 30
0.0
 10
830.0635320462
 20
1389.3699095912
 30
0.0
  0
SPLINE
  5
391
100
AcDbEntity
  8
0
100
AcDbSpline
 62
7
  6
CONTINUOUS
 70
0
 71
3
 72
10
 73
6
 74
0
 42
0.0000001
 43
0.0000001
 44
0.0000000001
 40
0.0
 40
0.0
 40
0.0
 40
0.0
 40
0.422604688
 40
0.7223352739
 40
1.0
 40
1.0
 40
1.0
 40
1.0
 10
815.2773737509
 20
993.127835115
 30
0.0
 10
813.7461415407
 20
992.2449498149
 30
0.0
 10
810.15224361
 20
994.3927152902
 30
0.0
 10
808.1209062618
 20
997.8147498011
 30
0.0
 10
807.4312251396
 20
1000.2491642028
 30
0.0
 10
807.4312251396
 20
1001.4104869504
 30
0.0
  0
SPLINE
  5
392
100
AcDbEntity
  8
0
100
AcDbSpline
 62
7
  6
CONTINUOUS
 70
0
 71
3
 72
10
 73
6
 74
0
 42
0.0000001
 43
0.0000001
 44
0.0000000001
 40
0.0
 40
0.0
 40
0.0
 40
0.0
 40
0.422604688
 40
0.7223352739
 40
1.0
 40
1.0
 40
1.0
 40
1.0
 10
432.0239027212
 20
1214.394324065
 30
0.0
 10
430.492670511
 20
1213.511438765
 30
0.0
 10
426.8987725804
 20
1215.6592042402
 30
0.0
 10
424.8674352321
 20
1219.0812387511
 30
0.0
 10
424.1777541099
 20
1221.5156531528
 30
0.0
 10
424.1777541099
 20
1222.6769759004
 30
0.0
  0
SPLINE
  5
393
100
AcDbEntity
  8
0
100
AcDbSpline
 62
7
  6
CONTINUOUS
 70
0
 71
3
 72
10
 73
6
 74
0
 42
0.0000001
 43
0.0000001
 44
0.0000000001
 40
0.0
 40
0.0
 40
0.0
 40
0.0
 40
0.422604688
 40
0.7223352739
 40
1.0
 40
1.0
 40
1.0
 40
1.0
 10
815.2773737509
 20
564.4640661219
 30
0.0
 10
813.7461415407
 20
563.5811808219
 30
0.0
 10
810.15224361
 20
565.7289462972
 30
0.0
 10
808.1209062618
 20
569.1509808081
 30
0.0
 10
807.4312251396
 20
571.5853952097
 30
0.0
 10
807.4312251396
 20
572.7467179574
 30
0.0
  0
SPLINE
  5
394
100
AcDbEntity
  8
0
100
AcDbSpline
 62
7
  6
CONTINUOUS
 70
0
 71
3
 72
10
 73
6
 74
0
 42
0.0000001
 43
0.0000001
 44
0.0000000001
 40
0.0
 40
0.0
 40
0.0
 40
0.0
 40
0.422604688
 40
0.7223352739
 40
1.0
 40
1.0
 40
1.0
 40
1.0
 10
432.0239027212
 20
1581.8204117733
 30
0.0
 10
430.492670511
 20
1580.9375264733
 30
0.0
 10
426.8987725804
 20
1583.0852919485
 30
0.0
 10
424.8674352321
 20
1586.5073264594
 30
0.0
 10
424.1777541099
 20
1588.9417408611
 30
0.0
 10
424.1777541099
 20
1590.1030636087
 30
0.0
  0
ELLIPSE
  5
395
100
AcDbEntity
  8
0
100
AcDbEllipse
 62
7
  6
CONTINUOUS
 10
828.7854089251
 20
209.9799727247
 30
0.0
 11
3.9897363519
 21
-0.659194334
 31
0.0
 40
0.4344138212
 41
0.6352989396
 42
0.857054404
  0
ELLIPSE
  5
396
100
AcDbEntity
  8
0
100
AcDbEllipse
 62
7
  6
CONTINUOUS
 10
539.2946874499
 20
1653.6205390212
 30
0.0
 11
3.9374589769
 21
1.02581769
 31
0.0
 40
0.6868360053
 41
6.8915217137
 42
10.0331143673
  0
ELLIPSE
  5
397
100
AcDbEntity
  8
0
100
AcDbEllipse
 62
7
  6
CONTINUOUS
 10
827.3711894748
 20
1487.3032556296
 30
0.0
 11
3.9374589769
 21
1.02581769
 31
0.0
 40
0.6868360053
 41
6.8915217137
 42
10.0331143673
  0
ELLIPSE
  5
398
100
AcDbEntity
  8
0
100
AcDbEllipse
 62
7
  6
CONTINUOUS
 10
828.7854089251
 20
1486.4867741206
 30
0.0
 11
3.9374589769
 21
1.02581769
 31
0.0
 40
0.6868360053
 41
3.7499290601
 42
6.8915217137
  0
ELLIPSE
  5
399
100
AcDbEntity
  8
0
100
AcDbEllipse
 62
7
  6
CONTINUOUS
 10
540.7089069002
 20
1652.8040575122
 30
0.0
 11
3.9374589769
 21
1.02581769
 31
0.0
 40
0.6868360053
 41
3.7499290601
 42
6.8915217137
  0
ELLIPSE
  5
39A
100
AcDbEntity
  8
0
100
AcDbEllipse
 62
7
  6
CONTINUOUS
 10
772.2171019479
 20
1453.8272418109
 30
0.0
 11
3.9897363519
 21
-0.659194334
 31
0.0
 40
0.4344138212
 41
3.9986470576
 42
7.1402397112
  0
ELLIPSE
  5
39B
100
AcDbEntity
  8
0
100
AcDbEllipse
 62
7
  6
CONTINUOUS
 10
770.8028824977
 20
1454.6437233199
 30
0.0
 11
3.9897363519
 21
-0.659194334
 31
0.0
 40
0.4344138212
 41
7.1402397112
 42
10.2818323648
  0
ELLIPSE
  5
39C
100
AcDbEntity
  8
0
100
AcDbEllipse
 62
7
  6
CONTINUOUS
 10
482.7263804728
 20
1620.9610067115
 30
0.0
 11
3.9897363519
 21
-0.659194334
 31
0.0
 40
0.4344138212
 41
7.1402397112
 42
10.2818323648
  0
ELLIPSE
  5
39D
100
AcDbEntity
  8
0
100
AcDbEllipse
 62
7
  6
CONTINUOUS
 10
484.1405999231
 20
1620.1445252024
 30
0.0
 11
3.9897363519
 21
-0.659194334
 31
0.0
 40
0.4344138212
 41
3.9986470576
 42
7.1402397112
  0
ENDSEC
  0
SECTION
  2
OBJECTS
  0
DICTIONARY
  5
C
100
AcDbDictionary
280
0
281
1
  3
ACAD_GROUP
350
D
  3
ACAD_MLINESTYLE
350
17
  3
ACAD_LAYOUT
350
1A
  3
ACAD_PLOTSETTINGS
350
19
  3
ACAD_PLOTSTYLENAME
350
E
  0
DICTIONARY
  5
D
102
{ACAD_REACTORS
330
C
102
}
100
AcDbDictionary
280
0
281
1
  0
ACDBDICTIONARYWDFLT
  5
E
102
{ACAD_REACTORS
330
C
102
}
100
AcDbDictionary
281
1
  3
Normal
350
F
100
AcDbDictionaryWithDefault
340
F
  0
DICTIONARY
  5
17
102
{ACAD_REACTORS
330
C
102
}
100
AcDbDictionary
280
0
281
1
  3
Standard
350
18
  0
DICTIONARY
  5
19
102
{ACAD_REACTORS
330
C
102
}
100
AcDbDictionary
281
1
  0
DICTIONARY
  5
1A
102
{ACAD_REACTORS
330
C
102
}
100
AcDbDictionary
281
1
  3
Model
350
39E
  3
Layout1
350
39F
  0
ACDBPLACEHOLDER
  5
F
102
{ACAD_REACTORS
330
E
102
}
  0
MLINESTYLE
  5
18
102
{ACAD_REACTORS
330
17
102
}
100
AcDbMlineStyle
  2
STANDARD
 70
0
  3

 62
256
 51
90.0
 52
90.0
 71
2
 49
0.5
 62
256
  6
BYLAYER
 49
-0.5
 62
256
  6
BYLAYER
  0
LAYOUT
  5
39E
102
{ACAD_REACTORS
330
1A
102
}
100
AcDbPlotSettings
  1

  2
none_device
  4

  6

 40
0.0
 41
0.0
 42
0.0
 43
0.0
 44
210.0
 45
297.0
 46
0.0
 47
0.0
 48
0.0
 49
0.0
140
0.0
141
0.0
142
1.0
143
1.0
 70
1024
 72
1
 73
0
 74
0
  7

 75
0
147
1.0
148
0.0
149
0.0
100
AcDbLayout
  1
Model
 70
0
 71
0
 10
0.0
 20
0.0
 11
210.0
 21
297.0
 12
0.0
 22
0.0
 32
0.0
 14
0.0
 24
0.0
 34
0.0
 15
0.0
 25
0.0
 35
0.0
146
0.0
 13
0.0
 23
0.0
 33
0.0
 16
1.0
 26
0.0
 36
0.0
 17
0.0
 27
1.0
 37
0.0
 76
0
330
210
345
0
346
0
  0
LAYOUT
  5
39F
102
{ACAD_REACTORS
330
1A
102
}
100
AcDbPlotSettings
  1

  2
none_device
  4

  6

 40
0.0
 41
0.0
 42
0.0
 43
0.0
 44
210.0
 45
297.0
 46
0.0
 47
0.0
 48
0.0
 49
0.0
140
0.0
141
0.0
142
1.0
143
1.0
 70
0
 72
1
 73
0
 74
0
  7

 75
0
147
1.0
148
0.0
149
0.0
100
AcDbLayout
  1
Layout1
 70
0
 71
1
 10
0.0
 20
0.0
 11
210.0
 21
297.0
 12
0.0
 22
0.0
 32
0.0
 14
0.0
 24
0.0
 34
0.0
 15
0.0
 25
0.0
 35
0.0
146
0.0
 13
0.0
 23
0.0
 33
0.0
 16
1.0
 26
0.0
 36
0.0
 17
0.0
 27
1.0
 37
0.0
 76
0
330
211
345
0
346
0
  0
ENDSEC
  0
EOF
