999
DXF file: C:\Users\sesa63760\Dev\_Creo\CAD\MCADID0002244_3D-CAD\drw0001_3.dxf
999
Pro/ENGINEER 2019471 by Parametric Technology Corporation
  0
SECTION
  2
HEADER
  9
$ACADVER
  1
AC1024
  9
$DWGCODEPAGE
  3
ANSI_1252
  9
$EXTMAX
 10
96.2879483781
 20
136.178669849
 30
0.0
  9
$EXTMIN
 10
0.0
 20
0.0
 30
0.0
  9
$LIMMIN
 10
0.0
 20
0.0
  9
$LIMMAX
 10
96.2879483781
 20
136.178669849
  9
$VIEWCTR
 10
48.143974189
 20
68.0893349245
  9
$VIEWSIZE
 40
136.178669849
  9
$CLAYER
  8
0
  9
$LTSCALE
 40
8.8768318124
  9
$CELTYPE
  6
BYLAYER
  9
$DIMSCALE
 40
1.0
  9
$DIMASZ
 40
1.1462850997
  9
$DIMEXO
 40
1.0
  9
$DIMDLI
 40
6.1330837976
  9
$DIMEXE
 40
1.0
  9
$DIMCEN
 40
1.4525724784
  9
$DIMLFAC
 40
1.0
  9
$DIMBLK
  1
_FILLED
  9
$DIMALT
 70
0
  9
$DIMALTF
 40
0.0393700787
  9
$DIMTXT
 40
1.6047991396
  9
$DIMTOL
 70
1
  9
$DIMLIM
 70
0
  9
$DIMTFAC
 40
1.0
  9
$DIMTP
 40
0.01
  9
$DIMTM
 40
0.01
  9
$DIMGAP
 40
0.625
  9
$DIMDSEP
 70
46
  9
$AUNITS
 70
0
  9
$PDMODE
 70
3
  9
$PDSIZE
 40
0.3125
  9
$HANDSEED
  5
2A4
  9
$TILEMODE
 70
1
  9
$MEASUREMENT
 70
1
  9
$INSUNITS
 70
4
  0
ENDSEC
  0
SECTION
  2
CLASSES
  0
CLASS
  1
ACDBDICTIONARYWDFLT
  2
AcDbDictionaryWithDefault
  3
AutoCAD 2000
 90
0
 91
1
280
0
281
0
  0
CLASS
  1
ACDBPLACEHOLDER
  2
AcDbPlaceHolder
  3
AutoCAD 2000
 90
0
 91
1
280
0
281
0
  0
CLASS
  1
LAYOUT
  2
AcDbLayout
  3
AutoCAD 2000
 90
0
 91
0
280
0
281
0
  0
ENDSEC
  0
SECTION
  2
TABLES
  0
TABLE
  2
VPORT
  5
8
100
AcDbSymbolTable
 70
2
  0
VPORT
  5
1F4
100
AcDbSymbolTableRecord
100
AcDbViewportTableRecord
  2
*ACTIVE
 70
0
 10
0.0
 20
0.0
 11
1.0
 21
1.0
 12
48.143974189
 22
68.0893349245
 13
0.0
 23
0.0
 14
1.0
 24
1.0
 15
0.0
 25
0.0
 16
0.0
 26
0.0
 36
1.0
 17
0.0
 27
0.0
 37
0.0
 40
136.178669849
 41
0.7070707071
 42
50.0
 43
0.0
 44
0.0
 50
0.0
 51
0.0
 71
0
 72
100
 73
1
 74
1
 75
0
 76
0
 77
0
 78
0
  0
ENDTAB
  0
TABLE
  2
LTYPE
  5
5
100
AcDbSymbolTable
 70
6
  0
LTYPE
  5
14
100
AcDbSymbolTableRecord
100
AcDbLinetypeTableRecord
  2
BYBLOCK
 70
0
  3

 72
65
 73
0
 40
0.0
  0
LTYPE
  5
15
100
AcDbSymbolTableRecord
100
AcDbLinetypeTableRecord
  2
BYLAYER
 70
0
  3

 72
65
 73
0
 40
0.0
  0
LTYPE
  5
16
100
AcDbSymbolTableRecord
100
AcDbLinetypeTableRecord
  2
CONTINUOUS
 70
64
  3
Solid line
 72
65
 73
0
 40
0.0
  0
LTYPE
  5
1F5
100
AcDbSymbolTableRecord
100
AcDbLinetypeTableRecord
  2
CENTER
 70
64
  3
____ _ ____ _ ____ _ ____ _ ____ _ ____ _ ____
 72
65
 73
4
 40
0.6
 49
0.375
 74
0
 49
-0.075
 74
0
 49
0.075
 74
0
 49
-0.075
 74
0
  0
LTYPE
  5
1F6
100
AcDbSymbolTableRecord
100
AcDbLinetypeTableRecord
  2
HIDDEN
 70
64
  3
- - - - - - - - - - - - - - - - - - - -
 72
65
 73
2
 40
0.2
 49
0.1
 74
0
 49
-0.1
 74
0
  0
LTYPE
  5
1F7
100
AcDbSymbolTableRecord
100
AcDbLinetypeTableRecord
  2
PHANTOM
 70
64
  3
_____ _ _ _____ _ _ _____ _ _ _____
 72
65
 73
6
 40
0.8
 49
0.45
 74
0
 49
-0.05
 74
0
 49
0.1
 74
0
 49
-0.05
 74
0
 49
0.1
 74
0
 49
-0.05
 74
0
  0
LTYPE
  5
1F8
100
AcDbSymbolTableRecord
100
AcDbLinetypeTableRecord
  2
DOT
 70
64
  3
. . . . . . . . . . . . . . . . . . . .
 72
65
 73
2
 40
0.2
 49
0.1
 74
0
 49
-0.1
 74
0
  0
LTYPE
  5
1F9
100
AcDbSymbolTableRecord
100
AcDbLinetypeTableRecord
  2
DASHED
 70
64
  3
- - - - - - - - - - - - - - - - - - - -
 72
65
 73
2
 40
0.2
 49
0.1
 74
0
 49
-0.1
 74
0
  0
ENDTAB
  0
TABLE
  2
LAYER
  5
2
100
AcDbSymbolTable
 70
36
  0
LAYER
  5
10
100
AcDbSymbolTableRecord
100
AcDbLayerTableRecord
  2
0
 70
0
 62
7
  6
CONTINUOUS
370
-3
390
F
  0
LAYER
  5
1FA
100
AcDbSymbolTableRecord
100
AcDbLayerTableRecord
  2
DEFAULT_1
 70
0
 62
7
  6
CENTER
370
-3
390
F
  0
LAYER
  5
1FB
100
AcDbSymbolTableRecord
100
AcDbLayerTableRecord
  2
DEFAULT_2
 70
0
 62
8
  6
HIDDEN
370
-3
390
F
  0
LAYER
  5
1FC
100
AcDbSymbolTableRecord
100
AcDbLayerTableRecord
  2
DEFAULT_3
 70
0
 62
7
  6
PHANTOM
370
-3
390
F
  0
LAYER
  5
1FD
100
AcDbSymbolTableRecord
100
AcDbLayerTableRecord
  2
00_COMPONENTS
 70
0
 62
7
  6
CONTINUOUS
370
-3
390
F
  0
LAYER
  5
1FE
100
AcDbSymbolTableRecord
100
AcDbLayerTableRecord
  2
01_1_DEFAULT_DATUMS
 70
0
 62
7
  6
CONTINUOUS
370
-3
390
F
  0
LAYER
  5
1FF
100
AcDbSymbolTableRecord
100
AcDbLayerTableRecord
  2
01_PLANES
 70
0
 62
7
  6
CONTINUOUS
370
-3
390
F
  0
LAYER
  5
200
100
AcDbSymbolTableRecord
100
AcDbLayerTableRecord
  2
02_COORD_SYS
 70
0
 62
7
  6
CONTINUOUS
370
-3
390
F
  0
LAYER
  5
201
100
AcDbSymbolTableRecord
100
AcDbLayerTableRecord
  2
03_AXES
 70
0
 62
7
  6
CONTINUOUS
370
-3
390
F
  0
LAYER
  5
202
100
AcDbSymbolTableRecord
100
AcDbLayerTableRecord
  2
04_POINTS
 70
0
 62
7
  6
CONTINUOUS
370
-3
390
F
  0
LAYER
  5
203
100
AcDbSymbolTableRecord
100
AcDbLayerTableRecord
  2
05_CURVES
 70
0
 62
7
  6
CONTINUOUS
370
-3
390
F
  0
LAYER
  5
204
100
AcDbSymbolTableRecord
100
AcDbLayerTableRecord
  2
06_SURFS
 70
0
 62
7
  6
CONTINUOUS
370
-3
390
F
  0
LAYER
  5
205
100
AcDbSymbolTableRecord
100
AcDbLayerTableRecord
  2
07_COSMETICS
 70
0
 62
7
  6
CONTINUOUS
370
-3
390
F
  0
LAYER
  5
206
100
AcDbSymbolTableRecord
100
AcDbLayerTableRecord
  2
10_NOTES
 70
0
 62
7
  6
CONTINUOUS
370
-3
390
F
  0
LAYER
  5
207
100
AcDbSymbolTableRecord
100
AcDbLayerTableRecord
  2
11_NOTES_PUB
 70
0
 62
7
  6
CONTINUOUS
370
-3
390
F
  0
LAYER
  5
208
100
AcDbSymbolTableRecord
100
AcDbLayerTableRecord
  2
13_REF_GTOL
 70
0
 62
7
  6
CONTINUOUS
370
-3
390
F
  0
LAYER
  5
209
100
AcDbSymbolTableRecord
100
AcDbLayerTableRecord
  2
16_MISC
 70
0
 62
7
  6
CONTINUOUS
370
-3
390
F
  0
LAYER
  5
20A
100
AcDbSymbolTableRecord
100
AcDbLayerTableRecord
  2
17_NO_PRINT
 70
0
 62
7
  6
CONTINUOUS
370
-3
390
F
  0
LAYER
  5
20B
100
AcDbSymbolTableRecord
100
AcDbLayerTableRecord
  2
18_DATUM_CAMS_JOINTS
 70
0
 62
7
  6
CONTINUOUS
370
-3
390
F
  0
LAYER
  5
20C
100
AcDbSymbolTableRecord
100
AcDbLayerTableRecord
  2
19_DATUM_FUNCTIONAL
 70
0
 62
7
  6
CONTINUOUS
370
-3
390
F
  0
LAYER
  5
20D
100
AcDbSymbolTableRecord
100
AcDbLayerTableRecord
  2
20_DATUM_KINEMATIC_SCHEME
 70
0
 62
7
  6
CONTINUOUS
370
-3
390
F
  0
LAYER
  5
20E
100
AcDbSymbolTableRecord
100
AcDbLayerTableRecord
  2
_1
 70
0
 62
7
  6
CONTINUOUS
370
-3
390
F
  0
ENDTAB
  0
TABLE
  2
STYLE
  5
3
100
AcDbSymbolTable
 70
1
  0
STYLE
  5
11
100
AcDbSymbolTableRecord
100
AcDbTextStyleTableRecord
  2
STANDARD
 70
0
 40
0.0
 41
0.8
 50
0.0
 71
0
 42
0.2
  3
txt
  4

  0
STYLE
  5
20F
100
AcDbSymbolTableRecord
100
AcDbTextStyleTableRecord
  2
TEXTSTYLE_1
 70
0
 40
0.0
 41
0.8
 50
0.0
 71
0
 42
0.2
  3
gdt
  4

  0
ENDTAB
  0
TABLE
  2
VIEW
  5
6
100
AcDbSymbolTable
 70
0
  0
ENDTAB
  0
TABLE
  2
UCS
  5
7
100
AcDbSymbolTable
 70
0
  0
ENDTAB
  0
TABLE
  2
APPID
  5
9
100
AcDbSymbolTable
 70
1
  0
APPID
  5
210
100
AcDbSymbolTableRecord
100
AcDbRegAppTableRecord
  2
ACAD
 70
0
  0
ENDTAB
  0
TABLE
  2
BLOCK_RECORD
  5
1
100
AcDbSymbolTable
 70
0
  0
BLOCK_RECORD
  5
211
100
AcDbSymbolTableRecord
100
AcDbBlockTableRecord
  2
*Model_Space
  0
BLOCK_RECORD
  5
212
100
AcDbSymbolTableRecord
100
AcDbBlockTableRecord
  2
*Paper_Space
  0
BLOCK_RECORD
  5
213
100
AcDbSymbolTableRecord
100
AcDbBlockTableRecord
  2
_FILLED
  0
ENDTAB
  0
TABLE
  2
DIMSTYLE
  5
A
100
AcDbSymbolTable
 70
1
100
AcDbDimStyleTable
 71
0
  0
DIMSTYLE
105
214
100
AcDbSymbolTableRecord
100
AcDbDimStyleTableRecord
  2
STANDARD
 70
0
  3

  4

 40
1.0
 41
1.1462850997
 42
1.0
 43
0.38
 44
1.0
 45
0.0
 46
0.0
 47
0.01
 48
0.01
140
1.6047991396
141
0.09
142
0.0
143
25.4
144
1.0
145
0.0
146
1.0
147
0.625
 71
1
 72
0
 73
0
 74
0
 75
0
 76
0
 77
1
 78
8
 79
2
170
0
171
1
172
0
173
0
174
0
175
0
176
0
177
0
178
0
270
2
179
2
271
2
272
2
273
2
274
2
275
0
280
0
281
0
282
0
283
1
284
8
285
0
286
0
287
3
288
0
340
11
278
46
341
213
342
213
343
213
344
213
  0
ENDTAB
  0
ENDSEC
  0
SECTION
  2
BLOCKS
  0
BLOCK
  5
20
100
AcDbEntity
  8
0
100
AcDbBlockBegin
  2
*Model_Space
 70
0
 10
0.0
 20
0.0
 30
0.0
  3
*Model_Space
  1

  0
ENDBLK
  5
21
100
AcDbEntity
  8
0
100
AcDbBlockEnd
  0
BLOCK
  5
1C
100
AcDbEntity
  8
0
100
AcDbBlockBegin
  2
*Paper_Space
 70
0
 10
0.0
 20
0.0
 30
0.0
  3
*Paper_Space
  1

  0
ENDBLK
  5
1D
100
AcDbEntity
  8
0
100
AcDbBlockEnd
  0
BLOCK
  5
215
100
AcDbEntity
  8
0
100
AcDbBlockBegin
  2
_FILLED
 70
64
 10
0.0
 20
0.0
  3
_FILLED
  1

  0
SOLID
  5
216
100
AcDbEntity
  8
0
  6
BYBLOCK
 62
0
100
AcDbTrace
 10
0.0
 20
0.0
 11
-1.0
 21
0.25
 12
-1.0
 22
-0.25
 13
-1.0
 23
-0.25
  0
ENDBLK
  5
217
100
AcDbEntity
  8
0
  6
BYBLOCK
 62
0
100
AcDbBlockEnd
  0
ENDSEC
  0
SECTION
  2
ENTITIES
  0
LINE
  5
218
100
AcDbEntity
  8
_1
100
AcDbLine
 62
7
  6
CONTINUOUS
 10
29.4688455498
 20
97.0990403776
 11
29.4688455498
 21
96.9771605711
  0
LINE
  5
219
100
AcDbEntity
  8
_1
100
AcDbLine
 62
7
  6
CONTINUOUS
 10
29.4688455489
 20
39.6654079857
 11
29.4688455489
 21
39.4323063408
  0
LINE
  5
21A
100
AcDbEntity
  8
_1
100
AcDbLine
 62
7
  6
CONTINUOUS
 10
31.7274250566
 20
98.4284262879
 11
31.7274250566
 21
98.7761689438
  0
LINE
  5
21B
100
AcDbEntity
  8
_1
100
AcDbLine
 62
7
  6
CONTINUOUS
 10
37.1024250566
 20
66.0874534877
 11
37.1024250566
 21
70.5551150685
  0
LINE
  5
21C
100
AcDbEntity
  8
_1
100
AcDbLine
 62
7
  6
CONTINUOUS
 10
18.1356649712
 20
84.0119367421
 11
17.1247268964
 21
85.1113236394
  0
LINE
  5
21D
100
AcDbEntity
  8
_1
100
AcDbLine
 62
7
  6
CONTINUOUS
 10
41.8524250566
 20
78.3207778575
 11
41.8524250566
 21
75.5399666371
  0
LINE
  5
21E
100
AcDbEntity
  8
_1
100
AcDbLine
 62
7
  6
CONTINUOUS
 10
44.6344177178
 20
79.3517072389
 11
44.3932170181
 21
78.5137413286
  0
LINE
  5
21F
100
AcDbEntity
  8
_1
100
AcDbLine
 62
7
  6
CONTINUOUS
 10
47.3699301664
 20
80.1694199212
 11
47.0010141876
 21
79.4782301091
  0
LINE
  5
220
100
AcDbEntity
  8
_1
100
AcDbLine
 62
7
  6
CONTINUOUS
 10
45.099503222
 20
80.0910688645
 11
44.6281822992
 21
79.3535020462
  0
LINE
  5
221
100
AcDbEntity
  8
_1
100
AcDbLine
 62
7
  6
CONTINUOUS
 10
50.1357436026
 20
80.3211548897
 11
49.6306339452
 21
79.7214793042
  0
LINE
  5
222
100
AcDbEntity
  8
_1
100
AcDbLine
 62
7
  6
CONTINUOUS
 10
52.8727853593
 20
79.8967173567
 11
52.2535577393
 21
79.4147646985
  0
LINE
  5
223
100
AcDbEntity
  8
_1
100
AcDbLine
 62
7
  6
CONTINUOUS
 10
55.6650847592
 20
79.0498826923
 11
54.561633095
 21
78.5137413286
  0
LINE
  5
224
100
AcDbEntity
  8
_1
100
AcDbLine
 62
7
  6
CONTINUOUS
 10
44.4774250566
 20
59.0881916218
 11
54.4774250566
 21
59.0881916218
  0
LINE
  5
225
100
AcDbEntity
  8
_1
100
AcDbLine
 62
7
  6
CONTINUOUS
 10
44.4774250566
 20
56.9093963768
 11
44.4774250566
 21
57.2203552629
  0
LINE
  5
226
100
AcDbEntity
  8
_1
100
AcDbLine
 62
7
  6
CONTINUOUS
 10
53.719584983
 20
61.7187005546
 11
45.2352655063
 21
61.7187005546
  0
LINE
  5
227
100
AcDbEntity
  8
_1
100
AcDbLine
 62
7
  6
CONTINUOUS
 10
55.1378471058
 20
62.6697570709
 11
43.8169719939
 21
62.6697570709
  0
LINE
  5
228
100
AcDbEntity
  8
_1
100
AcDbLine
 62
7
  6
CONTINUOUS
 10
46.9774250566
 20
103.2712842781
 11
46.9774250566
 21
103.6253862444
  0
LINE
  5
229
100
AcDbEntity
  8
_1
100
AcDbLine
 62
7
  6
CONTINUOUS
 10
47.4774250566
 20
60.873273812
 11
47.4774250566
 21
61.7187005546
  0
LINE
  5
22A
100
AcDbEntity
  8
_1
100
AcDbLine
 62
7
  6
CONTINUOUS
 10
47.4774250566
 20
62.6697570709
 11
47.4774250566
 21
73.9728114853
  0
LINE
  5
22B
100
AcDbEntity
  8
_1
100
AcDbLine
 62
7
  6
CONTINUOUS
 10
47.4774250566
 20
74.9238680016
 11
47.4774250566
 21
75.769008104
  0
LINE
  5
22C
100
AcDbEntity
  8
_1
100
AcDbLine
 62
7
  6
CONTINUOUS
 10
48.9774250566
 20
106.6037469292
 11
48.9774250566
 21
106.3709330893
  0
LINE
  5
22D
100
AcDbEntity
  8
_1
100
AcDbLine
 62
7
  6
CONTINUOUS
 10
42.8222577967
 20
32.4839957542
 11
43.0778746462
 21
33.8604622545
  0
LINE
  5
22E
100
AcDbEntity
  8
_1
100
AcDbLine
 62
7
  6
CONTINUOUS
 10
34.6226162069
 20
36.5748332318
 11
34.6649979725
 21
36.6654079851
  0
LINE
  5
22F
100
AcDbEntity
  8
_1
100
AcDbLine
 62
7
  6
CONTINUOUS
 10
40.6883314562
 20
59.5321906778
 11
40.8683999956
 21
59.7122592172
  0
LINE
  5
230
100
AcDbEntity
  8
_1
100
AcDbLine
 62
7
  6
CONTINUOUS
 10
83.4141032747
 20
77.0850946094
 11
84.769633931
 21
77.4351469479
  0
LINE
  5
231
100
AcDbEntity
  8
_1
100
AcDbLine
 62
7
  6
CONTINUOUS
 10
47.4774250566
 20
68.3212842781
 11
46.2476944169
 21
68.3212842781
  0
LINE
  5
232
100
AcDbEntity
  8
_1
100
AcDbLine
 62
7
  6
CONTINUOUS
 10
51.4774250566
 20
68.3212842781
 11
52.7071556963
 21
68.3212842781
  0
LINE
  5
233
100
AcDbEntity
  8
_1
100
AcDbLine
 62
7
  6
CONTINUOUS
 10
84.4274250566
 20
68.3212842781
 11
84.5274250566
 21
68.3212842781
  0
LINE
  5
234
100
AcDbEntity
  8
_1
100
AcDbLine
 62
7
  6
CONTINUOUS
 10
22.833252954
 20
91.0938685181
 11
21.7690064221
 21
92.0034724536
  0
LINE
  5
235
100
AcDbEntity
  8
_1
100
AcDbLine
 62
7
  6
CONTINUOUS
 10
58.0864501175
 20
59.7122592172
 11
58.2665186569
 21
59.5321906778
  0
LINE
  5
236
100
AcDbEntity
  8
_1
100
AcDbLine
 62
7
  6
CONTINUOUS
 10
49.9774250566
 20
106.6037469292
 11
49.9774250566
 21
106.3406467797
  0
LINE
  5
237
100
AcDbEntity
  8
_1
100
AcDbLine
 62
7
  6
CONTINUOUS
 10
51.4774250566
 20
75.7692947261
 11
51.4774250566
 21
74.9238680016
  0
LINE
  5
238
100
AcDbEntity
  8
_1
100
AcDbLine
 62
7
  6
CONTINUOUS
 10
51.4774250566
 20
73.9728114853
 11
51.4774250566
 21
62.6697570709
  0
LINE
  5
239
100
AcDbEntity
  8
_1
100
AcDbLine
 62
7
  6
CONTINUOUS
 10
51.4774250566
 20
60.8735571991
 11
51.4774250566
 21
61.7187005546
  0
LINE
  5
23A
100
AcDbEntity
  8
_1
100
AcDbLine
 62
7
  6
CONTINUOUS
 10
51.9774250566
 20
103.2712842781
 11
51.9774250566
 21
103.6253862444
  0
LINE
  5
23B
100
AcDbEntity
  8
_1
100
AcDbLine
 62
7
  6
CONTINUOUS
 10
54.4774250566
 20
57.2203552629
 11
54.4774250566
 21
56.9093963768
  0
LINE
  5
23C
100
AcDbEntity
  8
_1
100
AcDbLine
 62
7
  6
CONTINUOUS
 10
57.1024250566
 20
75.5399666371
 11
57.1024250566
 21
78.3207777809
  0
LINE
  5
23D
100
AcDbEntity
  8
_1
100
AcDbLine
 62
7
  6
CONTINUOUS
 10
55.1378781054
 20
73.9728114853
 11
43.8170030205
 21
73.9728114853
  0
LINE
  5
23E
100
AcDbEntity
  8
_1
100
AcDbLine
 62
7
  6
CONTINUOUS
 10
45.235265149
 20
74.9238680016
 11
53.7195845868
 21
74.9238680016
  0
LINE
  5
23F
100
AcDbEntity
  8
_1
100
AcDbLine
 62
7
  6
CONTINUOUS
 10
44.3932170181
 20
78.5137413286
 11
43.2897653539
 21
79.0498826923
  0
LINE
  5
240
100
AcDbEntity
  8
_1
100
AcDbLine
 62
7
  6
CONTINUOUS
 10
46.7012923739
 20
79.4147646985
 11
46.0820647539
 21
79.8967173567
  0
LINE
  5
241
100
AcDbEntity
  8
_1
100
AcDbLine
 62
7
  6
CONTINUOUS
 10
48.8191065106
 20
80.3211548897
 11
49.324216168
 21
79.7214793042
  0
LINE
  5
242
100
AcDbEntity
  8
_1
100
AcDbLine
 62
7
  6
CONTINUOUS
 10
51.5849199468
 20
80.1694199212
 11
51.9538359256
 21
79.4782301091
  0
LINE
  5
243
100
AcDbEntity
  8
_1
100
AcDbLine
 62
7
  6
CONTINUOUS
 10
55.2308387787
 20
79.3535020462
 11
54.326667814
 21
79.3535020462
  0
LINE
  5
244
100
AcDbEntity
  8
_1
100
AcDbLine
 62
7
  6
CONTINUOUS
 10
44.6281822992
 20
79.3535020462
 11
43.7240113345
 21
79.3535020462
  0
LINE
  5
245
100
AcDbEntity
  8
_1
100
AcDbLine
 62
7
  6
CONTINUOUS
 10
53.8553468912
 20
80.0910688645
 11
54.326667814
 21
79.3535020462
  0
LINE
  5
246
100
AcDbEntity
  8
_1
100
AcDbLine
 62
7
  6
CONTINUOUS
 10
54.3204323954
 20
79.3517072389
 11
54.561633095
 21
78.5137413286
  0
LINE
  5
247
100
AcDbEntity
  8
_1
100
AcDbLine
 62
7
  6
CONTINUOUS
 10
61.8524250566
 20
70.5551150685
 11
61.8524250566
 21
66.0874534877
  0
LINE
  5
248
100
AcDbEntity
  8
_1
100
AcDbLine
 62
7
  6
CONTINUOUS
 10
51.1131735193
 20
31.9080061097
 11
51.5598014635
 21
33.3331976128
  0
LINE
  5
249
100
AcDbEntity
  8
_1
100
AcDbLine
 62
7
  6
CONTINUOUS
 10
80.3073501575
 20
84.9951625994
 11
81.7877654401
 21
85.1926921713
  0
LINE
  5
24A
100
AcDbEntity
  8
_1
100
AcDbLine
 62
7
  6
CONTINUOUS
 10
67.2274250566
 20
98.4284262879
 11
67.2274250566
 21
98.7761689438
  0
LINE
  5
24B
100
AcDbEntity
  8
_1
100
AcDbLine
 62
7
  6
CONTINUOUS
 10
67.7774250566
 20
98.4488879
 11
67.7774250566
 21
98.0973233028
  0
LINE
  5
24C
100
AcDbEntity
  8
_1
100
AcDbLine
 62
7
  6
CONTINUOUS
 10
68.2774250566
 20
97.9027396176
 11
68.2774250566
 21
98.2575916656
  0
LINE
  5
24D
100
AcDbEntity
  8
_1
100
AcDbLine
 62
7
  6
CONTINUOUS
 10
45.8277221282
 20
103.7499150085
 11
46.9845379644
 21
103.7503062396
  0
LINE
  5
24E
100
AcDbEntity
  8
_1
100
AcDbLine
 62
7
  6
CONTINUOUS
 10
46.9774250566
 20
103.2712842781
 11
51.9774250566
 21
103.2712842781
  0
LINE
  5
24F
100
AcDbEntity
  8
_1
100
AcDbLine
 62
7
  6
CONTINUOUS
 10
46.9774250566
 20
103.5712842781
 11
51.9774250566
 21
103.5712842781
  0
LINE
  5
250
100
AcDbEntity
  8
_1
100
AcDbLine
 62
7
  6
CONTINUOUS
 10
51.970312783
 20
103.7712842781
 11
46.9845373301
 21
103.7712842781
  0
LINE
  5
251
100
AcDbEntity
  8
_1
100
AcDbLine
 62
7
  6
CONTINUOUS
 10
51.9703122162
 20
103.7503121242
 11
53.127127985
 21
103.7499150085
  0
ARC
  5
252
100
AcDbEntity
  8
_1
100
AcDbCircle
 62
7
  6
CONTINUOUS
 10
31.0675789597
 20
75.7692220117
 40
16.4098460982
100
AcDbArc
 50
359.9992644953
 51
0.5344029329
  0
ARC
  5
253
100
AcDbEntity
  8
_1
100
AcDbCircle
 62
7
  6
CONTINUOUS
 10
31.0757178611
 20
60.8731833618
 40
16.4017071957
100
AcDbArc
 50
359.4647722483
 51
0.0002925328
  0
ARC
  5
254
100
AcDbEntity
  8
_1
100
AcDbCircle
 62
7
  6
CONTINUOUS
 10
49.4764992115
 20
67.0287069768
 40
13.3087856202
100
AcDbArc
 50
80.8846136122
 51
87.1607187861
  0
ARC
  5
255
100
AcDbEntity
  8
_1
100
AcDbCircle
 62
7
  6
CONTINUOUS
 10
49.477252647
 20
67.0414184293
 40
13.2961781318
100
AcDbArc
 50
68.8746046629
 51
75.2040986229
  0
CIRCLE
  5
256
100
AcDbEntity
  8
_1
100
AcDbCircle
 62
7
  6
CONTINUOUS
 10
28.4774250566
 20
68.3212842781
 40
1.7690598923
  0
CIRCLE
  5
257
100
AcDbEntity
  8
_1
100
AcDbCircle
 62
7
  6
CONTINUOUS
 10
28.4774250566
 20
68.3212842781
 40
1.4226497308
  0
CIRCLE
  5
258
100
AcDbEntity
  8
_1
100
AcDbCircle
 62
7
  6
CONTINUOUS
 10
28.4774250566
 20
68.3212842781
 40
0.6928203231
  0
ARC
  5
259
100
AcDbEntity
  8
_1
100
AcDbCircle
 62
7
  6
CONTINUOUS
 10
49.4773305109
 20
79.8505967459
 40
0.2002880819
100
AcDbArc
 50
220.1400860131
 51
270.0270463988
  0
ARC
  5
25A
100
AcDbEntity
  8
_1
100
AcDbCircle
 62
7
  6
CONTINUOUS
 10
46.8245950613
 20
79.5726029543
 40
0.200074841
100
AcDbArc
 50
232.1211630861
 51
331.8560941529
  0
ARC
  5
25B
100
AcDbEntity
  8
_1
100
AcDbCircle
 62
7
  6
CONTINUOUS
 10
41.8140544642
 20
133.4854597192
 40
27.8197836219
100
AcDbArc
 50
283.158047766
 51
284.9212957703
  0
ARC
  5
25C
100
AcDbEntity
  8
_1
100
AcDbCircle
 62
7
  6
CONTINUOUS
 10
48.4774250566
 20
103.6253862444
 40
1.5
100
AcDbArc
 50
106.601549599
 51
180.0
  0
ARC
  5
25D
100
AcDbEntity
  8
_1
100
AcDbCircle
 62
7
  6
CONTINUOUS
 10
46.2774250566
 20
103.0882748441
 40
0.8
100
AcDbArc
 50
124.1529153992
 51
180.0
  0
ARC
  5
25E
100
AcDbEntity
  8
_1
100
AcDbCircle
 62
7
  6
CONTINUOUS
 10
49.4774250566
 20
68.3212842781
 40
38.2857277145
100
AcDbArc
 50
89.2517132134
 51
90.7482867866
  0
CIRCLE
  5
25F
100
AcDbEntity
  8
_1
100
AcDbCircle
 62
7
  6
CONTINUOUS
 10
49.4774250566
 20
68.3212842781
 40
38.1
  0
ARC
  5
260
100
AcDbEntity
  8
_1
100
AcDbCircle
 62
7
  6
CONTINUOUS
 10
49.4774250566
 20
68.3212842781
 40
36.45
100
AcDbArc
 50
259.479724426
 51
272.5720979266
  0
ARC
  5
261
100
AcDbEntity
  8
_1
100
AcDbCircle
 62
7
  6
CONTINUOUS
 10
49.4774250566
 20
68.3212842781
 40
36.45
100
AcDbArc
 50
139.479724426
 51
152.5720979266
  0
ARC
  5
262
100
AcDbEntity
  8
_1
100
AcDbCircle
 62
7
  6
CONTINUOUS
 10
49.4774250566
 20
68.3212842781
 40
36.45
100
AcDbArc
 50
14.479724426
 51
27.5720979266
  0
ARC
  5
263
100
AcDbEntity
  8
_1
100
AcDbCircle
 62
7
  6
CONTINUOUS
 10
49.4774250566
 20
68.3212842781
 40
36.3000739251
100
AcDbArc
 50
152.6580863636
 51
259.479724426
  0
ARC
  5
264
100
AcDbEntity
  8
_1
100
AcDbCircle
 62
7
  6
CONTINUOUS
 10
49.4774250566
 20
68.3212842781
 40
36.3
100
AcDbArc
 50
27.6581642837
 51
86.5662761129
  0
ARC
  5
265
100
AcDbEntity
  8
_1
100
AcDbCircle
 62
7
  6
CONTINUOUS
 10
49.4774250566
 20
68.3212842781
 40
36.3
100
AcDbArc
 50
93.4347346842
 51
139.479724426
  0
ARC
  5
266
100
AcDbEntity
  8
_1
100
AcDbCircle
 62
7
  6
CONTINUOUS
 10
49.4774250566
 20
68.3212842781
 40
36.3
100
AcDbArc
 50
272.6581642837
 51
14.479724426
  0
ARC
  5
267
100
AcDbEntity
  8
_1
100
AcDbCircle
 62
7
  6
CONTINUOUS
 10
49.4774250566
 20
68.3212842781
 40
35.35
100
AcDbArc
 50
76.9075757943
 51
83.4219618109
  0
ARC
  5
268
100
AcDbEntity
  8
_1
100
AcDbCircle
 62
7
  6
CONTINUOUS
 10
49.4774250566
 20
68.3212842781
 40
35.35
100
AcDbArc
 50
65.1625103517
 51
75.2812998043
  0
ARC
  5
269
100
AcDbEntity
  8
_1
100
AcDbCircle
 62
7
  6
CONTINUOUS
 10
49.4774250566
 20
68.3212842781
 40
35.35
100
AcDbArc
 50
57.8711367094
 51
60.7158370678
  0
ARC
  5
26A
100
AcDbEntity
  8
_1
100
AcDbCircle
 62
7
  6
CONTINUOUS
 10
49.4774250566
 20
68.3212842781
 40
35.25
100
AcDbArc
 50
58.7248188831
 51
83.4298943195
  0
ARC
  5
26B
100
AcDbEntity
  8
_1
100
AcDbCircle
 62
7
  6
CONTINUOUS
 10
49.4774250566
 20
68.3212842781
 40
35.25
100
AcDbArc
 50
96.5701056805
 51
120.2348866717
  0
ARC
  5
26C
100
AcDbEntity
  8
_1
100
AcDbCircle
 62
7
  6
CONTINUOUS
 10
49.4774250566
 20
68.3212842781
 40
35.05
100
AcDbArc
 50
258.2422777248
 51
259.479724426
  0
ARC
  5
26D
100
AcDbEntity
  8
_1
100
AcDbCircle
 62
7
  6
CONTINUOUS
 10
49.4774250566
 20
68.3212842781
 40
35.05
100
AcDbArc
 50
240.7320324244
 51
253.0062054527
  0
ARC
  5
26E
100
AcDbEntity
  8
_1
100
AcDbCircle
 62
7
  6
CONTINUOUS
 10
49.4774250566
 20
68.3212842781
 40
35.05
100
AcDbArc
 50
225.5620904853
 51
235.5135509914
  0
ARC
  5
26F
100
AcDbEntity
  8
_1
100
AcDbCircle
 62
7
  6
CONTINUOUS
 10
49.4774250566
 20
68.3212842781
 40
35.05
100
AcDbArc
 50
188.2067755821
 51
220.3221912349
  0
ARC
  5
270
100
AcDbEntity
  8
_1
100
AcDbCircle
 62
7
  6
CONTINUOUS
 10
49.4774250566
 20
68.3212842781
 40
35.05
100
AcDbArc
 50
172.9185715515
 51
185.3330912865
  0
ARC
  5
271
100
AcDbEntity
  8
_1
100
AcDbCircle
 62
7
  6
CONTINUOUS
 10
49.4774250566
 20
68.3212842781
 40
35.05
100
AcDbArc
 50
157.7081152675
 51
170.1620213046
  0
ARC
  5
272
100
AcDbEntity
  8
_1
100
AcDbCircle
 62
7
  6
CONTINUOUS
 10
49.4774250566
 20
68.3212842781
 40
35.05
100
AcDbArc
 50
153.4060393963
 51
154.9885651964
  0
ARC
  5
273
100
AcDbEntity
  8
_1
100
AcDbCircle
 62
7
  6
CONTINUOUS
 10
49.4774250566
 20
68.3212842781
 40
35.05
100
AcDbArc
 50
28.4060393963
 51
39.6793749057
  0
ARC
  5
274
100
AcDbEntity
  8
_1
100
AcDbCircle
 62
7
  6
CONTINUOUS
 10
49.4774250566
 20
68.3212842781
 40
35.05
100
AcDbArc
 50
123.0621843346
 51
139.479724426
  0
ARC
  5
275
100
AcDbEntity
  8
_1
100
AcDbCircle
 62
7
  6
CONTINUOUS
 10
49.4774250566
 20
68.3212842781
 40
35.05
100
AcDbArc
 50
120.5192643909
 51
121.3098320453
  0
ARC
  5
276
100
AcDbEntity
  8
_1
100
AcDbCircle
 62
7
  6
CONTINUOUS
 10
49.4774250566
 20
68.3212842781
 40
35.05
100
AcDbArc
 50
41.1689253997
 51
58.4462905817
  0
ARC
  5
277
100
AcDbEntity
  8
_1
100
AcDbCircle
 62
7
  6
CONTINUOUS
 10
49.4774250566
 20
68.3212842781
 40
35.05
100
AcDbArc
 50
10.4638812231
 51
14.479724426
  0
ARC
  5
278
100
AcDbEntity
  8
_1
100
AcDbCircle
 62
7
  6
CONTINUOUS
 10
49.4774250566
 20
68.3212842781
 40
35.05
100
AcDbArc
 50
353.8937413303
 51
4.2419502764
  0
ARC
  5
279
100
AcDbEntity
  8
_1
100
AcDbCircle
 62
7
  6
CONTINUOUS
 10
49.4774250566
 20
68.3212842781
 40
35.05
100
AcDbArc
 50
337.319599802
 51
347.7532425826
  0
ARC
  5
27A
100
AcDbEntity
  8
_1
100
AcDbCircle
 62
7
  6
CONTINUOUS
 10
49.4774250566
 20
68.3212842781
 40
35.05
100
AcDbArc
 50
320.7492742628
 51
331.2828144223
  0
ARC
  5
27B
100
AcDbEntity
  8
_1
100
AcDbCircle
 62
7
  6
CONTINUOUS
 10
49.4774250566
 20
68.3212842781
 40
35.05
100
AcDbArc
 50
304.1781078111
 51
314.8307083976
  0
ARC
  5
27C
100
AcDbEntity
  8
_1
100
AcDbCircle
 62
7
  6
CONTINUOUS
 10
49.4774250566
 20
68.3212842781
 40
35.05
100
AcDbArc
 50
282.0049951547
 51
298.4009588313
  0
ARC
  5
27D
100
AcDbEntity
  8
_1
100
AcDbCircle
 62
7
  6
CONTINUOUS
 10
49.4774250566
 20
68.3212842781
 40
35.05
100
AcDbArc
 50
273.4060393963
 51
274.9428557924
  0
CIRCLE
  5
27E
100
AcDbEntity
  8
_1
100
AcDbCircle
 62
7
  6
CONTINUOUS
 10
49.4774250566
 20
68.3212842781
 40
34.95
  0
CIRCLE
  5
27F
100
AcDbEntity
  8
_1
100
AcDbCircle
 62
7
  6
CONTINUOUS
 10
49.4774250566
 20
68.3212842781
 40
32.95
  0
CIRCLE
  5
280
100
AcDbEntity
  8
_1
100
AcDbCircle
 62
7
  6
CONTINUOUS
 10
49.4774250566
 20
68.3212842781
 40
16.1
  0
CIRCLE
  5
281
100
AcDbEntity
  8
_1
100
AcDbCircle
 62
7
  6
CONTINUOUS
 10
49.4774250566
 20
68.3212842781
 40
14.1
  0
ARC
  5
282
100
AcDbEntity
  8
_1
100
AcDbCircle
 62
7
  6
CONTINUOUS
 10
49.4783509017
 20
67.0287069768
 40
13.3087856202
100
AcDbArc
 50
92.8392812139
 51
99.1153863878
  0
ARC
  5
283
100
AcDbEntity
  8
_1
100
AcDbCircle
 62
7
  6
CONTINUOUS
 10
49.4775974662
 20
67.0414184292
 40
13.2961781319
100
AcDbArc
 50
104.7959013771
 51
111.1253953371
  0
CIRCLE
  5
284
100
AcDbEntity
  8
_1
100
AcDbCircle
 62
7
  6
CONTINUOUS
 10
49.4774250566
 20
68.3212842781
 40
13.075
  0
ARC
  5
285
100
AcDbEntity
  8
_1
100
AcDbCircle
 62
7
  6
CONTINUOUS
 10
49.4774250566
 20
68.3212842781
 40
12.575
100
AcDbArc
 50
10.2323626235
 51
169.7676373765
  0
ARC
  5
286
100
AcDbEntity
  8
_1
100
AcDbCircle
 62
7
  6
CONTINUOUS
 10
49.4774250566
 20
68.3212842781
 40
12.575
100
AcDbArc
 50
190.2323626235
 51
349.7676373765
  0
ARC
  5
287
100
AcDbEntity
  8
_1
100
AcDbCircle
 62
7
  6
CONTINUOUS
 10
49.4774250566
 20
68.3212842781
 40
12.175
100
AcDbArc
 50
225.0
 51
245.7525911819
  0
ARC
  5
288
100
AcDbEntity
  8
_1
100
AcDbCircle
 62
7
  6
CONTINUOUS
 10
49.4774250566
 20
68.3212842781
 40
12.175
100
AcDbArc
 50
294.2474088181
 51
315.0
  0
ARC
  5
289
100
AcDbEntity
  8
_1
100
AcDbCircle
 62
7
  6
CONTINUOUS
 10
49.4774250566
 20
68.3212842781
 40
10.5
100
AcDbArc
 50
136.5677401537
 51
241.5626848786
  0
ARC
  5
28A
100
AcDbEntity
  8
_1
100
AcDbCircle
 62
7
  6
CONTINUOUS
 10
49.4774250566
 20
68.3212842781
 40
10.5
100
AcDbArc
 50
298.4372047469
 51
43.4323358076
  0
CIRCLE
  5
28B
100
AcDbEntity
  8
_1
100
AcDbCircle
 62
7
  6
CONTINUOUS
 10
49.4774250566
 20
68.3212842781
 40
8.0
  0
ARC
  5
28C
100
AcDbEntity
  8
_1
100
AcDbCircle
 62
7
  6
CONTINUOUS
 10
49.4775196023
 20
79.8505967459
 40
0.2002880819
100
AcDbArc
 50
269.9729536012
 51
319.8599139861
  0
ARC
  5
28D
100
AcDbEntity
  8
_1
100
AcDbCircle
 62
7
  6
CONTINUOUS
 10
52.1302550515
 20
79.5726029537
 40
0.2000748405
100
AcDbArc
 50
208.1439057563
 51
307.8788369142
  0
ARC
  5
28E
100
AcDbEntity
  8
_1
100
AcDbCircle
 62
7
  6
CONTINUOUS
 10
67.8927156762
 20
60.8733393239
 40
16.415290621
100
AcDbArc
 50
179.9992395306
 51
180.535365165
  0
CIRCLE
  5
28F
100
AcDbEntity
  8
_1
100
AcDbCircle
 62
7
  6
CONTINUOUS
 10
70.4774250566
 20
68.3212842781
 40
1.7690598923
  0
CIRCLE
  5
290
100
AcDbEntity
  8
_1
100
AcDbCircle
 62
7
  6
CONTINUOUS
 10
70.4774250566
 20
68.3212842781
 40
1.4226497308
  0
CIRCLE
  5
291
100
AcDbEntity
  8
_1
100
AcDbCircle
 62
7
  6
CONTINUOUS
 10
70.4774250566
 20
68.3212842781
 40
0.692820323
  0
ARC
  5
292
100
AcDbEntity
  8
_1
100
AcDbCircle
 62
7
  6
CONTINUOUS
 10
67.8713710156
 20
75.7693741946
 40
16.3939459592
100
AcDbArc
 50
179.4656470273
 51
180.0002543142
  0
ARC
  5
293
100
AcDbEntity
  8
_1
100
AcDbCircle
 62
7
  6
CONTINUOUS
 10
49.4774250566
 20
98.3712842781
 40
6.5
100
AcDbArc
 50
55.8470846011
 51
69.8737763639
  0
ARC
  5
294
100
AcDbEntity
  8
_1
100
AcDbCircle
 62
7
  6
CONTINUOUS
 10
49.4774250566
 20
98.3712842781
 40
6.5
100
AcDbArc
 50
110.1262311463
 51
124.1529153989
  0
ARC
  5
295
100
AcDbEntity
  8
_1
100
AcDbCircle
 62
7
  6
CONTINUOUS
 10
49.4774250566
 20
100.2712842781
 40
5.0
100
AcDbArc
 50
73.398450401
 51
106.601549599
  0
ARC
  5
296
100
AcDbEntity
  8
_1
100
AcDbCircle
 62
7
  6
CONTINUOUS
 10
50.4774250566
 20
103.6253862444
 40
1.5
100
AcDbArc
 50
0.0
 51
73.398450401
  0
ARC
  5
297
100
AcDbEntity
  8
_1
100
AcDbCircle
 62
7
  6
CONTINUOUS
 10
52.6774250566
 20
103.0882748441
 40
0.8
100
AcDbArc
 50
0.0
 51
55.8470846008
  0
SPLINE
  5
298
100
AcDbEntity
  8
_1
100
AcDbSpline
 62
7
  6
CONTINUOUS
 70
0
 71
3
 72
9
 73
5
 74
0
 42
0.0000001
 43
0.0000001
 44
0.0000000001
 40
0.0
 40
0.0
 40
0.0
 40
0.0
 40
0.2578148477
 40
1.0
 40
1.0
 40
1.0
 40
1.0
 10
55.2308387787
 20
79.3535020462
 30
0.0
 10
55.2457857476
 20
79.3535020462
 30
0.0
 10
55.3037035993
 20
79.3562319727
 30
0.0
 10
55.3612151771
 20
79.3717226763
 30
0.0
 10
55.399966364
 20
79.3904258332
 30
0.0
  0
SPLINE
  5
299
100
AcDbEntity
  8
_1
100
AcDbSpline
 62
7
  6
CONTINUOUS
 70
0
 71
3
 72
9
 73
5
 74
0
 42
0.0000001
 43
0.0000001
 44
0.0000000001
 40
0.0
 40
0.0
 40
0.0
 40
0.0
 40
0.2411637965
 40
1.0
 40
1.0
 40
1.0
 40
1.0
 10
43.5548837492
 20
79.3904258332
 30
0.0
 10
43.567478193
 20
79.3843471585
 30
0.0
 10
43.6211610366
 20
79.3621704697
 30
0.0
 10
43.6800078182
 20
79.3535020462
 30
0.0
 10
43.7240113345
 20
79.3535020462
 30
0.0
  0
SPLINE
  5
29A
100
AcDbEntity
  8
_1
100
AcDbSpline
 62
7
  6
CONTINUOUS
 70
0
 71
3
 72
8
 73
4
 74
0
 42
0.0000001
 43
0.0000001
 44
0.0000000001
 40
0.0
 40
0.0
 40
0.0
 40
0.0
 40
1.0
 40
1.0
 40
1.0
 40
1.0
 10
46.3758963177
 20
60.9558788473
 30
0.0
 10
46.3734707479
 20
61.2101551018
 30
0.0
 10
46.3708431551
 20
61.4644295542
 30
0.0
 10
46.3679615199
 20
61.7187010492
 30
0.0
  0
SPLINE
  5
29B
100
AcDbEntity
  8
_1
100
AcDbSpline
 62
7
  6
CONTINUOUS
 70
0
 71
3
 72
9
 73
5
 74
0
 42
0.0000001
 43
0.0000001
 44
0.0000000001
 40
0.0
 40
0.0
 40
0.0
 40
0.0
 40
0.503566966
 40
1.0
 40
1.0
 40
1.0
 40
1.0
 10
52.7071556963
 20
68.3212842781
 30
0.0
 10
52.7071556837
 20
67.3724695062
 30
0.0
 10
52.648405048
 20
65.4888078028
 30
0.0
 10
52.6121013675
 20
63.6050375558
 30
0.0
 10
52.5989271227
 20
62.669757233
 30
0.0
  0
SPLINE
  5
29C
100
AcDbEntity
  8
_1
100
AcDbSpline
 62
7
  6
CONTINUOUS
 70
0
 71
3
 72
9
 73
5
 74
0
 42
0.0000001
 43
0.0000001
 44
0.0000000001
 40
0.0
 40
0.0
 40
0.0
 40
0.0
 40
0.5035672307
 40
1.0
 40
1.0
 40
1.0
 40
1.0
 10
52.7071556963
 20
68.3212842781
 30
0.0
 10
52.7071552874
 20
69.2700995238
 30
0.0
 10
52.6484064005
 20
71.1537611993
 30
0.0
 10
52.61209209
 20
73.0375312026
 30
0.0
 10
52.5989190411
 20
73.9728110192
 30
0.0
  0
SPLINE
  5
29D
100
AcDbEntity
  8
_1
100
AcDbSpline
 62
7
  6
CONTINUOUS
 70
0
 71
3
 72
9
 73
5
 74
0
 42
0.0000001
 43
0.0000001
 44
0.0000000001
 40
0.0
 40
0.0
 40
0.0
 40
0.0
 40
0.5035672307
 40
1.0
 40
1.0
 40
1.0
 40
1.0
 10
46.2476944169
 20
68.3212842781
 30
0.0
 10
46.2476948255
 20
67.3724690321
 30
0.0
 10
46.3064437252
 20
65.4888073567
 30
0.0
 10
46.3427579987
 20
63.6050373524
 30
0.0
 10
46.3559310419
 20
62.6697575358
 30
0.0
  0
SPLINE
  5
29E
100
AcDbEntity
  8
_1
100
AcDbSpline
 62
7
  6
CONTINUOUS
 70
0
 71
3
 72
9
 73
5
 74
0
 42
0.0000001
 43
0.0000001
 44
0.0000000001
 40
0.0
 40
0.0
 40
0.0
 40
0.0
 40
0.5035669661
 40
1.0
 40
1.0
 40
1.0
 40
1.0
 10
46.2476944169
 20
68.3212842781
 30
0.0
 10
46.2476944295
 20
69.2700990502
 30
0.0
 10
46.3064450699
 20
71.1537607536
 30
0.0
 10
46.3427487293
 20
73.0375310012
 30
0.0
 10
46.355922971
 20
73.972811324
 30
0.0
  0
SPLINE
  5
29F
100
AcDbEntity
  8
_1
100
AcDbSpline
 62
7
  6
CONTINUOUS
 70
0
 71
3
 72
8
 73
4
 74
0
 42
0.0000001
 43
0.0000001
 44
0.0000000001
 40
0.0
 40
0.0
 40
0.0
 40
0.0
 40
1.0
 40
1.0
 40
1.0
 40
1.0
 10
52.5789537964
 20
75.6866896968
 30
0.0
 10
52.5813793672
 20
75.4324134464
 30
0.0
 10
52.584006961
 20
75.178138998
 30
0.0
 10
52.5868885971
 20
74.9238675071
 30
0.0
  0
SPLINE
  5
2A0
100
AcDbEntity
  8
_1
100
AcDbSpline
 62
7
  6
CONTINUOUS
 70
0
 71
3
 72
8
 73
4
 74
0
 42
0.0000001
 43
0.0000001
 44
0.0000000001
 40
0.0
 40
0.0
 40
0.0
 40
0.0
 40
1.0
 40
1.0
 40
1.0
 40
1.0
 10
46.3679524679
 20
74.9238679043
 30
0.0
 10
46.3708340685
 20
75.1781338222
 30
0.0
 10
46.3734622214
 20
75.432402691
 30
0.0
 10
46.3758883786
 20
75.6866733625
 30
0.0
  0
SPLINE
  5
2A1
100
AcDbEntity
  8
_1
100
AcDbSpline
 62
7
  6
CONTINUOUS
 70
0
 71
3
 72
8
 73
4
 74
0
 42
0.0000001
 43
0.0000001
 44
0.0000000001
 40
0.0
 40
0.0
 40
0.0
 40
0.0
 40
1.0
 40
1.0
 40
1.0
 40
1.0
 10
52.5868976259
 20
61.7187006528
 30
0.0
 10
52.5840160245
 20
61.4644347264
 30
0.0
 10
52.581387872
 20
61.210165849
 30
0.0
 10
52.5789617159
 20
60.9558951689
 30
0.0
  0
ENDSEC
  0
SECTION
  2
OBJECTS
  0
DICTIONARY
  5
C
100
AcDbDictionary
280
0
281
1
  3
ACAD_GROUP
350
D
  3
ACAD_MLINESTYLE
350
17
  3
ACAD_LAYOUT
350
1A
  3
ACAD_PLOTSETTINGS
350
19
  3
ACAD_PLOTSTYLENAME
350
E
  0
DICTIONARY
  5
D
102
{ACAD_REACTORS
330
C
102
}
100
AcDbDictionary
280
0
281
1
  0
ACDBDICTIONARYWDFLT
  5
E
102
{ACAD_REACTORS
330
C
102
}
100
AcDbDictionary
281
1
  3
Normal
350
F
100
AcDbDictionaryWithDefault
340
F
  0
DICTIONARY
  5
17
102
{ACAD_REACTORS
330
C
102
}
100
AcDbDictionary
280
0
281
1
  3
Standard
350
18
  0
DICTIONARY
  5
19
102
{ACAD_REACTORS
330
C
102
}
100
AcDbDictionary
281
1
  0
DICTIONARY
  5
1A
102
{ACAD_REACTORS
330
C
102
}
100
AcDbDictionary
281
1
  3
Model
350
2A2
  3
Layout1
350
2A3
  0
ACDBPLACEHOLDER
  5
F
102
{ACAD_REACTORS
330
E
102
}
  0
MLINESTYLE
  5
18
102
{ACAD_REACTORS
330
17
102
}
100
AcDbMlineStyle
  2
STANDARD
 70
0
  3

 62
256
 51
90.0
 52
90.0
 71
2
 49
0.5
 62
256
  6
BYLAYER
 49
-0.5
 62
256
  6
BYLAYER
  0
LAYOUT
  5
2A2
102
{ACAD_REACTORS
330
1A
102
}
100
AcDbPlotSettings
  1

  2
none_device
  4

  6

 40
0.0
 41
0.0
 42
0.0
 43
0.0
 44
210.0
 45
297.0
 46
0.0
 47
0.0
 48
0.0
 49
0.0
140
0.0
141
0.0
142
1.0
143
1.0
 70
1024
 72
1
 73
0
 74
0
  7

 75
0
147
1.0
148
0.0
149
0.0
100
AcDbLayout
  1
Model
 70
0
 71
0
 10
0.0
 20
0.0
 11
210.0
 21
297.0
 12
0.0
 22
0.0
 32
0.0
 14
0.0
 24
0.0
 34
0.0
 15
0.0
 25
0.0
 35
0.0
146
0.0
 13
0.0
 23
0.0
 33
0.0
 16
1.0
 26
0.0
 36
0.0
 17
0.0
 27
1.0
 37
0.0
 76
0
330
211
345
0
346
0
  0
LAYOUT
  5
2A3
102
{ACAD_REACTORS
330
1A
102
}
100
AcDbPlotSettings
  1

  2
none_device
  4

  6

 40
0.0
 41
0.0
 42
0.0
 43
0.0
 44
210.0
 45
297.0
 46
0.0
 47
0.0
 48
0.0
 49
0.0
140
0.0
141
0.0
142
1.0
143
1.0
 70
0
 72
1
 73
0
 74
0
  7

 75
0
147
1.0
148
0.0
149
0.0
100
AcDbLayout
  1
Layout1
 70
0
 71
1
 10
0.0
 20
0.0
 11
210.0
 21
297.0
 12
0.0
 22
0.0
 32
0.0
 14
0.0
 24
0.0
 34
0.0
 15
0.0
 25
0.0
 35
0.0
146
0.0
 13
0.0
 23
0.0
 33
0.0
 16
1.0
 26
0.0
 36
0.0
 17
0.0
 27
1.0
 37
0.0
 76
0
330
212
345
0
346
0
  0
ENDSEC
  0
EOF
