999
DXF file: C:\Users\sesa63760\Dev\_Creo\CAD\MCADID0004247_3D-CAD\drw0001_6.dxf
999
Pro/ENGINEER 2019471 by Parametric Technology Corporation
  0
SECTION
  2
HEADER
  9
$ACADVER
  1
AC1024
  9
$DWGCODEPAGE
  3
ANSI_1252
  9
$EXTMAX
 10
1350.2559181387
 20
1909.6476556533
 30
0.0
  9
$EXTMIN
 10
0.0
 20
0.0
 30
0.0
  9
$LIMMIN
 10
0.0
 20
0.0
  9
$LIMMAX
 10
1350.2559181387
 20
1909.6476556533
  9
$VIEWCTR
 10
675.1279590693
 20
954.8238278266
  9
$VIEWSIZE
 40
1909.6476556533
  9
$CLAYER
  8
0
  9
$LTSCALE
 40
124.4807360722
  9
$CELTYPE
  6
BYLAYER
  9
$DIMSCALE
 40
1.0
  9
$DIMASZ
 40
16.0744752159
  9
$DIMEXO
 40
1.0
  9
$DIMDLI
 40
86.0048721953
  9
$DIMEXE
 40
1.0
  9
$DIMCEN
 40
20.3695749936
  9
$DIMLFAC
 40
1.0
  9
$DIMBLK
  1
_FILLED
  9
$DIMALT
 70
0
  9
$DIMALTF
 40
0.0393700787
  9
$DIMTXT
 40
22.5042653023
  9
$DIMTOL
 70
1
  9
$DIMLIM
 70
0
  9
$DIMTFAC
 40
1.0
  9
$DIMTP
 40
0.01
  9
$DIMTM
 40
0.01
  9
$DIMGAP
 40
0.625
  9
$DIMDSEP
 70
46
  9
$AUNITS
 70
0
  9
$PDMODE
 70
3
  9
$PDSIZE
 40
0.3125
  9
$HANDSEED
  5
333
  9
$TILEMODE
 70
1
  9
$MEASUREMENT
 70
1
  9
$INSUNITS
 70
4
  0
ENDSEC
  0
SECTION
  2
CLASSES
  0
CLASS
  1
ACDBDICTIONARYWDFLT
  2
AcDbDictionaryWithDefault
  3
AutoCAD 2000
 90
0
 91
1
280
0
281
0
  0
CLASS
  1
ACDBPLACEHOLDER
  2
AcDbPlaceHolder
  3
AutoCAD 2000
 90
0
 91
1
280
0
281
0
  0
CLASS
  1
LAYOUT
  2
AcDbLayout
  3
AutoCAD 2000
 90
0
 91
0
280
0
281
0
  0
ENDSEC
  0
SECTION
  2
TABLES
  0
TABLE
  2
VPORT
  5
8
100
AcDbSymbolTable
 70
2
  0
VPORT
  5
1F4
100
AcDbSymbolTableRecord
100
AcDbViewportTableRecord
  2
*ACTIVE
 70
0
 10
0.0
 20
0.0
 11
1.0
 21
1.0
 12
675.1279590693
 22
954.8238278266
 13
0.0
 23
0.0
 14
1.0
 24
1.0
 15
0.0
 25
0.0
 16
0.0
 26
0.0
 36
1.0
 17
0.0
 27
0.0
 37
0.0
 40
1909.6476556533
 41
0.7070707071
 42
50.0
 43
0.0
 44
0.0
 50
0.0
 51
0.0
 71
0
 72
100
 73
1
 74
1
 75
0
 76
0
 77
0
 78
0
  0
ENDTAB
  0
TABLE
  2
LTYPE
  5
5
100
AcDbSymbolTable
 70
6
  0
LTYPE
  5
14
100
AcDbSymbolTableRecord
100
AcDbLinetypeTableRecord
  2
BYBLOCK
 70
0
  3

 72
65
 73
0
 40
0.0
  0
LTYPE
  5
15
100
AcDbSymbolTableRecord
100
AcDbLinetypeTableRecord
  2
BYLAYER
 70
0
  3

 72
65
 73
0
 40
0.0
  0
LTYPE
  5
16
100
AcDbSymbolTableRecord
100
AcDbLinetypeTableRecord
  2
CONTINUOUS
 70
64
  3
Solid line
 72
65
 73
0
 40
0.0
  0
LTYPE
  5
1F5
100
AcDbSymbolTableRecord
100
AcDbLinetypeTableRecord
  2
CENTER
 70
64
  3
____ _ ____ _ ____ _ ____ _ ____ _ ____ _ ____
 72
65
 73
4
 40
0.6
 49
0.375
 74
0
 49
-0.075
 74
0
 49
0.075
 74
0
 49
-0.075
 74
0
  0
LTYPE
  5
1F6
100
AcDbSymbolTableRecord
100
AcDbLinetypeTableRecord
  2
HIDDEN
 70
64
  3
- - - - - - - - - - - - - - - - - - - -
 72
65
 73
2
 40
0.2
 49
0.1
 74
0
 49
-0.1
 74
0
  0
LTYPE
  5
1F7
100
AcDbSymbolTableRecord
100
AcDbLinetypeTableRecord
  2
PHANTOM
 70
64
  3
_____ _ _ _____ _ _ _____ _ _ _____
 72
65
 73
6
 40
0.8
 49
0.45
 74
0
 49
-0.05
 74
0
 49
0.1
 74
0
 49
-0.05
 74
0
 49
0.1
 74
0
 49
-0.05
 74
0
  0
LTYPE
  5
1F8
100
AcDbSymbolTableRecord
100
AcDbLinetypeTableRecord
  2
DOT
 70
64
  3
. . . . . . . . . . . . . . . . . . . .
 72
65
 73
2
 40
0.2
 49
0.1
 74
0
 49
-0.1
 74
0
  0
LTYPE
  5
1F9
100
AcDbSymbolTableRecord
100
AcDbLinetypeTableRecord
  2
DASHED
 70
64
  3
- - - - - - - - - - - - - - - - - - - -
 72
65
 73
2
 40
0.2
 49
0.1
 74
0
 49
-0.1
 74
0
  0
ENDTAB
  0
TABLE
  2
LAYER
  5
2
100
AcDbSymbolTable
 70
36
  0
LAYER
  5
10
100
AcDbSymbolTableRecord
100
AcDbLayerTableRecord
  2
0
 70
0
 62
7
  6
CONTINUOUS
370
-3
390
F
  0
LAYER
  5
1FA
100
AcDbSymbolTableRecord
100
AcDbLayerTableRecord
  2
DEFAULT_1
 70
0
 62
7
  6
CENTER
370
-3
390
F
  0
LAYER
  5
1FB
100
AcDbSymbolTableRecord
100
AcDbLayerTableRecord
  2
DEFAULT_2
 70
0
 62
7
  6
HIDDEN
370
-3
390
F
  0
LAYER
  5
1FC
100
AcDbSymbolTableRecord
100
AcDbLayerTableRecord
  2
DEFAULT_3
 70
0
 62
7
  6
PHANTOM
370
-3
390
F
  0
LAYER
  5
1FD
100
AcDbSymbolTableRecord
100
AcDbLayerTableRecord
  2
00_COMPONENTS
 70
0
 62
7
  6
CONTINUOUS
370
-3
390
F
  0
LAYER
  5
1FE
100
AcDbSymbolTableRecord
100
AcDbLayerTableRecord
  2
01_1_DEFAULT_DATUMS
 70
0
 62
7
  6
CONTINUOUS
370
-3
390
F
  0
LAYER
  5
1FF
100
AcDbSymbolTableRecord
100
AcDbLayerTableRecord
  2
01_PLANES
 70
0
 62
7
  6
CONTINUOUS
370
-3
390
F
  0
LAYER
  5
200
100
AcDbSymbolTableRecord
100
AcDbLayerTableRecord
  2
02_COORD_SYS
 70
0
 62
7
  6
CONTINUOUS
370
-3
390
F
  0
LAYER
  5
201
100
AcDbSymbolTableRecord
100
AcDbLayerTableRecord
  2
03_AXES
 70
0
 62
7
  6
CONTINUOUS
370
-3
390
F
  0
LAYER
  5
202
100
AcDbSymbolTableRecord
100
AcDbLayerTableRecord
  2
04_POINTS
 70
0
 62
7
  6
CONTINUOUS
370
-3
390
F
  0
LAYER
  5
203
100
AcDbSymbolTableRecord
100
AcDbLayerTableRecord
  2
05_CURVES
 70
0
 62
7
  6
CONTINUOUS
370
-3
390
F
  0
LAYER
  5
204
100
AcDbSymbolTableRecord
100
AcDbLayerTableRecord
  2
06_SURFS
 70
0
 62
7
  6
CONTINUOUS
370
-3
390
F
  0
LAYER
  5
205
100
AcDbSymbolTableRecord
100
AcDbLayerTableRecord
  2
07_COSMETICS
 70
0
 62
7
  6
CONTINUOUS
370
-3
390
F
  0
LAYER
  5
206
100
AcDbSymbolTableRecord
100
AcDbLayerTableRecord
  2
10_NOTES
 70
0
 62
7
  6
CONTINUOUS
370
-3
390
F
  0
LAYER
  5
207
100
AcDbSymbolTableRecord
100
AcDbLayerTableRecord
  2
11_NOTES_PUB
 70
0
 62
7
  6
CONTINUOUS
370
-3
390
F
  0
LAYER
  5
208
100
AcDbSymbolTableRecord
100
AcDbLayerTableRecord
  2
13_REF_GTOL
 70
0
 62
7
  6
CONTINUOUS
370
-3
390
F
  0
LAYER
  5
209
100
AcDbSymbolTableRecord
100
AcDbLayerTableRecord
  2
16_MISC
 70
0
 62
7
  6
CONTINUOUS
370
-3
390
F
  0
LAYER
  5
20A
100
AcDbSymbolTableRecord
100
AcDbLayerTableRecord
  2
17_NO_PRINT
 70
0
 62
7
  6
CONTINUOUS
370
-3
390
F
  0
LAYER
  5
20B
100
AcDbSymbolTableRecord
100
AcDbLayerTableRecord
  2
18_DATUM_CAMS_JOINTS
 70
0
 62
7
  6
CONTINUOUS
370
-3
390
F
  0
LAYER
  5
20C
100
AcDbSymbolTableRecord
100
AcDbLayerTableRecord
  2
19_DATUM_FUNCTIONAL
 70
0
 62
7
  6
CONTINUOUS
370
-3
390
F
  0
LAYER
  5
20D
100
AcDbSymbolTableRecord
100
AcDbLayerTableRecord
  2
20_DATUM_KINEMATIC_SCHEME
 70
0
 62
7
  6
CONTINUOUS
370
-3
390
F
  0
LAYER
  5
20E
100
AcDbSymbolTableRecord
100
AcDbLayerTableRecord
  2
3
 70
0
 62
7
  6
CONTINUOUS
370
-3
390
F
  0
LAYER
  5
20F
100
AcDbSymbolTableRecord
100
AcDbLayerTableRecord
  2
4
 70
0
 62
7
  6
CONTINUOUS
370
-3
390
F
  0
ENDTAB
  0
TABLE
  2
STYLE
  5
3
100
AcDbSymbolTable
 70
1
  0
STYLE
  5
11
100
AcDbSymbolTableRecord
100
AcDbTextStyleTableRecord
  2
STANDARD
 70
0
 40
0.0
 41
1.0
 50
0.0
 71
0
 42
0.2
  3
ARIAL.TTF
  4

  0
STYLE
  5
210
100
AcDbSymbolTableRecord
100
AcDbTextStyleTableRecord
  2
TEXTSTYLE_1
 70
0
 40
0.0
 41
0.8
 50
0.0
 71
0
 42
0.2
  3
gdt
  4

  0
ENDTAB
  0
TABLE
  2
VIEW
  5
6
100
AcDbSymbolTable
 70
0
  0
ENDTAB
  0
TABLE
  2
UCS
  5
7
100
AcDbSymbolTable
 70
0
  0
ENDTAB
  0
TABLE
  2
APPID
  5
9
100
AcDbSymbolTable
 70
1
  0
APPID
  5
211
100
AcDbSymbolTableRecord
100
AcDbRegAppTableRecord
  2
ACAD
 70
0
  0
ENDTAB
  0
TABLE
  2
BLOCK_RECORD
  5
1
100
AcDbSymbolTable
 70
0
  0
BLOCK_RECORD
  5
212
100
AcDbSymbolTableRecord
100
AcDbBlockTableRecord
  2
*Model_Space
  0
BLOCK_RECORD
  5
213
100
AcDbSymbolTableRecord
100
AcDbBlockTableRecord
  2
*Paper_Space
  0
BLOCK_RECORD
  5
214
100
AcDbSymbolTableRecord
100
AcDbBlockTableRecord
  2
_FILLED
  0
ENDTAB
  0
TABLE
  2
DIMSTYLE
  5
A
100
AcDbSymbolTable
 70
1
100
AcDbDimStyleTable
 71
0
  0
DIMSTYLE
105
215
100
AcDbSymbolTableRecord
100
AcDbDimStyleTableRecord
  2
STANDARD
 70
0
  3

  4

 40
1.0
 41
16.0744752159
 42
1.0
 43
0.38
 44
1.0
 45
0.0
 46
0.0
 47
0.01
 48
0.01
140
22.5042653023
141
0.09
142
0.0
143
25.4
144
1.0
145
0.0
146
1.0
147
0.625
 71
1
 72
0
 73
0
 74
0
 75
0
 76
0
 77
1
 78
8
 79
2
170
0
171
1
172
0
173
0
174
0
175
0
176
0
177
0
178
0
270
2
179
2
271
2
272
2
273
2
274
2
275
0
280
0
281
0
282
0
283
1
284
8
285
0
286
0
287
3
288
0
340
11
278
46
341
214
342
214
343
214
344
214
  0
ENDTAB
  0
ENDSEC
  0
SECTION
  2
BLOCKS
  0
BLOCK
  5
20
100
AcDbEntity
  8
0
100
AcDbBlockBegin
  2
*Model_Space
 70
0
 10
0.0
 20
0.0
 30
0.0
  3
*Model_Space
  1

  0
ENDBLK
  5
21
100
AcDbEntity
  8
0
100
AcDbBlockEnd
  0
BLOCK
  5
1C
100
AcDbEntity
  8
0
100
AcDbBlockBegin
  2
*Paper_Space
 70
0
 10
0.0
 20
0.0
 30
0.0
  3
*Paper_Space
  1

  0
ENDBLK
  5
1D
100
AcDbEntity
  8
0
100
AcDbBlockEnd
  0
BLOCK
  5
216
100
AcDbEntity
  8
0
100
AcDbBlockBegin
  2
_FILLED
 70
64
 10
0.0
 20
0.0
  3
_FILLED
  1

  0
SOLID
  5
217
100
AcDbEntity
  8
0
  6
BYBLOCK
 62
0
100
AcDbTrace
 10
0.0
 20
0.0
 11
-1.0
 21
0.25
 12
-1.0
 22
-0.25
 13
-1.0
 23
-0.25
  0
ENDBLK
  5
218
100
AcDbEntity
  8
0
  6
BYBLOCK
 62
0
100
AcDbBlockEnd
  0
ENDSEC
  0
SECTION
  2
ENTITIES
  0
LINE
  5
219
100
AcDbEntity
  8
0
100
AcDbLine
 62
7
  6
BYLAYER
 10
686.9988625479
 20
157.7738271195
 11
682.3990392456
 21
157.7738271195
  0
LINE
  5
21A
100
AcDbEntity
  8
0
100
AcDbLine
 62
7
  6
BYLAYER
 10
646.9988744268
 20
157.7738271195
 11
642.3990511245
 21
157.7738271195
  0
LINE
  5
21B
100
AcDbEntity
  8
0
100
AcDbLine
 62
7
  6
BYLAYER
 10
642.0261728649
 20
157.873716981
 11
635.198955147
 21
157.873716981
  0
LINE
  5
21C
100
AcDbEntity
  8
0
100
AcDbLine
 62
7
  6
BYLAYER
 10
647.3717611868
 20
157.873716981
 11
682.0261609861
 21
157.873716981
  0
LINE
  5
21D
100
AcDbEntity
  8
0
100
AcDbLine
 62
7
  6
BYLAYER
 10
687.371749308
 20
157.873716981
 11
688.1989551471
 21
157.873716981
  0
LINE
  5
21E
100
AcDbEntity
  8
0
100
AcDbLine
 62
7
  6
BYLAYER
 10
665.8404033271
 20
158.373716981
 11
657.5584714928
 21
158.373716981
  0
LINE
  5
21F
100
AcDbEntity
  8
0
100
AcDbLine
 62
7
  6
BYLAYER
 10
687.998955147
 20
158.7738271195
 11
681.398955147
 21
158.7738271195
  0
LINE
  5
220
100
AcDbEntity
  8
0
100
AcDbLine
 62
7
  6
BYLAYER
 10
647.9989670259
 20
158.7738271195
 11
641.3989670259
 21
158.7738271195
  0
LINE
  5
221
100
AcDbEntity
  8
0
100
AcDbLine
 62
7
  6
BYLAYER
 10
689.198955147
 20
158.873716981
 11
687.998955147
 21
158.873716981
  0
LINE
  5
222
100
AcDbEntity
  8
0
100
AcDbLine
 62
7
  6
BYLAYER
 10
681.398955147
 20
158.873716981
 11
665.698955147
 21
158.8737169876
  0
LINE
  5
223
100
AcDbEntity
  8
0
100
AcDbLine
 62
7
  6
BYLAYER
 10
657.698955147
 20
158.873716981
 11
647.9989670259
 21
158.873716981
  0
LINE
  5
224
100
AcDbEntity
  8
0
100
AcDbLine
 62
7
  6
BYLAYER
 10
641.3989670259
 20
158.873716981
 11
634.198955147
 21
158.873716981
  0
LINE
  5
225
100
AcDbEntity
  8
0
100
AcDbLine
 62
7
  6
BYLAYER
 10
640.7866399175
 20
159.873716981
 11
641.3989670259
 21
159.873716981
  0
LINE
  5
226
100
AcDbEntity
  8
0
100
AcDbLine
 62
7
  6
BYLAYER
 10
647.9989670259
 20
159.873716981
 11
649.198955147
 21
159.8737169238
  0
LINE
  5
227
100
AcDbEntity
  8
0
100
AcDbLine
 62
7
  6
BYLAYER
 10
680.198955147
 20
159.8737169121
 11
681.398955147
 21
159.873716981
  0
LINE
  5
228
100
AcDbEntity
  8
0
100
AcDbLine
 62
7
  6
BYLAYER
 10
687.998955147
 20
159.873716981
 11
689.198955147
 21
159.873716912
  0
LINE
  5
229
100
AcDbEntity
  8
0
100
AcDbLine
 62
7
  6
BYLAYER
 10
681.698955147
 20
160.373716981
 11
688.698955147
 21
160.373716981
  0
LINE
  5
22A
100
AcDbEntity
  8
0
100
AcDbLine
 62
7
  6
BYLAYER
 10
641.1492016535
 20
160.373716981
 11
647.698955147
 21
160.373716981
  0
LINE
  5
22B
100
AcDbEntity
  8
0
100
AcDbLine
 62
7
  6
BYLAYER
 10
689.198955147
 20
160.873716981
 11
681.698955147
 21
160.873716981
  0
LINE
  5
22C
100
AcDbEntity
  8
0
100
AcDbLine
 62
7
  6
BYLAYER
 10
647.698955147
 20
160.873716981
 11
639.2868734552
 21
160.873716981
  0
LINE
  5
22D
100
AcDbEntity
  8
0
100
AcDbLine
 62
7
  6
BYLAYER
 10
634.198955147
 20
175.373716981
 11
665.6984563578
 21
175.373716981
  0
LINE
  5
22E
100
AcDbEntity
  8
0
100
AcDbLine
 62
7
  6
BYLAYER
 10
665.698955147
 20
175.373716981
 11
689.198955147
 21
175.373716981
  0
LINE
  5
22F
100
AcDbEntity
  8
3
100
AcDbLine
 62
7
  6
BYLAYER
 10
634.191875087
 20
175.373839928
 11
689.1984736727
 21
175.373839928
  0
LINE
  5
230
100
AcDbEntity
  8
4
100
AcDbLine
 62
7
  6
BYLAYER
 10
734.4403752249
 20
202.7220022427
 11
689.4403752249
 21
202.7220022427
  0
LINE
  5
231
100
AcDbEntity
  8
4
100
AcDbLine
 62
7
  6
BYLAYER
 10
717.7403752249
 20
209.4720022427
 11
731.2403752249
 21
209.4720022427
  0
LINE
  5
232
100
AcDbEntity
  8
4
100
AcDbLine
 62
7
  6
BYLAYER
 10
689.4403752249
 20
209.7220022427
 11
689.1984736727
 21
209.7220022427
  0
LINE
  5
233
100
AcDbEntity
  8
4
100
AcDbLine
 62
7
  6
BYLAYER
 10
689.4403752249
 20
215.7220022427
 11
689.1984736727
 21
215.7220022427
  0
LINE
  5
234
100
AcDbEntity
  8
4
100
AcDbLine
 62
7
  6
BYLAYER
 10
731.2403752249
 20
215.9720022427
 11
717.7403752249
 21
215.9720022427
  0
LINE
  5
235
100
AcDbEntity
  8
4
100
AcDbLine
 62
7
  6
BYLAYER
 10
717.7403752249
 20
239.4720022427
 11
731.2403752249
 21
239.4720022427
  0
LINE
  5
236
100
AcDbEntity
  8
4
100
AcDbLine
 62
7
  6
BYLAYER
 10
689.4403752249
 20
239.7220022427
 11
689.1984736727
 21
239.7220022427
  0
LINE
  5
237
100
AcDbEntity
  8
4
100
AcDbLine
 62
7
  6
BYLAYER
 10
689.4403752249
 20
245.7220022427
 11
689.1984736727
 21
245.7220022427
  0
LINE
  5
238
100
AcDbEntity
  8
4
100
AcDbLine
 62
7
  6
BYLAYER
 10
731.2403752249
 20
245.9720022427
 11
717.7403752249
 21
245.9720022427
  0
LINE
  5
239
100
AcDbEntity
  8
4
100
AcDbLine
 62
7
  6
BYLAYER
 10
689.4403752249
 20
252.7220022427
 11
734.4403752249
 21
252.7220022427
  0
LINE
  5
23A
100
AcDbEntity
  8
0
100
AcDbLine
 62
7
  6
BYLAYER
 10
645.6987138456
 20
1751.8738285338
 11
645.1987128619
 21
1751.37382773
  0
LINE
  5
23B
100
AcDbEntity
  8
0
100
AcDbLine
 62
7
  6
BYLAYER
 10
643.9487144099
 20
1747.8738271195
 11
643.4487144099
 21
1747.3738271195
  0
LINE
  5
23C
100
AcDbEntity
  8
0
100
AcDbLine
 62
7
  6
BYLAYER
 10
643.9487144099
 20
1742.8738271195
 11
643.4487144099
 21
1742.3738271195
  0
LINE
  5
23D
100
AcDbEntity
  8
0
100
AcDbLine
 62
7
  6
BYLAYER
 10
658.9487144099
 20
1741.5738271195
 11
658.7487144099
 21
1741.3738271195
  0
LINE
  5
23E
100
AcDbEntity
  8
0
100
AcDbLine
 62
7
  6
BYLAYER
 10
666.4487144099
 20
1747.8738271195
 11
665.9487144099
 21
1747.3738271195
  0
LINE
  5
23F
100
AcDbEntity
  8
3
100
AcDbLine
 62
7
  6
BYLAYER
 10
634.1984563578
 20
1723.873839928
 11
634.1984563578
 21
175.373839928
  0
LINE
  5
240
100
AcDbEntity
  8
0
100
AcDbLine
 62
7
  6
BYLAYER
 10
634.1987144099
 20
1740.3738271195
 11
634.1987144099
 21
1723.8738271195
  0
LINE
  5
241
100
AcDbEntity
  8
0
100
AcDbLine
 62
7
  6
BYLAYER
 10
634.198955147
 20
175.373716981
 11
634.198955147
 21
158.873716981
  0
LINE
  5
242
100
AcDbEntity
  8
3
100
AcDbLine
 62
7
  6
BYLAYER
 10
635.649014102
 20
175.373839928
 11
635.649014102
 21
1723.873839928
  0
LINE
  5
243
100
AcDbEntity
  8
0
100
AcDbLine
 62
7
  6
BYLAYER
 10
635.6492721541
 20
1723.8738271195
 11
635.6492721541
 21
1740.3738271195
  0
LINE
  5
244
100
AcDbEntity
  8
0
100
AcDbLine
 62
7
  6
BYLAYER
 10
635.6495128913
 20
158.873716981
 11
635.6495128913
 21
175.373716981
  0
LINE
  5
245
100
AcDbEntity
  8
0
100
AcDbLine
 62
7
  6
BYLAYER
 10
639.286632718
 20
1740.3738271195
 11
639.286632718
 21
1738.3738271195
  0
LINE
  5
246
100
AcDbEntity
  8
0
100
AcDbLine
 62
7
  6
BYLAYER
 10
639.2868734552
 20
160.873716981
 11
639.2868734552
 21
158.873716981
  0
LINE
  5
247
100
AcDbEntity
  8
3
100
AcDbLine
 62
7
  6
BYLAYER
 10
639.8517945253
 20
1723.873839928
 11
639.8517945253
 21
175.373839928
  0
LINE
  5
248
100
AcDbEntity
  8
0
100
AcDbLine
 62
7
  6
BYLAYER
 10
639.8520525773
 20
1738.3738271195
 11
639.8520525773
 21
1723.8738271195
  0
LINE
  5
249
100
AcDbEntity
  8
0
100
AcDbLine
 62
7
  6
BYLAYER
 10
639.8522933145
 20
175.373716981
 11
639.8522933145
 21
160.873716981
  0
LINE
  5
24A
100
AcDbEntity
  8
0
100
AcDbLine
 62
7
  6
BYLAYER
 10
641.1987144099
 20
1739.3738271195
 11
641.1987144099
 21
1740.3738271195
  0
LINE
  5
24B
100
AcDbEntity
  8
0
100
AcDbLine
 62
7
  6
BYLAYER
 10
641.198955147
 20
158.873716981
 11
641.198955147
 21
159.873716981
  0
LINE
  5
24C
100
AcDbEntity
  8
0
100
AcDbLine
 62
7
  6
BYLAYER
 10
641.3987144099
 20
1738.9754259961
 11
641.3987144099
 21
1740.4738271195
  0
LINE
  5
24D
100
AcDbEntity
  8
0
100
AcDbLine
 62
7
  6
BYLAYER
 10
641.3989670259
 20
160.2721299831
 11
641.3989670259
 21
158.7738271195
  0
LINE
  5
24E
100
AcDbEntity
  8
3
100
AcDbLine
 62
7
  6
BYLAYER
 10
642.5990058042
 20
175.373839928
 11
642.5990058042
 21
1723.873839928
  0
LINE
  5
24F
100
AcDbEntity
  8
0
100
AcDbLine
 62
7
  6
BYLAYER
 10
642.5992638563
 20
1723.8738271195
 11
642.5992638563
 21
1738.8738271195
  0
LINE
  5
250
100
AcDbEntity
  8
0
100
AcDbLine
 62
7
  6
BYLAYER
 10
642.5995045935
 20
160.373716981
 11
642.5995045935
 21
175.373716981
  0
LINE
  5
251
100
AcDbEntity
  8
0
100
AcDbLine
 62
7
  6
BYLAYER
 10
643.4487144099
 20
1741.4738271195
 11
643.4487144099
 21
1747.3738271195
  0
LINE
  5
252
100
AcDbEntity
  8
0
100
AcDbLine
 62
7
  6
BYLAYER
 10
645.1987144099
 20
1743.8738271195
 11
645.1987144099
 21
1751.373826182
  0
LINE
  5
253
100
AcDbEntity
  8
0
100
AcDbLine
 62
7
  6
BYLAYER
 10
645.6987144099
 20
1742.8738271195
 11
645.6987144099
 21
1743.8738271195
  0
LINE
  5
254
100
AcDbEntity
  8
0
100
AcDbLine
 62
7
  6
BYLAYER
 10
647.698714337
 20
1738.8738271195
 11
647.698714337
 21
1738.3738271195
  0
LINE
  5
255
100
AcDbEntity
  8
0
100
AcDbLine
 62
7
  6
BYLAYER
 10
647.6989550795
 20
160.873716981
 11
647.6989550795
 21
160.373716981
  0
LINE
  5
256
100
AcDbEntity
  8
0
100
AcDbLine
 62
7
  6
BYLAYER
 10
647.9987144099
 20
1738.9780095547
 11
647.9987144099
 21
1740.4738271195
  0
LINE
  5
257
100
AcDbEntity
  8
0
100
AcDbLine
 62
7
  6
BYLAYER
 10
647.9989670259
 20
160.2696542361
 11
647.9989670259
 21
158.7738271195
  0
LINE
  5
258
100
AcDbEntity
  8
0
100
AcDbLine
 62
7
  6
BYLAYER
 10
648.1987144099
 20
1740.3738271195
 11
648.1987144099
 21
1739.3738271195
  0
LINE
  5
259
100
AcDbEntity
  8
0
100
AcDbLine
 62
7
  6
BYLAYER
 10
648.198955147
 20
159.873716981
 11
648.198955147
 21
158.873716981
  0
LINE
  5
25A
100
AcDbEntity
  8
0
100
AcDbLine
 62
7
  6
BYLAYER
 10
649.1987144099
 20
1739.3738271195
 11
649.1987144099
 21
1741.3738271195
  0
LINE
  5
25B
100
AcDbEntity
  8
0
100
AcDbLine
 62
7
  6
BYLAYER
 10
649.198955147
 20
157.873716981
 11
649.198955147
 21
159.873716981
  0
LINE
  5
25C
100
AcDbEntity
  8
0
100
AcDbLine
 62
7
  6
BYLAYER
 10
656.6987144099
 20
1743.8738271195
 11
656.6987144099
 21
1742.8738271195
  0
LINE
  5
25D
100
AcDbEntity
  8
3
100
AcDbLine
 62
7
  6
BYLAYER
 10
657.1984563578
 20
1723.873839928
 11
657.1984563578
 21
175.373839928
  0
LINE
  5
25E
100
AcDbEntity
  8
0
100
AcDbLine
 62
7
  6
BYLAYER
 10
657.1987144099
 20
1740.3738271195
 11
657.1987144099
 21
1723.8738271195
  0
LINE
  5
25F
100
AcDbEntity
  8
0
100
AcDbLine
 62
7
  6
BYLAYER
 10
657.1987144099
 20
1743.8738271195
 11
657.1987144099
 21
1751.373826182
  0
LINE
  5
260
100
AcDbEntity
  8
0
100
AcDbLine
 62
7
  6
BYLAYER
 10
657.198955147
 20
175.373716981
 11
657.198955147
 21
158.873716981
  0
LINE
  5
261
100
AcDbEntity
  8
3
100
AcDbLine
 62
7
  6
BYLAYER
 10
657.6984563578
 20
175.373839928
 11
657.6984563578
 21
1723.873839928
  0
LINE
  5
262
100
AcDbEntity
  8
0
100
AcDbLine
 62
7
  6
BYLAYER
 10
657.6987144099
 20
1723.8738271195
 11
657.6987144099
 21
1740.3738271194
  0
LINE
  5
263
100
AcDbEntity
  8
0
100
AcDbLine
 62
7
  6
BYLAYER
 10
657.698955147
 20
158.873716981
 11
657.698955147
 21
175.373716981
  0
LINE
  5
264
100
AcDbEntity
  8
0
100
AcDbLine
 62
7
  6
BYLAYER
 10
658.9487144099
 20
1741.3738271195
 11
658.9487144099
 21
1747.3738271195
  0
LINE
  5
265
100
AcDbEntity
  8
3
100
AcDbLine
 62
7
  6
BYLAYER
 10
665.6984563578
 20
1723.873839928
 11
665.6984563578
 21
175.373839928
  0
LINE
  5
266
100
AcDbEntity
  8
0
100
AcDbLine
 62
7
  6
BYLAYER
 10
665.6987144099
 20
1740.3738271194
 11
665.6987144099
 21
1723.8738271195
  0
LINE
  5
267
100
AcDbEntity
  8
0
100
AcDbLine
 62
7
  6
BYLAYER
 10
665.698955147
 20
175.373716981
 11
665.698955147
 21
158.873716981
  0
LINE
  5
268
100
AcDbEntity
  8
0
100
AcDbLine
 62
7
  6
BYLAYER
 10
665.9487144099
 20
1741.3738271195
 11
665.9487144099
 21
1747.3738271195
  0
LINE
  5
269
100
AcDbEntity
  8
3
100
AcDbLine
 62
7
  6
BYLAYER
 10
666.1984563578
 20
175.373839928
 11
666.1984563578
 21
1723.873839928
  0
LINE
  5
26A
100
AcDbEntity
  8
0
100
AcDbLine
 62
7
  6
BYLAYER
 10
666.1987144099
 20
1723.8738271195
 11
666.1987144099
 21
1740.3738271195
  0
LINE
  5
26B
100
AcDbEntity
  8
0
100
AcDbLine
 62
7
  6
BYLAYER
 10
666.198955147
 20
158.873716981
 11
666.198955147
 21
175.373716981
  0
LINE
  5
26C
100
AcDbEntity
  8
0
100
AcDbLine
 62
7
  6
BYLAYER
 10
669.5724544099
 20
1749.0738271195
 11
669.5724544099
 21
1747.8738271195
  0
LINE
  5
26D
100
AcDbEntity
  8
0
100
AcDbLine
 62
7
  6
BYLAYER
 10
677.8224544099
 20
1749.0738271195
 11
677.8224544099
 21
1747.8738271195
  0
LINE
  5
26E
100
AcDbEntity
  8
0
100
AcDbLine
 62
7
  6
BYLAYER
 10
680.1987144099
 20
1741.3738271195
 11
680.1987144099
 21
1739.3738271195
  0
LINE
  5
26F
100
AcDbEntity
  8
0
100
AcDbLine
 62
7
  6
BYLAYER
 10
680.198955147
 20
159.873716981
 11
680.198955147
 21
157.873716981
  0
LINE
  5
270
100
AcDbEntity
  8
0
100
AcDbLine
 62
7
  6
BYLAYER
 10
681.1987144099
 20
1739.3738271195
 11
681.1987144099
 21
1740.3738271195
  0
LINE
  5
271
100
AcDbEntity
  8
0
100
AcDbLine
 62
7
  6
BYLAYER
 10
681.198955147
 20
158.873716981
 11
681.198955147
 21
159.873716981
  0
LINE
  5
272
100
AcDbEntity
  8
0
100
AcDbLine
 62
7
  6
BYLAYER
 10
681.3987144099
 20
1738.977894114
 11
681.3987144099
 21
1740.4738271195
  0
LINE
  5
273
100
AcDbEntity
  8
0
100
AcDbLine
 62
7
  6
BYLAYER
 10
681.398955147
 20
160.2695345461
 11
681.398955147
 21
158.7738271195
  0
LINE
  5
274
100
AcDbEntity
  8
0
100
AcDbLine
 62
7
  6
BYLAYER
 10
681.4487144099
 20
1741.3738271195
 11
681.4487144099
 21
1747.3738271195
  0
LINE
  5
275
100
AcDbEntity
  8
0
100
AcDbLine
 62
7
  6
BYLAYER
 10
681.6987144824
 20
1738.3738271195
 11
681.6987144824
 21
1738.8738271195
  0
LINE
  5
276
100
AcDbEntity
  8
0
100
AcDbLine
 62
7
  6
BYLAYER
 10
681.6989552199
 20
160.373716981
 11
681.6989552199
 21
160.873716981
  0
LINE
  5
277
100
AcDbEntity
  8
3
100
AcDbLine
 62
7
  6
BYLAYER
 10
685.1984736727
 20
1723.873839928
 11
685.1984736727
 21
175.373839928
  0
LINE
  5
278
100
AcDbEntity
  8
0
100
AcDbLine
 62
7
  6
BYLAYER
 10
685.1987144099
 20
1738.8738271195
 11
685.1987144099
 21
1723.8738271195
  0
LINE
  5
279
100
AcDbEntity
  8
0
100
AcDbLine
 62
7
  6
BYLAYER
 10
685.198955147
 20
175.373716981
 11
685.198955147
 21
160.373716981
  0
LINE
  5
27A
100
AcDbEntity
  8
0
100
AcDbLine
 62
7
  6
BYLAYER
 10
687.9987144099
 20
1738.8738271195
 11
687.9987144099
 21
1740.4738271195
  0
LINE
  5
27B
100
AcDbEntity
  8
0
100
AcDbLine
 62
7
  6
BYLAYER
 10
687.998955147
 20
160.3738271195
 11
687.998955147
 21
158.7738271195
  0
LINE
  5
27C
100
AcDbEntity
  8
0
100
AcDbLine
 62
7
  6
BYLAYER
 10
688.1987144099
 20
1741.3738271195
 11
688.1987144116
 21
1739.3738271195
  0
LINE
  5
27D
100
AcDbEntity
  8
0
100
AcDbLine
 62
7
  6
BYLAYER
 10
688.1989551487
 20
159.873716981
 11
688.198955147
 21
157.873716981
  0
LINE
  5
27E
100
AcDbEntity
  8
3
100
AcDbLine
 62
7
  6
BYLAYER
 10
689.1984736727
 20
175.373839928
 11
689.1984736727
 21
1723.873839928
  0
LINE
  5
27F
100
AcDbEntity
  8
0
100
AcDbLine
 62
7
  6
BYLAYER
 10
689.1987144099
 20
1723.8738271195
 11
689.1987144099
 21
1740.3738271195
  0
LINE
  5
280
100
AcDbEntity
  8
0
100
AcDbLine
 62
7
  6
BYLAYER
 10
689.198955147
 20
158.873716981
 11
689.198955147
 21
175.373716981
  0
LINE
  5
281
100
AcDbEntity
  8
4
100
AcDbLine
 62
7
  6
BYLAYER
 10
689.4403752249
 20
1699.0569047035
 11
689.4403752249
 21
1649.0569047035
  0
LINE
  5
282
100
AcDbEntity
  8
4
100
AcDbLine
 62
7
  6
BYLAYER
 10
689.4403752249
 20
975.0061430825
 11
689.4403752249
 21
925.0061430825
  0
LINE
  5
283
100
AcDbEntity
  8
4
100
AcDbLine
 62
7
  6
BYLAYER
 10
689.4403752249
 20
252.7220022427
 11
689.4403752249
 21
202.7220022427
  0
LINE
  5
284
100
AcDbEntity
  8
4
100
AcDbLine
 62
7
  6
BYLAYER
 10
734.4403752249
 20
925.0061430825
 11
689.4403752249
 21
925.0061430825
  0
LINE
  5
285
100
AcDbEntity
  8
4
100
AcDbLine
 62
7
  6
BYLAYER
 10
717.7403752249
 20
931.7561430825
 11
731.2403752249
 21
931.7561430825
  0
LINE
  5
286
100
AcDbEntity
  8
4
100
AcDbLine
 62
7
  6
BYLAYER
 10
689.4403752249
 20
932.0061430825
 11
689.1984736727
 21
932.0061430825
  0
LINE
  5
287
100
AcDbEntity
  8
4
100
AcDbLine
 62
7
  6
BYLAYER
 10
689.4403752249
 20
938.0061430825
 11
689.1984736727
 21
938.0061430825
  0
LINE
  5
288
100
AcDbEntity
  8
4
100
AcDbLine
 62
7
  6
BYLAYER
 10
731.2403752249
 20
938.2561430825
 11
717.7403752249
 21
938.2561430825
  0
LINE
  5
289
100
AcDbEntity
  8
4
100
AcDbLine
 62
7
  6
BYLAYER
 10
717.7403752249
 20
961.7561430825
 11
731.2403752249
 21
961.7561430825
  0
LINE
  5
28A
100
AcDbEntity
  8
4
100
AcDbLine
 62
7
  6
BYLAYER
 10
696.4403752249
 20
202.7220022427
 11
696.4403752249
 21
252.7220022427
  0
LINE
  5
28B
100
AcDbEntity
  8
4
100
AcDbLine
 62
7
  6
BYLAYER
 10
696.4403752249
 20
925.0061430825
 11
696.4403752249
 21
975.0061430825
  0
LINE
  5
28C
100
AcDbEntity
  8
4
100
AcDbLine
 62
7
  6
BYLAYER
 10
696.4403752249
 20
1649.0569047035
 11
696.4403752249
 21
1699.0569047035
  0
LINE
  5
28D
100
AcDbEntity
  8
4
100
AcDbLine
 62
7
  6
BYLAYER
 10
739.4403752249
 20
1694.0569047035
 11
739.4403752249
 21
1654.0569047035
  0
LINE
  5
28E
100
AcDbEntity
  8
4
100
AcDbLine
 62
7
  6
BYLAYER
 10
739.4403752249
 20
970.0061430825
 11
739.4403752249
 21
930.0061430825
  0
LINE
  5
28F
100
AcDbEntity
  8
4
100
AcDbLine
 62
7
  6
BYLAYER
 10
739.4403752249
 20
247.7220022427
 11
739.4403752249
 21
207.7220022427
  0
LINE
  5
290
100
AcDbEntity
  8
4
100
AcDbLine
 62
7
  6
BYLAYER
 10
689.4403752249
 20
962.0061430825
 11
689.1984736727
 21
962.0061430825
  0
LINE
  5
291
100
AcDbEntity
  8
4
100
AcDbLine
 62
7
  6
BYLAYER
 10
689.4403752249
 20
968.0061430825
 11
689.1984736727
 21
968.0061430825
  0
LINE
  5
292
100
AcDbEntity
  8
4
100
AcDbLine
 62
7
  6
BYLAYER
 10
731.2403752249
 20
968.2561430825
 11
717.7403752249
 21
968.2561430825
  0
LINE
  5
293
100
AcDbEntity
  8
4
100
AcDbLine
 62
7
  6
BYLAYER
 10
689.4403752249
 20
975.0061430825
 11
734.4403752249
 21
975.0061430825
  0
LINE
  5
294
100
AcDbEntity
  8
0
100
AcDbLine
 62
7
  6
BYLAYER
 10
643.5487144099
 20
1741.4738271195
 11
643.4487144099
 21
1741.5738271195
  0
LINE
  5
295
100
AcDbEntity
  8
0
100
AcDbLine
 62
7
  6
BYLAYER
 10
658.9487144099
 20
1742.3738271195
 11
658.4487144099
 21
1742.8738271195
  0
LINE
  5
296
100
AcDbEntity
  8
0
100
AcDbLine
 62
7
  6
BYLAYER
 10
658.9487144099
 20
1747.3738271195
 11
658.4487144099
 21
1747.8738271195
  0
LINE
  5
297
100
AcDbEntity
  8
0
100
AcDbLine
 62
7
  6
BYLAYER
 10
657.1987159578
 20
1751.37382773
 11
656.6987149741
 21
1751.8738285338
  0
LINE
  5
298
100
AcDbEntity
  8
0
100
AcDbLine
 62
7
  6
BYLAYER
 10
681.4487144099
 20
1747.3738271195
 11
680.9487144099
 21
1747.8738271195
  0
LINE
  5
299
100
AcDbEntity
  8
4
100
AcDbLine
 62
7
  6
BYLAYER
 10
734.4403752249
 20
1649.0569047035
 11
689.4403752249
 21
1649.0569047035
  0
LINE
  5
29A
100
AcDbEntity
  8
4
100
AcDbLine
 62
7
  6
BYLAYER
 10
717.7403752249
 20
1655.8069047035
 11
731.2403752249
 21
1655.8069047035
  0
LINE
  5
29B
100
AcDbEntity
  8
4
100
AcDbLine
 62
7
  6
BYLAYER
 10
689.4403752249
 20
1656.0569047035
 11
689.1984736727
 21
1656.0569047035
  0
LINE
  5
29C
100
AcDbEntity
  8
4
100
AcDbLine
 62
7
  6
BYLAYER
 10
689.4403752249
 20
1662.0569047035
 11
689.1984736727
 21
1662.0569047035
  0
LINE
  5
29D
100
AcDbEntity
  8
4
100
AcDbLine
 62
7
  6
BYLAYER
 10
731.2403752249
 20
1662.3069047035
 11
717.7403752249
 21
1662.3069047035
  0
LINE
  5
29E
100
AcDbEntity
  8
4
100
AcDbLine
 62
7
  6
BYLAYER
 10
717.7403752249
 20
1685.8069047035
 11
731.2403752249
 21
1685.8069047035
  0
LINE
  5
29F
100
AcDbEntity
  8
4
100
AcDbLine
 62
7
  6
BYLAYER
 10
689.4403752249
 20
1686.0569047035
 11
689.1984736727
 21
1686.0569047035
  0
LINE
  5
2A0
100
AcDbEntity
  8
4
100
AcDbLine
 62
7
  6
BYLAYER
 10
689.4403752249
 20
1692.0569047035
 11
689.1984736727
 21
1692.0569047035
  0
LINE
  5
2A1
100
AcDbEntity
  8
4
100
AcDbLine
 62
7
  6
BYLAYER
 10
731.2403752249
 20
1692.3069047035
 11
717.7403752249
 21
1692.3069047035
  0
LINE
  5
2A2
100
AcDbEntity
  8
4
100
AcDbLine
 62
7
  6
BYLAYER
 10
689.4403752249
 20
1699.0569047035
 11
734.4403752249
 21
1699.0569047035
  0
LINE
  5
2A3
100
AcDbEntity
  8
0
100
AcDbLine
 62
7
  6
BYLAYER
 10
634.1987144099
 20
1723.8738271195
 11
689.1987144099
 21
1723.8738271195
  0
LINE
  5
2A4
100
AcDbEntity
  8
3
100
AcDbLine
 62
7
  6
BYLAYER
 10
634.1984563578
 20
1723.873839928
 11
689.1984736727
 21
1723.873839928
  0
LINE
  5
2A5
100
AcDbEntity
  8
0
100
AcDbLine
 62
7
  6
BYLAYER
 10
673.7151163184
 20
1737.3738271195
 11
665.6987144099
 21
1737.3738271195
  0
LINE
  5
2A6
100
AcDbEntity
  8
0
100
AcDbLine
 62
7
  6
BYLAYER
 10
651.1823125014
 20
1737.3738271195
 11
659.1987144099
 21
1737.3738271195
  0
LINE
  5
2A7
100
AcDbEntity
  8
0
100
AcDbLine
 62
7
  6
BYLAYER
 10
673.7149004355
 20
1737.3850402024
 11
665.8040108945
 21
1737.3850402024
  0
LINE
  5
2A8
100
AcDbEntity
  8
0
100
AcDbLine
 62
7
  6
BYLAYER
 10
651.182528205
 20
1737.3850213705
 11
659.093505381
 21
1737.3850213705
  0
LINE
  5
2A9
100
AcDbEntity
  8
0
100
AcDbLine
 62
7
  6
BYLAYER
 10
673.7153322013
 20
1738.3626140365
 11
665.5934179252
 21
1738.3626140365
  0
LINE
  5
2AA
100
AcDbEntity
  8
0
100
AcDbLine
 62
7
  6
BYLAYER
 10
651.1820967978
 20
1738.3626328684
 11
659.3039234387
 21
1738.3626328684
  0
LINE
  5
2AB
100
AcDbEntity
  8
0
100
AcDbLine
 62
7
  6
BYLAYER
 10
639.286632718
 20
1738.3738271195
 11
647.6987144099
 21
1738.3738271195
  0
LINE
  5
2AC
100
AcDbEntity
  8
0
100
AcDbLine
 62
7
  6
BYLAYER
 10
681.6987144099
 20
1738.3738271195
 11
689.1987144099
 21
1738.3738271195
  0
LINE
  5
2AD
100
AcDbEntity
  8
0
100
AcDbLine
 62
7
  6
BYLAYER
 10
641.1489609174
 20
1738.8738271195
 11
647.6987144099
 21
1738.8738271195
  0
LINE
  5
2AE
100
AcDbEntity
  8
0
100
AcDbLine
 62
7
  6
BYLAYER
 10
681.6987144099
 20
1738.8738271195
 11
688.6987144099
 21
1738.8738271195
  0
LINE
  5
2AF
100
AcDbEntity
  8
0
100
AcDbLine
 62
7
  6
BYLAYER
 10
689.1987144099
 20
1739.3738271884
 11
687.9987144099
 21
1739.3738271195
  0
LINE
  5
2B0
100
AcDbEntity
  8
0
100
AcDbLine
 62
7
  6
BYLAYER
 10
681.3987144099
 20
1739.3738271195
 11
680.1987144099
 21
1739.3738271884
  0
LINE
  5
2B1
100
AcDbEntity
  8
0
100
AcDbLine
 62
7
  6
BYLAYER
 10
649.1987144099
 20
1739.3738271884
 11
647.9987144099
 21
1739.3738271195
  0
LINE
  5
2B2
100
AcDbEntity
  8
0
100
AcDbLine
 62
7
  6
BYLAYER
 10
641.3987144099
 20
1739.3738271195
 11
640.786399201
 21
1739.3738271195
  0
LINE
  5
2B3
100
AcDbEntity
  8
0
100
AcDbLine
 62
7
  6
BYLAYER
 10
634.1987144099
 20
1740.3738271195
 11
641.3987144099
 21
1740.3738271195
  0
LINE
  5
2B4
100
AcDbEntity
  8
0
100
AcDbLine
 62
7
  6
BYLAYER
 10
647.9987144099
 20
1740.3738271195
 11
657.6987144099
 21
1740.3738271128
  0
LINE
  5
2B5
100
AcDbEntity
  8
0
100
AcDbLine
 62
7
  6
BYLAYER
 10
665.6987144099
 20
1740.3738271194
 11
681.3987144099
 21
1740.3738271195
  0
LINE
  5
2B6
100
AcDbEntity
  8
0
100
AcDbLine
 62
7
  6
BYLAYER
 10
687.9987144099
 20
1740.3738271195
 11
689.1987144099
 21
1740.3738271195
  0
LINE
  5
2B7
100
AcDbEntity
  8
0
100
AcDbLine
 62
7
  6
BYLAYER
 10
641.3987144099
 20
1740.4738271195
 11
647.9987144099
 21
1740.4738271195
  0
LINE
  5
2B8
100
AcDbEntity
  8
0
100
AcDbLine
 62
7
  6
BYLAYER
 10
681.3987144099
 20
1740.4738271195
 11
687.9987144099
 21
1740.4738271195
  0
LINE
  5
2B9
100
AcDbEntity
  8
0
100
AcDbLine
 62
7
  6
BYLAYER
 10
657.5572662298
 20
1740.8738271195
 11
665.839198064
 21
1740.8738271195
  0
LINE
  5
2BA
100
AcDbEntity
  8
0
100
AcDbLine
 62
7
  6
BYLAYER
 10
688.1987144099
 20
1741.3738271195
 11
687.3719196134
 21
1741.3738271195
  0
LINE
  5
2BB
100
AcDbEntity
  8
0
100
AcDbLine
 62
7
  6
BYLAYER
 10
635.1987144099
 20
1741.3738271195
 11
642.0255092064
 21
1741.3738271195
  0
LINE
  5
2BC
100
AcDbEntity
  8
0
100
AcDbLine
 62
7
  6
BYLAYER
 10
647.3719196134
 20
1741.3738271195
 11
682.0255092064
 21
1741.3738271195
  0
LINE
  5
2BD
100
AcDbEntity
  8
0
100
AcDbLine
 62
7
  6
BYLAYER
 10
642.3987985085
 20
1741.4738271195
 11
646.9986218108
 21
1741.4738271195
  0
LINE
  5
2BE
100
AcDbEntity
  8
0
100
AcDbLine
 62
7
  6
BYLAYER
 10
682.3987985085
 20
1741.4738271195
 11
686.9986218108
 21
1741.4738271195
  0
LINE
  5
2BF
100
AcDbEntity
  8
0
100
AcDbLine
 62
7
  6
BYLAYER
 10
658.9487144099
 20
1741.5738271195
 11
643.4487144099
 21
1741.5738271195
  0
LINE
  5
2C0
100
AcDbEntity
  8
0
100
AcDbLine
 62
7
  6
BYLAYER
 10
643.4487144099
 20
1742.3738271195
 11
658.9487144099
 21
1742.3738271195
  0
LINE
  5
2C1
100
AcDbEntity
  8
0
100
AcDbLine
 62
7
  6
BYLAYER
 10
681.448650113
 20
1742.8738271195
 11
665.9487787067
 21
1742.8738271195
  0
LINE
  5
2C2
100
AcDbEntity
  8
0
100
AcDbLine
 62
7
  6
BYLAYER
 10
643.4487787067
 20
1742.8738271195
 11
658.948650113
 21
1742.8738271195
  0
LINE
  5
2C3
100
AcDbEntity
  8
0
100
AcDbLine
 62
7
  6
BYLAYER
 10
657.1987078265
 20
1743.8738271195
 11
645.1987209932
 21
1743.8738271195
  0
LINE
  5
2C4
100
AcDbEntity
  8
0
100
AcDbLine
 62
7
  6
BYLAYER
 10
681.4487144099
 20
1745.8738271195
 11
665.9487144099
 21
1745.8738271195
  0
LINE
  5
2C5
100
AcDbEntity
  8
0
100
AcDbLine
 62
7
  6
BYLAYER
 10
658.9487144099
 20
1745.8738271195
 11
657.1987144099
 21
1745.8738271195
  0
LINE
  5
2C6
100
AcDbEntity
  8
0
100
AcDbLine
 62
7
  6
BYLAYER
 10
645.1987144099
 20
1745.8738271195
 11
643.4487144099
 21
1745.8738271195
  0
LINE
  5
2C7
100
AcDbEntity
  8
0
100
AcDbLine
 62
7
  6
BYLAYER
 10
643.4487144099
 20
1747.3738271195
 11
645.1987144099
 21
1747.3738271195
  0
LINE
  5
2C8
100
AcDbEntity
  8
0
100
AcDbLine
 62
7
  6
BYLAYER
 10
657.1987144099
 20
1747.3738271195
 11
658.9487144099
 21
1747.3738271195
  0
LINE
  5
2C9
100
AcDbEntity
  8
0
100
AcDbLine
 62
7
  6
BYLAYER
 10
665.9487144099
 20
1747.3738271195
 11
681.4487144099
 21
1747.3738271195
  0
LINE
  5
2CA
100
AcDbEntity
  8
0
100
AcDbLine
 62
7
  6
BYLAYER
 10
643.9487144099
 20
1747.8738271195
 11
645.1987144099
 21
1747.8738271195
  0
LINE
  5
2CB
100
AcDbEntity
  8
0
100
AcDbLine
 62
7
  6
BYLAYER
 10
657.1987144099
 20
1747.8738271195
 11
658.4487144099
 21
1747.8738271195
  0
LINE
  5
2CC
100
AcDbEntity
  8
0
100
AcDbLine
 62
7
  6
BYLAYER
 10
666.4487144099
 20
1747.8738271195
 11
680.9487144099
 21
1747.8738271195
  0
LINE
  5
2CD
100
AcDbEntity
  8
0
100
AcDbLine
 62
7
  6
BYLAYER
 10
669.5724544099
 20
1749.0738271195
 11
677.8224544099
 21
1749.0738271195
  0
LINE
  5
2CE
100
AcDbEntity
  8
0
100
AcDbLine
 62
7
  6
BYLAYER
 10
669.872394042
 20
1749.3738271195
 11
677.5224763012
 21
1749.3738271195
  0
LINE
  5
2CF
100
AcDbEntity
  8
0
100
AcDbLine
 62
7
  6
BYLAYER
 10
645.1987144099
 20
1751.373826182
 11
657.1987144099
 21
1751.373826182
  0
LINE
  5
2D0
100
AcDbEntity
  8
0
100
AcDbLine
 62
7
  6
BYLAYER
 10
645.6987138456
 20
1751.8738271195
 11
656.6987149741
 21
1751.8738271195
  0
ARC
  5
2D1
100
AcDbEntity
  8
0
100
AcDbCircle
 62
7
  6
BYLAYER
 10
646.9989670259
 20
158.7738271195
 40
1.0
100
AcDbArc
 50
270.0
 51
360.0
  0
ARC
  5
2D2
100
AcDbEntity
  8
0
100
AcDbCircle
 62
7
  6
BYLAYER
 10
642.3989670259
 20
158.7738271195
 40
1.0
100
AcDbArc
 50
180.0
 51
270.0
  0
ARC
  5
2D3
100
AcDbEntity
  8
0
100
AcDbCircle
 62
7
  6
BYLAYER
 10
656.698955147
 20
158.873716981
 40
1.0
100
AcDbArc
 50
270.0
 51
360.0
  0
ARC
  5
2D4
100
AcDbEntity
  8
0
100
AcDbCircle
 62
7
  6
BYLAYER
 10
640.198955147
 20
158.873716981
 40
1.0
100
AcDbArc
 50
270.0000000004
 51
359.9999999998
  0
ARC
  5
2D5
100
AcDbEntity
  8
0
100
AcDbCircle
 62
7
  6
BYLAYER
 10
649.198955147
 20
158.873716981
 40
1.0
100
AcDbArc
 50
180.0
 51
270.0
  0
ARC
  5
2D6
100
AcDbEntity
  8
0
100
AcDbCircle
 62
7
  6
BYLAYER
 10
635.198955147
 20
158.873716981
 40
1.0
100
AcDbArc
 50
180.0000000002
 51
270.0000000009
  0
ARC
  5
2D7
100
AcDbEntity
  8
0
100
AcDbCircle
 62
7
  6
BYLAYER
 10
641.698955147
 20
159.873716981
 40
0.5
100
AcDbArc
 50
90.0
 51
180.0
  0
ARC
  5
2D8
100
AcDbEntity
  8
0
100
AcDbCircle
 62
7
  6
BYLAYER
 10
647.698955147
 20
159.873716981
 40
0.5
100
AcDbArc
 50
0.0
 51
90.0
  0
ARC
  5
2D9
100
AcDbEntity
  8
0
100
AcDbCircle
 62
7
  6
BYLAYER
 10
662.9259432621
 20
145.342337185
 40
27.6896078019
100
AcDbArc
 50
146.3934359332
 51
146.9026052151
  0
ARC
  5
2DA
100
AcDbEntity
  8
0
100
AcDbCircle
 62
7
  6
BYLAYER
 10
682.398955147
 20
158.7738271195
 40
1.0
100
AcDbArc
 50
180.0
 51
270.0
  0
ARC
  5
2DB
100
AcDbEntity
  8
0
100
AcDbCircle
 62
7
  6
BYLAYER
 10
680.198955147
 20
158.873716981
 40
1.0
100
AcDbArc
 50
270.0
 51
360.0
  0
ARC
  5
2DC
100
AcDbEntity
  8
0
100
AcDbCircle
 62
7
  6
BYLAYER
 10
666.698955147
 20
158.873716981
 40
1.0
100
AcDbArc
 50
179.9999999983
 51
270.0
  0
ARC
  5
2DD
100
AcDbEntity
  8
0
100
AcDbCircle
 62
7
  6
BYLAYER
 10
681.698955147
 20
159.873716981
 40
0.5
100
AcDbArc
 50
90.0
 51
180.0
  0
ARC
  5
2DE
100
AcDbEntity
  8
0
100
AcDbCircle
 62
7
  6
BYLAYER
 10
646.9987144099
 20
1740.4738271195
 40
1.0
100
AcDbArc
 50
0.0
 51
90.0
  0
ARC
  5
2DF
100
AcDbEntity
  8
0
100
AcDbCircle
 62
7
  6
BYLAYER
 10
642.3987144099
 20
1740.4738271195
 40
1.0
100
AcDbArc
 50
90.0
 51
180.0
  0
ARC
  5
2E0
100
AcDbEntity
  8
0
100
AcDbCircle
 62
7
  6
BYLAYER
 10
649.1987144099
 20
1740.3738271195
 40
1.0
100
AcDbArc
 50
90.0
 51
180.0
  0
ARC
  5
2E1
100
AcDbEntity
  8
0
100
AcDbCircle
 62
7
  6
BYLAYER
 10
656.6987144099
 20
1740.3738271195
 40
1.0
100
AcDbArc
 50
0.0
 51
90.0
  0
ARC
  5
2E2
100
AcDbEntity
  8
0
100
AcDbCircle
 62
7
  6
BYLAYER
 10
635.1987144099
 20
1740.3738271195
 40
1.0
100
AcDbArc
 50
90.0000000017
 51
180.0000000003
  0
ARC
  5
2E3
100
AcDbEntity
  8
0
100
AcDbCircle
 62
7
  6
BYLAYER
 10
640.1987144099
 20
1740.3738271195
 40
1.0
100
AcDbArc
 50
0.0
 51
90.0
  0
ARC
  5
2E4
100
AcDbEntity
  8
0
100
AcDbCircle
 62
7
  6
BYLAYER
 10
641.6987144099
 20
1739.3738271195
 40
0.5
100
AcDbArc
 50
180.0
 51
270.0
  0
ARC
  5
2E5
100
AcDbEntity
  8
0
100
AcDbCircle
 62
7
  6
BYLAYER
 10
647.6987144099
 20
1739.3738271195
 40
0.5
100
AcDbArc
 50
270.0
 51
360.0
  0
ARC
  5
2E6
100
AcDbEntity
  8
0
100
AcDbCircle
 62
7
  6
BYLAYER
 10
682.3987144099
 20
1740.4738271195
 40
1.0
100
AcDbArc
 50
90.0
 51
180.0
  0
ARC
  5
2E7
100
AcDbEntity
  8
0
100
AcDbCircle
 62
7
  6
BYLAYER
 10
680.1987144099
 20
1740.3738271195
 40
1.0
100
AcDbArc
 50
0.0
 51
90.0
  0
ARC
  5
2E8
100
AcDbEntity
  8
0
100
AcDbCircle
 62
7
  6
BYLAYER
 10
666.6987144099
 20
1740.3738271195
 40
1.0
100
AcDbArc
 50
90.0
 51
180.0000000008
  0
ARC
  5
2E9
100
AcDbEntity
  8
0
100
AcDbCircle
 62
7
  6
BYLAYER
 10
681.6987144099
 20
1739.3738271195
 40
0.5
100
AcDbArc
 50
180.0
 51
270.0
  0
ARC
  5
2EA
100
AcDbEntity
  8
0
100
AcDbCircle
 62
7
  6
BYLAYER
 10
659.1987144099
 20
1737.8738271195
 40
0.5
100
AcDbArc
 50
257.8531473856
 51
77.8531473856
  0
ARC
  5
2EB
100
AcDbEntity
  8
0
100
AcDbCircle
 62
7
  6
BYLAYER
 10
665.6987144099
 20
1737.8738271195
 40
0.5
100
AcDbArc
 50
102.1803352402
 51
282.1803352402
  0
ARC
  5
2EC
100
AcDbEntity
  8
0
100
AcDbCircle
 62
7
  6
BYLAYER
 10
661.4719117996
 20
1752.9483557907
 40
25.9492033279
100
AcDbArc
 50
213.0803197523
 51
213.623639097
  0
ARC
  5
2ED
100
AcDbEntity
  8
0
100
AcDbCircle
 62
7
  6
BYLAYER
 10
669.8724544099
 20
1749.0738271195
 40
0.3
100
AcDbArc
 50
90.0
 51
180.0
  0
ARC
  5
2EE
100
AcDbEntity
  8
0
100
AcDbCircle
 62
7
  6
BYLAYER
 10
677.5224544099
 20
1749.0738271195
 40
0.3
100
AcDbArc
 50
0.0
 51
90.0
  0
ARC
  5
2EF
100
AcDbEntity
  8
0
100
AcDbCircle
 62
7
  6
BYLAYER
 10
686.998955147
 20
158.7738271195
 40
1.0
100
AcDbArc
 50
270.0
 51
360.0
  0
ARC
  5
2F0
100
AcDbEntity
  8
0
100
AcDbCircle
 62
7
  6
BYLAYER
 10
688.198955147
 20
158.873716981
 40
1.0
100
AcDbArc
 50
270.0
 51
360.0
  0
ARC
  5
2F1
100
AcDbEntity
  8
0
100
AcDbCircle
 62
7
  6
BYLAYER
 10
688.698955147
 20
160.873716981
 40
0.5
100
AcDbArc
 50
270.0
 51
360.0
  0
ARC
  5
2F2
100
AcDbEntity
  8
4
100
AcDbCircle
 62
7
  6
BYLAYER
 10
734.4403752249
 20
247.7220022427
 40
5.0
100
AcDbArc
 50
0.0
 51
90.0
  0
ARC
  5
2F3
100
AcDbEntity
  8
4
100
AcDbCircle
 62
7
  6
BYLAYER
 10
734.4403752249
 20
207.7220022427
 40
5.0
100
AcDbArc
 50
270.0
 51
360.0
  0
ARC
  5
2F4
100
AcDbEntity
  8
4
100
AcDbCircle
 62
7
  6
BYLAYER
 10
731.2403752249
 20
242.7220022427
 40
3.25
100
AcDbArc
 50
270.0
 51
90.0
  0
ARC
  5
2F5
100
AcDbEntity
  8
4
100
AcDbCircle
 62
7
  6
BYLAYER
 10
717.7403752249
 20
242.7220022427
 40
3.25
100
AcDbArc
 50
90.0
 51
270.0
  0
ARC
  5
2F6
100
AcDbEntity
  8
4
100
AcDbCircle
 62
7
  6
BYLAYER
 10
717.7403752249
 20
212.7220022427
 40
3.25
100
AcDbArc
 50
90.0
 51
270.0
  0
ARC
  5
2F7
100
AcDbEntity
  8
4
100
AcDbCircle
 62
7
  6
BYLAYER
 10
731.2403752249
 20
212.7220022427
 40
3.25
100
AcDbArc
 50
270.0
 51
90.0
  0
ARC
  5
2F8
100
AcDbEntity
  8
4
100
AcDbCircle
 62
7
  6
BYLAYER
 10
734.4403752249
 20
930.0061430825
 40
5.0
100
AcDbArc
 50
270.0
 51
360.0
  0
ARC
  5
2F9
100
AcDbEntity
  8
4
100
AcDbCircle
 62
7
  6
BYLAYER
 10
717.7403752249
 20
935.0061430825
 40
3.25
100
AcDbArc
 50
90.0
 51
270.0
  0
ARC
  5
2FA
100
AcDbEntity
  8
4
100
AcDbCircle
 62
7
  6
BYLAYER
 10
731.2403752249
 20
935.0061430825
 40
3.25
100
AcDbArc
 50
270.0
 51
90.0
  0
ARC
  5
2FB
100
AcDbEntity
  8
0
100
AcDbCircle
 62
7
  6
BYLAYER
 10
686.9987144099
 20
1740.4738271195
 40
1.0
100
AcDbArc
 50
0.0
 51
90.0
  0
ARC
  5
2FC
100
AcDbEntity
  8
0
100
AcDbCircle
 62
7
  6
BYLAYER
 10
688.1987144099
 20
1740.3738271195
 40
1.0
100
AcDbArc
 50
0.0
 51
90.0
  0
ARC
  5
2FD
100
AcDbEntity
  8
0
100
AcDbCircle
 62
7
  6
BYLAYER
 10
688.6987144099
 20
1738.3738271195
 40
0.5
100
AcDbArc
 50
0.0
 51
90.0
  0
ARC
  5
2FE
100
AcDbEntity
  8
4
100
AcDbCircle
 62
7
  6
BYLAYER
 10
734.4403752249
 20
970.0061430825
 40
5.0
100
AcDbArc
 50
0.0
 51
90.0
  0
ARC
  5
2FF
100
AcDbEntity
  8
4
100
AcDbCircle
 62
7
  6
BYLAYER
 10
731.2403752249
 20
965.0061430825
 40
3.25
100
AcDbArc
 50
270.0
 51
90.0
  0
ARC
  5
300
100
AcDbEntity
  8
4
100
AcDbCircle
 62
7
  6
BYLAYER
 10
717.7403752249
 20
965.0061430825
 40
3.25
100
AcDbArc
 50
90.0
 51
270.0
  0
ARC
  5
301
100
AcDbEntity
  8
4
100
AcDbCircle
 62
7
  6
BYLAYER
 10
734.4403752249
 20
1694.0569047035
 40
5.0
100
AcDbArc
 50
0.0
 51
90.0
  0
ARC
  5
302
100
AcDbEntity
  8
4
100
AcDbCircle
 62
7
  6
BYLAYER
 10
734.4403752249
 20
1654.0569047035
 40
5.0
100
AcDbArc
 50
270.0
 51
360.0
  0
ARC
  5
303
100
AcDbEntity
  8
4
100
AcDbCircle
 62
7
  6
BYLAYER
 10
731.2403752249
 20
1689.0569047035
 40
3.25
100
AcDbArc
 50
270.0
 51
90.0
  0
ARC
  5
304
100
AcDbEntity
  8
4
100
AcDbCircle
 62
7
  6
BYLAYER
 10
717.7403752249
 20
1689.0569047035
 40
3.25
100
AcDbArc
 50
90.0
 51
270.0
  0
ARC
  5
305
100
AcDbEntity
  8
4
100
AcDbCircle
 62
7
  6
BYLAYER
 10
717.7403752249
 20
1659.0569047035
 40
3.25
100
AcDbArc
 50
90.0
 51
270.0
  0
ARC
  5
306
100
AcDbEntity
  8
4
100
AcDbCircle
 62
7
  6
BYLAYER
 10
731.2403752249
 20
1659.0569047035
 40
3.25
100
AcDbArc
 50
270.0
 51
90.0
  0
SPLINE
  5
307
100
AcDbEntity
  8
0
100
AcDbSpline
 62
7
  6
BYLAYER
 70
0
 71
3
 72
11
 73
7
 74
0
 42
0.0000001
 43
0.0000001
 44
0.0000000001
 40
0.0
 40
0.0
 40
0.0
 40
0.0
 40
0.2478324097
 40
0.4979557222
 40
0.7486362922
 40
1.0
 40
1.0
 40
1.0
 40
1.0
 10
649.198955147
 20
159.873716981
 30
0.0
 10
649.1989548788
 20
160.0378384009
 30
0.0
 10
649.0667953306
 20
160.3679170588
 30
0.0
 10
648.679278326
 20
160.6944454633
 30
0.0
 10
648.2007120803
 20
160.8671911922
 30
0.0
 10
647.8654150894
 20
160.8737169887
 30
0.0
 10
647.698955147
 20
160.873716981
 30
0.0
  0
SPLINE
  5
308
100
AcDbEntity
  8
0
100
AcDbSpline
 62
7
  6
BYLAYER
 70
0
 71
3
 72
11
 73
7
 74
0
 42
0.0000001
 43
0.0000001
 44
0.0000000001
 40
0.0
 40
0.0
 40
0.0
 40
0.0
 40
0.3404385698
 40
0.6266185405
 40
0.8401374976
 40
1.0
 40
1.0
 40
1.0
 40
1.0
 10
666.1989565702
 20
158.873716981
 30
0.0
 10
666.1989565706
 20
158.7371159628
 30
0.0
 10
666.2238180846
 20
158.4844681728
 30
0.0
 10
666.3315676548
 20
158.1622048448
 30
0.0
 10
666.4860479198
 20
157.9393001356
 30
0.0
 10
666.6348132407
 20
157.8737314743
 30
0.0
 10
666.6989580879
 20
157.8737169805
 30
0.0
  0
SPLINE
  5
309
100
AcDbEntity
  8
0
100
AcDbSpline
 62
7
  6
BYLAYER
 70
0
 71
3
 72
11
 73
7
 74
0
 42
0.0000001
 43
0.0000001
 44
0.0000000001
 40
0.0
 40
0.0
 40
0.0
 40
0.0
 40
0.1598605771
 40
0.3733762137
 40
0.6595504004
 40
1.0
 40
1.0
 40
1.0
 40
1.0
 10
656.6989531128
 20
157.8737169806
 30
0.0
 10
656.7630971939
 20
157.873730111
 30
0.0
 10
656.9118606035
 20
157.9392991892
 30
0.0
 10
657.0663399177
 20
158.1621978606
 30
0.0
 10
657.1740925269
 20
158.4844615665
 30
0.0
 10
657.1989539613
 20
158.7371115239
 30
0.0
 10
657.1989546062
 20
158.8737169809
 30
0.0
  0
SPLINE
  5
30A
100
AcDbEntity
  8
0
100
AcDbSpline
 62
7
  6
BYLAYER
 70
0
 71
3
 72
11
 73
7
 74
0
 42
0.0000001
 43
0.0000001
 44
0.0000000001
 40
0.0
 40
0.0
 40
0.0
 40
0.0
 40
0.2478327053
 40
0.4979558062
 40
0.7486361583
 40
1.0
 40
1.0
 40
1.0
 40
1.0
 10
680.198955147
 20
159.873716981
 30
0.0
 10
680.1989555826
 20
160.0378385965
 30
0.0
 10
680.3311150608
 20
160.3679173104
 30
0.0
 10
680.7186321739
 20
160.6944454874
 30
0.0
 10
681.1971981642
 20
160.8671912074
 30
0.0
 10
681.5324951162
 20
160.8737170223
 30
0.0
 10
681.698955147
 20
160.873716981
 30
0.0
  0
SPLINE
  5
30B
100
AcDbEntity
  8
0
100
AcDbSpline
 62
7
  6
BYLAYER
 70
0
 71
3
 72
15
 73
11
 74
0
 42
0.0000001
 43
0.0000001
 44
0.0000000001
 40
0.0
 40
0.0
 40
0.0
 40
0.0
 40
0.2636784782
 40
0.5741051372
 40
0.7239517191
 40
0.8562958621
 40
0.9120219732
 40
0.9572544159
 40
0.9883481867
 40
1.0
 40
1.0
 40
1.0
 40
1.0
 10
688.1989551354
 20
159.873716981
 30
0.0
 10
688.1989552903
 20
159.9370109957
 30
0.0
 10
688.2932722123
 20
160.059305631
 30
0.0
 10
688.4202562257
 20
160.1695072235
 30
0.0
 10
688.5316844171
 20
160.2591744029
 30
0.0
 10
688.5967043144
 20
160.307548246
 30
0.0
 10
688.6424466308
 20
160.3398131431
 30
0.0
 10
688.6697453966
 20
160.3562220657
 30
0.0
 10
688.686497895
 20
160.3686939394
 30
0.0
 10
688.6972191655
 20
160.371523987
 30
0.0
 10
688.6989551388
 20
160.3737169781
 30
0.0
  0
SPLINE
  5
30C
100
AcDbEntity
  8
0
100
AcDbSpline
 62
7
  6
BYLAYER
 70
0
 71
3
 72
12
 73
8
 74
0
 42
0.0000001
 43
0.0000001
 44
0.0000000001
 40
0.0
 40
0.0
 40
0.0
 40
0.0
 40
0.3555601317
 40
0.6614267398
 40
0.7831217149
 40
0.8795320322
 40
1.0
 40
1.0
 40
1.0
 40
1.0
 10
639.2868734552
 20
158.873716981
 30
0.0
 10
639.2868734552
 20
158.7459596996
 30
0.0
 10
639.2994599849
 20
158.5079352012
 30
0.0
 10
639.344592901
 20
158.2300655778
 30
0.0
 10
639.4038020189
 20
158.0489704029
 30
0.0
 10
639.4533984976
 20
157.9423950991
 30
0.0
 10
639.5183089088
 20
157.873716981
 30
0.0
 10
639.5615945831
 20
157.873716981
 30
0.0
  0
SPLINE
  5
30D
100
AcDbEntity
  8
0
100
AcDbSpline
 62
7
  6
BYLAYER
 70
0
 71
3
 72
10
 73
6
 74
0
 42
0.0000001
 43
0.0000001
 44
0.0000000001
 40
0.0
 40
0.0
 40
0.0
 40
0.0
 40
0.2114258548
 40
0.4596612947
 40
1.0
 40
1.0
 40
1.0
 40
1.0
 10
640.7866399175
 20
159.873716981
 30
0.0
 10
640.7002389145
 20
159.8737175675
 30
0.0
 10
640.5149448069
 20
159.9294719423
 30
0.0
 10
640.1560045513
 20
160.1228536467
 30
0.0
 10
639.8957987573
 20
160.3177590259
 30
0.0
 10
639.7291530128
 20
160.4626315729
 30
0.0
  0
SPLINE
  5
30E
100
AcDbEntity
  8
0
100
AcDbSpline
 62
7
  6
BYLAYER
 70
0
 71
3
 72
8
 73
4
 74
0
 42
0.0000001
 43
0.0000001
 44
0.0000000001
 40
0.0
 40
0.0
 40
0.0
 40
0.0
 40
1.0
 40
1.0
 40
1.0
 40
1.0
 10
639.729152919
 20
160.462631465
 30
0.0
 10
639.5772668855
 20
160.5946996793
 30
0.0
 10
639.430587241
 20
160.7327995216
 30
0.0
 10
639.2868733609
 20
160.8737168769
 30
0.0
  0
SPLINE
  5
30F
100
AcDbEntity
  8
0
100
AcDbSpline
 62
7
  6
BYLAYER
 70
0
 71
3
 72
8
 73
4
 74
0
 42
0.0000001
 43
0.0000001
 44
0.0000000001
 40
0.0
 40
0.0
 40
0.0
 40
0.0
 40
1.0
 40
1.0
 40
1.0
 40
1.0
 10
639.2868734552
 20
160.873716981
 30
0.0
 10
639.4786747779
 20
160.8032131917
 30
0.0
 10
639.6709495496
 20
160.7339113397
 30
0.0
 10
639.8644364233
 20
160.668174277
 30
0.0
  0
SPLINE
  5
310
100
AcDbEntity
  8
0
100
AcDbSpline
 62
7
  6
BYLAYER
 70
0
 71
3
 72
12
 73
8
 74
0
 42
0.0000001
 43
0.0000001
 44
0.0000000001
 40
0.0
 40
0.0
 40
0.0
 40
0.0
 40
0.1204115357
 40
0.2167519688
 40
0.3384069038
 40
0.6443218671
 40
1.0
 40
1.0
 40
1.0
 40
1.0
 10
635.9242340191
 20
157.873716981
 30
0.0
 10
635.8809684658
 20
157.873716981
 30
0.0
 10
635.8160820309
 20
157.9423328936
 30
0.0
 10
635.7664895474
 20
158.0488514691
 30
0.0
 10
635.7072620505
 20
158.2299166321
 30
0.0
 10
635.6621075709
 20
158.5078320675
 30
0.0
 10
635.6495128913
 20
158.74591684
 30
0.0
 10
635.6495128913
 20
158.873716981
 30
0.0
  0
SPLINE
  5
311
100
AcDbEntity
  8
0
100
AcDbSpline
 62
7
  6
BYLAYER
 70
0
 71
3
 72
10
 73
6
 74
0
 42
0.0000001
 43
0.0000001
 44
0.0000000001
 40
0.0
 40
0.0
 40
0.0
 40
0.0
 40
0.5192781373
 40
0.7706703291
 40
1.0
 40
1.0
 40
1.0
 40
1.0
 10
639.8644363638
 20
160.6681740713
 30
0.0
 10
640.0801506436
 20
160.591670883
 30
0.0
 10
640.4059542791
 20
160.4926278953
 30
0.0
 10
640.8365461595
 20
160.3987319897
 30
0.0
 10
641.0481215503
 20
160.3737172185
 30
0.0
 10
641.1492015643
 20
160.373716981
 30
0.0
  0
SPLINE
  5
312
100
AcDbEntity
  8
0
100
AcDbSpline
 62
7
  6
BYLAYER
 70
0
 71
3
 72
9
 73
5
 74
0
 42
0.0000001
 43
0.0000001
 44
0.0000000001
 40
0.0
 40
0.0
 40
0.0
 40
0.0
 40
0.7591341819
 40
1.0
 40
1.0
 40
1.0
 40
1.0
 10
639.8522933145
 20
160.873716981
 30
0.0
 10
639.8522933145
 20
160.8215962595
 30
0.0
 10
639.855164237
 20
160.7528692835
 30
0.0
 10
639.8624032192
 20
160.6845862069
 30
0.0
 10
639.8644364233
 20
160.668174277
 30
0.0
  0
SPLINE
  5
313
100
AcDbEntity
  8
0
100
AcDbSpline
 62
7
  6
BYLAYER
 70
0
 71
3
 72
11
 73
7
 74
0
 42
0.0000001
 43
0.0000001
 44
0.0000000001
 40
0.0
 40
0.0
 40
0.0
 40
0.0
 40
0.2742864213
 40
0.5514542927
 40
0.7962818329
 40
1.0
 40
1.0
 40
1.0
 40
1.0
 10
640.7866399166
 20
159.873716981
 30
0.0
 10
640.7866399233
 20
159.9356501344
 30
0.0
 10
640.8033336025
 20
160.0608518977
 30
0.0
 10
640.8790913747
 20
160.2274362922
 30
0.0
 10
641.0007187308
 20
160.345076946
 30
0.0
 10
641.1032025332
 20
160.3737169813
 30
0.0
 10
641.1492015602
 20
160.373716981
 30
0.0
  0
SPLINE
  5
314
100
AcDbEntity
  8
0
100
AcDbSpline
 62
7
  6
BYLAYER
 70
0
 71
3
 72
8
 73
4
 74
0
 42
0.0000001
 43
0.0000001
 44
0.0000000001
 40
0.0
 40
0.0
 40
0.0
 40
0.0
 40
1.0
 40
1.0
 40
1.0
 40
1.0
 10
639.2866325858
 20
1738.3738272653
 30
0.0
 10
639.4303465043
 20
1738.514744582
 30
0.0
 10
639.5770261116
 20
1738.6528444627
 30
0.0
 10
639.7289121441
 20
1738.7849126787
 30
0.0
  0
SPLINE
  5
315
100
AcDbEntity
  8
0
100
AcDbSpline
 62
7
  6
BYLAYER
 70
0
 71
3
 72
8
 73
4
 74
0
 42
0.0000001
 43
0.0000001
 44
0.0000000001
 40
0.0
 40
0.0
 40
0.0
 40
0.0
 40
1.0
 40
1.0
 40
1.0
 40
1.0
 10
639.286632718
 20
1738.3738271195
 30
0.0
 10
639.4784340578
 20
1738.4443308623
 30
0.0
 10
639.6707088089
 20
1738.5136327711
 30
0.0
 10
639.8641956861
 20
1738.5793698235
 30
0.0
  0
SPLINE
  5
316
100
AcDbEntity
  8
0
100
AcDbSpline
 62
7
  6
BYLAYER
 70
0
 71
3
 72
10
 73
6
 74
0
 42
0.0000001
 43
0.0000001
 44
0.0000000001
 40
0.0
 40
0.0
 40
0.0
 40
0.0
 40
0.2114262679
 40
0.4596614222
 40
1.0
 40
1.0
 40
1.0
 40
1.0
 10
640.786399201
 20
1739.3738271195
 30
0.0
 10
640.6999980283
 20
1739.3738265371
 30
0.0
 10
640.5147038793
 20
1739.3180720454
 30
0.0
 10
640.1557636553
 20
1739.1246903144
 30
0.0
 10
639.8955579691
 20
1738.9297850568
 30
0.0
 10
639.7289122756
 20
1738.7849125275
 30
0.0
  0
SPLINE
  5
317
100
AcDbEntity
  8
0
100
AcDbSpline
 62
7
  6
BYLAYER
 70
0
 71
3
 72
11
 73
7
 74
0
 42
0.0000001
 43
0.0000001
 44
0.0000000001
 40
0.0
 40
0.0
 40
0.0
 40
0.0
 40
0.2037181708
 40
0.4485457117
 40
0.7257135813
 40
1.0
 40
1.0
 40
1.0
 40
1.0
 10
641.1489608411
 20
1738.8738271195
 30
0.0
 10
641.1029618132
 20
1738.8738271191
 30
0.0
 10
641.0004780095
 20
1738.9024671542
 30
0.0
 10
640.8788506527
 20
1739.0201078089
 30
0.0
 10
640.8030928824
 20
1739.1866922037
 30
0.0
 10
640.7863992054
 20
1739.3118939666
 30
0.0
 10
640.7863991999
 20
1739.3738271195
 30
0.0
  0
SPLINE
  5
318
100
AcDbEntity
  8
0
100
AcDbSpline
 62
7
  6
BYLAYER
 70
0
 71
3
 72
10
 73
6
 74
0
 42
0.0000001
 43
0.0000001
 44
0.0000000001
 40
0.0
 40
0.0
 40
0.0
 40
0.0
 40
0.2293296864
 40
0.4807218845
 40
1.0
 40
1.0
 40
1.0
 40
1.0
 10
641.1489608205
 20
1738.8738271195
 30
0.0
 10
641.0478808001
 20
1738.873826883
 30
0.0
 10
640.8363054003
 20
1738.8488121119
 30
0.0
 10
640.4057135219
 20
1738.7549162066
 30
0.0
 10
640.0799098924
 20
1738.6558732274
 30
0.0
 10
639.8641956236
 20
1738.5793700399
 30
0.0
  0
SPLINE
  5
319
100
AcDbEntity
  8
0
100
AcDbSpline
 62
7
  6
BYLAYER
 70
0
 71
3
 72
9
 73
5
 74
0
 42
0.0000001
 43
0.0000001
 44
0.0000000001
 40
0.0
 40
0.0
 40
0.0
 40
0.0
 40
0.2408658181
 40
1.0
 40
1.0
 40
1.0
 40
1.0
 10
639.8641956861
 20
1738.5793698235
 30
0.0
 10
639.862162482
 20
1738.5629578935
 30
0.0
 10
639.8549234998
 20
1738.494674817
 30
0.0
 10
639.8520525773
 20
1738.4259478409
 30
0.0
 10
639.8520525773
 20
1738.3738271195
 30
0.0
  0
SPLINE
  5
31A
100
AcDbEntity
  8
0
100
AcDbSpline
 62
7
  6
BYLAYER
 70
0
 71
3
 72
11
 73
7
 74
0
 42
0.0000001
 43
0.0000001
 44
0.0000000001
 40
0.0
 40
0.0
 40
0.0
 40
0.0
 40
0.3404385908
 40
0.6266185619
 40
0.8401375074
 40
1.0
 40
1.0
 40
1.0
 40
1.0
 10
657.1987131021
 20
1740.3738271195
 30
0.0
 10
657.1987131017
 20
1740.5104281482
 30
0.0
 10
657.1738515844
 20
1740.7630759514
 30
0.0
 10
657.0661020058
 20
1741.0853392861
 30
0.0
 10
656.9116217337
 20
1741.3082439885
 30
0.0
 10
656.7628564113
 20
1741.3738126319
 30
0.0
 10
656.698711567
 20
1741.3738271199
 30
0.0
  0
SPLINE
  5
31B
100
AcDbEntity
  8
0
100
AcDbSpline
 62
7
  6
BYLAYER
 70
0
 71
3
 72
11
 73
7
 74
0
 42
0.0000001
 43
0.0000001
 44
0.0000000001
 40
0.0
 40
0.0
 40
0.0
 40
0.0
 40
0.1598605678
 40
0.3733761936
 40
0.6595503807
 40
1.0
 40
1.0
 40
1.0
 40
1.0
 10
666.6987163518
 20
1741.3738271198
 30
0.0
 10
666.6345722733
 20
1741.3738139947
 30
0.0
 10
666.4858088624
 20
1741.3082449336
 30
0.0
 10
666.3313295415
 20
1741.0853462686
 30
0.0
 10
666.2235769243
 20
1740.7630825564
 30
0.0
 10
666.1987154868
 20
1740.5104325866
 30
0.0
 10
666.1987148419
 20
1740.3738271195
 30
0.0
  0
SPLINE
  5
31C
100
AcDbEntity
  8
0
100
AcDbSpline
 62
7
  6
BYLAYER
 70
0
 71
3
 72
15
 73
11
 74
0
 42
0.0000001
 43
0.0000001
 44
0.0000000001
 40
0.0
 40
0.0
 40
0.0
 40
0.0
 40
0.0116518133
 40
0.0427455841
 40
0.0879780268
 40
0.143704138
 40
0.2760482811
 40
0.4258948631
 40
0.7363215223
 40
1.0
 40
1.0
 40
1.0
 40
1.0
 10
688.6987144025
 20
1738.8738271223
 30
0.0
 10
688.6969783621
 20
1738.8760200603
 30
0.0
 10
688.6862572443
 20
1738.8788502288
 30
0.0
 10
688.6695046141
 20
1738.8913219981
 30
0.0
 10
688.6422059121
 20
1738.9077309713
 30
0.0
 10
688.596463565
 20
1738.9399958441
 30
0.0
 10
688.5314436862
 20
1738.9883697018
 30
0.0
 10
688.4200154864
 20
1739.0780368747
 30
0.0
 10
688.2930314777
 20
1739.1882384706
 30
0.0
 10
688.1987145548
 20
1739.3105331049
 30
0.0
 10
688.1987143999
 20
1739.3738271195
 30
0.0
  0
SPLINE
  5
31D
100
AcDbEntity
  8
0
100
AcDbSpline
 62
7
  6
BYLAYER
 70
0
 71
3
 72
11
 73
7
 74
0
 42
0.0000001
 43
0.0000001
 44
0.0000000001
 40
0.0
 40
0.0
 40
0.0
 40
0.0
 40
0.2478325037
 40
0.497955658
 40
0.7486362695
 40
1.0
 40
1.0
 40
1.0
 40
1.0
 10
680.1987144099
 20
1739.3738271195
 30
0.0
 10
680.1987148455
 20
1739.2097056372
 30
0.0
 10
680.3308741719
 20
1738.8796270173
 30
0.0
 10
680.7183912624
 20
1738.5530986549
 30
0.0
 10
681.1969574105
 20
1738.3803529176
 30
0.0
 10
681.5322544524
 20
1738.3738270781
 30
0.0
 10
681.6987144099
 20
1738.3738271195
 30
0.0
  0
SPLINE
  5
31E
100
AcDbEntity
  8
0
100
AcDbSpline
 62
7
  6
BYLAYER
 70
0
 71
3
 72
11
 73
7
 74
0
 42
0.0000001
 43
0.0000001
 44
0.0000000001
 40
0.0
 40
0.0
 40
0.0
 40
0.0
 40
0.2478327053
 40
0.4979558062
 40
0.7486361583
 40
1.0
 40
1.0
 40
1.0
 40
1.0
 10
649.1987144099
 20
1739.3738271195
 30
0.0
 10
649.1987139743
 20
1739.209705504
 30
0.0
 10
649.0665544962
 20
1738.87962679
 30
0.0
 10
648.679037383
 20
1738.5530986131
 30
0.0
 10
648.2004713927
 20
1738.380352893
 30
0.0
 10
647.8651744407
 20
1738.3738270781
 30
0.0
 10
647.6987144099
 20
1738.3738271195
 30
0.0
  0
SPLINE
  5
31F
100
AcDbEntity
  8
0
100
AcDbSpline
 62
7
  6
BYLAYER
 70
0
 71
3
 72
12
 73
8
 74
0
 42
0.0000001
 43
0.0000001
 44
0.0000000001
 40
0.0
 40
0.0
 40
0.0
 40
0.0
 40
0.3555601317
 40
0.6614267398
 40
0.7831217149
 40
0.8795320322
 40
1.0
 40
1.0
 40
1.0
 40
1.0
 10
635.6492721541
 20
1740.3738271195
 30
0.0
 10
635.6492721541
 20
1740.5015844008
 30
0.0
 10
635.6618586838
 20
1740.7396088993
 30
0.0
 10
635.7069915998
 20
1741.0174785227
 30
0.0
 10
635.7662007178
 20
1741.1985736975
 30
0.0
 10
635.8157971964
 20
1741.3051490013
 30
0.0
 10
635.8807076077
 20
1741.3738271195
 30
0.0
 10
635.923993282
 20
1741.3738271195
 30
0.0
  0
SPLINE
  5
320
100
AcDbEntity
  8
0
100
AcDbSpline
 62
7
  6
BYLAYER
 70
0
 71
3
 72
12
 73
8
 74
0
 42
0.0000001
 43
0.0000001
 44
0.0000000001
 40
0.0
 40
0.0
 40
0.0
 40
0.0
 40
0.1204115357
 40
0.2167519688
 40
0.3384069038
 40
0.6443218671
 40
1.0
 40
1.0
 40
1.0
 40
1.0
 10
639.5613538459
 20
1741.3738271195
 30
0.0
 10
639.5180882926
 20
1741.3738271195
 30
0.0
 10
639.4532018576
 20
1741.3052112068
 30
0.0
 10
639.4036093742
 20
1741.1986926313
 30
0.0
 10
639.3443818772
 20
1741.0176274683
 30
0.0
 10
639.2992273977
 20
1740.7397120329
 30
0.0
 10
639.286632718
 20
1740.5016272605
 30
0.0
 10
639.286632718
 20
1740.3738271195
 30
0.0
  0
SPLINE
  5
321
100
AcDbEntity
  8
0
100
AcDbSpline
 62
7
  6
BYLAYER
 70
0
 71
3
 72
16
 73
12
 74
0
 42
0.0000001
 43
0.0000001
 44
0.0000000001
 40
0.0
 40
0.0
 40
0.0
 40
0.0
 40
0.0660819509
 40
0.1837076052
 40
0.3386899351
 40
0.5123359223
 40
0.6837013925
 40
0.8321172397
 40
0.9396824817
 40
0.9934236715
 40
1.0
 40
1.0
 40
1.0
 40
1.0
 10
651.215332022
 20
1738.3626328684
 30
0.0
 10
651.2155398685
 20
1738.3408128479
 30
0.0
 10
651.2157147204
 20
1738.2801595469
 30
0.0
 10
651.2159817122
 20
1738.1682420492
 30
0.0
 10
651.2161002714
 20
1738.0213146381
 30
0.0
 10
651.2162109479
 20
1737.8543453418
 30
0.0
 10
651.2159208161
 20
1737.6981104388
 30
0.0
 10
651.2164070526
 20
1737.5371686619
 30
0.0
 10
651.2146820657
 20
1737.4800091798
 30
0.0
 10
651.2165860314
 20
1737.359330747
 30
0.0
 10
651.2149212992
 20
1737.3828498906
 30
0.0
 10
651.2149006148
 20
1737.3850213705
 30
0.0
  0
SPLINE
  5
322
100
AcDbEntity
  8
0
100
AcDbSpline
 62
7
  6
BYLAYER
 70
0
 71
3
 72
16
 73
12
 74
0
 42
0.0000001
 43
0.0000001
 44
0.0000000001
 40
0.0
 40
0.0
 40
0.0
 40
0.0
 40
0.0660819509
 40
0.1837076052
 40
0.3386899351
 40
0.5123359223
 40
0.6837013925
 40
0.8321172397
 40
0.9396824817
 40
0.9934236715
 40
1.0
 40
1.0
 40
1.0
 40
1.0
 10
651.1820967978
 20
1738.3626328684
 30
0.0
 10
651.1818889512
 20
1738.3408128479
 30
0.0
 10
651.1817140993
 20
1738.2801595469
 30
0.0
 10
651.1814471075
 20
1738.1682420492
 30
0.0
 10
651.1813285484
 20
1738.0213146381
 30
0.0
 10
651.1812178718
 20
1737.8543453418
 30
0.0
 10
651.1815080037
 20
1737.6981104388
 30
0.0
 10
651.1810217671
 20
1737.5371686619
 30
0.0
 10
651.1827467541
 20
1737.4800091798
 30
0.0
 10
651.1808427883
 20
1737.359330747
 30
0.0
 10
651.1825075205
 20
1737.3828498906
 30
0.0
 10
651.182528205
 20
1737.3850213705
 30
0.0
  0
SPLINE
  5
323
100
AcDbEntity
  8
0
100
AcDbSpline
 62
7
  6
BYLAYER
 70
0
 71
3
 72
16
 73
12
 74
0
 42
0.0000001
 43
0.0000001
 44
0.0000000001
 40
0.0
 40
0.0
 40
0.0
 40
0.0
 40
0.0660819509
 40
0.1837076052
 40
0.3386899351
 40
0.5123359223
 40
0.6837013925
 40
0.8321172397
 40
0.9396824817
 40
0.9934236715
 40
1.0
 40
1.0
 40
1.0
 40
1.0
 10
651.215332022
 20
1738.3626328684
 30
0.0
 10
651.2155398685
 20
1738.3408128479
 30
0.0
 10
651.2157147204
 20
1738.2801595469
 30
0.0
 10
651.2159817122
 20
1738.1682420492
 30
0.0
 10
651.2161002714
 20
1738.0213146381
 30
0.0
 10
651.2162109479
 20
1737.8543453418
 30
0.0
 10
651.2159208161
 20
1737.6981104388
 30
0.0
 10
651.2164070526
 20
1737.5371686619
 30
0.0
 10
651.2146820657
 20
1737.4800091798
 30
0.0
 10
651.2165860314
 20
1737.359330747
 30
0.0
 10
651.2149212992
 20
1737.3828498906
 30
0.0
 10
651.2149006148
 20
1737.3850213705
 30
0.0
  0
SPLINE
  5
324
100
AcDbEntity
  8
0
100
AcDbSpline
 62
7
  6
BYLAYER
 70
0
 71
3
 72
16
 73
12
 74
0
 42
0.0000001
 43
0.0000001
 44
0.0000000001
 40
0.0
 40
0.0
 40
0.0
 40
0.0
 40
0.0660819509
 40
0.1837076052
 40
0.3386899351
 40
0.5123359223
 40
0.6837013925
 40
0.8321172397
 40
0.9396824817
 40
0.9934236715
 40
1.0
 40
1.0
 40
1.0
 40
1.0
 10
651.1820967978
 20
1738.3626328684
 30
0.0
 10
651.1818889512
 20
1738.3408128479
 30
0.0
 10
651.1817140993
 20
1738.2801595469
 30
0.0
 10
651.1814471075
 20
1738.1682420492
 30
0.0
 10
651.1813285484
 20
1738.0213146381
 30
0.0
 10
651.1812178718
 20
1737.8543453418
 30
0.0
 10
651.1815080037
 20
1737.6981104388
 30
0.0
 10
651.1810217671
 20
1737.5371686619
 30
0.0
 10
651.1827467541
 20
1737.4800091798
 30
0.0
 10
651.1808427883
 20
1737.359330747
 30
0.0
 10
651.1825075205
 20
1737.3828498906
 30
0.0
 10
651.182528205
 20
1737.3850213705
 30
0.0
  0
SPLINE
  5
325
100
AcDbEntity
  8
0
100
AcDbSpline
 62
7
  6
BYLAYER
 70
0
 71
3
 72
16
 73
12
 74
0
 42
0.0000001
 43
0.0000001
 44
0.0000000001
 40
0.0
 40
0.0
 40
0.0
 40
0.0
 40
0.066109371
 40
0.1837553808
 40
0.338748546
 40
0.5123945412
 40
0.6837491914
 40
0.8321446955
 40
0.9396825251
 40
0.9933925399
 40
1.0
 40
1.0
 40
1.0
 40
1.0
 10
673.6820966184
 20
1738.3626140365
 30
0.0
 10
673.6818888612
 20
1738.3407844229
 30
0.0
 10
673.681713918
 20
1738.2801138564
 30
0.0
 10
673.6814470472
 20
1738.1681742496
 30
0.0
 10
673.681328415
 20
1738.0212328455
 30
0.0
 10
673.6812181923
 20
1737.8542599451
 30
0.0
 10
673.6815069728
 20
1737.6980290117
 30
0.0
 10
673.6810250083
 20
1737.5371121042
 30
0.0
 10
673.6827401457
 20
1737.479947905
 30
0.0
 10
673.6808506003
 20
1737.3593206932
 30
0.0
 10
673.6825076195
 20
1737.3828583891
 30
0.0
 10
673.6825283843
 20
1737.3850402024
 30
0.0
  0
SPLINE
  5
326
100
AcDbEntity
  8
0
100
AcDbSpline
 62
7
  6
BYLAYER
 70
0
 71
3
 72
16
 73
12
 74
0
 42
0.0000001
 43
0.0000001
 44
0.0000000001
 40
0.0
 40
0.0
 40
0.0
 40
0.0
 40
0.066109371
 40
0.1837553808
 40
0.338748546
 40
0.5123945412
 40
0.6837491914
 40
0.8321446955
 40
0.9396825251
 40
0.9933925399
 40
1.0
 40
1.0
 40
1.0
 40
1.0
 10
673.7153322013
 20
1738.3626140365
 30
0.0
 10
673.7155399585
 20
1738.3407844229
 30
0.0
 10
673.7157149017
 20
1738.2801138564
 30
0.0
 10
673.7159817726
 20
1738.1681742496
 30
0.0
 10
673.7161004047
 20
1738.0212328455
 30
0.0
 10
673.7162106275
 20
1737.8542599451
 30
0.0
 10
673.7159218469
 20
1737.6980290117
 30
0.0
 10
673.7164038114
 20
1737.5371121042
 30
0.0
 10
673.714688674
 20
1737.479947905
 30
0.0
 10
673.7165782194
 20
1737.3593206932
 30
0.0
 10
673.7149212003
 20
1737.3828583891
 30
0.0
 10
673.7149004355
 20
1737.3850402024
 30
0.0
  0
SPLINE
  5
327
100
AcDbEntity
  8
0
100
AcDbSpline
 62
7
  6
BYLAYER
 70
0
 71
3
 72
16
 73
12
 74
0
 42
0.0000001
 43
0.0000001
 44
0.0000000001
 40
0.0
 40
0.0
 40
0.0
 40
0.0
 40
0.0661715043
 40
0.1838636386
 40
0.3388813558
 40
0.5125273691
 40
0.6838575011
 40
0.8322069082
 40
0.9396826219
 40
0.9933219952
 40
1.0
 40
1.0
 40
1.0
 40
1.0
 10
673.6820962121
 20
1738.3625713027
 30
0.0
 10
673.6818886569
 20
1738.3407199522
 30
0.0
 10
673.6817135077
 20
1738.2800102666
 30
0.0
 10
673.6814469098
 20
1738.1680205707
 30
0.0
 10
673.6813281156
 20
1738.0210474732
 30
0.0
 10
673.6812189078
 20
1737.854066427
 30
0.0
 10
673.6815046743
 20
1737.6978445018
 30
0.0
 10
673.6810322451
 20
1737.5369839845
 30
0.0
 10
673.6827254057
 20
1737.4798090938
 30
0.0
 10
673.680868038
 20
1737.3592979817
 30
0.0
 10
673.6825078442
 20
1737.3828777056
 30
0.0
 10
673.6825287906
 20
1737.3850829362
 30
0.0
  0
SPLINE
  5
328
100
AcDbEntity
  8
0
100
AcDbSpline
 62
7
  6
BYLAYER
 70
0
 71
3
 72
16
 73
12
 74
0
 42
0.0000001
 43
0.0000001
 44
0.0000000001
 40
0.0
 40
0.0
 40
0.0
 40
0.0
 40
0.0661715043
 40
0.1838636386
 40
0.3388813558
 40
0.5125273691
 40
0.6838575011
 40
0.8322069082
 40
0.9396826219
 40
0.9933219952
 40
1.0
 40
1.0
 40
1.0
 40
1.0
 10
673.7153326076
 20
1738.3625713027
 30
0.0
 10
673.7155401629
 20
1738.3407199522
 30
0.0
 10
673.7157153121
 20
1738.2800102666
 30
0.0
 10
673.7159819099
 20
1738.1680205707
 30
0.0
 10
673.7161007041
 20
1738.0210474732
 30
0.0
 10
673.7162099119
 20
1737.854066427
 30
0.0
 10
673.7159241454
 20
1737.6978445018
 30
0.0
 10
673.7163965746
 20
1737.5369839845
 30
0.0
 10
673.7147034141
 20
1737.4798090938
 30
0.0
 10
673.7165607817
 20
1737.3592979817
 30
0.0
 10
673.7149209756
 20
1737.3828777056
 30
0.0
 10
673.7149000292
 20
1737.3850829362
 30
0.0
  0
SPLINE
  5
329
100
AcDbEntity
  8
0
100
AcDbSpline
 62
7
  6
BYLAYER
 70
0
 71
3
 72
16
 73
12
 74
0
 42
0.0000001
 43
0.0000001
 44
0.0000000001
 40
0.0
 40
0.0
 40
0.0
 40
0.0
 40
0.0660819509
 40
0.1837076052
 40
0.3386899351
 40
0.5123359223
 40
0.6837013925
 40
0.8321172397
 40
0.9396824817
 40
0.9934236715
 40
1.0
 40
1.0
 40
1.0
 40
1.0
 10
651.215332022
 20
1738.3626328684
 30
0.0
 10
651.2155398685
 20
1738.3408128479
 30
0.0
 10
651.2157147204
 20
1738.2801595469
 30
0.0
 10
651.2159817122
 20
1738.1682420492
 30
0.0
 10
651.2161002714
 20
1738.0213146381
 30
0.0
 10
651.2162109479
 20
1737.8543453418
 30
0.0
 10
651.2159208161
 20
1737.6981104388
 30
0.0
 10
651.2164070526
 20
1737.5371686619
 30
0.0
 10
651.2146820657
 20
1737.4800091798
 30
0.0
 10
651.2165860314
 20
1737.359330747
 30
0.0
 10
651.2149212992
 20
1737.3828498906
 30
0.0
 10
651.2149006148
 20
1737.3850213705
 30
0.0
  0
SPLINE
  5
32A
100
AcDbEntity
  8
0
100
AcDbSpline
 62
7
  6
BYLAYER
 70
0
 71
3
 72
16
 73
12
 74
0
 42
0.0000001
 43
0.0000001
 44
0.0000000001
 40
0.0
 40
0.0
 40
0.0
 40
0.0
 40
0.0660819509
 40
0.1837076052
 40
0.3386899351
 40
0.5123359223
 40
0.6837013925
 40
0.8321172397
 40
0.9396824817
 40
0.9934236715
 40
1.0
 40
1.0
 40
1.0
 40
1.0
 10
651.1820967978
 20
1738.3626328684
 30
0.0
 10
651.1818889512
 20
1738.3408128479
 30
0.0
 10
651.1817140993
 20
1738.2801595469
 30
0.0
 10
651.1814471075
 20
1738.1682420492
 30
0.0
 10
651.1813285484
 20
1738.0213146381
 30
0.0
 10
651.1812178718
 20
1737.8543453418
 30
0.0
 10
651.1815080037
 20
1737.6981104388
 30
0.0
 10
651.1810217671
 20
1737.5371686619
 30
0.0
 10
651.1827467541
 20
1737.4800091798
 30
0.0
 10
651.1808427883
 20
1737.359330747
 30
0.0
 10
651.1825075205
 20
1737.3828498906
 30
0.0
 10
651.182528205
 20
1737.3850213705
 30
0.0
  0
SPLINE
  5
32B
100
AcDbEntity
  8
0
100
AcDbSpline
 62
7
  6
BYLAYER
 70
0
 71
3
 72
16
 73
12
 74
0
 42
0.0000001
 43
0.0000001
 44
0.0000000001
 40
0.0
 40
0.0
 40
0.0
 40
0.0
 40
0.0660819509
 40
0.1837076052
 40
0.3386899351
 40
0.5123359223
 40
0.6837013925
 40
0.8321172397
 40
0.9396824817
 40
0.9934236715
 40
1.0
 40
1.0
 40
1.0
 40
1.0
 10
651.215332022
 20
1738.3626328684
 30
0.0
 10
651.2155398685
 20
1738.3408128479
 30
0.0
 10
651.2157147204
 20
1738.2801595469
 30
0.0
 10
651.2159817122
 20
1738.1682420492
 30
0.0
 10
651.2161002714
 20
1738.0213146381
 30
0.0
 10
651.2162109479
 20
1737.8543453418
 30
0.0
 10
651.2159208161
 20
1737.6981104388
 30
0.0
 10
651.2164070526
 20
1737.5371686619
 30
0.0
 10
651.2146820657
 20
1737.4800091798
 30
0.0
 10
651.2165860314
 20
1737.359330747
 30
0.0
 10
651.2149212992
 20
1737.3828498906
 30
0.0
 10
651.2149006148
 20
1737.3850213705
 30
0.0
  0
SPLINE
  5
32C
100
AcDbEntity
  8
0
100
AcDbSpline
 62
7
  6
BYLAYER
 70
0
 71
3
 72
16
 73
12
 74
0
 42
0.0000001
 43
0.0000001
 44
0.0000000001
 40
0.0
 40
0.0
 40
0.0
 40
0.0
 40
0.0660819509
 40
0.1837076052
 40
0.3386899351
 40
0.5123359223
 40
0.6837013925
 40
0.8321172397
 40
0.9396824817
 40
0.9934236715
 40
1.0
 40
1.0
 40
1.0
 40
1.0
 10
651.1820967978
 20
1738.3626328684
 30
0.0
 10
651.1818889512
 20
1738.3408128479
 30
0.0
 10
651.1817140993
 20
1738.2801595469
 30
0.0
 10
651.1814471075
 20
1738.1682420492
 30
0.0
 10
651.1813285484
 20
1738.0213146381
 30
0.0
 10
651.1812178718
 20
1737.8543453418
 30
0.0
 10
651.1815080037
 20
1737.6981104388
 30
0.0
 10
651.1810217671
 20
1737.5371686619
 30
0.0
 10
651.1827467541
 20
1737.4800091798
 30
0.0
 10
651.1808427883
 20
1737.359330747
 30
0.0
 10
651.1825075205
 20
1737.3828498906
 30
0.0
 10
651.182528205
 20
1737.3850213705
 30
0.0
  0
SPLINE
  5
32D
100
AcDbEntity
  8
0
100
AcDbSpline
 62
7
  6
BYLAYER
 70
0
 71
3
 72
16
 73
12
 74
0
 42
0.0000001
 43
0.0000001
 44
0.0000000001
 40
0.0
 40
0.0
 40
0.0
 40
0.0
 40
0.066109371
 40
0.1837553808
 40
0.338748546
 40
0.5123945412
 40
0.6837491914
 40
0.8321446955
 40
0.9396825251
 40
0.9933925399
 40
1.0
 40
1.0
 40
1.0
 40
1.0
 10
673.6820966184
 20
1738.3626140365
 30
0.0
 10
673.6818888612
 20
1738.3407844229
 30
0.0
 10
673.681713918
 20
1738.2801138564
 30
0.0
 10
673.6814470472
 20
1738.1681742496
 30
0.0
 10
673.681328415
 20
1738.0212328455
 30
0.0
 10
673.6812181923
 20
1737.8542599451
 30
0.0
 10
673.6815069728
 20
1737.6980290117
 30
0.0
 10
673.6810250083
 20
1737.5371121042
 30
0.0
 10
673.6827401457
 20
1737.479947905
 30
0.0
 10
673.6808506003
 20
1737.3593206932
 30
0.0
 10
673.6825076195
 20
1737.3828583891
 30
0.0
 10
673.6825283843
 20
1737.3850402024
 30
0.0
  0
SPLINE
  5
32E
100
AcDbEntity
  8
0
100
AcDbSpline
 62
7
  6
BYLAYER
 70
0
 71
3
 72
16
 73
12
 74
0
 42
0.0000001
 43
0.0000001
 44
0.0000000001
 40
0.0
 40
0.0
 40
0.0
 40
0.0
 40
0.066109371
 40
0.1837553808
 40
0.338748546
 40
0.5123945412
 40
0.6837491914
 40
0.8321446955
 40
0.9396825251
 40
0.9933925399
 40
1.0
 40
1.0
 40
1.0
 40
1.0
 10
673.7153322013
 20
1738.3626140365
 30
0.0
 10
673.7155399585
 20
1738.3407844229
 30
0.0
 10
673.7157149017
 20
1738.2801138564
 30
0.0
 10
673.7159817726
 20
1738.1681742496
 30
0.0
 10
673.7161004047
 20
1738.0212328455
 30
0.0
 10
673.7162106275
 20
1737.8542599451
 30
0.0
 10
673.7159218469
 20
1737.6980290117
 30
0.0
 10
673.7164038114
 20
1737.5371121042
 30
0.0
 10
673.714688674
 20
1737.479947905
 30
0.0
 10
673.7165782194
 20
1737.3593206932
 30
0.0
 10
673.7149212003
 20
1737.3828583891
 30
0.0
 10
673.7149004355
 20
1737.3850402024
 30
0.0
  0
SPLINE
  5
32F
100
AcDbEntity
  8
0
100
AcDbSpline
 62
7
  6
BYLAYER
 70
0
 71
3
 72
16
 73
12
 74
0
 42
0.0000001
 43
0.0000001
 44
0.0000000001
 40
0.0
 40
0.0
 40
0.0
 40
0.0
 40
0.0661715043
 40
0.1838636386
 40
0.3388813558
 40
0.5125273691
 40
0.6838575011
 40
0.8322069082
 40
0.9396826219
 40
0.9933219952
 40
1.0
 40
1.0
 40
1.0
 40
1.0
 10
673.6820962121
 20
1738.3625713027
 30
0.0
 10
673.6818886569
 20
1738.3407199522
 30
0.0
 10
673.6817135077
 20
1738.2800102666
 30
0.0
 10
673.6814469098
 20
1738.1680205707
 30
0.0
 10
673.6813281156
 20
1738.0210474732
 30
0.0
 10
673.6812189078
 20
1737.854066427
 30
0.0
 10
673.6815046743
 20
1737.6978445018
 30
0.0
 10
673.6810322451
 20
1737.5369839845
 30
0.0
 10
673.6827254057
 20
1737.4798090938
 30
0.0
 10
673.680868038
 20
1737.3592979817
 30
0.0
 10
673.6825078442
 20
1737.3828777056
 30
0.0
 10
673.6825287906
 20
1737.3850829362
 30
0.0
  0
SPLINE
  5
330
100
AcDbEntity
  8
0
100
AcDbSpline
 62
7
  6
BYLAYER
 70
0
 71
3
 72
16
 73
12
 74
0
 42
0.0000001
 43
0.0000001
 44
0.0000000001
 40
0.0
 40
0.0
 40
0.0
 40
0.0
 40
0.0661715043
 40
0.1838636386
 40
0.3388813558
 40
0.5125273691
 40
0.6838575011
 40
0.8322069082
 40
0.9396826219
 40
0.9933219952
 40
1.0
 40
1.0
 40
1.0
 40
1.0
 10
673.7153326076
 20
1738.3625713027
 30
0.0
 10
673.7155401629
 20
1738.3407199522
 30
0.0
 10
673.7157153121
 20
1738.2800102666
 30
0.0
 10
673.7159819099
 20
1738.1680205707
 30
0.0
 10
673.7161007041
 20
1738.0210474732
 30
0.0
 10
673.7162099119
 20
1737.854066427
 30
0.0
 10
673.7159241454
 20
1737.6978445018
 30
0.0
 10
673.7163965746
 20
1737.5369839845
 30
0.0
 10
673.7147034141
 20
1737.4798090938
 30
0.0
 10
673.7165607817
 20
1737.3592979817
 30
0.0
 10
673.7149209756
 20
1737.3828777056
 30
0.0
 10
673.7149000292
 20
1737.3850829362
 30
0.0
  0
ENDSEC
  0
SECTION
  2
OBJECTS
  0
DICTIONARY
  5
C
100
AcDbDictionary
280
0
281
1
  3
ACAD_GROUP
350
D
  3
ACAD_MLINESTYLE
350
17
  3
ACAD_LAYOUT
350
1A
  3
ACAD_PLOTSETTINGS
350
19
  3
ACAD_PLOTSTYLENAME
350
E
  0
DICTIONARY
  5
D
102
{ACAD_REACTORS
330
C
102
}
100
AcDbDictionary
280
0
281
1
  0
ACDBDICTIONARYWDFLT
  5
E
102
{ACAD_REACTORS
330
C
102
}
100
AcDbDictionary
281
1
  3
Normal
350
F
100
AcDbDictionaryWithDefault
340
F
  0
DICTIONARY
  5
17
102
{ACAD_REACTORS
330
C
102
}
100
AcDbDictionary
280
0
281
1
  3
Standard
350
18
  0
DICTIONARY
  5
19
102
{ACAD_REACTORS
330
C
102
}
100
AcDbDictionary
281
1
  0
DICTIONARY
  5
1A
102
{ACAD_REACTORS
330
C
102
}
100
AcDbDictionary
281
1
  3
Model
350
331
  3
Layout1
350
332
  0
ACDBPLACEHOLDER
  5
F
102
{ACAD_REACTORS
330
E
102
}
  0
MLINESTYLE
  5
18
102
{ACAD_REACTORS
330
17
102
}
100
AcDbMlineStyle
  2
STANDARD
 70
0
  3

 62
256
 51
90.0
 52
90.0
 71
2
 49
0.5
 62
256
  6
BYLAYER
 49
-0.5
 62
256
  6
BYLAYER
  0
LAYOUT
  5
331
102
{ACAD_REACTORS
330
1A
102
}
100
AcDbPlotSettings
  1

  2
none_device
  4

  6

 40
0.0
 41
0.0
 42
0.0
 43
0.0
 44
210.0
 45
297.0
 46
0.0
 47
0.0
 48
0.0
 49
0.0
140
0.0
141
0.0
142
1.0
143
1.0
 70
1024
 72
1
 73
0
 74
0
  7

 75
0
147
1.0
148
0.0
149
0.0
100
AcDbLayout
  1
Model
 70
0
 71
0
 10
0.0
 20
0.0
 11
210.0
 21
297.0
 12
0.0
 22
0.0
 32
0.0
 14
0.0
 24
0.0
 34
0.0
 15
0.0
 25
0.0
 35
0.0
146
0.0
 13
0.0
 23
0.0
 33
0.0
 16
1.0
 26
0.0
 36
0.0
 17
0.0
 27
1.0
 37
0.0
 76
0
330
212
345
0
346
0
  0
LAYOUT
  5
332
102
{ACAD_REACTORS
330
1A
102
}
100
AcDbPlotSettings
  1

  2
none_device
  4

  6

 40
0.0
 41
0.0
 42
0.0
 43
0.0
 44
210.0
 45
297.0
 46
0.0
 47
0.0
 48
0.0
 49
0.0
140
0.0
141
0.0
142
1.0
143
1.0
 70
0
 72
1
 73
0
 74
0
  7

 75
0
147
1.0
148
0.0
149
0.0
100
AcDbLayout
  1
Layout1
 70
0
 71
1
 10
0.0
 20
0.0
 11
210.0
 21
297.0
 12
0.0
 22
0.0
 32
0.0
 14
0.0
 24
0.0
 34
0.0
 15
0.0
 25
0.0
 35
0.0
146
0.0
 13
0.0
 23
0.0
 33
0.0
 16
1.0
 26
0.0
 36
0.0
 17
0.0
 27
1.0
 37
0.0
 76
0
330
213
345
0
346
0
  0
ENDSEC
  0
EOF
