999
DXF file: C:\Users\sesa63760\Dev\_Creo\CAD\MCADPD0005316_3D-CAD\drw0001_7.dxf
999
Pro/ENGINEER 2019471 by Parametric Technology Corporation
  0
SECTION
  2
HEADER
  9
$ACADVER
  1
AC1024
  9
$DWGCODEPAGE
  3
ANSI_1252
  9
$EXTMAX
 10
367.8426868179
 20
520.2346570711
 30
0.0
  9
$EXTMIN
 10
0.0
 20
0.0
 30
0.0
  9
$LIMMIN
 10
0.0
 20
0.0
  9
$LIMMAX
 10
367.8426868179
 20
520.2346570711
  9
$VIEWCTR
 10
183.921343409
 20
260.1173285355
  9
$VIEWSIZE
 40
520.2346570711
  9
$CLAYER
  8
0
  9
$LTSCALE
 40
33.9115924609
  9
$CELTYPE
  6
BYLAYER
  9
$DIMSCALE
 40
1.0
  9
$DIMASZ
 40
4.379079605
  9
$DIMEXO
 40
1.0
  9
$DIMDLI
 40
23.4298275185
  9
$DIMEXE
 40
1.0
  9
$DIMCEN
 40
5.5491696754
  9
$DIMLFAC
 40
1.0
  9
$DIMBLK
  1
_FILLED
  9
$DIMALT
 70
0
  9
$DIMALTF
 40
0.0393700787
  9
$DIMTXT
 40
6.130711447
  9
$DIMTOL
 70
1
  9
$DIMLIM
 70
0
  9
$DIMTFAC
 40
1.0
  9
$DIMTP
 40
0.01
  9
$DIMTM
 40
0.01
  9
$DIMGAP
 40
0.625
  9
$DIMDSEP
 70
46
  9
$AUNITS
 70
0
  9
$PDMODE
 70
3
  9
$PDSIZE
 40
0.3125
  9
$HANDSEED
  5
2FA
  9
$TILEMODE
 70
1
  9
$MEASUREMENT
 70
1
  9
$INSUNITS
 70
4
  0
ENDSEC
  0
SECTION
  2
CLASSES
  0
CLASS
  1
ACDBDICTIONARYWDFLT
  2
AcDbDictionaryWithDefault
  3
AutoCAD 2000
 90
0
 91
1
280
0
281
0
  0
CLASS
  1
ACDBPLACEHOLDER
  2
AcDbPlaceHolder
  3
AutoCAD 2000
 90
0
 91
1
280
0
281
0
  0
CLASS
  1
LAYOUT
  2
AcDbLayout
  3
AutoCAD 2000
 90
0
 91
0
280
0
281
0
  0
ENDSEC
  0
SECTION
  2
TABLES
  0
TABLE
  2
VPORT
  5
8
100
AcDbSymbolTable
 70
2
  0
VPORT
  5
1F4
100
AcDbSymbolTableRecord
100
AcDbViewportTableRecord
  2
*ACTIVE
 70
0
 10
0.0
 20
0.0
 11
1.0
 21
1.0
 12
183.921343409
 22
260.1173285355
 13
0.0
 23
0.0
 14
1.0
 24
1.0
 15
0.0
 25
0.0
 16
0.0
 26
0.0
 36
1.0
 17
0.0
 27
0.0
 37
0.0
 40
520.2346570711
 41
0.7070707071
 42
50.0
 43
0.0
 44
0.0
 50
0.0
 51
0.0
 71
0
 72
100
 73
1
 74
1
 75
0
 76
0
 77
0
 78
0
  0
ENDTAB
  0
TABLE
  2
LTYPE
  5
5
100
AcDbSymbolTable
 70
6
  0
LTYPE
  5
14
100
AcDbSymbolTableRecord
100
AcDbLinetypeTableRecord
  2
BYBLOCK
 70
0
  3

 72
65
 73
0
 40
0.0
  0
LTYPE
  5
15
100
AcDbSymbolTableRecord
100
AcDbLinetypeTableRecord
  2
BYLAYER
 70
0
  3

 72
65
 73
0
 40
0.0
  0
LTYPE
  5
16
100
AcDbSymbolTableRecord
100
AcDbLinetypeTableRecord
  2
CONTINUOUS
 70
64
  3
Solid line
 72
65
 73
0
 40
0.0
  0
LTYPE
  5
1F5
100
AcDbSymbolTableRecord
100
AcDbLinetypeTableRecord
  2
CENTER
 70
64
  3
____ _ ____ _ ____ _ ____ _ ____ _ ____ _ ____
 72
65
 73
4
 40
0.6
 49
0.375
 74
0
 49
-0.075
 74
0
 49
0.075
 74
0
 49
-0.075
 74
0
  0
LTYPE
  5
1F6
100
AcDbSymbolTableRecord
100
AcDbLinetypeTableRecord
  2
HIDDEN
 70
64
  3
- - - - - - - - - - - - - - - - - - - -
 72
65
 73
2
 40
0.2
 49
0.1
 74
0
 49
-0.1
 74
0
  0
LTYPE
  5
1F7
100
AcDbSymbolTableRecord
100
AcDbLinetypeTableRecord
  2
PHANTOM
 70
64
  3
_____ _ _ _____ _ _ _____ _ _ _____
 72
65
 73
6
 40
0.8
 49
0.45
 74
0
 49
-0.05
 74
0
 49
0.1
 74
0
 49
-0.05
 74
0
 49
0.1
 74
0
 49
-0.05
 74
0
  0
LTYPE
  5
1F8
100
AcDbSymbolTableRecord
100
AcDbLinetypeTableRecord
  2
DOT
 70
64
  3
. . . . . . . . . . . . . . . . . . . .
 72
65
 73
2
 40
0.2
 49
0.1
 74
0
 49
-0.1
 74
0
  0
LTYPE
  5
1F9
100
AcDbSymbolTableRecord
100
AcDbLinetypeTableRecord
  2
DASHED
 70
64
  3
- - - - - - - - - - - - - - - - - - - -
 72
65
 73
2
 40
0.2
 49
0.1
 74
0
 49
-0.1
 74
0
  0
ENDTAB
  0
TABLE
  2
LAYER
  5
2
100
AcDbSymbolTable
 70
36
  0
LAYER
  5
10
100
AcDbSymbolTableRecord
100
AcDbLayerTableRecord
  2
0
 70
0
 62
7
  6
CONTINUOUS
370
-3
390
F
  0
LAYER
  5
1FA
100
AcDbSymbolTableRecord
100
AcDbLayerTableRecord
  2
DEFAULT_1
 70
0
 62
7
  6
CENTER
370
-3
390
F
  0
LAYER
  5
1FB
100
AcDbSymbolTableRecord
100
AcDbLayerTableRecord
  2
DEFAULT_2
 70
0
 62
7
  6
HIDDEN
370
-3
390
F
  0
LAYER
  5
1FC
100
AcDbSymbolTableRecord
100
AcDbLayerTableRecord
  2
DEFAULT_3
 70
0
 62
7
  6
PHANTOM
370
-3
390
F
  0
LAYER
  5
1FD
100
AcDbSymbolTableRecord
100
AcDbLayerTableRecord
  2
00_COMPONENTS
 70
0
 62
7
  6
CONTINUOUS
370
-3
390
F
  0
LAYER
  5
1FE
100
AcDbSymbolTableRecord
100
AcDbLayerTableRecord
  2
01_1_DEFAULT_DATUMS
 70
0
 62
7
  6
CONTINUOUS
370
-3
390
F
  0
LAYER
  5
1FF
100
AcDbSymbolTableRecord
100
AcDbLayerTableRecord
  2
01_PLANES
 70
0
 62
7
  6
CONTINUOUS
370
-3
390
F
  0
LAYER
  5
200
100
AcDbSymbolTableRecord
100
AcDbLayerTableRecord
  2
02_COORD_SYS
 70
0
 62
7
  6
CONTINUOUS
370
-3
390
F
  0
LAYER
  5
201
100
AcDbSymbolTableRecord
100
AcDbLayerTableRecord
  2
03_AXES
 70
0
 62
7
  6
CONTINUOUS
370
-3
390
F
  0
LAYER
  5
202
100
AcDbSymbolTableRecord
100
AcDbLayerTableRecord
  2
04_POINTS
 70
0
 62
7
  6
CONTINUOUS
370
-3
390
F
  0
LAYER
  5
203
100
AcDbSymbolTableRecord
100
AcDbLayerTableRecord
  2
05_CURVES
 70
0
 62
7
  6
CONTINUOUS
370
-3
390
F
  0
LAYER
  5
204
100
AcDbSymbolTableRecord
100
AcDbLayerTableRecord
  2
06_SURFS
 70
0
 62
7
  6
CONTINUOUS
370
-3
390
F
  0
LAYER
  5
205
100
AcDbSymbolTableRecord
100
AcDbLayerTableRecord
  2
07_COSMETICS
 70
0
 62
7
  6
CONTINUOUS
370
-3
390
F
  0
LAYER
  5
206
100
AcDbSymbolTableRecord
100
AcDbLayerTableRecord
  2
10_NOTES
 70
0
 62
7
  6
CONTINUOUS
370
-3
390
F
  0
LAYER
  5
207
100
AcDbSymbolTableRecord
100
AcDbLayerTableRecord
  2
11_NOTES_PUB
 70
0
 62
7
  6
CONTINUOUS
370
-3
390
F
  0
LAYER
  5
208
100
AcDbSymbolTableRecord
100
AcDbLayerTableRecord
  2
13_REF_GTOL
 70
0
 62
7
  6
CONTINUOUS
370
-3
390
F
  0
LAYER
  5
209
100
AcDbSymbolTableRecord
100
AcDbLayerTableRecord
  2
16_MISC
 70
0
 62
7
  6
CONTINUOUS
370
-3
390
F
  0
LAYER
  5
20A
100
AcDbSymbolTableRecord
100
AcDbLayerTableRecord
  2
17_NO_PRINT
 70
0
 62
7
  6
CONTINUOUS
370
-3
390
F
  0
LAYER
  5
20B
100
AcDbSymbolTableRecord
100
AcDbLayerTableRecord
  2
18_DATUM_CAMS_JOINTS
 70
0
 62
7
  6
CONTINUOUS
370
-3
390
F
  0
LAYER
  5
20C
100
AcDbSymbolTableRecord
100
AcDbLayerTableRecord
  2
19_DATUM_FUNCTIONAL
 70
0
 62
7
  6
CONTINUOUS
370
-3
390
F
  0
LAYER
  5
20D
100
AcDbSymbolTableRecord
100
AcDbLayerTableRecord
  2
20_DATUM_KINEMATIC_SCHEME
 70
0
 62
7
  6
CONTINUOUS
370
-3
390
F
  0
ENDTAB
  0
TABLE
  2
STYLE
  5
3
100
AcDbSymbolTable
 70
1
  0
STYLE
  5
11
100
AcDbSymbolTableRecord
100
AcDbTextStyleTableRecord
  2
STANDARD
 70
0
 40
0.0
 41
1.0
 50
0.0
 71
0
 42
0.2
  3
ARIAL.TTF
  4

  0
STYLE
  5
20E
100
AcDbSymbolTableRecord
100
AcDbTextStyleTableRecord
  2
TEXTSTYLE_1
 70
0
 40
0.0
 41
0.8
 50
0.0
 71
0
 42
0.2
  3
gdt
  4

  0
ENDTAB
  0
TABLE
  2
VIEW
  5
6
100
AcDbSymbolTable
 70
0
  0
ENDTAB
  0
TABLE
  2
UCS
  5
7
100
AcDbSymbolTable
 70
0
  0
ENDTAB
  0
TABLE
  2
APPID
  5
9
100
AcDbSymbolTable
 70
1
  0
APPID
  5
20F
100
AcDbSymbolTableRecord
100
AcDbRegAppTableRecord
  2
ACAD
 70
0
  0
ENDTAB
  0
TABLE
  2
BLOCK_RECORD
  5
1
100
AcDbSymbolTable
 70
0
  0
BLOCK_RECORD
  5
210
100
AcDbSymbolTableRecord
100
AcDbBlockTableRecord
  2
*Model_Space
  0
BLOCK_RECORD
  5
211
100
AcDbSymbolTableRecord
100
AcDbBlockTableRecord
  2
*Paper_Space
  0
BLOCK_RECORD
  5
212
100
AcDbSymbolTableRecord
100
AcDbBlockTableRecord
  2
_FILLED
  0
ENDTAB
  0
TABLE
  2
DIMSTYLE
  5
A
100
AcDbSymbolTable
 70
1
100
AcDbDimStyleTable
 71
0
  0
DIMSTYLE
105
213
100
AcDbSymbolTableRecord
100
AcDbDimStyleTableRecord
  2
STANDARD
 70
0
  3

  4

 40
1.0
 41
4.379079605
 42
1.0
 43
0.38
 44
1.0
 45
0.0
 46
0.0
 47
0.01
 48
0.01
140
6.130711447
141
0.09
142
0.0
143
25.4
144
1.0
145
0.0
146
1.0
147
0.625
 71
1
 72
0
 73
0
 74
0
 75
0
 76
0
 77
1
 78
8
 79
2
170
0
171
1
172
0
173
0
174
0
175
0
176
0
177
0
178
0
270
2
179
2
271
2
272
2
273
2
274
2
275
0
280
0
281
0
282
0
283
1
284
8
285
0
286
0
287
3
288
0
340
11
278
46
341
212
342
212
343
212
344
212
  0
ENDTAB
  0
ENDSEC
  0
SECTION
  2
BLOCKS
  0
BLOCK
  5
20
100
AcDbEntity
  8
0
100
AcDbBlockBegin
  2
*Model_Space
 70
0
 10
0.0
 20
0.0
 30
0.0
  3
*Model_Space
  1

  0
ENDBLK
  5
21
100
AcDbEntity
  8
0
100
AcDbBlockEnd
  0
BLOCK
  5
1C
100
AcDbEntity
  8
0
100
AcDbBlockBegin
  2
*Paper_Space
 70
0
 10
0.0
 20
0.0
 30
0.0
  3
*Paper_Space
  1

  0
ENDBLK
  5
1D
100
AcDbEntity
  8
0
100
AcDbBlockEnd
  0
BLOCK
  5
214
100
AcDbEntity
  8
0
100
AcDbBlockBegin
  2
_FILLED
 70
64
 10
0.0
 20
0.0
  3
_FILLED
  1

  0
SOLID
  5
215
100
AcDbEntity
  8
0
  6
BYBLOCK
 62
0
100
AcDbTrace
 10
0.0
 20
0.0
 11
-1.0
 21
0.25
 12
-1.0
 22
-0.25
 13
-1.0
 23
-0.25
  0
ENDBLK
  5
216
100
AcDbEntity
  8
0
  6
BYBLOCK
 62
0
100
AcDbBlockEnd
  0
ENDSEC
  0
SECTION
  2
ENTITIES
  0
LINE
  5
217
100
AcDbEntity
  8
0
100
AcDbLine
 62
7
  6
BYLAYER
 10
46.5587573492
 20
159.683094084
 11
57.8503471398
 21
148.3915042934
  0
LINE
  5
218
100
AcDbEntity
  8
0
100
AcDbLine
 62
7
  6
BYLAYER
 10
47.2658641304
 20
160.3902008652
 11
58.557453921
 21
149.0986110746
  0
LINE
  5
219
100
AcDbEntity
  8
0
100
AcDbLine
 62
7
  6
BYLAYER
 10
44.4054570315
 20
155.654506308
 11
44.4077993356
 21
154.246787394
  0
LINE
  5
21A
100
AcDbEntity
  8
0
100
AcDbLine
 62
7
  6
BYLAYER
 10
39.0581056351
 20
153.414793765
 11
39.0581056351
 21
369.3669224673
  0
LINE
  5
21B
100
AcDbEntity
  8
0
100
AcDbLine
 62
7
  6
BYLAYER
 10
51.8235383065
 20
368.4183131267
 11
51.8235383065
 21
360.4246482861
  0
LINE
  5
21C
100
AcDbEntity
  8
0
100
AcDbLine
 62
7
  6
BYLAYER
 10
51.8235383065
 20
360.1736200257
 11
51.8235383065
 21
162.6080851328
  0
LINE
  5
21D
100
AcDbEntity
  8
0
100
AcDbLine
 62
7
  6
BYLAYER
 10
51.8235383065
 20
162.3570568724
 11
51.8235383065
 21
155.8325266891
  0
LINE
  5
21E
100
AcDbEntity
  8
0
100
AcDbLine
 62
7
  6
BYLAYER
 10
51.8235383065
 20
154.4183131267
 11
51.8235383065
 21
153.6562852506
  0
LINE
  5
21F
100
AcDbEntity
  8
0
100
AcDbLine
 62
7
  6
BYLAYER
 10
315.2944519063
 20
146.2382039757
 11
316.7021694025
 21
146.2405508038
  0
LINE
  5
220
100
AcDbEntity
  8
0
100
AcDbLine
 62
7
  6
BYLAYER
 10
317.5348612392
 20
140.8908525793
 11
51.5814120084
 21
140.8908525793
  0
LINE
  5
221
100
AcDbEntity
  8
0
100
AcDbLine
 62
7
  6
BYLAYER
 10
52.4136521482
 20
376.5434222212
 11
51.9736587483
 21
379.3858997515
  0
LINE
  5
222
100
AcDbEntity
  8
0
100
AcDbLine
 62
7
  6
BYLAYER
 10
51.8235383065
 20
153.6562852506
 11
52.5855661826
 21
153.6562852506
  0
LINE
  5
223
100
AcDbEntity
  8
0
100
AcDbLine
 62
7
  6
BYLAYER
 10
53.999779745
 20
153.6562852506
 11
60.5243099283
 21
153.6562852506
  0
LINE
  5
224
100
AcDbEntity
  8
0
100
AcDbLine
 62
7
  6
BYLAYER
 10
60.7753381887
 20
153.6562852506
 11
308.3408730816
 21
153.6562852506
  0
LINE
  5
225
100
AcDbEntity
  8
0
100
AcDbLine
 62
7
  6
BYLAYER
 10
308.591901342
 20
153.6562852506
 11
316.5855661827
 21
153.6562852506
  0
LINE
  5
226
100
AcDbEntity
  8
0
100
AcDbLine
 62
7
  6
BYLAYER
 10
187.2185278044
 20
165.991397412
 11
184.5581032993
 21
165.415777708
  0
LINE
  5
227
100
AcDbEntity
  8
0
100
AcDbLine
 62
7
  6
BYLAYER
 10
184.5581056351
 20
165.3908525793
 11
184.5626946095
 21
165.3908623702
  0
LINE
  5
228
100
AcDbEntity
  8
0
100
AcDbLine
 62
7
  6
BYLAYER
 10
184.5580996998
 20
165.4157783024
 11
181.9485633056
 21
165.9727357292
  0
LINE
  5
229
100
AcDbEntity
  8
0
100
AcDbLine
 62
7
  6
BYLAYER
 10
41.563142595
 20
153.8064091845
 11
44.4055300407
 21
154.2464605102
  0
LINE
  5
22A
100
AcDbEntity
  8
0
100
AcDbLine
 62
7
  6
BYLAYER
 10
174.8885477765
 20
175.045852608
 11
177.0891072444
 21
175.0458525947
  0
LINE
  5
22B
100
AcDbEntity
  8
0
100
AcDbLine
 62
7
  6
BYLAYER
 10
192.0271040259
 20
175.0458526094
 11
194.2238563801
 21
175.0458526002
  0
LINE
  5
22C
100
AcDbEntity
  8
0
100
AcDbLine
 62
7
  6
BYLAYER
 10
139.5581056351
 20
219.8908525352
 11
139.5581056351
 21
302.8908525862
  0
LINE
  5
22D
100
AcDbEntity
  8
0
100
AcDbLine
 62
7
  6
BYLAYER
 10
140.5581056351
 20
302.8908525793
 11
140.5581056351
 21
219.8908525793
  0
LINE
  5
22E
100
AcDbEntity
  8
0
100
AcDbLine
 62
7
  6
BYLAYER
 10
143.0581056351
 20
306.3908525793
 11
143.0581056351
 21
305.3908525793
  0
LINE
  5
22F
100
AcDbEntity
  8
0
100
AcDbLine
 62
7
  6
BYLAYER
 10
143.0581056351
 20
217.3908525793
 11
143.0581056351
 21
216.3908525793
  0
LINE
  5
230
100
AcDbEntity
  8
0
100
AcDbLine
 62
7
  6
BYLAYER
 10
226.0581056792
 20
216.3908525793
 11
194.2276634938
 21
216.3908525793
  0
LINE
  5
231
100
AcDbEntity
  8
0
100
AcDbLine
 62
7
  6
BYLAYER
 10
174.8885477765
 20
216.3908525793
 11
143.0581056282
 21
216.3908525793
  0
LINE
  5
232
100
AcDbEntity
  8
0
100
AcDbLine
 62
7
  6
BYLAYER
 10
143.0581056351
 20
217.3908525793
 11
174.8885477765
 21
217.3908525793
  0
LINE
  5
233
100
AcDbEntity
  8
0
100
AcDbLine
 62
7
  6
BYLAYER
 10
194.2276634938
 20
217.3908525793
 11
226.0581056351
 21
217.3908525793
  0
LINE
  5
234
100
AcDbEntity
  8
0
100
AcDbLine
 62
7
  6
BYLAYER
 10
139.5581056351
 20
219.8908525793
 11
140.5581056351
 21
219.8908525793
  0
LINE
  5
235
100
AcDbEntity
  8
0
100
AcDbLine
 62
7
  6
BYLAYER
 10
228.5581056351
 20
219.8908525793
 11
229.5581056351
 21
219.8908525793
  0
LINE
  5
236
100
AcDbEntity
  8
0
100
AcDbLine
 62
7
  6
BYLAYER
 10
166.3357198645
 20
253.1479976841
 11
166.3357198661
 21
269.6337074802
  0
LINE
  5
237
100
AcDbEntity
  8
0
100
AcDbLine
 62
7
  6
BYLAYER
 10
46.9012513856
 20
148.7339983298
 11
51.8235383065
 21
153.6562852506
  0
LINE
  5
238
100
AcDbEntity
  8
0
100
AcDbLine
 62
7
  6
BYLAYER
 10
176.8126078471
 20
281.9804743019
 11
176.8927366676
 21
282.0122358271
  0
LINE
  5
239
100
AcDbEntity
  8
0
100
AcDbLine
 62
7
  6
BYLAYER
 10
176.8927350052
 20
282.0122514917
 11
176.8801720505
 21
282.0075772432
  0
LINE
  5
23A
100
AcDbEntity
  8
0
100
AcDbLine
 62
7
  6
BYLAYER
 10
186.3081056351
 20
238.8908525793
 11
182.8081056351
 21
238.8908525793
  0
LINE
  5
23B
100
AcDbEntity
  8
0
100
AcDbLine
 62
7
  6
BYLAYER
 10
182.8581056351
 20
238.9908525793
 11
186.2581056351
 21
238.9908525793
  0
LINE
  5
23C
100
AcDbEntity
  8
0
100
AcDbLine
 62
7
  6
BYLAYER
 10
174.8923548902
 20
242.9190611788
 11
174.3281056349
 21
243.1635169587
  0
LWPOLYLINE
  5
23D
100
AcDbEntity
  8
0
100
AcDbPolyline
 62
7
  6
BYLAYER
 90
3
 70
0
 10
174.5161694425
 20
241.8163018526
 10
174.7339907558
 20
241.7060520564
 10
174.8885477765
 20
241.6298793671
  0
LINE
  5
23E
100
AcDbEntity
  8
0
100
AcDbLine
 62
7
  6
BYLAYER
 10
46.5587573492
 20
373.683094084
 11
57.8503471399
 21
362.3915042933
  0
LINE
  5
23F
100
AcDbEntity
  8
0
100
AcDbLine
 62
7
  6
BYLAYER
 10
58.5574539211
 20
363.0986110745
 11
47.2658641304
 21
374.3902008652
  0
LWPOLYLINE
  5
240
100
AcDbEntity
  8
0
100
AcDbPolyline
 62
7
  6
BYLAYER
 90
28
 70
0
 10
164.5134812756
 20
252.3237122206
 10
164.5569700031
 20
252.2281852608
 10
164.8858213067
 20
251.5419636757
 10
165.2335871157
 20
250.875975325
 10
165.5989339364
 20
250.2306617278
 10
165.980532764
 20
249.6064114363
 10
166.3768669468
 20
249.0036860349
 10
166.7864176335
 20
248.4229033144
 10
167.2077759573
 20
247.8643706983
 10
167.6393726407
 20
247.3284386816
 10
168.0790515907
 20
246.8156922182
 10
168.5246947967
 20
246.3266976148
 10
168.9746084903
 20
245.8616791774
 10
169.4270971043
 20
245.4207998611
 10
169.8793481568
 20
245.0044162061
 10
170.3286795046
 20
244.6126595556
 10
170.7728341848
 20
244.2455416111
 10
171.2098814419
 20
243.9030157268
 10
171.6369622112
 20
243.585330226
 10
171.8458301228
 20
243.4356941737
 10
172.2526434117
 20
243.1544827274
 10
172.6430343572
 20
242.8968749731
 10
173.0149574898
 20
242.6623380951
 10
173.3658496197
 20
242.4505522906
 10
173.69334681
 20
242.2608515155
 10
173.995324125
 20
242.0924933643
 10
174.2698769442
 20
241.9447029477
 10
174.5161694425
 20
241.8163018526
  0
LINE
  5
241
100
AcDbEntity
  8
0
100
AcDbLine
 62
7
  6
BYLAYER
 10
174.3281056351
 20
279.6182289584
 11
174.3281056349
 21
243.1635169587
  0
LINE
  5
242
100
AcDbEntity
  8
0
100
AcDbLine
 62
7
  6
BYLAYER
 10
174.8923548902
 20
242.9190611788
 11
174.8885477765
 21
175.045852608
  0
LINE
  5
243
100
AcDbEntity
  8
0
100
AcDbLine
 62
7
  6
BYLAYER
 10
175.5905349121
 20
175.0458526001
 11
175.5905349132
 21
280.1372338615
  0
LINE
  5
244
100
AcDbEntity
  8
0
100
AcDbLine
 62
7
  6
BYLAYER
 10
177.0891072444
 20
280.1373102771
 11
177.0891072444
 21
272.1908525793
  0
LINE
  5
245
100
AcDbEntity
  8
0
100
AcDbLine
 62
7
  6
BYLAYER
 10
177.0891072444
 20
272.0908525793
 11
177.0891072444
 21
175.0430160488
  0
LINE
  5
246
100
AcDbEntity
  8
0
100
AcDbLine
 62
7
  6
BYLAYER
 10
180.8081056351
 20
240.8908525793
 11
180.8081056351
 21
272.0908525793
  0
LINE
  5
247
100
AcDbEntity
  8
0
100
AcDbLine
 62
7
  6
BYLAYER
 10
181.0581056351
 20
272.1908525793
 11
181.0581056351
 21
240.7908525793
  0
LINE
  5
248
100
AcDbEntity
  8
0
100
AcDbLine
 62
7
  6
BYLAYER
 10
184.5581371853
 20
166.9207327471
 11
184.5581056351
 21
165.3908525793
  0
LINE
  5
249
100
AcDbEntity
  8
0
100
AcDbLine
 62
7
  6
BYLAYER
 10
174.8923551718
 20
242.9190611786
 11
174.8883422411
 21
242.8002602757
  0
LINE
  5
24A
100
AcDbEntity
  8
0
100
AcDbLine
 62
7
  6
BYLAYER
 10
191.7008361637
 20
280.6062335277
 11
192.2234774923
 21
282.0122437714
  0
LINE
  5
24B
100
AcDbEntity
  8
0
100
AcDbLine
 62
7
  6
BYLAYER
 10
184.1250929332
 20
278.5030304057
 11
181.491118337
 21
273.9408525793
  0
LINE
  5
24C
100
AcDbEntity
  8
0
100
AcDbLine
 62
7
  6
BYLAYER
 10
204.6027299946
 20
270.4579929383
 11
202.7804914164
 21
269.6337074511
  0
LINE
  5
24D
100
AcDbEntity
  8
0
100
AcDbLine
 62
7
  6
BYLAYER
 10
164.5134812758
 20
252.3237122201
 11
166.3357198539
 21
253.1479977073
  0
LINE
  5
24E
100
AcDbEntity
  8
0
100
AcDbLine
 62
7
  6
BYLAYER
 10
166.3357207105
 20
269.6337093448
 11
164.513482218
 21
270.4579950214
  0
LINE
  5
24F
100
AcDbEntity
  8
0
100
AcDbLine
 62
7
  6
BYLAYER
 10
202.7804939139
 20
253.1480032286
 11
204.6027327418
 21
252.3237182935
  0
LINE
  5
250
100
AcDbEntity
  8
0
100
AcDbLine
 62
7
  6
BYLAYER
 10
176.8927366676
 20
282.0122358271
 11
177.4153739244
 21
280.6062366771
  0
LINE
  5
251
100
AcDbEntity
  8
0
100
AcDbLine
 62
7
  6
BYLAYER
 10
194.2274081021
 20
242.8026912184
 11
194.2233954005
 21
242.9190609235
  0
LINE
  5
252
100
AcDbEntity
  8
0
100
AcDbLine
 62
7
  6
BYLAYER
 10
188.0581056351
 20
240.7908525793
 11
188.0581056351
 21
272.1908525793
  0
LINE
  5
253
100
AcDbEntity
  8
0
100
AcDbLine
 62
7
  6
BYLAYER
 10
188.3081056351
 20
272.0908525793
 11
188.3081056351
 21
240.8908525793
  0
LINE
  5
254
100
AcDbEntity
  8
0
100
AcDbLine
 62
7
  6
BYLAYER
 10
192.0271040259
 20
175.0429818552
 11
192.0271040259
 21
272.0908525793
  0
LINE
  5
255
100
AcDbEntity
  8
0
100
AcDbLine
 62
7
  6
BYLAYER
 10
192.0271040259
 20
272.1908525793
 11
192.0271040259
 21
280.1372964947
  0
LINE
  5
256
100
AcDbEntity
  8
0
100
AcDbLine
 62
7
  6
BYLAYER
 10
193.5256763582
 20
175.0458525917
 11
193.5256763578
 21
280.1371834483
  0
LINE
  5
257
100
AcDbEntity
  8
0
100
AcDbLine
 62
7
  6
BYLAYER
 10
194.2238563801
 20
175.0458526002
 11
194.2238563801
 21
242.9190611784
  0
LINE
  5
258
100
AcDbEntity
  8
0
100
AcDbLine
 62
7
  6
BYLAYER
 10
194.7881056343
 20
279.6181795954
 11
194.788105634
 21
243.1635169579
  0
LINE
  5
259
100
AcDbEntity
  8
0
100
AcDbLine
 62
7
  6
BYLAYER
 10
175.5905349121
 20
272.0908525793
 11
180.8081056351
 21
272.0908525793
  0
LINE
  5
25A
100
AcDbEntity
  8
0
100
AcDbLine
 62
7
  6
BYLAYER
 10
188.3081056351
 20
272.0908525793
 11
193.5285330536
 21
272.0908525793
  0
LINE
  5
25B
100
AcDbEntity
  8
0
100
AcDbLine
 62
7
  6
BYLAYER
 10
175.5905349121
 20
272.1908525793
 11
181.0581056351
 21
272.1908525793
  0
LINE
  5
25C
100
AcDbEntity
  8
0
100
AcDbLine
 62
7
  6
BYLAYER
 10
188.0581056351
 20
272.1908525793
 11
193.5256763582
 21
272.1908525793
  0
LINE
  5
25D
100
AcDbEntity
  8
0
100
AcDbLine
 62
7
  6
BYLAYER
 10
187.1920802314
 20
273.1908525793
 11
181.9241310389
 21
273.1908525793
  0
LINE
  5
25E
100
AcDbEntity
  8
0
100
AcDbLine
 62
7
  6
BYLAYER
 10
187.6250929332
 20
273.9408525793
 11
184.991118337
 21
278.5030304057
  0
LINE
  5
25F
100
AcDbEntity
  8
0
100
AcDbLine
 62
7
  6
BYLAYER
 10
202.7804914047
 20
269.6337074765
 11
202.780491402
 21
253.1479976707
  0
LINE
  5
260
100
AcDbEntity
  8
0
100
AcDbLine
 62
7
  6
BYLAYER
 10
322.2149598846
 20
374.0477068288
 11
317.2926729638
 21
369.125419908
  0
LINE
  5
261
100
AcDbEntity
  8
0
100
AcDbLine
 62
7
  6
BYLAYER
 10
194.788105634
 20
243.1635169579
 11
194.2238563801
 21
242.9190611784
  0
LINE
  5
262
100
AcDbEntity
  8
0
100
AcDbLine
 62
7
  6
BYLAYER
 10
193.525676358
 20
280.1372240723
 11
192.0271040259
 21
280.1372240723
  0
LINE
  5
263
100
AcDbEntity
  8
0
100
AcDbLine
 62
7
  6
BYLAYER
 10
177.0891072444
 20
280.1372236843
 11
175.5905349126
 21
280.1372236843
  0
LINE
  5
264
100
AcDbEntity
  8
0
100
AcDbLine
 62
7
  6
BYLAYER
 10
192.2347144661
 20
282.0080705501
 11
192.2234943372
 21
282.0122447739
  0
LINE
  5
265
100
AcDbEntity
  8
0
100
AcDbLine
 62
7
  6
BYLAYER
 10
192.2234774923
 20
282.0122437714
 11
192.2923053016
 21
281.9852042303
  0
LINE
  5
266
100
AcDbEntity
  8
0
100
AcDbLine
 62
7
  6
BYLAYER
 10
193.6875848025
 20
281.4072923089
 11
193.6178937308
 21
281.438806867
  0
LINE
  5
267
100
AcDbEntity
  8
0
100
AcDbLine
 62
7
  6
BYLAYER
 10
310.5587573492
 20
159.683094084
 11
321.8503471398
 21
148.3915042934
  0
LINE
  5
268
100
AcDbEntity
  8
0
100
AcDbLine
 62
7
  6
BYLAYER
 10
322.557453921
 20
149.0986110746
 11
311.2658641304
 21
160.3902008652
  0
LWPOLYLINE
  5
269
100
AcDbEntity
  8
0
100
AcDbPolyline
 62
7
  6
BYLAYER
 90
36
 70
0
 10
204.6027299948
 20
270.4579929378
 10
204.3030717537
 20
271.0931858892
 10
203.9972945662
 20
271.6921446124
 10
203.6772200411
 20
272.2747331753
 10
203.3438019815
 20
272.8406394884
 10
202.9980013796
 20
273.3895834103
 10
202.6409208071
 20
273.9212518326
 10
202.2736473825
 20
274.4353749832
 10
201.8971926617
 20
274.9317522849
 10
201.5126487429
 20
275.4101599513
 10
201.1214818454
 20
275.8702142335
 10
200.7251830227
 20
276.3114969227
 10
200.3250361194
 20
276.7337547341
 10
199.9222027136
 20
277.1368895616
 10
199.5185883162
 20
277.52063098
 10
199.1160820893
 20
277.8848454198
 10
198.7163063686
 20
278.2294819396
 10
198.3206300486
 20
278.5545619858
 10
197.9306670559
 20
278.8599443644
 10
197.5487329959
 20
279.1455833411
 10
197.1767575453
 20
279.4118116575
 10
196.8164344419
 20
279.6589790706
 10
196.4692367708
 20
279.8874504505
 10
196.1367791528
 20
280.0974405651
 10
195.8208987817
 20
280.289277985
 10
195.5232094815
 20
280.4634946369
 10
195.2453153715
 20
280.620569771
 10
194.9886740402
 20
280.7610097654
 10
194.7542473261
 20
280.885507426
 10
194.5422522017
 20
280.9949826124
 10
194.3530471149
 20
281.0901878256
 10
194.1870096877
 20
281.1718122305
 10
194.0447206004
 20
281.2403901993
 10
193.9258923749
 20
281.2967849198
 10
193.8275446801
 20
281.3428524711
 10
193.6875848025
 20
281.4072923089
  0
LINE
  5
26A
100
AcDbEntity
  8
0
100
AcDbLine
 62
7
  6
BYLAYER
 10
226.0581056351
 20
216.3908525793
 11
226.0581056351
 21
217.3908525793
  0
LINE
  5
26B
100
AcDbEntity
  8
0
100
AcDbLine
 62
7
  6
BYLAYER
 10
226.0581056351
 20
305.3908525793
 11
226.0581056351
 21
306.3908525793
  0
LINE
  5
26C
100
AcDbEntity
  8
0
100
AcDbLine
 62
7
  6
BYLAYER
 10
228.5581056351
 20
219.8908525793
 11
228.5581056351
 21
302.8908525793
  0
LINE
  5
26D
100
AcDbEntity
  8
0
100
AcDbLine
 62
7
  6
BYLAYER
 10
229.5581056351
 20
302.8908526233
 11
229.5581056351
 21
219.8908525723
  0
LINE
  5
26E
100
AcDbEntity
  8
0
100
AcDbLine
 62
7
  6
BYLAYER
 10
229.5581056351
 20
302.8908525793
 11
228.5581056351
 21
302.8908525793
  0
LINE
  5
26F
100
AcDbEntity
  8
0
100
AcDbLine
 62
7
  6
BYLAYER
 10
140.5581056351
 20
302.8908525793
 11
139.5581056351
 21
302.8908525793
  0
LINE
  5
270
100
AcDbEntity
  8
0
100
AcDbLine
 62
7
  6
BYLAYER
 10
226.0581056351
 20
305.3908525793
 11
143.0581056351
 21
305.3908525793
  0
LINE
  5
271
100
AcDbEntity
  8
0
100
AcDbLine
 62
7
  6
BYLAYER
 10
143.0581055911
 20
306.3908525793
 11
226.0581056421
 21
306.3908525793
  0
LINE
  5
272
100
AcDbEntity
  8
0
100
AcDbLine
 62
7
  6
BYLAYER
 10
327.5532319896
 20
368.9753201779
 11
324.7106812327
 21
368.5352446572
  0
LINE
  5
273
100
AcDbEntity
  8
0
100
AcDbLine
 62
7
  6
BYLAYER
 10
317.2926729637
 20
369.125419908
 11
316.5323884614
 21
369.1236765342
  0
LINE
  5
274
100
AcDbEntity
  8
0
100
AcDbLine
 62
7
  6
BYLAYER
 10
315.1164315252
 20
369.125419908
 11
308.591901342
 21
369.125419908
  0
LINE
  5
275
100
AcDbEntity
  8
0
100
AcDbLine
 62
7
  6
BYLAYER
 10
308.3408730816
 20
369.125419908
 11
60.7753381887
 21
369.125419908
  0
LINE
  5
276
100
AcDbEntity
  8
0
100
AcDbLine
 62
7
  6
BYLAYER
 10
60.5243099282
 20
369.125419908
 11
52.5314548648
 21
369.1246101308
  0
LINE
  5
277
100
AcDbEntity
  8
0
100
AcDbLine
 62
7
  6
BYLAYER
 10
316.7025132881
 20
146.2382771834
 11
317.1426038817
 21
143.3955894799
  0
LINE
  5
278
100
AcDbEntity
  8
0
100
AcDbLine
 62
7
  6
BYLAYER
 10
53.821759364
 20
376.5435011829
 11
52.414041858
 21
376.5411543653
  0
LINE
  5
279
100
AcDbEntity
  8
0
100
AcDbLine
 62
7
  6
BYLAYER
 10
317.5347985071
 20
381.8908525793
 11
51.5813513367
 21
381.8908525793
  0
LINE
  5
27A
100
AcDbEntity
  8
0
100
AcDbLine
 62
7
  6
BYLAYER
 10
317.2926729638
 20
360.4246482861
 11
317.2910585947
 21
366.9507928385
  0
LINE
  5
27B
100
AcDbEntity
  8
0
100
AcDbLine
 62
7
  6
BYLAYER
 10
317.2926729637
 20
154.3633920319
 11
317.2926729637
 21
162.3570568724
  0
LINE
  5
27C
100
AcDbEntity
  8
0
100
AcDbLine
 62
7
  6
BYLAYER
 10
317.2926729637
 20
162.6080851328
 11
317.2926729637
 21
360.1736200257
  0
LINE
  5
27D
100
AcDbEntity
  8
0
100
AcDbLine
 62
7
  6
BYLAYER
 10
317.2926729637
 20
368.3633920319
 11
317.2926729637
 21
369.125419908
  0
LINE
  5
27E
100
AcDbEntity
  8
0
100
AcDbLine
 62
7
  6
BYLAYER
 10
324.7107542387
 20
367.1271988505
 11
324.7084120387
 21
368.5349177824
  0
LINE
  5
27F
100
AcDbEntity
  8
0
100
AcDbLine
 62
7
  6
BYLAYER
 10
330.0581056351
 20
153.4147812177
 11
330.0581056351
 21
369.3669115771
  0
LINE
  5
280
100
AcDbEntity
  8
0
100
AcDbLine
 62
7
  6
BYLAYER
 10
310.5587573492
 20
373.683094084
 11
321.8503471398
 21
362.3915042934
  0
LINE
  5
281
100
AcDbEntity
  8
0
100
AcDbLine
 62
7
  6
BYLAYER
 10
311.2658641304
 20
374.3902008652
 11
322.557453921
 21
363.0986110746
  0
ARC
  5
282
100
AcDbEntity
  8
0
100
AcDbCircle
 62
7
  6
BYLAYER
 10
51.5781056351
 20
153.4108525793
 40
12.52
100
AcDbArc
 50
179.981963974
 51
270.0151308878
  0
ARC
  5
283
100
AcDbEntity
  8
0
100
AcDbCircle
 62
7
  6
BYLAYER
 10
52.5581056351
 20
154.3908525793
 40
8.25
100
AcDbArc
 50
278.8106862857
 51
171.1892748873
  0
ARC
  5
284
100
AcDbEntity
  8
0
100
AcDbCircle
 62
7
  6
BYLAYER
 10
52.5581056351
 20
154.3908525793
 40
8.0
100
AcDbArc
 50
138.5833216986
 51
311.4166783014
  0
ARC
  5
285
100
AcDbEntity
  8
0
100
AcDbCircle
 62
7
  6
BYLAYER
 10
52.5581056351
 20
154.3908525793
 40
8.0
100
AcDbArc
 50
318.5833216985
 51
131.4166783015
  0
ARC
  5
286
100
AcDbEntity
  8
0
100
AcDbCircle
 62
7
  6
BYLAYER
 10
52.0619924839
 20
153.8948998847
 40
7.5891667418
100
AcDbArc
 50
221.0024687117
 51
225.1234622911
  0
ARC
  5
287
100
AcDbEntity
  8
0
100
AcDbCircle
 62
7
  6
BYLAYER
 10
77.9988994337
 20
179.8303711981
 40
44.7893628141
100
AcDbArc
 50
224.9106804685
 51
225.0854650262
  0
ARC
  5
288
100
AcDbEntity
  8
0
100
AcDbCircle
 62
7
  6
BYLAYER
 10
184.5089144202
 20
175.0558123882
 40
9.7149472484
100
AcDbArc
 50
341.5072143501
 51
359.9412601893
  0
ARC
  5
289
100
AcDbEntity
  8
0
100
AcDbCircle
 62
7
  6
BYLAYER
 10
184.5563626925
 20
175.0971720362
 40
9.706523441
100
AcDbArc
 50
254.0370071886
 51
267.3768859456
  0
ARC
  5
28A
100
AcDbEntity
  8
0
100
AcDbCircle
 62
7
  6
BYLAYER
 10
184.5561586057
 20
175.074437131
 40
9.685710154
100
AcDbArc
 50
286.3509051244
 51
309.7176562906
  0
ARC
  5
28B
100
AcDbEntity
  8
0
100
AcDbCircle
 62
7
  6
BYLAYER
 10
184.5496534832
 20
175.0552210739
 40
9.6761321432
100
AcDbArc
 50
330.057679459
 51
341.4340202156
  0
ARC
  5
28C
100
AcDbEntity
  8
0
100
AcDbCircle
 62
7
  6
BYLAYER
 10
184.545819026
 20
175.0484224662
 40
9.6573030522
100
AcDbArc
 50
180.015245487
 51
267.3148696137
  0
ARC
  5
28D
100
AcDbEntity
  8
0
100
AcDbCircle
 62
7
  6
BYLAYER
 10
183.8699207706
 20
175.0481719747
 40
9.6559016683
100
AcDbArc
 50
290.2911231272
 51
359.9862371618
  0
ARC
  5
28E
100
AcDbEntity
  8
0
100
AcDbCircle
 62
7
  6
BYLAYER
 10
184.5503788812
 20
175.0166161148
 40
9.6257783445
100
AcDbArc
 50
267.3905216569
 51
268.3651312923
  0
ARC
  5
28F
100
AcDbEntity
  8
0
100
AcDbCircle
 62
7
  6
BYLAYER
 10
184.549214976
 20
174.9721815836
 40
9.5813286954
100
AcDbArc
 50
268.3645076775
 51
270.0806074383
  0
ARC
  5
290
100
AcDbEntity
  8
0
100
AcDbCircle
 62
7
  6
BYLAYER
 10
183.8694201099
 20
175.0492843258
 40
8.1577759444
100
AcDbArc
 50
274.842629468
 51
359.9557343849
  0
ARC
  5
291
100
AcDbEntity
  8
0
100
AcDbCircle
 62
7
  6
BYLAYER
 10
182.6360107607
 20
261.2049235595
 40
20.2007698688
100
AcDbArc
 50
110.4122626925
 51
114.284435407
  0
ARC
  5
292
100
AcDbEntity
  8
0
100
AcDbCircle
 62
7
  6
BYLAYER
 10
143.0581056351
 20
219.8908525793
 40
3.5
100
AcDbArc
 50
180.0000003605
 51
270.0
  0
ARC
  5
293
100
AcDbEntity
  8
0
100
AcDbCircle
 62
7
  6
BYLAYER
 10
143.0581056351
 20
219.8908525793
 40
2.5
100
AcDbArc
 50
179.9999999999
 51
270.0
  0
ARC
  5
294
100
AcDbEntity
  8
0
100
AcDbCircle
 62
7
  6
BYLAYER
 10
182.8081056351
 20
240.8908525793
 40
2.0
100
AcDbArc
 50
180.0
 51
270.0
  0
ARC
  5
295
100
AcDbEntity
  8
0
100
AcDbCircle
 62
7
  6
BYLAYER
 10
182.8581056351
 20
240.7908525793
 40
1.8
100
AcDbArc
 50
180.0
 51
270.0
  0
ARC
  5
296
100
AcDbEntity
  8
0
100
AcDbCircle
 62
7
  6
BYLAYER
 10
51.5781056351
 20
369.3708525793
 40
12.52
100
AcDbArc
 50
89.985146762
 51
180.0179853374
  0
ARC
  5
297
100
AcDbEntity
  8
0
100
AcDbCircle
 62
7
  6
BYLAYER
 10
55.8328410748
 20
368.3428374071
 40
11.4918616061
100
AcDbArc
 50
183.6684548686
 51
186.0722551359
  0
ARC
  5
298
100
AcDbEntity
  8
0
100
AcDbCircle
 62
7
  6
BYLAYER
 10
52.5581056351
 20
368.3908525793
 40
8.25
100
AcDbArc
 50
188.810686285
 51
81.1892747815
  0
ARC
  5
299
100
AcDbEntity
  8
0
100
AcDbCircle
 62
7
  6
BYLAYER
 10
52.5581056351
 20
368.3908525793
 40
8.0
100
AcDbArc
 50
138.5833216985
 51
311.4166783015
  0
ARC
  5
29A
100
AcDbEntity
  8
0
100
AcDbCircle
 62
7
  6
BYLAYER
 10
52.5581056351
 20
368.3908525793
 40
8.0
100
AcDbArc
 50
318.5833216985
 51
131.4166783014
  0
ARC
  5
29B
100
AcDbEntity
  8
0
100
AcDbCircle
 62
7
  6
BYLAYER
 10
52.0988849167
 20
368.8403255465
 40
7.6484616642
100
AcDbArc
 50
121.685440771
 51
131.0047974121
  0
ARC
  5
29C
100
AcDbEntity
  8
0
100
AcDbCircle
 62
7
  6
BYLAYER
 10
52.0790309236
 20
368.8727561502
 40
7.611229136
100
AcDbArc
 50
137.3163482624
 51
144.3977283367
  0
ARC
  5
29D
100
AcDbEntity
  8
0
100
AcDbCircle
 62
7
  6
BYLAYER
 10
52.0643755848
 20
368.8843583685
 40
7.5925902853
100
AcDbArc
 50
131.0262913586
 51
137.3057329015
  0
ARC
  5
29E
100
AcDbEntity
  8
0
100
AcDbCircle
 62
7
  6
BYLAYER
 10
78.0808855537
 20
342.8680727604
 40
44.906287534
100
AcDbArc
 50
134.274197415
 51
135.7267424954
  0
ARC
  5
29F
100
AcDbEntity
  8
0
100
AcDbCircle
 62
7
  6
BYLAYER
 10
143.0581056351
 20
302.8908525793
 40
3.5
100
AcDbArc
 50
90.0000003605
 51
180.0
  0
ARC
  5
2A0
100
AcDbEntity
  8
0
100
AcDbCircle
 62
7
  6
BYLAYER
 10
143.0581056351
 20
302.8908525793
 40
2.5
100
AcDbArc
 50
89.9999999999
 51
180.0
  0
ARC
  5
2A1
100
AcDbEntity
  8
0
100
AcDbCircle
 62
7
  6
BYLAYER
 10
177.59032053
 20
280.1383510168
 40
1.9997914941
100
AcDbArc
 50
133.6232783241
 51
180.0322990398
  0
ARC
  5
2A2
100
AcDbEntity
  8
0
100
AcDbCircle
 62
7
  6
BYLAYER
 10
176.3257300701
 20
279.6205801323
 40
1.9976258729
100
AcDbArc
 50
114.3209802531
 51
180.0691088207
  0
ARC
  5
2A3
100
AcDbEntity
  8
0
100
AcDbCircle
 62
7
  6
BYLAYER
 10
177.5894442176
 20
280.1371668295
 40
0.5002986316
100
AcDbArc
 50
110.3559576311
 51
179.9835731795
  0
ARC
  5
2A4
100
AcDbEntity
  8
0
100
AcDbCircle
 62
7
  6
BYLAYER
 10
181.9241310389
 20
273.6908525793
 40
0.5
100
AcDbArc
 50
150.0000000007
 51
270.0
  0
ARC
  5
2A5
100
AcDbEntity
  8
0
100
AcDbCircle
 62
7
  6
BYLAYER
 10
184.6174971205
 20
175.0584876673
 40
9.7251496427
100
AcDbArc
 50
180.0744396199
 51
199.9763360612
  0
ARC
  5
2A6
100
AcDbEntity
  8
0
100
AcDbCircle
 62
7
  6
BYLAYER
 10
184.5597835815
 20
175.096284108
 40
9.7056578174
100
AcDbArc
 50
273.0178430704
 51
286.2940635705
  0
ARC
  5
2A7
100
AcDbEntity
  8
0
100
AcDbCircle
 62
7
  6
BYLAYER
 10
184.5602616783
 20
175.0751919587
 40
9.6864681616
100
AcDbArc
 50
240.0446071006
 51
253.9790781756
  0
ARC
  5
2A8
100
AcDbEntity
  8
0
100
AcDbCircle
 62
7
  6
BYLAYER
 10
184.5615591265
 20
175.0531317392
 40
9.6707577135
100
AcDbArc
 50
200.0597344769
 51
209.9514201241
  0
ARC
  5
2A9
100
AcDbEntity
  8
0
100
AcDbCircle
 62
7
  6
BYLAYER
 10
184.5703637363
 20
175.0484599699
 40
9.657339858
100
AcDbArc
 50
269.9545001272
 51
359.9845306256
  0
ARC
  5
2AA
100
AcDbEntity
  8
0
100
AcDbCircle
 62
7
  6
BYLAYER
 10
185.2463320139
 20
175.0481904188
 40
9.6559473499
100
AcDbArc
 50
180.0138722208
 51
250.0302555289
  0
ARC
  5
2AB
100
AcDbEntity
  8
0
100
AcDbCircle
 62
7
  6
BYLAYER
 10
184.5659986358
 20
175.0144569096
 40
9.6236170816
100
AcDbArc
 50
271.2032888852
 51
273.0065401413
  0
ARC
  5
2AC
100
AcDbEntity
  8
0
100
AcDbCircle
 62
7
  6
BYLAYER
 10
184.5671452858
 20
174.9633125019
 40
9.5724598731
100
AcDbArc
 50
269.9733518025
 51
271.2028556903
  0
ARC
  5
2AD
100
AcDbEntity
  8
0
100
AcDbCircle
 62
7
  6
BYLAYER
 10
185.2468986807
 20
175.0493777497
 40
8.1579074998
100
AcDbArc
 50
180.0446810317
 51
265.1563645319
  0
ARC
  5
2AE
100
AcDbEntity
  8
0
100
AcDbCircle
 62
7
  6
BYLAYER
 10
226.0581056351
 20
219.8908525793
 40
3.5
100
AcDbArc
 50
270.0000003605
 51
360.0
  0
ARC
  5
2AF
100
AcDbEntity
  8
0
100
AcDbCircle
 62
7
  6
BYLAYER
 10
226.0581056351
 20
219.8908525793
 40
2.5
100
AcDbArc
 50
269.9999999999
 51
360.0
  0
ARC
  5
2B0
100
AcDbEntity
  8
0
100
AcDbCircle
 62
7
  6
BYLAYER
 10
186.3081056351
 20
240.8908525793
 40
2.0
100
AcDbArc
 50
270.0
 51
360.0
  0
ARC
  5
2B1
100
AcDbEntity
  8
0
100
AcDbCircle
 62
7
  6
BYLAYER
 10
186.2581056351
 20
240.7908525793
 40
1.8
100
AcDbArc
 50
270.0
 51
360.0
  0
ARC
  5
2B2
100
AcDbEntity
  8
0
100
AcDbCircle
 62
7
  6
BYLAYER
 10
291.0361486319
 20
179.9128094957
 40
44.9053389185
100
AcDbArc
 50
314.2741556669
 51
315.7267845917
  0
ARC
  5
2B3
100
AcDbEntity
  8
0
100
AcDbCircle
 62
7
  6
BYLAYER
 10
317.5381056351
 20
153.4108525793
 40
12.52
100
AcDbArc
 50
269.9851527371
 51
0.017978594
  0
ARC
  5
2B4
100
AcDbEntity
  8
0
100
AcDbCircle
 62
7
  6
BYLAYER
 10
313.2833941821
 20
154.4388697201
 40
11.4918375458
100
AcDbArc
 50
3.6684578188
 51
6.0722580261
  0
ARC
  5
2B5
100
AcDbEntity
  8
0
100
AcDbCircle
 62
7
  6
BYLAYER
 10
316.5581056351
 20
154.3908525793
 40
8.25
100
AcDbArc
 50
8.810686285
 51
261.1892747813
  0
ARC
  5
2B6
100
AcDbEntity
  8
0
100
AcDbCircle
 62
7
  6
BYLAYER
 10
316.5581056351
 20
154.3908525793
 40
8.0
100
AcDbArc
 50
318.5833216985
 51
131.4166783015
  0
ARC
  5
2B7
100
AcDbEntity
  8
0
100
AcDbCircle
 62
7
  6
BYLAYER
 10
316.5581056351
 20
154.3908525793
 40
8.0
100
AcDbArc
 50
138.5833216985
 51
311.4166783014
  0
ARC
  5
2B8
100
AcDbEntity
  8
0
100
AcDbCircle
 62
7
  6
BYLAYER
 10
317.0173274322
 20
153.9413779663
 40
7.6484605999
100
AcDbArc
 50
301.6853924003
 51
311.0047982143
  0
ARC
  5
2B9
100
AcDbEntity
  8
0
100
AcDbCircle
 62
7
  6
BYLAYER
 10
317.0371818336
 20
153.9089474353
 40
7.6112278389
100
AcDbArc
 50
317.3163238066
 51
324.3977001552
  0
ARC
  5
2BA
100
AcDbEntity
  8
0
100
AcDbCircle
 62
7
  6
BYLAYER
 10
317.0518354473
 20
153.8973467416
 40
7.5925912904
100
AcDbArc
 50
311.0262917538
 51
317.3057087549
  0
ARC
  5
2BB
100
AcDbEntity
  8
0
100
AcDbCircle
 62
7
  6
BYLAYER
 10
184.5581056351
 20
261.3908525793
 40
22.0
100
AcDbArc
 50
295.9245208784
 51
243.0918847831
  0
ARC
  5
2BC
100
AcDbEntity
  8
0
100
AcDbCircle
 62
7
  6
BYLAYER
 10
184.5581056351
 20
261.3908525793
 40
20.5
100
AcDbArc
 50
69.6090452927
 51
110.3909866765
  0
ARC
  5
2BD
100
AcDbEntity
  8
0
100
AcDbCircle
 62
7
  6
BYLAYER
 10
184.5581056351
 20
261.3908525793
 40
20.0
100
AcDbArc
 50
155.660490049
 51
204.3395099341
  0
ARC
  5
2BE
100
AcDbEntity
  8
0
100
AcDbCircle
 62
7
  6
BYLAYER
 10
184.5581056351
 20
261.3908525793
 40
20.0
100
AcDbArc
 50
335.6604900264
 51
24.3395099408
  0
ARC
  5
2BF
100
AcDbEntity
  8
0
100
AcDbCircle
 62
7
  6
BYLAYER
 10
186.6373618716
 20
261.5871165151
 40
19.7877199214
100
AcDbArc
 50
65.6751760695
 51
69.6282073171
  0
ARC
  5
2C0
100
AcDbEntity
  8
0
100
AcDbCircle
 62
7
  6
BYLAYER
 10
226.0581056351
 20
302.8908525793
 40
3.5
100
AcDbArc
 50
0.0000003605
 51
90.0
  0
ARC
  5
2C1
100
AcDbEntity
  8
0
100
AcDbCircle
 62
7
  6
BYLAYER
 10
226.0581056351
 20
302.8908525793
 40
2.5
100
AcDbArc
 50
0.0
 51
90.0
  0
ARC
  5
2C2
100
AcDbEntity
  8
0
100
AcDbCircle
 62
7
  6
BYLAYER
 10
192.790481147
 20
279.620580069
 40
1.9976259536
100
AcDbArc
 50
359.9313961175
 51
65.6789061992
  0
ARC
  5
2C3
100
AcDbEntity
  8
0
100
AcDbCircle
 62
7
  6
BYLAYER
 10
191.5264289023
 20
280.1369314549
 40
0.5007062974
100
AcDbArc
 50
0.0417740706
 51
69.6184404832
  0
ARC
  5
2C4
100
AcDbEntity
  8
0
100
AcDbCircle
 62
7
  6
BYLAYER
 10
187.1920802314
 20
273.6908525793
 40
0.5
100
AcDbArc
 50
270.0
 51
30.0000000002
  0
ARC
  5
2C5
100
AcDbEntity
  8
0
100
AcDbCircle
 62
7
  6
BYLAYER
 10
184.5581056351
 20
278.2530304057
 40
0.5
100
AcDbArc
 50
29.999999999
 51
150.0
  0
ARC
  5
2C6
100
AcDbEntity
  8
0
100
AcDbCircle
 62
7
  6
BYLAYER
 10
291.1179276696
 20
342.9519497841
 40
44.7886515306
100
AcDbArc
 50
44.9106591281
 51
45.0854860448
  0
ARC
  5
2C7
100
AcDbEntity
  8
0
100
AcDbCircle
 62
7
  6
BYLAYER
 10
317.5381056351
 20
369.3708525793
 40
12.52
100
AcDbArc
 50
359.9819648135
 51
90.0151343413
  0
ARC
  5
2C8
100
AcDbEntity
  8
0
100
AcDbCircle
 62
7
  6
BYLAYER
 10
316.5581056351
 20
368.3908525793
 40
8.25
100
AcDbArc
 50
98.8106862857
 51
351.189274889
  0
ARC
  5
2C9
100
AcDbEntity
  8
0
100
AcDbCircle
 62
7
  6
BYLAYER
 10
316.5581056351
 20
368.3908525793
 40
8.0
100
AcDbArc
 50
138.5833216985
 51
311.4166783015
  0
ARC
  5
2CA
100
AcDbEntity
  8
0
100
AcDbCircle
 62
7
  6
BYLAYER
 10
316.5581056351
 20
368.3908525793
 40
8.0
100
AcDbArc
 50
318.5833216986
 51
131.4166783014
  0
ARC
  5
2CB
100
AcDbEntity
  8
0
100
AcDbCircle
 62
7
  6
BYLAYER
 10
317.0542165816
 20
368.8868030944
 40
7.5891696955
100
AcDbArc
 50
41.0024795368
 51
45.1234623162
  0
SPLINE
  5
2CC
100
AcDbEntity
  8
0
100
AcDbSpline
 62
7
  6
BYLAYER
 70
0
 71
3
 72
9
 73
5
 74
0
 42
0.0000001
 43
0.0000001
 44
0.0000000001
 40
0.0
 40
0.0
 40
0.0
 40
0.0
 40
0.5001730551
 40
1.0
 40
1.0
 40
1.0
 40
1.0
 10
324.7084120387
 20
368.5349177824
 30
0.0
 10
324.7100644707
 20
369.4955538553
 30
0.0
 10
324.3999496308
 20
371.4339390347
 30
0.0
 10
323.4114273524
 20
373.1415009114
 30
0.0
 10
322.7816201822
 20
373.8659942599
 30
0.0
  0
SPLINE
  5
2CD
100
AcDbEntity
  8
0
100
AcDbSpline
 62
7
  6
BYLAYER
 70
0
 71
3
 72
11
 73
7
 74
0
 42
0.0000001
 43
0.0000001
 44
0.0000000001
 40
0.0
 40
0.0
 40
0.0
 40
0.0
 40
0.4984556871
 40
0.623838041
 40
0.7492467977
 40
1.0
 40
1.0
 40
1.0
 40
1.0
 10
322.4089939405
 20
374.2647075285
 30
0.0
 10
321.6682217735
 20
375.0023065398
 30
0.0
 10
320.5269489317
 20
375.7403543402
 30
0.0
 10
319.0360408289
 20
376.238564034
 30
0.0
 10
318.0071314719
 20
376.464123467
 30
0.0
 10
317.2241014164
 20
376.5702517204
 30
0.0
 10
316.7003843631
 20
376.6179355508
 30
0.0
  0
SPLINE
  5
2CE
100
AcDbEntity
  8
0
100
AcDbSpline
 62
7
  6
BYLAYER
 70
0
 71
3
 72
8
 73
4
 74
0
 42
0.0000001
 43
0.0000001
 44
0.0000000001
 40
0.0
 40
0.0
 40
0.0
 40
0.0
 40
1.0
 40
1.0
 40
1.0
 40
1.0
 10
190.7397968281
 20
167.6209553954
 30
0.0
 10
191.6130266076
 20
168.3464585152
 30
0.0
 10
192.3673432527
 20
169.2420031507
 30
0.0
 10
192.9342959466
 20
170.2255933436
 30
0.0
  0
SPLINE
  5
2CF
100
AcDbEntity
  8
0
100
AcDbSpline
 62
7
  6
BYLAYER
 70
0
 71
3
 72
8
 73
4
 74
0
 42
0.0000001
 43
0.0000001
 44
0.0000000001
 40
0.0
 40
0.0
 40
0.0
 40
0.0
 40
1.0
 40
1.0
 40
1.0
 40
1.0
 10
192.2922998842
 20
281.9851870237
 30
0.0
 10
192.6387119733
 20
281.8414764806
 30
0.0
 10
192.954411047
 20
281.5872331429
 30
0.0
 10
193.1683572094
 20
281.2792053921
 30
0.0
  0
SPLINE
  5
2D0
100
AcDbEntity
  8
0
100
AcDbSpline
 62
7
  6
BYLAYER
 70
0
 71
3
 72
8
 73
4
 74
0
 42
0.0000001
 43
0.0000001
 44
0.0000000001
 40
0.0
 40
0.0
 40
0.0
 40
0.0
 40
1.0
 40
1.0
 40
1.0
 40
1.0
 10
193.1683572094
 20
281.2792053921
 30
0.0
 10
193.3958929934
 20
280.9516120623
 30
0.0
 10
193.5258775662
 20
280.536084459
 30
0.0
 10
193.5256906234
 20
280.1372237217
 30
0.0
  0
SPLINE
  5
2D1
100
AcDbEntity
  8
0
100
AcDbSpline
 62
7
  6
BYLAYER
 70
0
 71
3
 72
9
 73
5
 74
0
 42
0.0000001
 43
0.0000001
 44
0.0000000001
 40
0.0
 40
0.0
 40
0.0
 40
0.0
 40
0.4821594142
 40
1.0
 40
1.0
 40
1.0
 40
1.0
 10
194.788105634
 20
243.1635167822
 30
0.0
 10
194.788313874
 20
242.9211484001
 30
0.0
 10
194.695411319
 20
242.4144099608
 30
0.0
 10
194.4185671946
 20
241.9766188192
 30
0.0
 10
194.2387680001
 20
241.7883885196
 30
0.0
  0
SPLINE
  5
2D2
100
AcDbEntity
  8
0
100
AcDbSpline
 62
7
  6
BYLAYER
 70
0
 71
3
 72
9
 73
5
 74
0
 42
0.0000001
 43
0.0000001
 44
0.0000000001
 40
0.0
 40
0.0
 40
0.0
 40
0.0
 40
0.3475817785
 40
1.0
 40
1.0
 40
1.0
 40
1.0
 10
194.7881056665
 20
279.6182184135
 30
0.0
 10
196.0975263139
 20
278.8786058727
 30
0.0
 10
199.5442269198
 20
276.1655029566
 30
0.0
 10
201.8199327688
 20
272.2880330657
 30
0.0
 10
202.7805197368
 20
269.6337177358
 30
0.0
  0
SPLINE
  5
2D3
100
AcDbEntity
  8
0
100
AcDbSpline
 62
7
  6
BYLAYER
 70
0
 71
3
 72
9
 73
5
 74
0
 42
0.0000001
 43
0.0000001
 44
0.0000000001
 40
0.0
 40
0.0
 40
0.0
 40
0.0
 40
0.6529062643
 40
1.0
 40
1.0
 40
1.0
 40
1.0
 10
202.7804895086
 20
253.1479983602
 30
0.0
 10
201.819173149
 20
250.4917305376
 30
0.0
 10
199.5427088021
 20
246.6144505506
 30
0.0
 10
196.0957909672
 20
243.9018805401
 30
0.0
 10
194.788105632
 20
243.1635189779
 30
0.0
  0
SPLINE
  5
2D4
100
AcDbEntity
  8
0
100
AcDbSpline
 62
7
  6
BYLAYER
 70
0
 71
3
 72
9
 73
5
 74
0
 42
0.0000001
 43
0.0000001
 44
0.0000000001
 40
0.0
 40
0.0
 40
0.0
 40
0.0
 40
0.347496852
 40
1.0
 40
1.0
 40
1.0
 40
1.0
 10
174.3281056062
 20
243.1634900796
 30
0.0
 10
173.0189747198
 20
243.9028550575
 30
0.0
 10
169.5724254497
 20
246.6160864442
 30
0.0
 10
167.2963973964
 20
250.4933375365
 30
0.0
 10
166.3356946584
 20
253.1479885586
 30
0.0
  0
SPLINE
  5
2D5
100
AcDbEntity
  8
0
100
AcDbSpline
 62
7
  6
BYLAYER
 70
0
 71
3
 72
9
 73
5
 74
0
 42
0.0000001
 43
0.0000001
 44
0.0000000001
 40
0.0
 40
0.0
 40
0.0
 40
0.0
 40
0.5001730528
 40
1.0
 40
1.0
 40
1.0
 40
1.0
 10
44.4077993356
 20
154.246787394
 30
0.0
 10
44.4061467114
 20
153.2861515259
 30
0.0
 10
44.7162616654
 20
151.3477667758
 30
0.0
 10
45.7047832667
 20
149.6402050591
 30
0.0
 10
46.3345901716
 20
148.9157117392
 30
0.0
  0
SPLINE
  5
2D6
100
AcDbEntity
  8
0
100
AcDbSpline
 62
7
  6
BYLAYER
 70
0
 71
3
 72
11
 73
7
 74
0
 42
0.0000001
 43
0.0000001
 44
0.0000000001
 40
0.0
 40
0.0
 40
0.0
 40
0.0
 40
0.4984556874
 40
0.623838041
 40
0.7492467979
 40
1.0
 40
1.0
 40
1.0
 40
1.0
 10
46.7072172066
 20
148.516997546
 30
0.0
 10
47.4479892992
 20
147.7793986082
 30
0.0
 10
48.5892621024
 20
147.0413510194
 30
0.0
 10
50.0801700142
 20
146.5431412753
 30
0.0
 10
51.1090792422
 20
146.3175817477
 30
0.0
 10
51.8921092191
 20
146.2114534856
 30
0.0
 10
52.4158262186
 20
146.163769653
 30
0.0
  0
SPLINE
  5
2D7
100
AcDbEntity
  8
0
100
AcDbSpline
 62
7
  6
BYLAYER
 70
0
 71
3
 72
8
 73
4
 74
0
 42
0.0000001
 43
0.0000001
 44
0.0000000001
 40
0.0
 40
0.0
 40
0.0
 40
0.0
 40
1.0
 40
1.0
 40
1.0
 40
1.0
 10
44.331110598
 20
368.5331101196
 30
0.0
 10
44.3336915735
 20
368.3827801631
 30
0.0
 10
44.3381574465
 20
368.2324831303
 30
0.0
 10
44.3432331494
 20
368.0822167186
 30
0.0
  0
SPLINE
  5
2D8
100
AcDbEntity
  8
0
100
AcDbSpline
 62
7
  6
BYLAYER
 70
0
 71
3
 72
8
 73
4
 74
0
 42
0.0000001
 43
0.0000001
 44
0.0000000001
 40
0.0
 40
0.0
 40
0.0
 40
0.0
 40
1.0
 40
1.0
 40
1.0
 40
1.0
 10
44.3432331494
 20
368.0822167186
 30
0.0
 10
44.3485798535
 20
367.9239273024
 30
0.0
 10
44.3546048709
 20
367.7656236363
 30
0.0
 10
44.3645263352
 20
367.6075550086
 30
0.0
  0
SPLINE
  5
2D9
100
AcDbEntity
  8
0
100
AcDbSpline
 62
7
  6
BYLAYER
 70
0
 71
3
 72
9
 73
5
 74
0
 42
0.0000001
 43
0.0000001
 44
0.0000000001
 40
0.0
 40
0.0
 40
0.0
 40
0.0
 40
0.6529624065
 40
1.0
 40
1.0
 40
1.0
 40
1.0
 10
166.3357216271
 20
269.6337068419
 30
0.0
 10
167.297099597
 20
272.2902060872
 30
0.0
 10
169.5737660367
 20
276.1673377888
 30
0.0
 10
173.0205741268
 20
278.8800510547
 30
0.0
 10
174.328105637
 20
279.6181863218
 30
0.0
  0
SPLINE
  5
2DA
100
AcDbEntity
  8
0
100
AcDbSpline
 62
7
  6
BYLAYER
 70
0
 71
3
 72
9
 73
5
 74
0
 42
0.0000001
 43
0.0000001
 44
0.0000000001
 40
0.0
 40
0.0
 40
0.0
 40
0.0
 40
0.500102788
 40
1.0
 40
1.0
 40
1.0
 40
1.0
 10
52.414041858
 20
376.5411543653
 30
0.0
 10
51.6576364163
 20
376.540648996
 30
0.0
 10
50.1369871964
 20
376.353282432
 30
0.0
 10
48.7248498005
 20
375.745940231
 30
0.0
 10
48.0814888392
 20
375.3487427569
 30
0.0
  0
SPLINE
  5
2DB
100
AcDbEntity
  8
0
100
AcDbSpline
 62
7
  6
BYLAYER
 70
0
 71
3
 72
9
 73
5
 74
0
 42
0.0000001
 43
0.0000001
 44
0.0000000001
 40
0.0
 40
0.0
 40
0.0
 40
0.0
 40
0.4993354936
 40
1.0
 40
1.0
 40
1.0
 40
1.0
 10
45.8905103927
 20
373.3036728274
 30
0.0
 10
45.3992752135
 20
372.6175875488
 30
0.0
 10
44.6271128131
 20
371.0657334564
 30
0.0
 10
44.4322432389
 20
369.373105621
 30
0.0
 10
44.331110598
 20
368.5331101196
 30
0.0
  0
SPLINE
  5
2DC
100
AcDbEntity
  8
0
100
AcDbSpline
 62
7
  6
BYLAYER
 70
0
 71
3
 72
9
 73
5
 74
0
 42
0.0000001
 43
0.0000001
 44
0.0000000001
 40
0.0
 40
0.0
 40
0.0
 40
0.0
 40
0.2571997111
 40
1.0
 40
1.0
 40
1.0
 40
1.0
 10
44.3358201702
 20
368.5331101196
 30
0.0
 10
44.0987949719
 20
368.5751652644
 30
0.0
 10
43.1762237427
 20
368.7331058983
 30
0.0
 10
42.250058112
 20
368.8686637619
 30
0.0
 10
41.5630603383
 20
368.9753167965
 30
0.0
  0
SPLINE
  5
2DD
100
AcDbEntity
  8
0
100
AcDbSpline
 62
7
  6
BYLAYER
 70
0
 71
3
 72
9
 73
5
 74
0
 42
0.0000001
 43
0.0000001
 44
0.0000000001
 40
0.0
 40
0.0
 40
0.0
 40
0.0
 40
0.2389885227
 40
1.0
 40
1.0
 40
1.0
 40
1.0
 10
41.5630603176
 20
368.9753167996
 30
0.0
 10
41.8747493254
 20
369.42072818
 30
0.0
 10
43.2200510894
 20
371.255478019
 30
0.0
 10
44.7186959259
 20
372.976802569
 30
0.0
 10
45.9271467477
 20
374.2163062174
 30
0.0
  0
SPLINE
  5
2DE
100
AcDbEntity
  8
0
100
AcDbSpline
 62
7
  6
BYLAYER
 70
0
 71
3
 72
9
 73
5
 74
0
 42
0.0000001
 43
0.0000001
 44
0.0000000001
 40
0.0
 40
0.0
 40
0.0
 40
0.0
 40
0.2586210744
 40
1.0
 40
1.0
 40
1.0
 40
1.0
 10
46.7321246338
 20
375.021297309
 30
0.0
 10
47.1533923052
 20
375.4320245561
 30
0.0
 10
48.8130925499
 20
376.988040901
 30
0.0
 10
50.591780904
 20
378.4189036282
 30
0.0
 10
51.9736573133
 20
379.3859090221
 30
0.0
  0
SPLINE
  5
2DF
100
AcDbEntity
  8
0
100
AcDbSpline
 62
7
  6
BYLAYER
 70
0
 71
3
 72
9
 73
5
 74
0
 42
0.0000001
 43
0.0000001
 44
0.0000000001
 40
0.0
 40
0.0
 40
0.0
 40
0.0
 40
0.2400267819
 40
1.0
 40
1.0
 40
1.0
 40
1.0
 10
39.057959708
 20
153.4147923975
 30
0.0
 10
39.2584257227
 20
153.445939408
 30
0.0
 10
40.0930957313
 20
153.5789720674
 30
0.0
 10
40.9283259491
 20
153.7084424154
 30
0.0
 10
41.563142595
 20
153.8064091845
 30
0.0
  0
SPLINE
  5
2E0
100
AcDbEntity
  8
0
100
AcDbSpline
 62
7
  6
BYLAYER
 70
0
 71
3
 72
9
 73
5
 74
0
 42
0.0000001
 43
0.0000001
 44
0.0000000001
 40
0.0
 40
0.0
 40
0.0
 40
0.0
 40
0.2400345015
 40
1.0
 40
1.0
 40
1.0
 40
1.0
 10
317.5348050059
 20
381.8910813774
 30
0.0
 10
317.5036866538
 20
381.6906030427
 30
0.0
 10
317.369769366
 20
380.8560683764
 30
0.0
 10
317.2392692274
 20
380.0209882319
 30
0.0
 10
317.1425831587
 20
379.3859778584
 30
0.0
  0
SPLINE
  5
2E1
100
AcDbEntity
  8
0
100
AcDbSpline
 62
7
  6
BYLAYER
 70
0
 71
3
 72
9
 73
5
 74
0
 42
0.0000001
 43
0.0000001
 44
0.0000000001
 40
0.0
 40
0.0
 40
0.0
 40
0.0
 40
0.2425435885
 40
1.0
 40
1.0
 40
1.0
 40
1.0
 10
317.1425831587
 20
379.3859778584
 30
0.0
 10
317.1077649168
 20
379.1616582003
 30
0.0
 10
316.9636688016
 20
378.2369001768
 30
0.0
 10
316.8241134713
 20
377.3112625557
 30
0.0
 10
316.7003843631
 20
376.6132109388
 30
0.0
  0
SPLINE
  5
2E2
100
AcDbEntity
  8
0
100
AcDbSpline
 62
7
  6
BYLAYER
 70
0
 71
3
 72
8
 73
4
 74
0
 42
0.0000001
 43
0.0000001
 44
0.0000000001
 40
0.0
 40
0.0
 40
0.0
 40
0.0
 40
1.0
 40
1.0
 40
1.0
 40
1.0
 10
316.7003843631
 20
376.6179355508
 30
0.0
 10
316.231155556
 20
376.6097333337
 30
0.0
 10
315.7611846692
 20
376.5925264613
 30
0.0
 10
315.2944519064
 20
376.5435011829
 30
0.0
  0
SPLINE
  5
2E3
100
AcDbEntity
  8
0
100
AcDbSpline
 62
7
  6
BYLAYER
 70
0
 71
3
 72
9
 73
5
 74
0
 42
0.0000001
 43
0.0000001
 44
0.0000000001
 40
0.0
 40
0.0
 40
0.0
 40
0.0
 40
0.2403327219
 40
1.0
 40
1.0
 40
1.0
 40
1.0
 10
41.5631435453
 20
153.806399285
 30
0.0
 10
41.8995488084
 20
153.3256705616
 30
0.0
 10
43.3469091683
 20
151.359007863
 30
0.0
 10
44.9693213916
 20
149.5223892532
 30
0.0
 10
46.2787034289
 20
148.2089198286
 30
0.0
  0
SPLINE
  5
2E4
100
AcDbEntity
  8
0
100
AcDbSpline
 62
7
  6
BYLAYER
 70
0
 71
3
 72
9
 73
5
 74
0
 42
0.0000001
 43
0.0000001
 44
0.0000000001
 40
0.0
 40
0.0
 40
0.0
 40
0.0
 40
0.260157628
 40
1.0
 40
1.0
 40
1.0
 40
1.0
 10
46.3753141974
 20
148.1123025606
 30
0.0
 10
46.8251686946
 20
147.663788604
 30
0.0
 10
48.5906751139
 20
145.9768948866
 30
0.0
 10
50.4935423983
 20
144.4316446484
 30
0.0
 10
51.9736523414
 20
143.3958904892
 30
0.0
  0
SPLINE
  5
2E5
100
AcDbEntity
  8
0
100
AcDbSpline
 62
7
  6
BYLAYER
 70
0
 71
3
 72
9
 73
5
 74
0
 42
0.0000001
 43
0.0000001
 44
0.0000000001
 40
0.0
 40
0.0
 40
0.0
 40
0.0
 40
0.2596063398
 40
1.0
 40
1.0
 40
1.0
 40
1.0
 10
51.9736433768
 20
379.3858980865
 30
0.0
 10
51.9410272919
 20
379.6028904146
 30
0.0
 10
51.8156176446
 20
380.4387832229
 30
0.0
 10
51.6783590191
 20
381.2728336968
 30
0.0
 10
51.5813578937
 20
381.8910813774
 30
0.0
  0
SPLINE
  5
2E6
100
AcDbEntity
  8
0
100
AcDbSpline
 62
7
  6
BYLAYER
 70
0
 71
3
 72
9
 73
5
 74
0
 42
0.0000001
 43
0.0000001
 44
0.0000000001
 40
0.0
 40
0.0
 40
0.0
 40
0.0
 40
0.2400273217
 40
1.0
 40
1.0
 40
1.0
 40
1.0
 10
330.0582513622
 20
369.3669129391
 30
0.0
 10
329.8577979935
 20
369.3357676893
 30
0.0
 10
329.0231823965
 20
369.2027436435
 30
0.0
 10
328.1880067531
 20
369.0732808557
 30
0.0
 10
327.5532319896
 20
368.9753201779
 30
0.0
  0
SPLINE
  5
2E7
100
AcDbEntity
  8
0
100
AcDbSpline
 62
7
  6
BYLAYER
 70
0
 71
3
 72
9
 73
5
 74
0
 42
0.0000001
 43
0.0000001
 44
0.0000000001
 40
0.0
 40
0.0
 40
0.0
 40
0.0
 40
0.2403323856
 40
1.0
 40
1.0
 40
1.0
 40
1.0
 10
327.5532309808
 20
368.9753301133
 30
0.0
 10
327.2168248532
 20
369.4560655477
 30
0.0
 10
325.7694567785
 20
371.4227578211
 30
0.0
 10
324.147029052
 20
373.2594014207
 30
0.0
 10
322.837631715
 20
374.5728871705
 30
0.0
  0
SPLINE
  5
2E8
100
AcDbEntity
  8
0
100
AcDbSpline
 62
7
  6
BYLAYER
 70
0
 71
3
 72
9
 73
5
 74
0
 42
0.0000001
 43
0.0000001
 44
0.0000000001
 40
0.0
 40
0.0
 40
0.0
 40
0.0
 40
0.2601577573
 40
1.0
 40
1.0
 40
1.0
 40
1.0
 10
322.7409990678
 20
374.6695263193
 30
0.0
 10
322.2911389452
 20
375.1180455552
 30
0.0
 10
320.5256103619
 20
376.8049572272
 30
0.0
 10
318.6227156269
 20
378.3502198076
 30
0.0
 10
317.1425831689
 20
379.3859779249
 30
0.0
  0
SPLINE
  5
2E9
100
AcDbEntity
  8
0
100
AcDbSpline
 62
7
  6
BYLAYER
 70
0
 71
3
 72
9
 73
5
 74
0
 42
0.0000001
 43
0.0000001
 44
0.0000000001
 40
0.0
 40
0.0
 40
0.0
 40
0.0
 40
0.2596057951
 40
1.0
 40
1.0
 40
1.0
 40
1.0
 10
317.1426038817
 20
143.3955894799
 30
0.0
 10
317.1752191124
 20
143.1786168091
 30
0.0
 10
317.3006270608
 20
142.3427981831
 30
0.0
 10
317.4378693559
 20
141.5088196577
 30
0.0
 10
317.5348547506
 20
140.8906241984
 30
0.0
  0
SPLINE
  5
2EA
100
AcDbEntity
  8
0
100
AcDbSpline
 62
7
  6
BYLAYER
 70
0
 71
3
 72
9
 73
5
 74
0
 42
0.0000001
 43
0.0000001
 44
0.0000000001
 40
0.0
 40
0.0
 40
0.0
 40
0.0
 40
0.2400340154
 40
1.0
 40
1.0
 40
1.0
 40
1.0
 10
51.5814055769
 20
140.8906241984
 30
0.0
 10
51.6125266451
 20
141.0911150389
 30
0.0
 10
51.746455678
 20
141.9257034536
 30
0.0
 10
51.8769621677
 20
142.7608382214
 30
0.0
 10
51.9736523598
 20
143.3958906097
 30
0.0
  0
SPLINE
  5
2EB
100
AcDbEntity
  8
0
100
AcDbSpline
 62
7
  6
BYLAYER
 70
0
 71
3
 72
9
 73
5
 74
0
 42
0.0000001
 43
0.0000001
 44
0.0000000001
 40
0.0
 40
0.0
 40
0.0
 40
0.0
 40
0.2425441169
 40
1.0
 40
1.0
 40
1.0
 40
1.0
 10
51.9736523598
 20
143.3958906097
 30
0.0
 10
52.0084683318
 20
143.6201976084
 30
0.0
 10
52.1525555839
 20
144.544901315
 30
0.0
 10
52.2921087539
 20
145.4704834352
 30
0.0
 10
52.4158262186
 20
146.1684942652
 30
0.0
  0
SPLINE
  5
2EC
100
AcDbEntity
  8
0
100
AcDbSpline
 62
7
  6
BYLAYER
 70
0
 71
3
 72
8
 73
4
 74
0
 42
0.0000001
 43
0.0000001
 44
0.0000000001
 40
0.0
 40
0.0
 40
0.0
 40
0.0
 40
1.0
 40
1.0
 40
1.0
 40
1.0
 10
52.4158262186
 20
146.163769653
 30
0.0
 10
52.8850552556
 20
146.171971789
 30
0.0
 10
53.3550263728
 20
146.1891786847
 30
0.0
 10
53.8217593639
 20
146.2382039756
 30
0.0
  0
SPLINE
  5
2ED
100
AcDbEntity
  8
0
100
AcDbSpline
 62
7
  6
BYLAYER
 70
0
 71
3
 72
9
 73
5
 74
0
 42
0.0000001
 43
0.0000001
 44
0.0000000001
 40
0.0
 40
0.0
 40
0.0
 40
0.0
 40
0.2596364349
 40
1.0
 40
1.0
 40
1.0
 40
1.0
 10
41.5630603383
 20
368.9753167965
 30
0.0
 10
41.3461687805
 20
369.0086528283
 30
0.0
 10
40.510587244
 20
369.1356606336
 30
0.0
 10
39.676281676
 20
369.2708726244
 30
0.0
 10
39.057959708
 20
369.3669210957
 30
0.0
  0
SPLINE
  5
2EE
100
AcDbEntity
  8
0
100
AcDbSpline
 62
7
  6
BYLAYER
 70
0
 71
3
 72
9
 73
5
 74
0
 42
0.0000001
 43
0.0000001
 44
0.0000000001
 40
0.0
 40
0.0
 40
0.0
 40
0.0
 40
0.4821590909
 40
1.0
 40
1.0
 40
1.0
 40
1.0
 10
174.328105661
 20
243.1635169467
 30
0.0
 10
174.3278973579
 20
242.9211015667
 30
0.0
 10
174.4208346275
 20
242.4142618523
 30
0.0
 10
174.6977882199
 20
241.9764139016
 30
0.0
 10
174.8776494903
 20
241.7881726316
 30
0.0
  0
SPLINE
  5
2EF
100
AcDbEntity
  8
0
100
AcDbSpline
 62
7
  6
BYLAYER
 70
0
 71
3
 72
9
 73
5
 74
0
 42
0.0000001
 43
0.0000001
 44
0.0000000001
 40
0.0
 40
0.0
 40
0.0
 40
0.0
 40
0.5001027892
 40
1.0
 40
1.0
 40
1.0
 40
1.0
 10
316.7021694025
 20
146.2405508038
 30
0.0
 10
317.458573802
 20
146.2410554715
 30
0.0
 10
318.9792206344
 20
146.4284234008
 30
0.0
 10
320.3913570454
 20
147.035761895
 30
0.0
 10
321.0347174561
 20
147.43295827
 30
0.0
  0
SPLINE
  5
2F0
100
AcDbEntity
  8
0
100
AcDbSpline
 62
7
  6
BYLAYER
 70
0
 71
3
 72
9
 73
5
 74
0
 42
0.0000001
 43
0.0000001
 44
0.0000000001
 40
0.0
 40
0.0
 40
0.0
 40
0.0
 40
0.4993354825
 40
1.0
 40
1.0
 40
1.0
 40
1.0
 10
323.2256991304
 20
149.4780284693
 30
0.0
 10
323.7169352927
 20
150.164114416
 30
0.0
 10
324.4890985241
 20
151.7159709294
 30
0.0
 10
324.6839675277
 20
153.4086010458
 30
0.0
 10
324.7851008659
 20
154.2485976278
 30
0.0
  0
SPLINE
  5
2F1
100
AcDbEntity
  8
0
100
AcDbSpline
 62
7
  6
BYLAYER
 70
0
 71
3
 72
9
 73
5
 74
0
 42
0.0000001
 43
0.0000001
 44
0.0000000001
 40
0.0
 40
0.0
 40
0.0
 40
0.0
 40
0.2596357786
 40
1.0
 40
1.0
 40
1.0
 40
1.0
 10
327.5533685249
 20
153.8063523789
 30
0.0
 10
327.770240683
 20
153.7730194025
 30
0.0
 10
328.6057493829
 20
153.6460215564
 30
0.0
 10
329.4399825998
 20
153.510822653
 30
0.0
 10
330.0582513622
 20
153.4147825837
 30
0.0
  0
SPLINE
  5
2F2
100
AcDbEntity
  8
0
100
AcDbSpline
 62
7
  6
BYLAYER
 70
0
 71
3
 72
9
 73
5
 74
0
 42
0.0000001
 43
0.0000001
 44
0.0000000001
 40
0.0
 40
0.0
 40
0.0
 40
0.0
 40
0.2572005097
 40
1.0
 40
1.0
 40
1.0
 40
1.0
 10
324.7803912759
 20
154.2485976278
 30
0.0
 10
325.0174349059
 20
154.2065336567
 30
0.0
 10
325.9400757085
 20
154.0485621692
 30
0.0
 10
326.8663188536
 20
153.9130228602
 30
0.0
 10
327.5533685249
 20
153.8063523789
 30
0.0
  0
SPLINE
  5
2F3
100
AcDbEntity
  8
0
100
AcDbSpline
 62
7
  6
BYLAYER
 70
0
 71
3
 72
8
 73
4
 74
0
 42
0.0000001
 43
0.0000001
 44
0.0000000001
 40
0.0
 40
0.0
 40
0.0
 40
0.0
 40
1.0
 40
1.0
 40
1.0
 40
1.0
 10
324.7851008659
 20
154.2485976278
 30
0.0
 10
324.7825197765
 20
154.3989272702
 30
0.0
 10
324.7780538237
 20
154.5492239878
 30
0.0
 10
324.7729780858
 20
154.6994900861
 30
0.0
  0
SPLINE
  5
2F4
100
AcDbEntity
  8
0
100
AcDbSpline
 62
7
  6
BYLAYER
 70
0
 71
3
 72
8
 73
4
 74
0
 42
0.0000001
 43
0.0000001
 44
0.0000000001
 40
0.0
 40
0.0
 40
0.0
 40
0.0
 40
1.0
 40
1.0
 40
1.0
 40
1.0
 10
324.7729780858
 20
154.6994900861
 30
0.0
 10
324.7676313407
 20
154.8577792926
 30
0.0
 10
324.761606331
 20
155.0160827502
 30
0.0
 10
324.7516848729
 20
155.1741511697
 30
0.0
  0
SPLINE
  5
2F5
100
AcDbEntity
  8
0
100
AcDbSpline
 62
7
  6
BYLAYER
 70
0
 71
3
 72
9
 73
5
 74
0
 42
0.0000001
 43
0.0000001
 44
0.0000000001
 40
0.0
 40
0.0
 40
0.0
 40
0.0
 40
0.2389881894
 40
1.0
 40
1.0
 40
1.0
 40
1.0
 10
327.5533686663
 20
153.8063523574
 30
0.0
 10
327.2416782026
 20
153.3609321588
 30
0.0
 10
325.8963659563
 20
151.5261442051
 30
0.0
 10
324.3977012847
 20
149.8047870571
 30
0.0
 10
323.1892312432
 20
148.5652618727
 30
0.0
  0
SPLINE
  5
2F6
100
AcDbEntity
  8
0
100
AcDbSpline
 62
7
  6
BYLAYER
 70
0
 71
3
 72
9
 73
5
 74
0
 42
0.0000001
 43
0.0000001
 44
0.0000000001
 40
0.0
 40
0.0
 40
0.0
 40
0.0
 40
0.2586213521
 40
1.0
 40
1.0
 40
1.0
 40
1.0
 10
322.3842239024
 20
147.760241321
 30
0.0
 10
321.9629487881
 20
147.349507416
 30
0.0
 10
320.3032198978
 20
145.7934687914
 30
0.0
 10
318.5244967003
 20
144.3625905568
 30
0.0
 10
317.1425920546
 20
143.3955798898
 30
0.0
  0
SPLINE
  5
2F7
100
AcDbEntity
  8
0
100
AcDbSpline
 62
7
  6
BYLAYER
 70
0
 71
3
 72
8
 73
4
 74
0
 42
0.0000001
 43
0.0000001
 44
0.0000000001
 40
0.0
 40
0.0
 40
0.0
 40
0.0
 40
1.0
 40
1.0
 40
1.0
 40
1.0
 10
176.2106369694
 20
281.5859833226
 30
0.0
 10
176.3844898825
 20
281.7512939695
 30
0.0
 10
176.5916514336
 20
281.8870221785
 30
0.0
 10
176.8126216314
 20
281.9804278371
 30
0.0
  0
ENDSEC
  0
SECTION
  2
OBJECTS
  0
DICTIONARY
  5
C
100
AcDbDictionary
280
0
281
1
  3
ACAD_GROUP
350
D
  3
ACAD_MLINESTYLE
350
17
  3
ACAD_LAYOUT
350
1A
  3
ACAD_PLOTSETTINGS
350
19
  3
ACAD_PLOTSTYLENAME
350
E
  0
DICTIONARY
  5
D
102
{ACAD_REACTORS
330
C
102
}
100
AcDbDictionary
280
0
281
1
  0
ACDBDICTIONARYWDFLT
  5
E
102
{ACAD_REACTORS
330
C
102
}
100
AcDbDictionary
281
1
  3
Normal
350
F
100
AcDbDictionaryWithDefault
340
F
  0
DICTIONARY
  5
17
102
{ACAD_REACTORS
330
C
102
}
100
AcDbDictionary
280
0
281
1
  3
Standard
350
18
  0
DICTIONARY
  5
19
102
{ACAD_REACTORS
330
C
102
}
100
AcDbDictionary
281
1
  0
DICTIONARY
  5
1A
102
{ACAD_REACTORS
330
C
102
}
100
AcDbDictionary
281
1
  3
Model
350
2F8
  3
Layout1
350
2F9
  0
ACDBPLACEHOLDER
  5
F
102
{ACAD_REACTORS
330
E
102
}
  0
MLINESTYLE
  5
18
102
{ACAD_REACTORS
330
17
102
}
100
AcDbMlineStyle
  2
STANDARD
 70
0
  3

 62
256
 51
90.0
 52
90.0
 71
2
 49
0.5
 62
256
  6
BYLAYER
 49
-0.5
 62
256
  6
BYLAYER
  0
LAYOUT
  5
2F8
102
{ACAD_REACTORS
330
1A
102
}
100
AcDbPlotSettings
  1

  2
none_device
  4

  6

 40
0.0
 41
0.0
 42
0.0
 43
0.0
 44
210.0
 45
297.0
 46
0.0
 47
0.0
 48
0.0
 49
0.0
140
0.0
141
0.0
142
1.0
143
1.0
 70
1024
 72
1
 73
0
 74
0
  7

 75
0
147
1.0
148
0.0
149
0.0
100
AcDbLayout
  1
Model
 70
0
 71
0
 10
0.0
 20
0.0
 11
210.0
 21
297.0
 12
0.0
 22
0.0
 32
0.0
 14
0.0
 24
0.0
 34
0.0
 15
0.0
 25
0.0
 35
0.0
146
0.0
 13
0.0
 23
0.0
 33
0.0
 16
1.0
 26
0.0
 36
0.0
 17
0.0
 27
1.0
 37
0.0
 76
0
330
210
345
0
346
0
  0
LAYOUT
  5
2F9
102
{ACAD_REACTORS
330
1A
102
}
100
AcDbPlotSettings
  1

  2
none_device
  4

  6

 40
0.0
 41
0.0
 42
0.0
 43
0.0
 44
210.0
 45
297.0
 46
0.0
 47
0.0
 48
0.0
 49
0.0
140
0.0
141
0.0
142
1.0
143
1.0
 70
0
 72
1
 73
0
 74
0
  7

 75
0
147
1.0
148
0.0
149
0.0
100
AcDbLayout
  1
Layout1
 70
0
 71
1
 10
0.0
 20
0.0
 11
210.0
 21
297.0
 12
0.0
 22
0.0
 32
0.0
 14
0.0
 24
0.0
 34
0.0
 15
0.0
 25
0.0
 35
0.0
146
0.0
 13
0.0
 23
0.0
 33
0.0
 16
1.0
 26
0.0
 36
0.0
 17
0.0
 27
1.0
 37
0.0
 76
0
330
211
345
0
346
0
  0
ENDSEC
  0
EOF
