999
DXF file: C:\Gen2D\CAD\LADN046_3D-CAD\drw0001_4.dxf
999
Pro/ENGINEER 2019471 by Parametric Technology Corporation
  0
SECTION
  2
HEADER
  9
$ACADVER
  1
AC1024
  9
$DWGCODEPAGE
  3
ANSI_1252
  9
$EXTMAX
 10
54.6551941832
 20
77.2980603448
 30
0.0
  9
$EXTMIN
 10
0.0
 20
0.0
 30
0.0
  9
$LIMMIN
 10
0.0
 20
0.0
  9
$LIMMAX
 10
54.6551941832
 20
77.2980603448
  9
$VIEWCTR
 10
27.3275970916
 20
38.6490301724
  9
$VIEWSIZE
 40
77.2980603448
  9
$CLAYER
  8
0
  9
$LTSCALE
 40
5.038688378
  9
$CELTYPE
  6
BYLAYER
  9
$DIMSCALE
 40
1.0
  9
$DIMASZ
 40
0.6506570736
  9
$DIMEXO
 40
1.0
  9
$DIMDLI
 40
3.4812756066
  9
$DIMEXE
 40
1.0
  9
$DIMCEN
 40
0.8245126437
  9
$DIMLFAC
 40
1.0
  9
$DIMBLK
  1
_FILLED
  9
$DIMALT
 70
0
  9
$DIMALTF
 40
0.0393700787
  9
$DIMTXT
 40
0.9109199031
  9
$DIMTOL
 70
1
  9
$DIMLIM
 70
0
  9
$DIMTFAC
 40
1.0
  9
$DIMTP
 40
0.01
  9
$DIMTM
 40
0.01
  9
$DIMGAP
 40
0.625
  9
$DIMDSEP
 70
46
  9
$AUNITS
 70
0
  9
$PDMODE
 70
3
  9
$PDSIZE
 40
0.3125
  9
$HANDSEED
  5
2F4
  9
$TILEMODE
 70
1
  9
$MEASUREMENT
 70
1
  9
$INSUNITS
 70
4
  0
ENDSEC
  0
SECTION
  2
CLASSES
  0
CLASS
  1
ACDBDICTIONARYWDFLT
  2
AcDbDictionaryWithDefault
  3
AutoCAD 2000
 90
0
 91
1
280
0
281
0
  0
CLASS
  1
ACDBPLACEHOLDER
  2
AcDbPlaceHolder
  3
AutoCAD 2000
 90
0
 91
1
280
0
281
0
  0
CLASS
  1
LAYOUT
  2
AcDbLayout
  3
AutoCAD 2000
 90
0
 91
0
280
0
281
0
  0
ENDSEC
  0
SECTION
  2
TABLES
  0
TABLE
  2
VPORT
  5
8
100
AcDbSymbolTable
 70
2
  0
VPORT
  5
1F4
100
AcDbSymbolTableRecord
100
AcDbViewportTableRecord
  2
*ACTIVE
 70
0
 10
0.0
 20
0.0
 11
1.0
 21
1.0
 12
27.3275970916
 22
38.6490301724
 13
0.0
 23
0.0
 14
1.0
 24
1.0
 15
0.0
 25
0.0
 16
0.0
 26
0.0
 36
1.0
 17
0.0
 27
0.0
 37
0.0
 40
77.2980603448
 41
0.7070707071
 42
50.0
 43
0.0
 44
0.0
 50
0.0
 51
0.0
 71
0
 72
100
 73
1
 74
1
 75
0
 76
0
 77
0
 78
0
  0
ENDTAB
  0
TABLE
  2
LTYPE
  5
5
100
AcDbSymbolTable
 70
6
  0
LTYPE
  5
14
100
AcDbSymbolTableRecord
100
AcDbLinetypeTableRecord
  2
BYBLOCK
 70
0
  3

 72
65
 73
0
 40
0.0
  0
LTYPE
  5
15
100
AcDbSymbolTableRecord
100
AcDbLinetypeTableRecord
  2
BYLAYER
 70
0
  3

 72
65
 73
0
 40
0.0
  0
LTYPE
  5
16
100
AcDbSymbolTableRecord
100
AcDbLinetypeTableRecord
  2
CONTINUOUS
 70
64
  3
Solid line
 72
65
 73
0
 40
0.0
  0
LTYPE
  5
1F5
100
AcDbSymbolTableRecord
100
AcDbLinetypeTableRecord
  2
CENTER
 70
64
  3
____ _ ____ _ ____ _ ____ _ ____ _ ____ _ ____
 72
65
 73
4
 40
0.6
 49
0.375
 74
0
 49
-0.075
 74
0
 49
0.075
 74
0
 49
-0.075
 74
0
  0
LTYPE
  5
1F6
100
AcDbSymbolTableRecord
100
AcDbLinetypeTableRecord
  2
HIDDEN
 70
64
  3
- - - - - - - - - - - - - - - - - - - -
 72
65
 73
2
 40
0.2
 49
0.1
 74
0
 49
-0.1
 74
0
  0
LTYPE
  5
1F7
100
AcDbSymbolTableRecord
100
AcDbLinetypeTableRecord
  2
PHANTOM
 70
64
  3
_____ _ _ _____ _ _ _____ _ _ _____
 72
65
 73
6
 40
0.8
 49
0.45
 74
0
 49
-0.05
 74
0
 49
0.1
 74
0
 49
-0.05
 74
0
 49
0.1
 74
0
 49
-0.05
 74
0
  0
LTYPE
  5
1F8
100
AcDbSymbolTableRecord
100
AcDbLinetypeTableRecord
  2
DOT
 70
64
  3
. . . . . . . . . . . . . . . . . . . .
 72
65
 73
2
 40
0.2
 49
0.1
 74
0
 49
-0.1
 74
0
  0
LTYPE
  5
1F9
100
AcDbSymbolTableRecord
100
AcDbLinetypeTableRecord
  2
DASHED
 70
64
  3
- - - - - - - - - - - - - - - - - - - -
 72
65
 73
2
 40
0.2
 49
0.1
 74
0
 49
-0.1
 74
0
  0
ENDTAB
  0
TABLE
  2
LAYER
  5
2
100
AcDbSymbolTable
 70
36
  0
LAYER
  5
10
100
AcDbSymbolTableRecord
100
AcDbLayerTableRecord
  2
0
 70
0
 62
7
  6
CONTINUOUS
370
-3
390
F
  0
LAYER
  5
1FA
100
AcDbSymbolTableRecord
100
AcDbLayerTableRecord
  2
DEFAULT_1
 70
0
 62
7
  6
CENTER
370
-3
390
F
  0
LAYER
  5
1FB
100
AcDbSymbolTableRecord
100
AcDbLayerTableRecord
  2
DEFAULT_2
 70
0
 62
8
  6
HIDDEN
370
-3
390
F
  0
LAYER
  5
1FC
100
AcDbSymbolTableRecord
100
AcDbLayerTableRecord
  2
DEFAULT_3
 70
0
 62
7
  6
PHANTOM
370
-3
390
F
  0
LAYER
  5
1FD
100
AcDbSymbolTableRecord
100
AcDbLayerTableRecord
  2
00_COMPONENTS
 70
0
 62
7
  6
CONTINUOUS
370
-3
390
F
  0
LAYER
  5
1FE
100
AcDbSymbolTableRecord
100
AcDbLayerTableRecord
  2
01_1_DEFAULT_DATUMS
 70
0
 62
7
  6
CONTINUOUS
370
-3
390
F
  0
LAYER
  5
1FF
100
AcDbSymbolTableRecord
100
AcDbLayerTableRecord
  2
01_PLANES
 70
0
 62
7
  6
CONTINUOUS
370
-3
390
F
  0
LAYER
  5
200
100
AcDbSymbolTableRecord
100
AcDbLayerTableRecord
  2
02_COORD_SYS
 70
0
 62
7
  6
CONTINUOUS
370
-3
390
F
  0
LAYER
  5
201
100
AcDbSymbolTableRecord
100
AcDbLayerTableRecord
  2
03_AXES
 70
0
 62
7
  6
CONTINUOUS
370
-3
390
F
  0
LAYER
  5
202
100
AcDbSymbolTableRecord
100
AcDbLayerTableRecord
  2
04_POINTS
 70
0
 62
7
  6
CONTINUOUS
370
-3
390
F
  0
LAYER
  5
203
100
AcDbSymbolTableRecord
100
AcDbLayerTableRecord
  2
05_CURVES
 70
0
 62
7
  6
CONTINUOUS
370
-3
390
F
  0
LAYER
  5
204
100
AcDbSymbolTableRecord
100
AcDbLayerTableRecord
  2
06_SURFS
 70
0
 62
7
  6
CONTINUOUS
370
-3
390
F
  0
LAYER
  5
205
100
AcDbSymbolTableRecord
100
AcDbLayerTableRecord
  2
07_COSMETICS
 70
0
 62
7
  6
CONTINUOUS
370
-3
390
F
  0
LAYER
  5
206
100
AcDbSymbolTableRecord
100
AcDbLayerTableRecord
  2
10_NOTES
 70
0
 62
7
  6
CONTINUOUS
370
-3
390
F
  0
LAYER
  5
207
100
AcDbSymbolTableRecord
100
AcDbLayerTableRecord
  2
11_NOTES_PUB
 70
0
 62
7
  6
CONTINUOUS
370
-3
390
F
  0
LAYER
  5
208
100
AcDbSymbolTableRecord
100
AcDbLayerTableRecord
  2
13_REF_GTOL
 70
0
 62
7
  6
CONTINUOUS
370
-3
390
F
  0
LAYER
  5
209
100
AcDbSymbolTableRecord
100
AcDbLayerTableRecord
  2
16_MISC
 70
0
 62
7
  6
CONTINUOUS
370
-3
390
F
  0
LAYER
  5
20A
100
AcDbSymbolTableRecord
100
AcDbLayerTableRecord
  2
17_NO_PRINT
 70
0
 62
7
  6
CONTINUOUS
370
-3
390
F
  0
LAYER
  5
20B
100
AcDbSymbolTableRecord
100
AcDbLayerTableRecord
  2
18_DATUM_CAMS_JOINTS
 70
0
 62
7
  6
CONTINUOUS
370
-3
390
F
  0
LAYER
  5
20C
100
AcDbSymbolTableRecord
100
AcDbLayerTableRecord
  2
19_DATUM_FUNCTIONAL
 70
0
 62
7
  6
CONTINUOUS
370
-3
390
F
  0
LAYER
  5
20D
100
AcDbSymbolTableRecord
100
AcDbLayerTableRecord
  2
20_DATUM_KINEMATIC_SCHEME
 70
0
 62
7
  6
CONTINUOUS
370
-3
390
F
  0
LAYER
  5
20E
100
AcDbSymbolTableRecord
100
AcDbLayerTableRecord
  2
INTFCLR_65
 70
0
 62
7
  6
CONTINUOUS
370
-3
390
F
  0
LAYER
  5
20F
100
AcDbSymbolTableRecord
100
AcDbLayerTableRecord
  2
INTFCLR_74
 70
0
 62
7
  6
CONTINUOUS
370
-3
390
F
  0
LAYER
  5
210
100
AcDbSymbolTableRecord
100
AcDbLayerTableRecord
  2
INTFCLR_76
 70
0
 62
7
  6
CONTINUOUS
370
-3
390
F
  0
LAYER
  5
211
100
AcDbSymbolTableRecord
100
AcDbLayerTableRecord
  2
INTFCLR_77
 70
0
 62
7
  6
CONTINUOUS
370
-3
390
F
  0
ENDTAB
  0
TABLE
  2
STYLE
  5
3
100
AcDbSymbolTable
 70
1
  0
STYLE
  5
11
100
AcDbSymbolTableRecord
100
AcDbTextStyleTableRecord
  2
STANDARD
 70
0
 40
0.0
 41
0.8
 50
0.0
 71
0
 42
0.2
  3
txt
  4

  0
STYLE
  5
212
100
AcDbSymbolTableRecord
100
AcDbTextStyleTableRecord
  2
TEXTSTYLE_1
 70
0
 40
0.0
 41
0.8
 50
0.0
 71
0
 42
0.2
  3
gdt
  4

  0
ENDTAB
  0
TABLE
  2
VIEW
  5
6
100
AcDbSymbolTable
 70
0
  0
ENDTAB
  0
TABLE
  2
UCS
  5
7
100
AcDbSymbolTable
 70
0
  0
ENDTAB
  0
TABLE
  2
APPID
  5
9
100
AcDbSymbolTable
 70
1
  0
APPID
  5
213
100
AcDbSymbolTableRecord
100
AcDbRegAppTableRecord
  2
ACAD
 70
0
  0
ENDTAB
  0
TABLE
  2
BLOCK_RECORD
  5
1
100
AcDbSymbolTable
 70
0
  0
BLOCK_RECORD
  5
214
100
AcDbSymbolTableRecord
100
AcDbBlockTableRecord
  2
*Model_Space
  0
BLOCK_RECORD
  5
215
100
AcDbSymbolTableRecord
100
AcDbBlockTableRecord
  2
*Paper_Space
  0
BLOCK_RECORD
  5
216
100
AcDbSymbolTableRecord
100
AcDbBlockTableRecord
  2
_FILLED
  0
ENDTAB
  0
TABLE
  2
DIMSTYLE
  5
A
100
AcDbSymbolTable
 70
1
100
AcDbDimStyleTable
 71
0
  0
DIMSTYLE
105
217
100
AcDbSymbolTableRecord
100
AcDbDimStyleTableRecord
  2
STANDARD
 70
0
  3

  4

 40
1.0
 41
0.6506570736
 42
1.0
 43
0.38
 44
1.0
 45
0.0
 46
0.0
 47
0.01
 48
0.01
140
0.9109199031
141
0.09
142
0.0
143
25.4
144
1.0
145
0.0
146
1.0
147
0.625
 71
1
 72
0
 73
0
 74
0
 75
0
 76
0
 77
1
 78
8
 79
2
170
0
171
1
172
0
173
0
174
0
175
0
176
0
177
0
178
0
270
2
179
2
271
2
272
2
273
2
274
2
275
0
280
0
281
0
282
0
283
1
284
8
285
0
286
0
287
3
288
0
340
11
278
46
341
216
342
216
343
216
344
216
  0
ENDTAB
  0
ENDSEC
  0
SECTION
  2
BLOCKS
  0
BLOCK
  5
20
100
AcDbEntity
  8
0
100
AcDbBlockBegin
  2
*Model_Space
 70
0
 10
0.0
 20
0.0
 30
0.0
  3
*Model_Space
  1

  0
ENDBLK
  5
21
100
AcDbEntity
  8
0
100
AcDbBlockEnd
  0
BLOCK
  5
1C
100
AcDbEntity
  8
0
100
AcDbBlockBegin
  2
*Paper_Space
 70
0
 10
0.0
 20
0.0
 30
0.0
  3
*Paper_Space
  1

  0
ENDBLK
  5
1D
100
AcDbEntity
  8
0
100
AcDbBlockEnd
  0
BLOCK
  5
218
100
AcDbEntity
  8
0
100
AcDbBlockBegin
  2
_FILLED
 70
64
 10
0.0
 20
0.0
  3
_FILLED
  1

  0
SOLID
  5
219
100
AcDbEntity
  8
0
  6
BYBLOCK
 62
0
100
AcDbTrace
 10
0.0
 20
0.0
 11
-1.0
 21
0.25
 12
-1.0
 22
-0.25
 13
-1.0
 23
-0.25
  0
ENDBLK
  5
21A
100
AcDbEntity
  8
0
  6
BYBLOCK
 62
0
100
AcDbBlockEnd
  0
ENDSEC
  0
SECTION
  2
ENTITIES
  0
LINE
  5
21B
100
AcDbEntity
  8
0
100
AcDbLine
 62
7
  6
CONTINUOUS
 10
6.0871876088
 20
14.9125
 11
7.9755227957
 21
14.9125
  0
LINE
  5
21C
100
AcDbEntity
  8
0
100
AcDbLine
 62
7
  6
CONTINUOUS
 10
16.1055832354
 20
14.9125
 11
18.5755227957
 21
14.9125
  0
LINE
  5
21D
100
AcDbEntity
  8
0
100
AcDbLine
 62
7
  6
CONTINUOUS
 10
26.7055832354
 20
14.9125
 11
29.1755227957
 21
14.9125
  0
LINE
  5
21E
100
AcDbEntity
  8
0
100
AcDbLine
 62
7
  6
CONTINUOUS
 10
37.3055832354
 20
14.9125
 11
39.7755227957
 21
14.9125
  0
LINE
  5
21F
100
AcDbEntity
  8
0
100
AcDbLine
 62
7
  6
CONTINUOUS
 10
47.9055832354
 20
14.9125
 11
49.9871876088
 21
14.9125
  0
LINE
  5
220
100
AcDbEntity
  8
INTFCLR_74
100
AcDbLine
 62
7
420
48875
  6
CONTINUOUS
 10
6.0871876088
 20
14.9125
 11
6.0871876088
 21
28.1625
  0
LINE
  5
221
100
AcDbEntity
  8
0
100
AcDbLine
 62
7
  6
CONTINUOUS
 10
6.0871876088
 20
14.9125
 11
6.0871876088
 21
61.9125
  0
LINE
  5
222
100
AcDbEntity
  8
INTFCLR_74
100
AcDbLine
 62
7
420
48875
  6
CONTINUOUS
 10
6.0871876088
 20
49.1625
 11
6.0871876088
 21
61.9125
  0
LINE
  5
223
100
AcDbEntity
  8
0
100
AcDbLine
 62
7
  6
CONTINUOUS
 10
6.9132565171
 20
28.1625
 11
6.9132565171
 21
49.1625
  0
LINE
  5
224
100
AcDbEntity
  8
0
100
AcDbLine
 62
7
  6
CONTINUOUS
 10
7.7371876088
 20
61.9125
 11
7.7371876088
 21
49.1625
  0
LINE
  5
225
100
AcDbEntity
  8
0
100
AcDbLine
 62
7
  6
CONTINUOUS
 10
7.7371876088
 20
27.6625
 11
7.7371876088
 21
14.9125
  0
LINE
  5
226
100
AcDbEntity
  8
0
100
AcDbLine
 62
7
  6
CONTINUOUS
 10
8.4871876088
 20
56.1125
 11
8.4871876088
 21
49.1625
  0
LINE
  5
227
100
AcDbEntity
  8
0
100
AcDbLine
 62
7
  6
CONTINUOUS
 10
8.4871876088
 20
20.7125
 11
8.4871876088
 21
27.6625
  0
LINE
  5
228
100
AcDbEntity
  8
0
100
AcDbLine
 62
7
  6
CONTINUOUS
 10
15.2072781942
 20
59.5865308022
 11
15.609612348
 21
61.5088268147
  0
LINE
  5
229
100
AcDbEntity
  8
0
100
AcDbLine
 62
7
  6
CONTINUOUS
 10
8.4871876088
 20
20.7125
 11
15.9871876088
 21
20.7125
  0
LINE
  5
22A
100
AcDbEntity
  8
0
100
AcDbLine
 62
7
  6
CONTINUOUS
 10
19.0871876088
 20
20.7125
 11
26.5871876088
 21
20.7125
  0
LINE
  5
22B
100
AcDbEntity
  8
0
100
AcDbLine
 62
7
  6
CONTINUOUS
 10
29.6871876088
 20
20.7125
 11
37.1871876088
 21
20.7125
  0
LINE
  5
22C
100
AcDbEntity
  8
0
100
AcDbLine
 62
7
  6
CONTINUOUS
 10
40.2871876088
 20
20.7125
 11
47.7871876088
 21
20.7125
  0
LINE
  5
22D
100
AcDbEntity
  8
0
100
AcDbLine
 62
7
  6
CONTINUOUS
 10
15.609612348
 20
15.3161731853
 11
15.2072781942
 21
17.2384691978
  0
LINE
  5
22E
100
AcDbEntity
  8
0
100
AcDbLine
 62
7
  6
CONTINUOUS
 10
11.5871876088
 20
27.6625
 11
11.5871876088
 21
25.6771971604
  0
LINE
  5
22F
100
AcDbEntity
  8
0
100
AcDbLine
 62
7
  6
CONTINUOUS
 10
11.5871876088
 20
24.3625
 11
11.5871876088
 21
22.0581599722
  0
LINE
  5
230
100
AcDbEntity
  8
0
100
AcDbLine
 62
7
  6
CONTINUOUS
 10
11.5871876088
 20
49.1625
 11
11.5871876088
 21
51.1478028396
  0
LINE
  5
231
100
AcDbEntity
  8
0
100
AcDbLine
 62
7
  6
CONTINUOUS
 10
11.5871876088
 20
52.4625
 11
11.5871876088
 21
54.7668400278
  0
LINE
  5
232
100
AcDbEntity
  8
0
100
AcDbLine
 62
7
  6
CONTINUOUS
 10
12.8871876088
 20
54.7668400278
 11
12.8871876088
 21
52.4625
  0
LINE
  5
233
100
AcDbEntity
  8
0
100
AcDbLine
 62
7
  6
CONTINUOUS
 10
12.8871876088
 20
51.1478028396
 11
12.8871876088
 21
49.1625
  0
LINE
  5
234
100
AcDbEntity
  8
0
100
AcDbLine
 62
7
  6
CONTINUOUS
 10
12.8871876088
 20
22.0581599722
 11
12.8871876088
 21
24.3625
  0
LINE
  5
235
100
AcDbEntity
  8
0
100
AcDbLine
 62
7
  6
CONTINUOUS
 10
12.8871876088
 20
25.6771971604
 11
12.8871876088
 21
27.6625
  0
LINE
  5
236
100
AcDbEntity
  8
0
100
AcDbLine
 62
7
  6
CONTINUOUS
 10
8.8183338037
 20
17.1763134464
 11
8.4724241446
 21
15.3237343308
  0
LINE
  5
237
100
AcDbEntity
  8
0
100
AcDbLine
 62
7
  6
CONTINUOUS
 10
16.5371876088
 20
22.4125
 11
15.9871876088
 21
22.4125
  0
LINE
  5
238
100
AcDbEntity
  8
0
100
AcDbLine
 62
7
  6
CONTINUOUS
 10
8.4871876088
 20
22.4125
 11
7.7371876088
 21
22.4125
  0
LINE
  5
239
100
AcDbEntity
  8
0
100
AcDbLine
 62
7
  6
CONTINUOUS
 10
18.3371876088
 20
22.4125
 11
19.0871876088
 21
22.4125
  0
LINE
  5
23A
100
AcDbEntity
  8
0
100
AcDbLine
 62
7
  6
CONTINUOUS
 10
26.5871876088
 20
22.4125
 11
27.1371876088
 21
22.4125
  0
LINE
  5
23B
100
AcDbEntity
  8
0
100
AcDbLine
 62
7
  6
CONTINUOUS
 10
28.9371876088
 20
22.4125
 11
29.6871876088
 21
22.4125
  0
LINE
  5
23C
100
AcDbEntity
  8
0
100
AcDbLine
 62
7
  6
CONTINUOUS
 10
37.1871876088
 20
22.4125
 11
37.7371876088
 21
22.4125
  0
LINE
  5
23D
100
AcDbEntity
  8
0
100
AcDbLine
 62
7
  6
CONTINUOUS
 10
39.5371876088
 20
22.4125
 11
40.2871876088
 21
22.4125
  0
LINE
  5
23E
100
AcDbEntity
  8
0
100
AcDbLine
 62
7
  6
CONTINUOUS
 10
47.7871876088
 20
22.4125
 11
48.3371876088
 21
22.4125
  0
LINE
  5
23F
100
AcDbEntity
  8
0
100
AcDbLine
 62
7
  6
CONTINUOUS
 10
8.4724241441
 20
61.5012656718
 11
8.8183338037
 21
59.6486865536
  0
LINE
  5
240
100
AcDbEntity
  8
0
100
AcDbLine
 62
7
  6
CONTINUOUS
 10
9.282847581
 20
24.3625
 11
11.5871876088
 21
24.3625
  0
LINE
  5
241
100
AcDbEntity
  8
0
100
AcDbLine
 62
7
  6
CONTINUOUS
 10
12.8871876088
 20
24.3625
 11
15.1915276367
 21
24.3625
  0
LINE
  5
242
100
AcDbEntity
  8
0
100
AcDbLine
 62
7
  6
CONTINUOUS
 10
19.882847581
 20
24.3625
 11
22.1871876088
 21
24.3625
  0
LINE
  5
243
100
AcDbEntity
  8
0
100
AcDbLine
 62
7
  6
CONTINUOUS
 10
23.4871876088
 20
24.3625
 11
25.7915276367
 21
24.3625
  0
LINE
  5
244
100
AcDbEntity
  8
0
100
AcDbLine
 62
7
  6
CONTINUOUS
 10
30.482847581
 20
24.3625
 11
32.7871876088
 21
24.3625
  0
LINE
  5
245
100
AcDbEntity
  8
0
100
AcDbLine
 62
7
  6
CONTINUOUS
 10
34.0871876088
 20
24.3625
 11
36.3915276367
 21
24.3625
  0
LINE
  5
246
100
AcDbEntity
  8
0
100
AcDbLine
 62
7
  6
CONTINUOUS
 10
41.082847581
 20
24.3625
 11
43.3871876088
 21
24.3625
  0
LINE
  5
247
100
AcDbEntity
  8
0
100
AcDbLine
 62
7
  6
CONTINUOUS
 10
44.6871876088
 20
24.3625
 11
46.9915276367
 21
24.3625
  0
LINE
  5
248
100
AcDbEntity
  8
0
100
AcDbLine
 62
7
  6
CONTINUOUS
 10
46.9882556672
 20
25.6771971604
 11
44.6871876088
 21
25.6771971604
  0
LINE
  5
249
100
AcDbEntity
  8
0
100
AcDbLine
 62
7
  6
CONTINUOUS
 10
43.3871876088
 20
25.6771971604
 11
41.0861195505
 21
25.6771971604
  0
LINE
  5
24A
100
AcDbEntity
  8
0
100
AcDbLine
 62
7
  6
CONTINUOUS
 10
36.3882556672
 20
25.6771971604
 11
34.0871876088
 21
25.6771971604
  0
LINE
  5
24B
100
AcDbEntity
  8
0
100
AcDbLine
 62
7
  6
CONTINUOUS
 10
32.7871876088
 20
25.6771971604
 11
30.4861195505
 21
25.6771971604
  0
LINE
  5
24C
100
AcDbEntity
  8
0
100
AcDbLine
 62
7
  6
CONTINUOUS
 10
25.7882556672
 20
25.6771971604
 11
23.4871876088
 21
25.6771971604
  0
LINE
  5
24D
100
AcDbEntity
  8
0
100
AcDbLine
 62
7
  6
CONTINUOUS
 10
22.1871876088
 20
25.6771971604
 11
19.8861195505
 21
25.6771971604
  0
LINE
  5
24E
100
AcDbEntity
  8
0
100
AcDbLine
 62
7
  6
CONTINUOUS
 10
15.1882556672
 20
25.6771971604
 11
12.8871876088
 21
25.6771971604
  0
LINE
  5
24F
100
AcDbEntity
  8
0
100
AcDbLine
 62
7
  6
CONTINUOUS
 10
11.5871876088
 20
25.6771971604
 11
9.2861195505
 21
25.6771971604
  0
LINE
  5
250
100
AcDbEntity
  8
0
100
AcDbLine
 62
7
  6
CONTINUOUS
 10
15.9871876088
 20
56.1125
 11
15.9871876088
 21
49.1625
  0
LINE
  5
251
100
AcDbEntity
  8
0
100
AcDbLine
 62
7
  6
CONTINUOUS
 10
15.9871876088
 20
20.7125
 11
15.9871876088
 21
27.6625
  0
LINE
  5
252
100
AcDbEntity
  8
0
100
AcDbLine
 62
7
  6
CONTINUOUS
 10
16.5371876088
 20
14.9125
 11
16.5371876088
 21
27.6625
  0
LINE
  5
253
100
AcDbEntity
  8
0
100
AcDbLine
 62
7
  6
CONTINUOUS
 10
16.5371876088
 20
49.1625
 11
16.5371876088
 21
61.9125
  0
LINE
  5
254
100
AcDbEntity
  8
0
100
AcDbLine
 62
7
  6
CONTINUOUS
 10
48.3371876088
 20
27.6625
 11
39.5371876088
 21
27.6625
  0
LINE
  5
255
100
AcDbEntity
  8
0
100
AcDbLine
 62
7
  6
CONTINUOUS
 10
37.7371876088
 20
27.6625
 11
28.9371876088
 21
27.6625
  0
LINE
  5
256
100
AcDbEntity
  8
0
100
AcDbLine
 62
7
  6
CONTINUOUS
 10
27.1371876088
 20
27.6625
 11
18.3371876088
 21
27.6625
  0
LINE
  5
257
100
AcDbEntity
  8
0
100
AcDbLine
 62
7
  6
CONTINUOUS
 10
16.5371876088
 20
27.6625
 11
7.7371876088
 21
27.6625
  0
LINE
  5
258
100
AcDbEntity
  8
0
100
AcDbLine
 62
7
  6
CONTINUOUS
 10
18.3371876088
 20
61.9125
 11
18.3371876088
 21
49.1625
  0
LINE
  5
259
100
AcDbEntity
  8
0
100
AcDbLine
 62
7
  6
CONTINUOUS
 10
18.3371876088
 20
27.6625
 11
18.3371876088
 21
14.9125
  0
LINE
  5
25A
100
AcDbEntity
  8
0
100
AcDbLine
 62
7
  6
CONTINUOUS
 10
18.7871876088
 20
42.5125
 11
18.7871876088
 21
34.3125
  0
LINE
  5
25B
100
AcDbEntity
  8
0
100
AcDbLine
 62
7
  6
CONTINUOUS
 10
19.0371876088
 20
34.5625
 11
19.0371876088
 21
42.2625
  0
LINE
  5
25C
100
AcDbEntity
  8
0
100
AcDbLine
 62
7
  6
CONTINUOUS
 10
19.0871876088
 20
56.1125
 11
19.0871876088
 21
49.1625
  0
LINE
  5
25D
100
AcDbEntity
  8
0
100
AcDbLine
 62
7
  6
CONTINUOUS
 10
19.0871876088
 20
20.7125
 11
19.0871876088
 21
27.6625
  0
LINE
  5
25E
100
AcDbEntity
  8
0
100
AcDbLine
 62
7
  6
CONTINUOUS
 10
6.0871876088
 20
28.1625
 11
49.9871876088
 21
28.1625
  0
LINE
  5
25F
100
AcDbEntity
  8
0
100
AcDbLine
 62
7
  6
CONTINUOUS
 10
25.8072781942
 20
59.5865308023
 11
26.209612348
 21
61.5088268147
  0
LINE
  5
260
100
AcDbEntity
  8
0
100
AcDbLine
 62
7
  6
CONTINUOUS
 10
26.209612348
 20
15.3161731853
 11
25.8072781942
 21
17.2384691977
  0
LINE
  5
261
100
AcDbEntity
  8
0
100
AcDbLine
 62
7
  6
CONTINUOUS
 10
22.1871876088
 20
27.6625
 11
22.1871876088
 21
25.6771971604
  0
LINE
  5
262
100
AcDbEntity
  8
0
100
AcDbLine
 62
7
  6
CONTINUOUS
 10
22.1871876088
 20
24.3625
 11
22.1871876088
 21
22.0581599722
  0
LINE
  5
263
100
AcDbEntity
  8
0
100
AcDbLine
 62
7
  6
CONTINUOUS
 10
22.1871876088
 20
49.1625
 11
22.1871876088
 21
51.1478028396
  0
LINE
  5
264
100
AcDbEntity
  8
0
100
AcDbLine
 62
7
  6
CONTINUOUS
 10
22.1871876088
 20
52.4625
 11
22.1871876088
 21
54.7668400278
  0
LINE
  5
265
100
AcDbEntity
  8
0
100
AcDbLine
 62
7
  6
CONTINUOUS
 10
23.4871876088
 20
54.7668400278
 11
23.4871876088
 21
52.4625
  0
LINE
  5
266
100
AcDbEntity
  8
0
100
AcDbLine
 62
7
  6
CONTINUOUS
 10
23.4871876088
 20
51.1478028396
 11
23.4871876088
 21
49.1625
  0
LINE
  5
267
100
AcDbEntity
  8
0
100
AcDbLine
 62
7
  6
CONTINUOUS
 10
23.4871876088
 20
22.0581599722
 11
23.4871876088
 21
24.3625
  0
LINE
  5
268
100
AcDbEntity
  8
0
100
AcDbLine
 62
7
  6
CONTINUOUS
 10
23.4871876088
 20
25.6771971604
 11
23.4871876088
 21
27.6625
  0
LINE
  5
269
100
AcDbEntity
  8
0
100
AcDbLine
 62
7
  6
CONTINUOUS
 10
19.4183338037
 20
17.1763134464
 11
19.0724241444
 21
15.32373433
  0
LINE
  5
26A
100
AcDbEntity
  8
0
100
AcDbLine
 62
7
  6
CONTINUOUS
 10
46.4371876088
 20
34.1625
 11
41.9371876088
 21
34.1625
  0
LINE
  5
26B
100
AcDbEntity
  8
0
100
AcDbLine
 62
7
  6
CONTINUOUS
 10
37.2871876088
 20
34.3125
 11
18.7871876088
 21
34.3125
  0
LINE
  5
26C
100
AcDbEntity
  8
0
100
AcDbLine
 62
7
  6
CONTINUOUS
 10
36.8871876088
 20
34.4125
 11
19.1871876088
 21
34.4125
  0
LINE
  5
26D
100
AcDbEntity
  8
0
100
AcDbLine
 62
7
  6
CONTINUOUS
 10
19.0724241442
 20
61.5012656711
 11
19.4183338037
 21
59.6486865536
  0
LINE
  5
26E
100
AcDbEntity
  8
0
100
AcDbLine
 62
7
  6
CONTINUOUS
 10
42.1871876088
 20
34.6625
 11
45.6871876088
 21
34.6625
  0
LINE
  5
26F
100
AcDbEntity
  8
0
100
AcDbLine
 62
7
  6
CONTINUOUS
 10
26.5871876088
 20
56.1125
 11
26.5871876088
 21
49.1625
  0
LINE
  5
270
100
AcDbEntity
  8
0
100
AcDbLine
 62
7
  6
CONTINUOUS
 10
26.5871876088
 20
20.7125
 11
26.5871876088
 21
27.6625
  0
LINE
  5
271
100
AcDbEntity
  8
0
100
AcDbLine
 62
7
  6
CONTINUOUS
 10
27.1371876088
 20
14.9125
 11
27.1371876088
 21
27.6625
  0
LINE
  5
272
100
AcDbEntity
  8
0
100
AcDbLine
 62
7
  6
CONTINUOUS
 10
27.1371876088
 20
49.1625
 11
27.1371876088
 21
61.9125
  0
LINE
  5
273
100
AcDbEntity
  8
0
100
AcDbLine
 62
7
  6
CONTINUOUS
 10
28.9371876088
 20
61.9125
 11
28.9371876088
 21
49.1625
  0
LINE
  5
274
100
AcDbEntity
  8
0
100
AcDbLine
 62
7
  6
CONTINUOUS
 10
28.9371876088
 20
27.6625
 11
28.9371876088
 21
14.9125
  0
LINE
  5
275
100
AcDbEntity
  8
0
100
AcDbLine
 62
7
  6
CONTINUOUS
 10
29.6871876088
 20
56.1125
 11
29.6871876088
 21
49.1625
  0
LINE
  5
276
100
AcDbEntity
  8
0
100
AcDbLine
 62
7
  6
CONTINUOUS
 10
29.6871876088
 20
20.7125
 11
29.6871876088
 21
27.6625
  0
LINE
  5
277
100
AcDbEntity
  8
0
100
AcDbLine
 62
7
  6
CONTINUOUS
 10
36.4072781942
 20
59.5865308023
 11
36.809612348
 21
61.5088268147
  0
LINE
  5
278
100
AcDbEntity
  8
0
100
AcDbLine
 62
7
  6
CONTINUOUS
 10
45.6871876088
 20
42.1625
 11
42.1871876088
 21
42.1625
  0
LINE
  5
279
100
AcDbEntity
  8
0
100
AcDbLine
 62
7
  6
CONTINUOUS
 10
19.1871876088
 20
42.4125
 11
36.8871876088
 21
42.4125
  0
LINE
  5
27A
100
AcDbEntity
  8
0
100
AcDbLine
 62
7
  6
CONTINUOUS
 10
18.7871876088
 20
42.5125
 11
37.2871876088
 21
42.5125
  0
LINE
  5
27B
100
AcDbEntity
  8
0
100
AcDbLine
 62
7
  6
CONTINUOUS
 10
41.9371876088
 20
42.6625
 11
46.4371876088
 21
42.6625
  0
LINE
  5
27C
100
AcDbEntity
  8
0
100
AcDbLine
 62
7
  6
CONTINUOUS
 10
36.809612348
 20
15.3161731853
 11
36.4072781942
 21
17.2384691977
  0
LINE
  5
27D
100
AcDbEntity
  8
0
100
AcDbLine
 62
7
  6
CONTINUOUS
 10
32.7871876088
 20
27.6625
 11
32.7871876088
 21
25.6771971604
  0
LINE
  5
27E
100
AcDbEntity
  8
0
100
AcDbLine
 62
7
  6
CONTINUOUS
 10
32.7871876088
 20
24.3625
 11
32.7871876088
 21
22.0581599722
  0
LINE
  5
27F
100
AcDbEntity
  8
0
100
AcDbLine
 62
7
  6
CONTINUOUS
 10
32.7871876088
 20
49.1625
 11
32.7871876088
 21
51.1478028396
  0
LINE
  5
280
100
AcDbEntity
  8
0
100
AcDbLine
 62
7
  6
CONTINUOUS
 10
32.7871876088
 20
52.4625
 11
32.7871876088
 21
54.7668400278
  0
LINE
  5
281
100
AcDbEntity
  8
0
100
AcDbLine
 62
7
  6
CONTINUOUS
 10
34.0871876088
 20
54.7668400278
 11
34.0871876088
 21
52.4625
  0
LINE
  5
282
100
AcDbEntity
  8
0
100
AcDbLine
 62
7
  6
CONTINUOUS
 10
34.0871876088
 20
51.1478028396
 11
34.0871876088
 21
49.1625
  0
LINE
  5
283
100
AcDbEntity
  8
0
100
AcDbLine
 62
7
  6
CONTINUOUS
 10
34.0871876088
 20
22.0581599722
 11
34.0871876088
 21
24.3625
  0
LINE
  5
284
100
AcDbEntity
  8
0
100
AcDbLine
 62
7
  6
CONTINUOUS
 10
34.0871876088
 20
25.6771971604
 11
34.0871876088
 21
27.6625
  0
LINE
  5
285
100
AcDbEntity
  8
0
100
AcDbLine
 62
7
  6
CONTINUOUS
 10
30.0183338037
 20
17.1763134464
 11
29.6724241446
 21
15.3237343308
  0
LINE
  5
286
100
AcDbEntity
  8
0
100
AcDbLine
 62
7
  6
CONTINUOUS
 10
29.672424144
 20
61.5012656719
 11
30.0183338037
 21
59.6486865536
  0
LINE
  5
287
100
AcDbEntity
  8
0
100
AcDbLine
 62
7
  6
CONTINUOUS
 10
37.0371876088
 20
42.2625
 11
37.0371876088
 21
34.5625
  0
LINE
  5
288
100
AcDbEntity
  8
0
100
AcDbLine
 62
7
  6
CONTINUOUS
 10
37.1871876088
 20
56.1125
 11
37.1871876088
 21
49.1625
  0
LINE
  5
289
100
AcDbEntity
  8
0
100
AcDbLine
 62
7
  6
CONTINUOUS
 10
37.1871876088
 20
20.7125
 11
37.1871876088
 21
27.6625
  0
LINE
  5
28A
100
AcDbEntity
  8
0
100
AcDbLine
 62
7
  6
CONTINUOUS
 10
37.2871876088
 20
34.3125
 11
37.2871876088
 21
42.5125
  0
LINE
  5
28B
100
AcDbEntity
  8
0
100
AcDbLine
 62
7
  6
CONTINUOUS
 10
37.7371876088
 20
14.9125
 11
37.7371876088
 21
27.6625
  0
LINE
  5
28C
100
AcDbEntity
  8
0
100
AcDbLine
 62
7
  6
CONTINUOUS
 10
37.7371876088
 20
49.1625
 11
37.7371876088
 21
61.9125
  0
LINE
  5
28D
100
AcDbEntity
  8
0
100
AcDbLine
 62
7
  6
CONTINUOUS
 10
49.9871876088
 20
49.1625
 11
6.0871876088
 21
49.1625
  0
LINE
  5
28E
100
AcDbEntity
  8
0
100
AcDbLine
 62
7
  6
CONTINUOUS
 10
39.5371876088
 20
61.9125
 11
39.5371876088
 21
49.1625
  0
LINE
  5
28F
100
AcDbEntity
  8
0
100
AcDbLine
 62
7
  6
CONTINUOUS
 10
39.5371876088
 20
27.6625
 11
39.5371876088
 21
14.9125
  0
LINE
  5
290
100
AcDbEntity
  8
0
100
AcDbLine
 62
7
  6
CONTINUOUS
 10
40.2871876088
 20
56.1125
 11
40.2871876088
 21
49.1625
  0
LINE
  5
291
100
AcDbEntity
  8
0
100
AcDbLine
 62
7
  6
CONTINUOUS
 10
40.2871876088
 20
20.7125
 11
40.2871876088
 21
27.6625
  0
LINE
  5
292
100
AcDbEntity
  8
0
100
AcDbLine
 62
7
  6
CONTINUOUS
 10
46.9882556672
 20
51.1478028396
 11
44.6871876088
 21
51.1478028396
  0
LINE
  5
293
100
AcDbEntity
  8
0
100
AcDbLine
 62
7
  6
CONTINUOUS
 10
43.3871876088
 20
51.1478028396
 11
41.0861195505
 21
51.1478028396
  0
LINE
  5
294
100
AcDbEntity
  8
0
100
AcDbLine
 62
7
  6
CONTINUOUS
 10
36.3882556672
 20
51.1478028396
 11
34.0871876088
 21
51.1478028396
  0
LINE
  5
295
100
AcDbEntity
  8
0
100
AcDbLine
 62
7
  6
CONTINUOUS
 10
32.7871876088
 20
51.1478028396
 11
30.4861195505
 21
51.1478028396
  0
LINE
  5
296
100
AcDbEntity
  8
0
100
AcDbLine
 62
7
  6
CONTINUOUS
 10
25.7882556672
 20
51.1478028396
 11
23.4871876088
 21
51.1478028396
  0
LINE
  5
297
100
AcDbEntity
  8
0
100
AcDbLine
 62
7
  6
CONTINUOUS
 10
22.1871876088
 20
51.1478028396
 11
19.8861195505
 21
51.1478028396
  0
LINE
  5
298
100
AcDbEntity
  8
0
100
AcDbLine
 62
7
  6
CONTINUOUS
 10
15.1882556672
 20
51.1478028396
 11
12.8871876088
 21
51.1478028396
  0
LINE
  5
299
100
AcDbEntity
  8
0
100
AcDbLine
 62
7
  6
CONTINUOUS
 10
11.5871876088
 20
51.1478028396
 11
9.2861195505
 21
51.1478028396
  0
LINE
  5
29A
100
AcDbEntity
  8
0
100
AcDbLine
 62
7
  6
CONTINUOUS
 10
41.9371876088
 20
42.6625
 11
41.9371876088
 21
34.1625
  0
LINE
  5
29B
100
AcDbEntity
  8
0
100
AcDbLine
 62
7
  6
CONTINUOUS
 10
42.1871876088
 20
34.6625
 11
42.1871876088
 21
42.1625
  0
LINE
  5
29C
100
AcDbEntity
  8
0
100
AcDbLine
 62
7
  6
CONTINUOUS
 10
42.7477498246
 20
34.6625
 11
42.7477498246
 21
42.1625
  0
LINE
  5
29D
100
AcDbEntity
  8
0
100
AcDbLine
 62
7
  6
CONTINUOUS
 10
43.2428265623
 20
42.1625
 11
43.2428265623
 21
34.6625
  0
LINE
  5
29E
100
AcDbEntity
  8
0
100
AcDbLine
 62
7
  6
CONTINUOUS
 10
47.0072781942
 20
59.5865308023
 11
47.409612348
 21
61.5088268147
  0
LINE
  5
29F
100
AcDbEntity
  8
0
100
AcDbLine
 62
7
  6
CONTINUOUS
 10
9.282847581
 20
52.4625
 11
11.5871876088
 21
52.4625
  0
LINE
  5
2A0
100
AcDbEntity
  8
0
100
AcDbLine
 62
7
  6
CONTINUOUS
 10
12.8871876088
 20
52.4625
 11
15.1915276367
 21
52.4625
  0
LINE
  5
2A1
100
AcDbEntity
  8
0
100
AcDbLine
 62
7
  6
CONTINUOUS
 10
19.882847581
 20
52.4625
 11
22.1871876088
 21
52.4625
  0
LINE
  5
2A2
100
AcDbEntity
  8
0
100
AcDbLine
 62
7
  6
CONTINUOUS
 10
23.4871876088
 20
52.4625
 11
25.7915276367
 21
52.4625
  0
LINE
  5
2A3
100
AcDbEntity
  8
0
100
AcDbLine
 62
7
  6
CONTINUOUS
 10
30.482847581
 20
52.4625
 11
32.7871876088
 21
52.4625
  0
LINE
  5
2A4
100
AcDbEntity
  8
0
100
AcDbLine
 62
7
  6
CONTINUOUS
 10
34.0871876088
 20
52.4625
 11
36.3915276367
 21
52.4625
  0
LINE
  5
2A5
100
AcDbEntity
  8
0
100
AcDbLine
 62
7
  6
CONTINUOUS
 10
41.082847581
 20
52.4625
 11
43.3871876088
 21
52.4625
  0
LINE
  5
2A6
100
AcDbEntity
  8
0
100
AcDbLine
 62
7
  6
CONTINUOUS
 10
44.6871876088
 20
52.4625
 11
46.9915276367
 21
52.4625
  0
LINE
  5
2A7
100
AcDbEntity
  8
0
100
AcDbLine
 62
7
  6
CONTINUOUS
 10
47.409612348
 20
15.3161731853
 11
47.0072781942
 21
17.2384691977
  0
LINE
  5
2A8
100
AcDbEntity
  8
0
100
AcDbLine
 62
7
  6
CONTINUOUS
 10
43.3871876088
 20
27.6625
 11
43.3871876088
 21
25.6771971604
  0
LINE
  5
2A9
100
AcDbEntity
  8
0
100
AcDbLine
 62
7
  6
CONTINUOUS
 10
43.3871876088
 20
24.3625
 11
43.3871876088
 21
22.0581599722
  0
LINE
  5
2AA
100
AcDbEntity
  8
0
100
AcDbLine
 62
7
  6
CONTINUOUS
 10
43.3871876088
 20
49.1625
 11
43.3871876088
 21
51.1478028396
  0
LINE
  5
2AB
100
AcDbEntity
  8
0
100
AcDbLine
 62
7
  6
CONTINUOUS
 10
43.3871876088
 20
52.4625
 11
43.3871876088
 21
54.7668400278
  0
LINE
  5
2AC
100
AcDbEntity
  8
0
100
AcDbLine
 62
7
  6
CONTINUOUS
 10
43.9371876088
 20
34.6625
 11
43.9371876088
 21
42.1625
  0
LINE
  5
2AD
100
AcDbEntity
  8
0
100
AcDbLine
 62
7
  6
CONTINUOUS
 10
44.4702904194
 20
34.6625
 11
44.4702904194
 21
42.1625
  0
LINE
  5
2AE
100
AcDbEntity
  8
0
100
AcDbLine
 62
7
  6
CONTINUOUS
 10
44.6871876088
 20
54.7668400278
 11
44.6871876088
 21
52.4625
  0
LINE
  5
2AF
100
AcDbEntity
  8
0
100
AcDbLine
 62
7
  6
CONTINUOUS
 10
44.6871876088
 20
51.1478028396
 11
44.6871876088
 21
49.1625
  0
LINE
  5
2B0
100
AcDbEntity
  8
0
100
AcDbLine
 62
7
  6
CONTINUOUS
 10
44.6871876088
 20
22.0581599722
 11
44.6871876088
 21
24.3625
  0
LINE
  5
2B1
100
AcDbEntity
  8
0
100
AcDbLine
 62
7
  6
CONTINUOUS
 10
44.6871876088
 20
25.6771971604
 11
44.6871876088
 21
27.6625
  0
LINE
  5
2B2
100
AcDbEntity
  8
0
100
AcDbLine
 62
7
  6
CONTINUOUS
 10
45.2580846737
 20
34.6625
 11
45.2580846737
 21
42.1625
  0
LINE
  5
2B3
100
AcDbEntity
  8
0
100
AcDbLine
 62
7
  6
CONTINUOUS
 10
40.6183338037
 20
17.1763134464
 11
40.2724241446
 21
15.3237343312
  0
LINE
  5
2B4
100
AcDbEntity
  8
0
100
AcDbLine
 62
7
  6
CONTINUOUS
 10
16.5371876088
 20
54.4125
 11
15.9871876088
 21
54.4125
  0
LINE
  5
2B5
100
AcDbEntity
  8
0
100
AcDbLine
 62
7
  6
CONTINUOUS
 10
8.4871876088
 20
54.4125
 11
7.7371876088
 21
54.4125
  0
LINE
  5
2B6
100
AcDbEntity
  8
0
100
AcDbLine
 62
7
  6
CONTINUOUS
 10
18.3371876088
 20
54.4125
 11
19.0871876088
 21
54.4125
  0
LINE
  5
2B7
100
AcDbEntity
  8
0
100
AcDbLine
 62
7
  6
CONTINUOUS
 10
26.5871876088
 20
54.4125
 11
27.1371876088
 21
54.4125
  0
LINE
  5
2B8
100
AcDbEntity
  8
0
100
AcDbLine
 62
7
  6
CONTINUOUS
 10
28.9371876088
 20
54.4125
 11
29.6871876088
 21
54.4125
  0
LINE
  5
2B9
100
AcDbEntity
  8
0
100
AcDbLine
 62
7
  6
CONTINUOUS
 10
37.1871876088
 20
54.4125
 11
37.7371876088
 21
54.4125
  0
LINE
  5
2BA
100
AcDbEntity
  8
0
100
AcDbLine
 62
7
  6
CONTINUOUS
 10
39.5371876088
 20
54.4125
 11
40.2871876088
 21
54.4125
  0
LINE
  5
2BB
100
AcDbEntity
  8
0
100
AcDbLine
 62
7
  6
CONTINUOUS
 10
47.7871876088
 20
54.4125
 11
48.3371876088
 21
54.4125
  0
LINE
  5
2BC
100
AcDbEntity
  8
0
100
AcDbLine
 62
7
  6
CONTINUOUS
 10
40.2724241443
 20
61.5012656708
 11
40.6183338037
 21
59.6486865536
  0
LINE
  5
2BD
100
AcDbEntity
  8
0
100
AcDbLine
 62
7
  6
CONTINUOUS
 10
45.6871876088
 20
42.1625
 11
45.6871876088
 21
34.6625
  0
LINE
  5
2BE
100
AcDbEntity
  8
0
100
AcDbLine
 62
7
  6
CONTINUOUS
 10
46.4371876088
 20
34.1625
 11
46.4371876088
 21
42.6625
  0
LINE
  5
2BF
100
AcDbEntity
  8
0
100
AcDbLine
 62
7
  6
CONTINUOUS
 10
47.7871876088
 20
56.1125
 11
40.2871876088
 21
56.1125
  0
LINE
  5
2C0
100
AcDbEntity
  8
0
100
AcDbLine
 62
7
  6
CONTINUOUS
 10
37.1871876088
 20
56.1125
 11
29.6871876088
 21
56.1125
  0
LINE
  5
2C1
100
AcDbEntity
  8
0
100
AcDbLine
 62
7
  6
CONTINUOUS
 10
26.5871876088
 20
56.1125
 11
19.0871876088
 21
56.1125
  0
LINE
  5
2C2
100
AcDbEntity
  8
0
100
AcDbLine
 62
7
  6
CONTINUOUS
 10
15.9871876088
 20
56.1125
 11
8.4871876088
 21
56.1125
  0
LINE
  5
2C3
100
AcDbEntity
  8
0
100
AcDbLine
 62
7
  6
CONTINUOUS
 10
47.7871876088
 20
56.1125
 11
47.7871876088
 21
49.1625
  0
LINE
  5
2C4
100
AcDbEntity
  8
0
100
AcDbLine
 62
7
  6
CONTINUOUS
 10
47.7871876088
 20
20.7125
 11
47.7871876088
 21
27.6625
  0
LINE
  5
2C5
100
AcDbEntity
  8
0
100
AcDbLine
 62
7
  6
CONTINUOUS
 10
48.3371876088
 20
14.9125
 11
48.3371876088
 21
27.6625
  0
LINE
  5
2C6
100
AcDbEntity
  8
0
100
AcDbLine
 62
7
  6
CONTINUOUS
 10
48.3371876088
 20
49.1625
 11
48.3371876088
 21
61.9125
  0
LINE
  5
2C7
100
AcDbEntity
  8
0
100
AcDbLine
 62
7
  6
CONTINUOUS
 10
49.1611186985
 20
28.1625
 11
49.1611186985
 21
49.1625
  0
LINE
  5
2C8
100
AcDbEntity
  8
0
100
AcDbLine
 62
7
  6
CONTINUOUS
 10
49.9871876088
 20
61.9125
 11
49.9871876088
 21
14.9125
  0
LINE
  5
2C9
100
AcDbEntity
  8
0
100
AcDbLine
 62
7
  6
CONTINUOUS
 10
6.0871876088
 20
61.9125
 11
7.9746852054
 21
61.9125
  0
LINE
  5
2CA
100
AcDbEntity
  8
0
100
AcDbLine
 62
7
  6
CONTINUOUS
 10
16.1055832354
 20
61.9125
 11
18.5746852051
 21
61.9125
  0
LINE
  5
2CB
100
AcDbEntity
  8
0
100
AcDbLine
 62
7
  6
CONTINUOUS
 10
26.7055832354
 20
61.9125
 11
29.174685205
 21
61.9125
  0
LINE
  5
2CC
100
AcDbEntity
  8
0
100
AcDbLine
 62
7
  6
CONTINUOUS
 10
37.3055832354
 20
61.9125
 11
39.7746852059
 21
61.9125
  0
LINE
  5
2CD
100
AcDbEntity
  8
0
100
AcDbLine
 62
7
  6
CONTINUOUS
 10
47.9055832354
 20
61.9125
 11
49.9871876088
 21
61.9125
  0
ARC
  5
2CE
100
AcDbEntity
  8
0
100
AcDbCircle
 62
7
  6
CONTINUOUS
 10
12.2371876088
 20
25.0125
 40
3.025
100
AcDbArc
 50
113.736989114
 51
66.2630490858
  0
ARC
  5
2CF
100
AcDbEntity
  8
0
100
AcDbCircle
 62
7
  6
CONTINUOUS
 10
22.8371876088
 20
25.0125
 40
3.025
100
AcDbArc
 50
113.736989114
 51
66.2630490858
  0
ARC
  5
2D0
100
AcDbEntity
  8
0
100
AcDbCircle
 62
7
  6
CONTINUOUS
 10
18.5759725359
 20
15.4185055539
 40
0.5058588208
100
AcDbArc
 50
269.9490900543
 51
349.480749639
  0
ARC
  5
2D1
100
AcDbEntity
  8
0
100
AcDbCircle
 62
7
  6
CONTINUOUS
 10
7.9759725368
 20
15.4185055528
 40
0.5058588196
100
AcDbArc
 50
269.9490899512
 51
349.4807497426
  0
ARC
  5
2D2
100
AcDbEntity
  8
0
100
AcDbCircle
 62
7
  6
CONTINUOUS
 10
19.1871876088
 20
34.5625
 40
0.15
100
AcDbArc
 50
179.9999999998
 51
270.0000000002
  0
ARC
  5
2D3
100
AcDbEntity
  8
0
100
AcDbCircle
 62
7
  6
CONTINUOUS
 10
12.2371876088
 20
51.8125
 40
3.025
100
AcDbArc
 50
293.736989114
 51
246.2630490858
  0
ARC
  5
2D4
100
AcDbEntity
  8
0
100
AcDbCircle
 62
7
  6
CONTINUOUS
 10
22.8371876088
 20
51.8125
 40
3.025
100
AcDbArc
 50
293.736989114
 51
246.2630490858
  0
ARC
  5
2D5
100
AcDbEntity
  8
0
100
AcDbCircle
 62
7
  6
CONTINUOUS
 10
18.5759725358
 20
61.406494446
 40
0.505858821
100
AcDbArc
 50
10.5192503707
 51
90.0509099363
  0
ARC
  5
2D6
100
AcDbEntity
  8
0
100
AcDbCircle
 62
7
  6
CONTINUOUS
 10
7.9759725368
 20
61.4064944472
 40
0.5058588197
100
AcDbArc
 50
10.5192502625
 51
90.0509100438
  0
ARC
  5
2D7
100
AcDbEntity
  8
0
100
AcDbCircle
 62
7
  6
CONTINUOUS
 10
19.1871876088
 20
42.2625
 40
0.15
100
AcDbArc
 50
89.9999999998
 51
180.0000000002
  0
ARC
  5
2D8
100
AcDbEntity
  8
0
100
AcDbCircle
 62
7
  6
CONTINUOUS
 10
33.4371876088
 20
25.0125
 40
3.025
100
AcDbArc
 50
113.736989114
 51
66.2630490858
  0
ARC
  5
2D9
100
AcDbEntity
  8
0
100
AcDbCircle
 62
7
  6
CONTINUOUS
 10
44.0371876088
 20
25.0125
 40
3.025
100
AcDbArc
 50
113.736989114
 51
66.2630490858
  0
ARC
  5
2DA
100
AcDbEntity
  8
0
100
AcDbCircle
 62
7
  6
CONTINUOUS
 10
29.1759725357
 20
15.4185055541
 40
0.5058588211
100
AcDbArc
 50
269.9490900751
 51
349.4807496182
  0
ARC
  5
2DB
100
AcDbEntity
  8
0
100
AcDbCircle
 62
7
  6
CONTINUOUS
 10
39.7759725362
 20
15.4185055536
 40
0.5058588206
100
AcDbArc
 50
269.949090025
 51
349.4807496688
  0
ARC
  5
2DC
100
AcDbEntity
  8
0
100
AcDbCircle
 62
7
  6
CONTINUOUS
 10
36.8871876088
 20
34.5625
 40
0.15
100
AcDbArc
 50
269.9999999998
 51
360.0
  0
ARC
  5
2DD
100
AcDbEntity
  8
0
100
AcDbCircle
 62
7
  6
CONTINUOUS
 10
44.0371876088
 20
51.8125
 40
3.025
100
AcDbArc
 50
293.736989114
 51
246.2630490858
  0
ARC
  5
2DE
100
AcDbEntity
  8
0
100
AcDbCircle
 62
7
  6
CONTINUOUS
 10
33.4371876088
 20
51.8125
 40
3.025
100
AcDbArc
 50
293.736989114
 51
246.2630490858
  0
ARC
  5
2DF
100
AcDbEntity
  8
0
100
AcDbCircle
 62
7
  6
CONTINUOUS
 10
29.1759725358
 20
61.406494446
 40
0.505858821
100
AcDbArc
 50
10.5192503706
 51
90.0509099361
  0
ARC
  5
2E0
100
AcDbEntity
  8
0
100
AcDbCircle
 62
7
  6
CONTINUOUS
 10
39.7759725363
 20
61.4064944466
 40
0.5058588205
100
AcDbArc
 50
10.51925032
 51
90.0509099861
  0
ARC
  5
2E1
100
AcDbEntity
  8
0
100
AcDbCircle
 62
7
  6
CONTINUOUS
 10
36.8871876088
 20
42.2625
 40
0.15
100
AcDbArc
 50
0.0
 51
90.0000000002
  0
SPLINE
  5
2E2
100
AcDbEntity
  8
0
100
AcDbSpline
 62
7
  6
CONTINUOUS
 70
0
 71
3
 72
16
 73
12
 74
0
 42
0.0000001
 43
0.0000001
 44
0.0000000001
 40
0.0
 40
0.0
 40
0.0
 40
0.0
 40
0.1197584699
 40
0.2366861603
 40
0.3514131901
 40
0.4646118883
 40
0.5763062153
 40
0.6852982917
 40
0.7917739406
 40
0.8963955658
 40
1.0
 40
1.0
 40
1.0
 40
1.0
 10
15.609612348
 20
61.5088268147
 30
0.0
 10
15.6152634678
 20
61.5358270707
 30
0.0
 10
15.6308573407
 20
61.5883714435
 30
0.0
 10
15.6662261687
 20
61.6615419064
 30
0.0
 10
15.7117705043
 20
61.7270202526
 30
0.0
 10
15.7660137811
 20
61.7838133845
 30
0.0
 10
15.8272009691
 20
61.8308931074
 30
0.0
 10
15.8933598406
 20
61.8675477817
 30
0.0
 10
15.9626316456
 20
61.8935544662
 30
0.0
 10
16.0336861803
 20
61.9090562996
 30
0.0
 10
16.0817188709
 20
61.9125
 30
0.0
 10
16.1055832354
 20
61.9125
 30
0.0
  0
SPLINE
  5
2E3
100
AcDbEntity
  8
0
100
AcDbSpline
 62
7
  6
CONTINUOUS
 70
0
 71
3
 72
16
 73
12
 74
0
 42
0.0000001
 43
0.0000001
 44
0.0000000001
 40
0.0
 40
0.0
 40
0.0
 40
0.0
 40
0.1197584699
 40
0.2366861603
 40
0.3514131901
 40
0.4646118883
 40
0.5763062153
 40
0.6852982917
 40
0.7917739406
 40
0.8963955658
 40
1.0
 40
1.0
 40
1.0
 40
1.0
 10
36.809612348
 20
61.5088268147
 30
0.0
 10
36.8152634678
 20
61.5358270707
 30
0.0
 10
36.8308573407
 20
61.5883714435
 30
0.0
 10
36.8662261687
 20
61.6615419064
 30
0.0
 10
36.9117705043
 20
61.7270202526
 30
0.0
 10
36.966013781
 20
61.7838133845
 30
0.0
 10
37.0272009691
 20
61.8308931074
 30
0.0
 10
37.0933598406
 20
61.8675477817
 30
0.0
 10
37.1626316456
 20
61.8935544662
 30
0.0
 10
37.2336861803
 20
61.9090562996
 30
0.0
 10
37.2817188709
 20
61.9125
 30
0.0
 10
37.3055832354
 20
61.9125
 30
0.0
  0
SPLINE
  5
2E4
100
AcDbEntity
  8
0
100
AcDbSpline
 62
7
  6
CONTINUOUS
 70
0
 71
3
 72
16
 73
12
 74
0
 42
0.0000001
 43
0.0000001
 44
0.0000000001
 40
0.0
 40
0.0
 40
0.0
 40
0.0
 40
0.1036044342
 40
0.2082260594
 40
0.3147017083
 40
0.4236937847
 40
0.5353881117
 40
0.6485868099
 40
0.7633138397
 40
0.8802415301
 40
1.0
 40
1.0
 40
1.0
 40
1.0
 10
16.1055832354
 20
14.9125
 30
0.0
 10
16.0817188709
 20
14.9125
 30
0.0
 10
16.0336861803
 20
14.9159437004
 30
0.0
 10
15.9626316456
 20
14.9314455338
 30
0.0
 10
15.8933598406
 20
14.9574522183
 30
0.0
 10
15.8272009691
 20
14.9941068926
 30
0.0
 10
15.7660137811
 20
15.0411866155
 30
0.0
 10
15.7117705043
 20
15.0979797474
 30
0.0
 10
15.6662261687
 20
15.1634580936
 30
0.0
 10
15.6308573407
 20
15.2366285565
 30
0.0
 10
15.6152634678
 20
15.2891729293
 30
0.0
 10
15.609612348
 20
15.3161731853
 30
0.0
  0
SPLINE
  5
2E5
100
AcDbEntity
  8
0
100
AcDbSpline
 62
7
  6
CONTINUOUS
 70
0
 71
3
 72
16
 73
12
 74
0
 42
0.0000001
 43
0.0000001
 44
0.0000000001
 40
0.0
 40
0.0
 40
0.0
 40
0.0
 40
0.1036044342
 40
0.2082260594
 40
0.3147017083
 40
0.4236937847
 40
0.5353881117
 40
0.6485868099
 40
0.7633138397
 40
0.8802415301
 40
1.0
 40
1.0
 40
1.0
 40
1.0
 10
26.7055832354
 20
14.9125
 30
0.0
 10
26.6817188709
 20
14.9125
 30
0.0
 10
26.6336861803
 20
14.9159437004
 30
0.0
 10
26.5626316456
 20
14.9314455338
 30
0.0
 10
26.4933598406
 20
14.9574522183
 30
0.0
 10
26.4272009691
 20
14.9941068926
 30
0.0
 10
26.366013781
 20
15.0411866155
 30
0.0
 10
26.3117705043
 20
15.0979797474
 30
0.0
 10
26.2662261687
 20
15.1634580936
 30
0.0
 10
26.2308573407
 20
15.2366285565
 30
0.0
 10
26.2152634678
 20
15.2891729293
 30
0.0
 10
26.209612348
 20
15.3161731853
 30
0.0
  0
SPLINE
  5
2E6
100
AcDbEntity
  8
0
100
AcDbSpline
 62
7
  6
CONTINUOUS
 70
0
 71
3
 72
16
 73
12
 74
0
 42
0.0000001
 43
0.0000001
 44
0.0000000001
 40
0.0
 40
0.0
 40
0.0
 40
0.0
 40
0.1036044342
 40
0.2082260594
 40
0.3147017083
 40
0.4236937847
 40
0.5353881117
 40
0.6485868099
 40
0.7633138397
 40
0.8802415301
 40
1.0
 40
1.0
 40
1.0
 40
1.0
 10
37.3055832354
 20
14.9125
 30
0.0
 10
37.2817188709
 20
14.9125
 30
0.0
 10
37.2336861803
 20
14.9159437004
 30
0.0
 10
37.1626316456
 20
14.9314455338
 30
0.0
 10
37.0933598406
 20
14.9574522183
 30
0.0
 10
37.0272009691
 20
14.9941068926
 30
0.0
 10
36.966013781
 20
15.0411866155
 30
0.0
 10
36.9117705043
 20
15.0979797474
 30
0.0
 10
36.8662261687
 20
15.1634580936
 30
0.0
 10
36.8308573407
 20
15.2366285565
 30
0.0
 10
36.8152634678
 20
15.2891729293
 30
0.0
 10
36.809612348
 20
15.3161731853
 30
0.0
  0
SPLINE
  5
2E7
100
AcDbEntity
  8
0
100
AcDbSpline
 62
7
  6
CONTINUOUS
 70
0
 71
3
 72
16
 73
12
 74
0
 42
0.0000001
 43
0.0000001
 44
0.0000000001
 40
0.0
 40
0.0
 40
0.0
 40
0.0
 40
0.1036044342
 40
0.2082260594
 40
0.3147017083
 40
0.4236937847
 40
0.5353881117
 40
0.6485868099
 40
0.7633138397
 40
0.8802415301
 40
1.0
 40
1.0
 40
1.0
 40
1.0
 10
47.9055832354
 20
14.9125
 30
0.0
 10
47.8817188709
 20
14.9125
 30
0.0
 10
47.8336861803
 20
14.9159437004
 30
0.0
 10
47.7626316456
 20
14.9314455338
 30
0.0
 10
47.6933598406
 20
14.9574522183
 30
0.0
 10
47.6272009691
 20
14.9941068926
 30
0.0
 10
47.566013781
 20
15.0411866155
 30
0.0
 10
47.5117705043
 20
15.0979797474
 30
0.0
 10
47.4662261687
 20
15.1634580936
 30
0.0
 10
47.4308573407
 20
15.2366285565
 30
0.0
 10
47.4152634678
 20
15.2891729293
 30
0.0
 10
47.409612348
 20
15.3161731853
 30
0.0
  0
SPLINE
  5
2E8
100
AcDbEntity
  8
0
100
AcDbSpline
 62
7
  6
CONTINUOUS
 70
0
 71
3
 72
16
 73
12
 74
0
 42
0.0000001
 43
0.0000001
 44
0.0000000001
 40
0.0
 40
0.0
 40
0.0
 40
0.0
 40
0.1197584699
 40
0.2366861603
 40
0.3514131901
 40
0.4646118883
 40
0.5763062153
 40
0.6852982917
 40
0.7917739406
 40
0.8963955658
 40
1.0
 40
1.0
 40
1.0
 40
1.0
 10
26.209612348
 20
61.5088268147
 30
0.0
 10
26.2152634678
 20
61.5358270707
 30
0.0
 10
26.2308573407
 20
61.5883714435
 30
0.0
 10
26.2662261687
 20
61.6615419064
 30
0.0
 10
26.3117705043
 20
61.7270202526
 30
0.0
 10
26.366013781
 20
61.7838133845
 30
0.0
 10
26.4272009691
 20
61.8308931074
 30
0.0
 10
26.4933598406
 20
61.8675477817
 30
0.0
 10
26.5626316456
 20
61.8935544662
 30
0.0
 10
26.6336861803
 20
61.9090562996
 30
0.0
 10
26.6817188709
 20
61.9125
 30
0.0
 10
26.7055832354
 20
61.9125
 30
0.0
  0
SPLINE
  5
2E9
100
AcDbEntity
  8
0
100
AcDbSpline
 62
7
  6
CONTINUOUS
 70
0
 71
3
 72
16
 73
12
 74
0
 42
0.0000001
 43
0.0000001
 44
0.0000000001
 40
0.0
 40
0.0
 40
0.0
 40
0.0
 40
0.1197584699
 40
0.2366861603
 40
0.3514131901
 40
0.4646118883
 40
0.5763062153
 40
0.6852982917
 40
0.7917739406
 40
0.8963955658
 40
1.0
 40
1.0
 40
1.0
 40
1.0
 10
47.409612348
 20
61.5088268147
 30
0.0
 10
47.4152634678
 20
61.5358270707
 30
0.0
 10
47.4308573407
 20
61.5883714435
 30
0.0
 10
47.4662261687
 20
61.6615419064
 30
0.0
 10
47.5117705043
 20
61.7270202526
 30
0.0
 10
47.566013781
 20
61.7838133845
 30
0.0
 10
47.6272009691
 20
61.8308931074
 30
0.0
 10
47.6933598406
 20
61.8675477817
 30
0.0
 10
47.7626316456
 20
61.8935544662
 30
0.0
 10
47.8336861803
 20
61.9090562996
 30
0.0
 10
47.8817188709
 20
61.9125
 30
0.0
 10
47.9055832354
 20
61.9125
 30
0.0
  0
ELLIPSE
  5
2EA
100
AcDbEntity
  8
0
100
AcDbEllipse
 62
7
  6
CONTINUOUS
 10
12.018959001
 20
60.1816365167
 30
0.0
 11
-3.25
 21
0.0
 31
0.0
 40
0.9443496974
 41
0.1745329252
 42
2.9464565606
  0
ELLIPSE
  5
2EB
100
AcDbEntity
  8
0
100
AcDbEllipse
 62
7
  6
CONTINUOUS
 10
33.218959001
 20
60.1816365167
 30
0.0
 11
-3.25
 21
0.0
 31
0.0
 40
0.9443496974
 41
0.1745329252
 42
2.9464565606
  0
ELLIPSE
  5
2EC
100
AcDbEntity
  8
0
100
AcDbEllipse
 62
7
  6
CONTINUOUS
 10
12.018959001
 20
16.6433634833
 30
0.0
 11
-3.25
 21
0.0
 31
0.0
 40
0.9443496974
 41
-2.9464565606
 42
-0.1745329252
  0
ELLIPSE
  5
2ED
100
AcDbEntity
  8
0
100
AcDbEllipse
 62
7
  6
CONTINUOUS
 10
22.618959001
 20
16.6433634833
 30
0.0
 11
-3.25
 21
0.0
 31
0.0
 40
0.9443496974
 41
-2.9464565606
 42
-0.1745329252
  0
ELLIPSE
  5
2EE
100
AcDbEntity
  8
0
100
AcDbEllipse
 62
7
  6
CONTINUOUS
 10
33.218959001
 20
16.6433634833
 30
0.0
 11
-3.25
 21
0.0
 31
0.0
 40
0.9443496974
 41
-2.9464565606
 42
-0.1745329252
  0
ELLIPSE
  5
2EF
100
AcDbEntity
  8
0
100
AcDbEllipse
 62
7
  6
CONTINUOUS
 10
43.818959001
 20
16.6433634833
 30
0.0
 11
-3.25
 21
0.0
 31
0.0
 40
0.9443496974
 41
-2.9464565606
 42
-0.1745329252
  0
ELLIPSE
  5
2F0
100
AcDbEntity
  8
0
100
AcDbEllipse
 62
7
  6
CONTINUOUS
 10
22.618959001
 20
60.1816365167
 30
0.0
 11
-3.25
 21
0.0
 31
0.0
 40
0.9443496974
 41
0.1745329252
 42
2.9464565606
  0
ELLIPSE
  5
2F1
100
AcDbEntity
  8
0
100
AcDbEllipse
 62
7
  6
CONTINUOUS
 10
43.818959001
 20
60.1816365167
 30
0.0
 11
-3.25
 21
0.0
 31
0.0
 40
0.9443496974
 41
0.1745329252
 42
2.9464565606
  0
ENDSEC
  0
SECTION
  2
OBJECTS
  0
DICTIONARY
  5
C
100
AcDbDictionary
280
0
281
1
  3
ACAD_GROUP
350
D
  3
ACAD_MLINESTYLE
350
17
  3
ACAD_LAYOUT
350
1A
  3
ACAD_PLOTSETTINGS
350
19
  3
ACAD_PLOTSTYLENAME
350
E
  0
DICTIONARY
  5
D
102
{ACAD_REACTORS
330
C
102
}
100
AcDbDictionary
280
0
281
1
  0
ACDBDICTIONARYWDFLT
  5
E
102
{ACAD_REACTORS
330
C
102
}
100
AcDbDictionary
281
1
  3
Normal
350
F
100
AcDbDictionaryWithDefault
340
F
  0
DICTIONARY
  5
17
102
{ACAD_REACTORS
330
C
102
}
100
AcDbDictionary
280
0
281
1
  3
Standard
350
18
  0
DICTIONARY
  5
19
102
{ACAD_REACTORS
330
C
102
}
100
AcDbDictionary
281
1
  0
DICTIONARY
  5
1A
102
{ACAD_REACTORS
330
C
102
}
100
AcDbDictionary
281
1
  3
Model
350
2F2
  3
Layout1
350
2F3
  0
ACDBPLACEHOLDER
  5
F
102
{ACAD_REACTORS
330
E
102
}
  0
MLINESTYLE
  5
18
102
{ACAD_REACTORS
330
17
102
}
100
AcDbMlineStyle
  2
STANDARD
 70
0
  3

 62
256
 51
90.0
 52
90.0
 71
2
 49
0.5
 62
256
  6
BYLAYER
 49
-0.5
 62
256
  6
BYLAYER
  0
LAYOUT
  5
2F2
102
{ACAD_REACTORS
330
1A
102
}
100
AcDbPlotSettings
  1

  2
none_device
  4

  6

 40
0.0
 41
0.0
 42
0.0
 43
0.0
 44
210.0
 45
297.0
 46
0.0
 47
0.0
 48
0.0
 49
0.0
140
0.0
141
0.0
142
1.0
143
1.0
 70
1024
 72
1
 73
0
 74
0
  7

 75
0
147
1.0
148
0.0
149
0.0
100
AcDbLayout
  1
Model
 70
0
 71
0
 10
0.0
 20
0.0
 11
210.0
 21
297.0
 12
0.0
 22
0.0
 32
0.0
 14
0.0
 24
0.0
 34
0.0
 15
0.0
 25
0.0
 35
0.0
146
0.0
 13
0.0
 23
0.0
 33
0.0
 16
1.0
 26
0.0
 36
0.0
 17
0.0
 27
1.0
 37
0.0
 76
0
330
214
345
0
346
0
  0
LAYOUT
  5
2F3
102
{ACAD_REACTORS
330
1A
102
}
100
AcDbPlotSettings
  1

  2
none_device
  4

  6

 40
0.0
 41
0.0
 42
0.0
 43
0.0
 44
210.0
 45
297.0
 46
0.0
 47
0.0
 48
0.0
 49
0.0
140
0.0
141
0.0
142
1.0
143
1.0
 70
0
 72
1
 73
0
 74
0
  7

 75
0
147
1.0
148
0.0
149
0.0
100
AcDbLayout
  1
Layout1
 70
0
 71
1
 10
0.0
 20
0.0
 11
210.0
 21
297.0
 12
0.0
 22
0.0
 32
0.0
 14
0.0
 24
0.0
 34
0.0
 15
0.0
 25
0.0
 35
0.0
146
0.0
 13
0.0
 23
0.0
 33
0.0
 16
1.0
 26
0.0
 36
0.0
 17
0.0
 27
1.0
 37
0.0
 76
0
330
215
345
0
346
0
  0
ENDSEC
  0
EOF
