999
DXF file: C:\Users\sesa63760\Dev\_Creo\CAD\MCADID0000484_3D-CAD\drw0001_1.dxf
999
Pro/ENGINEER 2019471 by Parametric Technology Corporation
  0
SECTION
  2
HEADER
  9
$ACADVER
  1
AC1024
  9
$DWGCODEPAGE
  3
ANSI_1252
  9
$EXTMAX
 10
292.3164240553
 20
413.4189425925
 30
0.0
  9
$EXTMIN
 10
0.0
 20
0.0
 30
0.0
  9
$LIMMIN
 10
0.0
 20
0.0
  9
$LIMMAX
 10
292.3164240553
 20
413.4189425925
  9
$VIEWCTR
 10
146.1582120276
 20
206.7094712962
  9
$VIEWSIZE
 40
413.4189425925
  9
$CLAYER
  8
0
  9
$LTSCALE
 40
26.948790332
  9
$CELTYPE
  6
BYLAYER
  9
$DIMSCALE
 40
1.0
  9
$DIMASZ
 40
3.4799574292
  9
$DIMEXO
 40
1.0
  9
$DIMDLI
 40
18.6191642294
  9
$DIMEXE
 40
1.0
  9
$DIMCEN
 40
4.4098020543
  9
$DIMLFAC
 40
1.0
  9
$DIMBLK
  1
_FILLED
  9
$DIMALT
 70
0
  9
$DIMALTF
 40
0.0393700787
  9
$DIMTXT
 40
4.8719404009
  9
$DIMTOL
 70
1
  9
$DIMLIM
 70
0
  9
$DIMTFAC
 40
1.0
  9
$DIMTP
 40
0.01
  9
$DIMTM
 40
0.01
  9
$DIMGAP
 40
0.625
  9
$DIMDSEP
 70
46
  9
$AUNITS
 70
0
  9
$PDMODE
 70
3
  9
$PDSIZE
 40
0.3125
  9
$HANDSEED
  5
495
  9
$TILEMODE
 70
1
  9
$MEASUREMENT
 70
1
  9
$INSUNITS
 70
4
  0
ENDSEC
  0
SECTION
  2
CLASSES
  0
CLASS
  1
ACDBDICTIONARYWDFLT
  2
AcDbDictionaryWithDefault
  3
AutoCAD 2000
 90
0
 91
1
280
0
281
0
  0
CLASS
  1
ACDBPLACEHOLDER
  2
AcDbPlaceHolder
  3
AutoCAD 2000
 90
0
 91
1
280
0
281
0
  0
CLASS
  1
LAYOUT
  2
AcDbLayout
  3
AutoCAD 2000
 90
0
 91
0
280
0
281
0
  0
ENDSEC
  0
SECTION
  2
TABLES
  0
TABLE
  2
VPORT
  5
8
100
AcDbSymbolTable
 70
2
  0
VPORT
  5
1F4
100
AcDbSymbolTableRecord
100
AcDbViewportTableRecord
  2
*ACTIVE
 70
0
 10
0.0
 20
0.0
 11
1.0
 21
1.0
 12
146.1582120276
 22
206.7094712962
 13
0.0
 23
0.0
 14
1.0
 24
1.0
 15
0.0
 25
0.0
 16
0.0
 26
0.0
 36
1.0
 17
0.0
 27
0.0
 37
0.0
 40
413.4189425925
 41
0.7070707071
 42
50.0
 43
0.0
 44
0.0
 50
0.0
 51
0.0
 71
0
 72
100
 73
1
 74
1
 75
0
 76
0
 77
0
 78
0
  0
ENDTAB
  0
TABLE
  2
LTYPE
  5
5
100
AcDbSymbolTable
 70
6
  0
LTYPE
  5
14
100
AcDbSymbolTableRecord
100
AcDbLinetypeTableRecord
  2
BYBLOCK
 70
0
  3

 72
65
 73
0
 40
0.0
  0
LTYPE
  5
15
100
AcDbSymbolTableRecord
100
AcDbLinetypeTableRecord
  2
BYLAYER
 70
0
  3

 72
65
 73
0
 40
0.0
  0
LTYPE
  5
16
100
AcDbSymbolTableRecord
100
AcDbLinetypeTableRecord
  2
CONTINUOUS
 70
64
  3
Solid line
 72
65
 73
0
 40
0.0
  0
LTYPE
  5
1F5
100
AcDbSymbolTableRecord
100
AcDbLinetypeTableRecord
  2
CENTER
 70
64
  3
____ _ ____ _ ____ _ ____ _ ____ _ ____ _ ____
 72
65
 73
4
 40
0.6
 49
0.375
 74
0
 49
-0.075
 74
0
 49
0.075
 74
0
 49
-0.075
 74
0
  0
LTYPE
  5
1F6
100
AcDbSymbolTableRecord
100
AcDbLinetypeTableRecord
  2
HIDDEN
 70
64
  3
- - - - - - - - - - - - - - - - - - - -
 72
65
 73
2
 40
0.2
 49
0.1
 74
0
 49
-0.1
 74
0
  0
LTYPE
  5
1F7
100
AcDbSymbolTableRecord
100
AcDbLinetypeTableRecord
  2
PHANTOM
 70
64
  3
_____ _ _ _____ _ _ _____ _ _ _____
 72
65
 73
6
 40
0.8
 49
0.45
 74
0
 49
-0.05
 74
0
 49
0.1
 74
0
 49
-0.05
 74
0
 49
0.1
 74
0
 49
-0.05
 74
0
  0
LTYPE
  5
1F8
100
AcDbSymbolTableRecord
100
AcDbLinetypeTableRecord
  2
DOT
 70
64
  3
. . . . . . . . . . . . . . . . . . . .
 72
65
 73
2
 40
0.2
 49
0.1
 74
0
 49
-0.1
 74
0
  0
LTYPE
  5
1F9
100
AcDbSymbolTableRecord
100
AcDbLinetypeTableRecord
  2
DASHED
 70
64
  3
- - - - - - - - - - - - - - - - - - - -
 72
65
 73
2
 40
0.2
 49
0.1
 74
0
 49
-0.1
 74
0
  0
ENDTAB
  0
TABLE
  2
LAYER
  5
2
100
AcDbSymbolTable
 70
36
  0
LAYER
  5
10
100
AcDbSymbolTableRecord
100
AcDbLayerTableRecord
  2
0
 70
0
 62
7
  6
CONTINUOUS
370
-3
390
F
  0
LAYER
  5
1FA
100
AcDbSymbolTableRecord
100
AcDbLayerTableRecord
  2
DEFAULT_1
 70
0
 62
7
  6
CENTER
370
-3
390
F
  0
LAYER
  5
1FB
100
AcDbSymbolTableRecord
100
AcDbLayerTableRecord
  2
DEFAULT_2
 70
0
 62
8
  6
HIDDEN
370
-3
390
F
  0
LAYER
  5
1FC
100
AcDbSymbolTableRecord
100
AcDbLayerTableRecord
  2
DEFAULT_3
 70
0
 62
7
  6
PHANTOM
370
-3
390
F
  0
LAYER
  5
1FD
100
AcDbSymbolTableRecord
100
AcDbLayerTableRecord
  2
00_COMPONENTS
 70
0
 62
7
  6
CONTINUOUS
370
-3
390
F
  0
LAYER
  5
1FE
100
AcDbSymbolTableRecord
100
AcDbLayerTableRecord
  2
01_1_DEFAULT_DATUMS
 70
0
 62
7
  6
CONTINUOUS
370
-3
390
F
  0
LAYER
  5
1FF
100
AcDbSymbolTableRecord
100
AcDbLayerTableRecord
  2
01_PLANES
 70
0
 62
7
  6
CONTINUOUS
370
-3
390
F
  0
LAYER
  5
200
100
AcDbSymbolTableRecord
100
AcDbLayerTableRecord
  2
02_COORD_SYS
 70
0
 62
7
  6
CONTINUOUS
370
-3
390
F
  0
LAYER
  5
201
100
AcDbSymbolTableRecord
100
AcDbLayerTableRecord
  2
03_AXES
 70
0
 62
7
  6
CONTINUOUS
370
-3
390
F
  0
LAYER
  5
202
100
AcDbSymbolTableRecord
100
AcDbLayerTableRecord
  2
04_POINTS
 70
0
 62
7
  6
CONTINUOUS
370
-3
390
F
  0
LAYER
  5
203
100
AcDbSymbolTableRecord
100
AcDbLayerTableRecord
  2
05_CURVES
 70
0
 62
7
  6
CONTINUOUS
370
-3
390
F
  0
LAYER
  5
204
100
AcDbSymbolTableRecord
100
AcDbLayerTableRecord
  2
06_SURFS
 70
0
 62
7
  6
CONTINUOUS
370
-3
390
F
  0
LAYER
  5
205
100
AcDbSymbolTableRecord
100
AcDbLayerTableRecord
  2
07_COSMETICS
 70
0
 62
7
  6
CONTINUOUS
370
-3
390
F
  0
LAYER
  5
206
100
AcDbSymbolTableRecord
100
AcDbLayerTableRecord
  2
10_NOTES
 70
0
 62
7
  6
CONTINUOUS
370
-3
390
F
  0
LAYER
  5
207
100
AcDbSymbolTableRecord
100
AcDbLayerTableRecord
  2
11_NOTES_PUB
 70
0
 62
7
  6
CONTINUOUS
370
-3
390
F
  0
LAYER
  5
208
100
AcDbSymbolTableRecord
100
AcDbLayerTableRecord
  2
13_REF_GTOL
 70
0
 62
7
  6
CONTINUOUS
370
-3
390
F
  0
LAYER
  5
209
100
AcDbSymbolTableRecord
100
AcDbLayerTableRecord
  2
16_MISC
 70
0
 62
7
  6
CONTINUOUS
370
-3
390
F
  0
LAYER
  5
20A
100
AcDbSymbolTableRecord
100
AcDbLayerTableRecord
  2
17_NO_PRINT
 70
0
 62
7
  6
CONTINUOUS
370
-3
390
F
  0
LAYER
  5
20B
100
AcDbSymbolTableRecord
100
AcDbLayerTableRecord
  2
18_DATUM_CAMS_JOINTS
 70
0
 62
7
  6
CONTINUOUS
370
-3
390
F
  0
LAYER
  5
20C
100
AcDbSymbolTableRecord
100
AcDbLayerTableRecord
  2
19_DATUM_FUNCTIONAL
 70
0
 62
7
  6
CONTINUOUS
370
-3
390
F
  0
LAYER
  5
20D
100
AcDbSymbolTableRecord
100
AcDbLayerTableRecord
  2
20_DATUM_KINEMATIC_SCHEME
 70
0
 62
7
  6
CONTINUOUS
370
-3
390
F
  0
ENDTAB
  0
TABLE
  2
STYLE
  5
3
100
AcDbSymbolTable
 70
1
  0
STYLE
  5
11
100
AcDbSymbolTableRecord
100
AcDbTextStyleTableRecord
  2
STANDARD
 70
0
 40
0.0
 41
0.8
 50
0.0
 71
0
 42
0.2
  3
txt
  4

  0
STYLE
  5
20E
100
AcDbSymbolTableRecord
100
AcDbTextStyleTableRecord
  2
TEXTSTYLE_1
 70
0
 40
0.0
 41
0.8
 50
0.0
 71
0
 42
0.2
  3
gdt
  4

  0
ENDTAB
  0
TABLE
  2
VIEW
  5
6
100
AcDbSymbolTable
 70
0
  0
ENDTAB
  0
TABLE
  2
UCS
  5
7
100
AcDbSymbolTable
 70
0
  0
ENDTAB
  0
TABLE
  2
APPID
  5
9
100
AcDbSymbolTable
 70
1
  0
APPID
  5
20F
100
AcDbSymbolTableRecord
100
AcDbRegAppTableRecord
  2
ACAD
 70
0
  0
ENDTAB
  0
TABLE
  2
BLOCK_RECORD
  5
1
100
AcDbSymbolTable
 70
0
  0
BLOCK_RECORD
  5
210
100
AcDbSymbolTableRecord
100
AcDbBlockTableRecord
  2
*Model_Space
  0
BLOCK_RECORD
  5
211
100
AcDbSymbolTableRecord
100
AcDbBlockTableRecord
  2
*Paper_Space
  0
BLOCK_RECORD
  5
212
100
AcDbSymbolTableRecord
100
AcDbBlockTableRecord
  2
_FILLED
  0
ENDTAB
  0
TABLE
  2
DIMSTYLE
  5
A
100
AcDbSymbolTable
 70
1
100
AcDbDimStyleTable
 71
0
  0
DIMSTYLE
105
213
100
AcDbSymbolTableRecord
100
AcDbDimStyleTableRecord
  2
STANDARD
 70
0
  3

  4

 40
1.0
 41
3.4799574292
 42
1.0
 43
0.38
 44
1.0
 45
0.0
 46
0.0
 47
0.01
 48
0.01
140
4.8719404009
141
0.09
142
0.0
143
25.4
144
1.0
145
0.0
146
1.0
147
0.625
 71
1
 72
0
 73
0
 74
0
 75
0
 76
0
 77
1
 78
8
 79
2
170
0
171
1
172
0
173
0
174
0
175
0
176
0
177
0
178
0
270
2
179
2
271
2
272
2
273
2
274
2
275
0
280
0
281
0
282
0
283
1
284
8
285
0
286
0
287
3
288
0
340
11
278
46
341
212
342
212
343
212
344
212
  0
ENDTAB
  0
ENDSEC
  0
SECTION
  2
BLOCKS
  0
BLOCK
  5
20
100
AcDbEntity
  8
0
100
AcDbBlockBegin
  2
*Model_Space
 70
0
 10
0.0
 20
0.0
 30
0.0
  3
*Model_Space
  1

  0
ENDBLK
  5
21
100
AcDbEntity
  8
0
100
AcDbBlockEnd
  0
BLOCK
  5
1C
100
AcDbEntity
  8
0
100
AcDbBlockBegin
  2
*Paper_Space
 70
0
 10
0.0
 20
0.0
 30
0.0
  3
*Paper_Space
  1

  0
ENDBLK
  5
1D
100
AcDbEntity
  8
0
100
AcDbBlockEnd
  0
BLOCK
  5
214
100
AcDbEntity
  8
0
100
AcDbBlockBegin
  2
_FILLED
 70
64
 10
0.0
 20
0.0
  3
_FILLED
  1

  0
SOLID
  5
215
100
AcDbEntity
  8
0
  6
BYBLOCK
 62
0
100
AcDbTrace
 10
0.0
 20
0.0
 11
-1.0
 21
0.25
 12
-1.0
 22
-0.25
 13
-1.0
 23
-0.25
  0
ENDBLK
  5
216
100
AcDbEntity
  8
0
  6
BYBLOCK
 62
0
100
AcDbBlockEnd
  0
ENDSEC
  0
SECTION
  2
ENTITIES
  0
LINE
  5
217
100
AcDbEntity
  8
0
100
AcDbLine
 62
7
  6
CONTINUOUS
 10
39.6649596263
 20
347.8132069727
 11
35.1325650507
 21
344.7657331122
  0
LINE
  5
218
100
AcDbEntity
  8
0
100
AcDbLine
 62
7
  6
CONTINUOUS
 10
38.5082815842
 20
344.5224884418
 11
43.5324920915
 21
347.5345234253
  0
LINE
  5
219
100
AcDbEntity
  8
0
100
AcDbLine
 62
7
  6
CONTINUOUS
 10
34.742569601
 20
340.8385765022
 11
35.0961215196
 21
341.0426985792
  0
LINE
  5
21A
100
AcDbEntity
  8
0
100
AcDbLine
 62
7
  6
CONTINUOUS
 10
39.5207194458
 20
342.6088656754
 11
39.7667915812
 21
342.7509346409
  0
LINE
  5
21B
100
AcDbEntity
  8
0
100
AcDbLine
 62
7
  6
CONTINUOUS
 10
73.6406739133
 20
347.2436183441
 11
69.7368237669
 21
344.9897428651
  0
LINE
  5
21C
100
AcDbEntity
  8
0
100
AcDbLine
 62
7
  6
CONTINUOUS
 10
64.0261763088
 20
341.6797096641
 11
66.5010397391
 21
343.1085642026
  0
LINE
  5
21D
100
AcDbEntity
  8
0
100
AcDbLine
 62
7
  6
CONTINUOUS
 10
66.8464098635
 20
343.1924926652
 11
67.3288537362
 21
343.4710301023
  0
LINE
  5
21E
100
AcDbEntity
  8
0
100
AcDbLine
 62
7
  6
CONTINUOUS
 10
70.3694002362
 20
345.2264799639
 11
73.2685259688
 21
346.9002809948
  0
LINE
  5
21F
100
AcDbEntity
  8
0
100
AcDbLine
 62
7
  6
CONTINUOUS
 10
65.5761693697
 20
341.5261843991
 11
68.0510327999
 21
342.9550389377
  0
LINE
  5
220
100
AcDbEntity
  8
0
100
AcDbLine
 62
7
  6
CONTINUOUS
 10
64.5761738466
 20
340.7270802983
 11
60.9729984078
 21
338.6467984064
  0
LINE
  5
221
100
AcDbEntity
  8
0
100
AcDbLine
 62
7
  6
CONTINUOUS
 10
69.1646114046
 20
343.0875254407
 11
70.9943974381
 21
344.1439465937
  0
LINE
  5
222
100
AcDbEntity
  8
0
100
AcDbLine
 62
7
  6
CONTINUOUS
 10
58.1515555272
 20
340.2757223619
 11
66.0004081203
 21
344.5238021629
  0
LINE
  5
223
100
AcDbEntity
  8
0
100
AcDbLine
 62
7
  6
CONTINUOUS
 10
73.6406739133
 20
347.472556576
 11
69.3945153708
 21
345.1743836747
  0
LINE
  5
224
100
AcDbEntity
  8
0
100
AcDbLine
 62
7
  6
CONTINUOUS
 10
69.7480702334
 20
344.9702632973
 11
67.4146275706
 21
343.7073206538
  0
LINE
  5
225
100
AcDbEntity
  8
0
100
AcDbLine
 62
7
  6
CONTINUOUS
 10
63.8998172996
 20
349.9325265489
 11
51.1010118199
 21
343.1649353756
  0
LINE
  5
226
100
AcDbEntity
  8
0
100
AcDbLine
 62
7
  6
CONTINUOUS
 10
62.3734206095
 20
350.1086378365
 11
50.1426424437
 21
343.7182376755
  0
LINE
  5
227
100
AcDbEntity
  8
0
100
AcDbLine
 62
7
  6
CONTINUOUS
 10
67.3291126592
 20
343.4705823903
 11
67.4146275706
 21
343.5151864314
  0
LINE
  5
228
100
AcDbEntity
  8
0
100
AcDbLine
 62
7
  6
CONTINUOUS
 10
70.2923550022
 20
349.4056656678
 11
67.3859445563
 21
347.9198555715
  0
LINE
  5
229
100
AcDbEntity
  8
0
100
AcDbLine
 62
7
  6
CONTINUOUS
 10
61.8546843988
 20
338.1377682786
 11
60.8316095362
 21
337.5470992571
  0
LINE
  5
22A
100
AcDbEntity
  8
0
100
AcDbLine
 62
7
  6
CONTINUOUS
 10
62.5314041376
 20
336.5657445877
 11
68.2357347734
 21
339.859121757
  0
LINE
  5
22B
100
AcDbEntity
  8
0
100
AcDbLine
 62
7
  6
CONTINUOUS
 10
62.6925772822
 20
336.4726933343
 11
68.5108755263
 21
339.8318693402
  0
LINE
  5
22C
100
AcDbEntity
  8
0
100
AcDbLine
 62
7
  6
CONTINUOUS
 10
73.0661066049
 20
340.0596502288
 11
64.7737549124
 21
335.2711520518
  0
LINE
  5
22D
100
AcDbEntity
  8
0
100
AcDbLine
 62
7
  6
CONTINUOUS
 10
73.425066711
 20
339.3535863829
 11
70.9502032808
 21
337.9247318444
  0
LINE
  5
22E
100
AcDbEntity
  8
0
100
AcDbLine
 62
7
  6
CONTINUOUS
 10
70.9502032808
 20
337.8949114187
 11
65.8672980323
 21
334.9603122224
  0
LINE
  5
22F
100
AcDbEntity
  8
0
100
AcDbLine
 62
7
  6
CONTINUOUS
 10
70.8469959962
 20
337.696609609
 11
73.3218594264
 21
339.1254641475
  0
LINE
  5
230
100
AcDbEntity
  8
0
100
AcDbLine
 62
7
  6
CONTINUOUS
 10
55.8399351977
 20
322.8349696035
 11
55.9106455814
 21
322.8757940189
  0
LINE
  5
231
100
AcDbEntity
  8
0
100
AcDbLine
 62
7
  6
CONTINUOUS
 10
57.3398851083
 20
322.68647189
 11
57.410595492
 21
322.7272963054
  0
LINE
  5
232
100
AcDbEntity
  8
0
100
AcDbLine
 62
7
  6
CONTINUOUS
 10
65.4900860253
 20
334.8575874471
 11
73.425066711
 21
339.437916538
  0
LINE
  5
233
100
AcDbEntity
  8
0
100
AcDbLine
 62
7
  6
CONTINUOUS
 10
61.8546843988
 20
338.1377682786
 11
60.7985814657
 21
337.5661675912
  0
LINE
  5
234
100
AcDbEntity
  8
0
100
AcDbLine
 62
7
  6
CONTINUOUS
 10
70.2430664712
 20
342.0743576357
 11
72.576509134
 21
343.3373002793
  0
LINE
  5
235
100
AcDbEntity
  8
0
100
AcDbLine
 62
7
  6
CONTINUOUS
 10
72.9300639965
 20
343.1331799021
 11
77.176222539
 21
345.4313528034
  0
LINE
  5
236
100
AcDbEntity
  8
0
100
AcDbLine
 62
7
  6
CONTINUOUS
 10
65.5807692964
 20
334.8052326205
 11
74.485724822
 21
339.6249131086
  0
LINE
  5
237
100
AcDbEntity
  8
0
100
AcDbLine
 62
7
  6
CONTINUOUS
 10
55.2892663166
 20
312.3576842459
 11
55.3599767003
 21
312.3985086613
  0
LINE
  5
238
100
AcDbEntity
  8
0
100
AcDbLine
 62
7
  6
CONTINUOUS
 10
68.2293742868
 20
316.4812127615
 11
68.1586639031
 21
316.440388346
  0
LINE
  5
239
100
AcDbEntity
  8
0
100
AcDbLine
 62
7
  6
CONTINUOUS
 10
55.2892663166
 20
312.3576842459
 11
55.4963891266
 21
312.8154514009
  0
LINE
  5
23A
100
AcDbEntity
  8
0
100
AcDbLine
 62
7
  6
CONTINUOUS
 10
70.2799930785
 20
312.7661588308
 11
70.3507034622
 21
312.8069832462
  0
LINE
  5
23B
100
AcDbEntity
  8
0
100
AcDbLine
 62
7
  6
CONTINUOUS
 10
70.3507034622
 20
310.1941755117
 11
70.2799930785
 21
310.1533510963
  0
LINE
  5
23C
100
AcDbEntity
  8
0
100
AcDbLine
 62
7
  6
CONTINUOUS
 10
69.6586138138
 20
308.7800683949
 11
69.7293241975
 21
308.8208928102
  0
LINE
  5
23D
100
AcDbEntity
  8
0
100
AcDbLine
 62
7
  6
CONTINUOUS
 10
33.9120683707
 20
178.274692129
 11
33.9120683707
 21
341.8687876345
  0
LINE
  5
23E
100
AcDbEntity
  8
0
100
AcDbLine
 62
7
  6
CONTINUOUS
 10
34.742569601
 20
178.3459447384
 11
34.742569601
 21
340.8385765022
  0
LINE
  5
23F
100
AcDbEntity
  8
0
100
AcDbLine
 62
7
  6
CONTINUOUS
 10
35.0961215196
 20
178.5500668153
 11
35.0961215196
 21
341.0426985792
  0
LINE
  5
240
100
AcDbEntity
  8
0
100
AcDbLine
 62
7
  6
CONTINUOUS
 10
35.2780610949
 20
178.6551175912
 11
35.2780610949
 21
340.1592957001
  0
LINE
  5
241
100
AcDbEntity
  8
0
100
AcDbLine
 62
7
  6
CONTINUOUS
 10
119.47939666
 20
316.4726980489
 11
119.1043567222
 21
316.2561699323
  0
LINE
  5
242
100
AcDbEntity
  8
0
100
AcDbLine
 62
7
  6
CONTINUOUS
 10
120.8936161103
 20
315.6562165398
 11
120.5185761725
 21
315.4396884233
  0
LINE
  5
243
100
AcDbEntity
  8
0
100
AcDbLine
 62
7
  6
CONTINUOUS
 10
119.3872335839
 20
308.5811494414
 11
119.5286543521
 21
308.6627982726
  0
LINE
  5
244
100
AcDbEntity
  8
0
100
AcDbLine
 62
7
  6
CONTINUOUS
 10
120.2357581893
 20
309.0710424265
 11
120.3771789562
 21
309.152691257
  0
LINE
  5
245
100
AcDbEntity
  8
0
100
AcDbLine
 62
7
  6
CONTINUOUS
 10
121.0842827934
 20
309.5609354108
 11
121.2257035616
 21
309.6425842421
  0
LINE
  5
246
100
AcDbEntity
  8
0
100
AcDbLine
 62
7
  6
CONTINUOUS
 10
121.9328073989
 20
310.0508283959
 11
122.0742281658
 21
310.1324772264
  0
LINE
  5
247
100
AcDbEntity
  8
0
100
AcDbLine
 62
7
  6
CONTINUOUS
 10
123.8642938802
 20
315.7293157776
 11
123.2746579011
 21
315.4101836926
  0
LINE
  5
248
100
AcDbEntity
  8
0
100
AcDbLine
 62
7
  6
CONTINUOUS
 10
119.2069870089
 20
313.2086146926
 11
113.5959539443
 21
310.1717228741
  0
LINE
  5
249
100
AcDbEntity
  8
0
100
AcDbLine
 62
7
  6
CONTINUOUS
 10
115.7080603287
 20
308.9420089061
 11
125.979461213
 21
314.5012585044
  0
LINE
  5
24A
100
AcDbEntity
  8
0
100
AcDbLine
 62
7
  6
CONTINUOUS
 10
122.0455370639
 20
310.3946934431
 11
117.4526285261
 21
307.90884704
  0
LINE
  5
24B
100
AcDbEntity
  8
0
100
AcDbLine
 62
7
  6
CONTINUOUS
 10
205.5550930172
 20
96.018902623
 11
205.055106102
 21
96.0684081153
  0
LINE
  5
24C
100
AcDbEntity
  8
0
100
AcDbLine
 62
7
  6
CONTINUOUS
 10
55.2185559329
 20
318.8488791681
 11
55.2185559329
 21
321.4616869024
  0
LINE
  5
24D
100
AcDbEntity
  8
0
100
AcDbLine
 62
7
  6
CONTINUOUS
 10
55.2892663166
 20
183.3503023395
 11
55.2892663166
 21
312.3576842459
  0
LINE
  5
24E
100
AcDbEntity
  8
0
100
AcDbLine
 62
7
  6
CONTINUOUS
 10
55.3599767003
 20
183.3911267548
 11
55.3599767003
 21
312.3985086613
  0
LINE
  5
24F
100
AcDbEntity
  8
0
100
AcDbLine
 62
7
  6
CONTINUOUS
 10
125.7512211102
 20
304.9069826507
 11
125.8926418784
 21
304.988631482
  0
LINE
  5
250
100
AcDbEntity
  8
0
100
AcDbLine
 62
7
  6
CONTINUOUS
 10
126.5997457157
 20
305.3968756358
 11
126.7411664825
 21
305.4785244663
  0
LINE
  5
251
100
AcDbEntity
  8
0
100
AcDbLine
 62
7
  6
CONTINUOUS
 10
127.4482703198
 20
305.8867686202
 11
127.589691088
 21
305.9684174514
  0
LINE
  5
252
100
AcDbEntity
  8
0
100
AcDbLine
 62
7
  6
CONTINUOUS
 10
128.2967949252
 20
306.3766616052
 11
128.4382156921
 21
306.4583104357
  0
LINE
  5
253
100
AcDbEntity
  8
0
100
AcDbLine
 62
7
  6
CONTINUOUS
 10
132.5394415002
 20
308.4995955966
 11
132.9144814378
 21
308.716123713
  0
LINE
  5
254
100
AcDbEntity
  8
0
100
AcDbLine
 62
7
  6
CONTINUOUS
 10
133.9536609505
 20
307.6831140875
 11
134.3287008881
 21
307.899642204
  0
LINE
  5
255
100
AcDbEntity
  8
0
100
AcDbLine
 62
7
  6
CONTINUOUS
 10
125.3224547533
 20
303.4677863562
 11
129.8550464951
 21
305.9209871516
  0
LINE
  5
256
100
AcDbEntity
  8
0
100
AcDbLine
 62
7
  6
CONTINUOUS
 10
137.3195626974
 20
307.9836657659
 11
136.709742679
 21
307.6536093568
  0
LINE
  5
257
100
AcDbEntity
  8
0
100
AcDbLine
 62
7
  6
CONTINUOUS
 10
132.6420717868
 20
305.4520403568
 11
127.0163767214
 21
302.407212939
  0
LINE
  5
258
100
AcDbEntity
  8
0
100
AcDbLine
 62
7
  6
CONTINUOUS
 10
129.1945425975
 20
301.2132527311
 11
139.4158943177
 21
306.7454139313
  0
LINE
  5
259
100
AcDbEntity
  8
0
100
AcDbLine
 62
7
  6
CONTINUOUS
 10
221.1968654332
 20
64.8409445662
 11
38.5082815845
 21
170.3138615129
  0
LINE
  5
25A
100
AcDbEntity
  8
0
100
AcDbLine
 62
7
  6
CONTINUOUS
 10
38.9852279519
 20
170.9974857085
 11
220.7199190658
 21
66.0752865301
  0
LINE
  5
25B
100
AcDbEntity
  8
0
100
AcDbLine
 62
7
  6
CONTINUOUS
 10
221.0734709844
 20
66.2794086071
 11
39.3387798705
 21
171.2016077855
  0
LINE
  5
25C
100
AcDbEntity
  8
0
100
AcDbLine
 62
7
  6
CONTINUOUS
 10
220.3993871384
 20
66.8786735553
 11
39.5207194458
 21
171.3066585616
  0
LINE
  5
25D
100
AcDbEntity
  8
0
100
AcDbLine
 62
7
  6
CONTINUOUS
 10
66.0004081203
 20
344.5238021629
 11
66.0004081203
 21
342.8195261281
  0
LINE
  5
25E
100
AcDbEntity
  8
0
100
AcDbLine
 62
7
  6
CONTINUOUS
 10
67.4146275706
 20
343.5151864314
 11
67.4146275706
 21
343.7073206538
  0
LINE
  5
25F
100
AcDbEntity
  8
0
100
AcDbLine
 62
7
  6
CONTINUOUS
 10
69.7480702334
 20
343.4243835418
 11
69.7480702334
 21
344.9702632973
  0
LINE
  5
260
100
AcDbEntity
  8
0
100
AcDbLine
 62
7
  6
CONTINUOUS
 10
70.2430664712
 20
342.0743576358
 11
70.2430664712
 21
341.8822234133
  0
LINE
  5
261
100
AcDbEntity
  8
0
100
AcDbLine
 62
7
  6
CONTINUOUS
 10
70.2799930785
 20
312.7661588308
 11
70.2799930785
 21
310.1533510963
  0
LINE
  5
262
100
AcDbEntity
  8
0
100
AcDbLine
 62
7
  6
CONTINUOUS
 10
70.3507034622
 20
312.8069832462
 11
70.3507034622
 21
310.1941755117
  0
LINE
  5
263
100
AcDbEntity
  8
0
100
AcDbLine
 62
7
  6
CONTINUOUS
 10
70.9502032808
 20
337.8949114187
 11
70.9502032808
 21
337.9247318444
  0
LINE
  5
264
100
AcDbEntity
  8
0
100
AcDbLine
 62
7
  6
CONTINUOUS
 10
72.0108472607
 20
338.3685554389
 11
72.0108472607
 21
338.2854208385
  0
LINE
  5
265
100
AcDbEntity
  8
0
100
AcDbLine
 62
7
  6
CONTINUOUS
 10
73.0749861324
 20
346.7885413852
 11
73.0749861324
 21
346.9170090139
  0
LINE
  5
266
100
AcDbEntity
  8
0
100
AcDbLine
 62
7
  6
CONTINUOUS
 10
73.425066711
 20
339.4379165395
 11
73.425066711
 21
339.3535863816
  0
LINE
  5
267
100
AcDbEntity
  8
0
100
AcDbLine
 62
7
  6
CONTINUOUS
 10
73.6406739133
 20
347.472556576
 11
73.6406739133
 21
347.2436183439
  0
LINE
  5
268
100
AcDbEntity
  8
0
100
AcDbLine
 62
7
  6
CONTINUOUS
 10
118.9904344364
 20
314.8839933953
 11
119.2313032458
 21
315.3945891676
  0
LINE
  5
269
100
AcDbEntity
  8
0
100
AcDbLine
 62
7
  6
CONTINUOUS
 10
119.1363471214
 20
313.7551266168
 11
119.3772159319
 21
314.2657223936
  0
LINE
  5
26A
100
AcDbEntity
  8
0
100
AcDbLine
 62
7
  6
CONTINUOUS
 10
118.8064748155
 20
307.5752401621
 11
119.3872335839
 21
308.5811494414
  0
LINE
  5
26B
100
AcDbEntity
  8
0
100
AcDbLine
 62
7
  6
CONTINUOUS
 10
119.8822062707
 20
308.458669141
 11
120.2357581893
 21
309.0710424265
  0
LINE
  5
26C
100
AcDbEntity
  8
0
100
AcDbLine
 62
7
  6
CONTINUOUS
 10
120.7307308748
 20
308.9485621253
 11
121.0842827934
 21
309.5609354108
  0
LINE
  5
26D
100
AcDbEntity
  8
0
100
AcDbLine
 62
7
  6
CONTINUOUS
 10
121.5792554803
 20
309.4384551104
 11
121.9328073989
 21
310.0508283959
  0
LINE
  5
26E
100
AcDbEntity
  8
0
100
AcDbLine
 62
7
  6
CONTINUOUS
 10
220.8641689661
 20
117.9794911204
 11
220.2529515614
 21
118.0338021737
  0
LINE
  5
26F
100
AcDbEntity
  8
0
100
AcDbLine
 62
7
  6
CONTINUOUS
 10
220.6944045426
 20
117.6032059639
 11
219.955667841
 21
117.6763509264
  0
LINE
  5
270
100
AcDbEntity
  8
0
100
AcDbLine
 62
7
  6
CONTINUOUS
 10
220.3286767547
 20
69.2873563916
 11
195.5798363745
 21
83.5757828003
  0
LINE
  5
271
100
AcDbEntity
  8
0
100
AcDbLine
 62
7
  6
CONTINUOUS
 10
195.5798363745
 20
96.9664224404
 11
220.3286767547
 21
82.6779960326
  0
LINE
  5
272
100
AcDbEntity
  8
0
100
AcDbLine
 62
7
  6
CONTINUOUS
 10
195.6505467583
 20
97.0072468553
 11
220.3993871384
 21
82.7188204476
  0
LINE
  5
273
100
AcDbEntity
  8
0
100
AcDbLine
 62
7
  6
CONTINUOUS
 10
120.6455226961
 20
314.5781076586
 11
120.4046538867
 21
314.0675118862
  0
LINE
  5
274
100
AcDbEntity
  8
0
100
AcDbLine
 62
7
  6
CONTINUOUS
 10
120.7914353822
 20
313.4492408845
 11
120.5505665717
 21
312.9386451078
  0
LINE
  5
275
100
AcDbEntity
  8
0
100
AcDbLine
 62
7
  6
CONTINUOUS
 10
125.7512211102
 20
304.9069826507
 11
125.1704623418
 21
303.9010733714
  0
LINE
  5
276
100
AcDbEntity
  8
0
100
AcDbLine
 62
7
  6
CONTINUOUS
 10
126.5997457157
 20
305.3968756358
 11
126.2461937971
 21
304.7845023503
  0
LINE
  5
277
100
AcDbEntity
  8
0
100
AcDbLine
 62
7
  6
CONTINUOUS
 10
127.4482703198
 20
305.8867686202
 11
127.0947184011
 21
305.2743953347
  0
LINE
  5
278
100
AcDbEntity
  8
0
100
AcDbLine
 62
7
  6
CONTINUOUS
 10
128.2967949252
 20
306.3766616052
 11
127.9432430066
 21
305.7642883197
  0
LINE
  5
279
100
AcDbEntity
  8
0
100
AcDbLine
 62
7
  6
CONTINUOUS
 10
205.055106102
 20
96.0684081153
 11
55.9963760417
 21
182.1255591678
  0
LINE
  5
27A
100
AcDbEntity
  8
0
100
AcDbLine
 62
7
  6
CONTINUOUS
 10
205.1258164857
 20
96.1092325307
 11
56.0670864255
 21
182.1663835832
  0
LINE
  5
27B
100
AcDbEntity
  8
0
100
AcDbLine
 62
7
  6
CONTINUOUS
 10
132.4255192142
 20
307.1274190595
 11
132.6663880235
 21
307.6380148319
  0
LINE
  5
27C
100
AcDbEntity
  8
0
100
AcDbLine
 62
7
  6
CONTINUOUS
 10
132.5714318993
 20
305.9985522809
 11
132.8123007097
 21
306.5091480576
  0
LINE
  5
27D
100
AcDbEntity
  8
0
100
AcDbLine
 62
7
  6
CONTINUOUS
 10
134.0806074738
 20
306.8215333229
 11
133.8397386645
 21
306.3109375505
  0
LINE
  5
27E
100
AcDbEntity
  8
0
100
AcDbLine
 62
7
  6
CONTINUOUS
 10
134.22652016
 20
305.6926665486
 11
133.9856513496
 21
305.1820707719
  0
LINE
  5
27F
100
AcDbEntity
  8
0
100
AcDbLine
 62
7
  6
CONTINUOUS
 10
113.5959539443
 20
310.1717228741
 11
113.5855654263
 21
309.7821397185
  0
LINE
  5
280
100
AcDbEntity
  8
0
100
AcDbLine
 62
7
  6
CONTINUOUS
 10
199.2585254749
 20
274.9486968708
 11
202.794044661
 21
276.8622463307
  0
LINE
  5
281
100
AcDbEntity
  8
0
100
AcDbLine
 62
7
  6
CONTINUOUS
 10
220.1923023187
 20
115.4168267536
 11
210.6811610968
 21
120.9079624722
  0
LINE
  5
282
100
AcDbEntity
  8
0
100
AcDbLine
 62
7
  6
CONTINUOUS
 10
219.955667841
 20
117.6763509264
 11
214.2038684801
 21
120.9970787109
  0
LINE
  5
283
100
AcDbEntity
  8
0
100
AcDbLine
 62
7
  6
CONTINUOUS
 10
220.2724503603
 20
117.8592443072
 11
214.5206509989
 21
121.179972092
  0
LINE
  5
284
100
AcDbEntity
  8
0
100
AcDbLine
 62
7
  6
CONTINUOUS
 10
220.2529515614
 20
118.0338021737
 11
214.5152198434
 21
121.3464081844
  0
LINE
  5
285
100
AcDbEntity
  8
0
100
AcDbLine
 62
7
  6
CONTINUOUS
 10
220.2588381847
 20
118.8849417486
 11
214.5927580095
 21
122.1561806577
  0
LINE
  5
286
100
AcDbEntity
  8
0
100
AcDbLine
 62
7
  6
CONTINUOUS
 10
220.1345707923
 20
119.1596134373
 11
214.4684907301
 21
122.4308522811
  0
LINE
  5
287
100
AcDbEntity
  8
0
100
AcDbLine
 62
7
  6
CONTINUOUS
 10
221.0004309943
 20
118.786152673
 11
220.9316069144
 21
118.8258873751
  0
LINE
  5
288
100
AcDbEntity
  8
0
100
AcDbLine
 62
7
  6
CONTINUOUS
 10
118.8922255707
 20
315.8887459609
 11
118.8922255707
 21
315.6437952357
  0
LINE
  5
289
100
AcDbEntity
  8
0
100
AcDbLine
 62
7
  6
CONTINUOUS
 10
120.306445021
 20
315.0722644518
 11
120.306445021
 21
314.8273137265
  0
LINE
  5
28A
100
AcDbEntity
  8
0
100
AcDbLine
 62
7
  6
CONTINUOUS
 10
125.2561718815
 20
314.1097884439
 11
125.2561718815
 21
314.2175804058
  0
LINE
  5
28B
100
AcDbEntity
  8
0
100
AcDbLine
 62
7
  6
CONTINUOUS
 10
117.4526285261
 20
307.90884704
 11
117.4432070769
 21
307.5555302408
  0
LINE
  5
28C
100
AcDbEntity
  8
0
100
AcDbLine
 62
7
  6
CONTINUOUS
 10
122.0385702328
 20
310.1334280711
 11
122.0455370639
 21
310.3946934431
  0
LINE
  5
28D
100
AcDbEntity
  8
0
100
AcDbLine
 62
7
  6
CONTINUOUS
 10
122.8190763887
 20
309.702448633
 11
122.8371516329
 21
310.3802941808
  0
LINE
  5
28E
100
AcDbEntity
  8
0
100
AcDbLine
 62
7
  6
CONTINUOUS
 10
123.8501315783
 20
315.1982107352
 11
123.8642938802
 21
315.7293157776
  0
LINE
  5
28F
100
AcDbEntity
  8
0
100
AcDbLine
 62
7
  6
CONTINUOUS
 10
124.5308074124
 20
314.8052312495
 11
124.5551137197
 21
315.7167498995
  0
LINE
  5
290
100
AcDbEntity
  8
0
100
AcDbLine
 62
7
  6
CONTINUOUS
 10
125.979286557
 20
314.8945214607
 11
125.9688074898
 21
314.5015425937
  0
LINE
  5
291
100
AcDbEntity
  8
0
100
AcDbLine
 62
7
  6
CONTINUOUS
 10
127.0163767214
 20
302.407212939
 11
127.0064253294
 21
302.0340225865
  0
LINE
  5
292
100
AcDbEntity
  8
0
100
AcDbLine
 62
7
  6
CONTINUOUS
 10
35.0961215196
 20
178.5500668153
 11
34.742569601
 21
178.3459447384
  0
LINE
  5
293
100
AcDbEntity
  8
0
100
AcDbLine
 62
7
  6
CONTINUOUS
 10
55.3599767003
 20
183.3911267548
 11
55.2892663166
 21
183.3503023395
  0
LINE
  5
294
100
AcDbEntity
  8
0
100
AcDbLine
 62
7
  6
CONTINUOUS
 10
55.9963760417
 20
182.1255591678
 11
56.0670864255
 21
182.1663835832
  0
LINE
  5
295
100
AcDbEntity
  8
0
100
AcDbLine
 62
7
  6
CONTINUOUS
 10
38.9852279519
 20
170.9974857085
 11
39.3387798705
 21
171.2016077855
  0
LINE
  5
296
100
AcDbEntity
  8
0
100
AcDbLine
 62
7
  6
CONTINUOUS
 10
213.4595890494
 20
174.3070147656
 11
214.2032732991
 21
174.2333799288
  0
LINE
  5
297
100
AcDbEntity
  8
0
100
AcDbLine
 62
7
  6
CONTINUOUS
 10
128.7917676107
 20
306.2541813041
 11
128.7917676107
 21
305.3455025826
  0
LINE
  5
298
100
AcDbEntity
  8
0
100
AcDbLine
 62
7
  6
CONTINUOUS
 10
132.3273103485
 20
307.8872208996
 11
132.3273103485
 21
308.1321716258
  0
LINE
  5
299
100
AcDbEntity
  8
0
100
AcDbLine
 62
7
  6
CONTINUOUS
 10
133.7415297988
 20
307.0707393908
 11
133.7415297988
 21
307.3156901168
  0
LINE
  5
29A
100
AcDbEntity
  8
0
100
AcDbLine
 62
7
  6
CONTINUOUS
 10
129.8440010543
 20
305.9212816864
 11
129.8548653327
 21
306.328706484
  0
LINE
  5
29B
100
AcDbEntity
  8
0
100
AcDbLine
 62
7
  6
CONTINUOUS
 10
137.3048074827
 20
307.4303257121
 11
137.3195626974
 21
307.9836657659
  0
LINE
  5
29C
100
AcDbEntity
  8
0
100
AcDbLine
 62
7
  6
CONTINUOUS
 10
137.9456980809
 20
307.0603157235
 11
137.9700043883
 21
307.9718343776
  0
LINE
  5
29D
100
AcDbEntity
  8
0
100
AcDbLine
 62
7
  6
CONTINUOUS
 10
139.4157202947
 20
307.1371684869
 11
139.4052814211
 21
306.7456969319
  0
LINE
  5
29E
100
AcDbEntity
  8
0
100
AcDbLine
 62
7
  6
CONTINUOUS
 10
237.7960528452
 20
257.3261931936
 11
237.8229719914
 21
257.3364934895
  0
LINE
  5
29F
100
AcDbEntity
  8
0
100
AcDbLine
 62
7
  6
CONTINUOUS
 10
214.1746860613
 20
173.4897255971
 11
213.6804284813
 21
173.5865051869
  0
LINE
  5
2A0
100
AcDbEntity
  8
0
100
AcDbLine
 62
7
  6
CONTINUOUS
 10
119.432374335
 20
311.4648851145
 11
119.1363471214
 21
313.7551266168
  0
LINE
  5
2A1
100
AcDbEntity
  8
0
100
AcDbLine
 62
7
  6
CONTINUOUS
 10
119.038138255
 20
314.5149284574
 11
118.9904344364
 21
314.8839933953
  0
LINE
  5
2A2
100
AcDbEntity
  8
0
100
AcDbLine
 62
7
  6
CONTINUOUS
 10
119.3772159319
 20
314.2657223936
 11
119.3697509215
 21
314.3234761263
  0
LINE
  5
2A3
100
AcDbEntity
  8
0
100
AcDbLine
 62
7
  6
CONTINUOUS
 10
119.2313032458
 20
315.3945891676
 11
119.2238382345
 21
315.4523429063
  0
LINE
  5
2A4
100
AcDbEntity
  8
0
100
AcDbLine
 62
7
  6
CONTINUOUS
 10
120.4046538867
 20
314.0675118862
 11
120.4523577053
 21
313.6984469484
  0
LINE
  5
2A5
100
AcDbEntity
  8
0
100
AcDbLine
 62
7
  6
CONTINUOUS
 10
120.5505665717
 20
312.9386451078
 11
120.7167573625
 21
311.6528949173
  0
LINE
  5
2A6
100
AcDbEntity
  8
0
100
AcDbLine
 62
7
  6
CONTINUOUS
 10
120.6258809227
 20
314.7300680256
 11
120.6455226961
 21
314.5781076586
  0
LINE
  5
2A7
100
AcDbEntity
  8
0
100
AcDbLine
 62
7
  6
CONTINUOUS
 10
120.7717936095
 20
313.6012012468
 11
120.7914353822
 21
313.4492408845
  0
LINE
  5
2A8
100
AcDbEntity
  8
0
100
AcDbLine
 62
7
  6
CONTINUOUS
 10
138.6912566593
 20
306.4610060699
 11
138.6912566593
 21
306.353214108
  0
LINE
  5
2A9
100
AcDbEntity
  8
0
100
AcDbLine
 62
7
  6
CONTINUOUS
 10
223.8329741921
 20
249.4172991425
 11
226.3078376223
 21
250.846153681
  0
LINE
  5
2AA
100
AcDbEntity
  8
0
100
AcDbLine
 62
7
  6
CONTINUOUS
 10
226.6532077468
 20
250.9300821436
 11
227.1356516194
 21
251.2086195807
  0
LINE
  5
2AB
100
AcDbEntity
  8
0
100
AcDbLine
 62
7
  6
CONTINUOUS
 10
230.1761981194
 20
252.9640694423
 11
233.075323852
 21
254.6378704732
  0
LINE
  5
2AC
100
AcDbEntity
  8
0
100
AcDbLine
 62
7
  6
CONTINUOUS
 10
230.2549851978
 20
253.3559453312
 11
229.3440091817
 21
252.8295894846
  0
LINE
  5
2AD
100
AcDbEntity
  8
0
100
AcDbLine
 62
7
  6
CONTINUOUS
 10
217.9583534104
 20
248.0133118403
 11
225.8072060035
 21
252.2613916413
  0
LINE
  5
2AE
100
AcDbEntity
  8
0
100
AcDbLine
 62
7
  6
CONTINUOUS
 10
229.5548681166
 20
252.7078527758
 11
227.2214254538
 21
251.4449101322
  0
LINE
  5
2AF
100
AcDbEntity
  8
0
100
AcDbLine
 62
7
  6
CONTINUOUS
 10
221.6059448265
 20
245.9074258077
 11
220.5498381286
 21
245.3358230826
  0
LINE
  5
2B0
100
AcDbEntity
  8
0
100
AcDbLine
 62
7
  6
CONTINUOUS
 10
230.0498643544
 20
249.8119471141
 11
232.3833070172
 21
251.0748897577
  0
LINE
  5
2B1
100
AcDbEntity
  8
0
100
AcDbLine
 62
7
  6
CONTINUOUS
 10
232.5763203852
 20
255.5883910053
 11
231.254384715
 21
254.8944023328
  0
LINE
  5
2B2
100
AcDbEntity
  8
0
100
AcDbLine
 62
7
  6
CONTINUOUS
 10
227.1359105424
 20
251.2081718687
 11
227.2214254538
 21
251.2527759098
  0
LINE
  5
2B3
100
AcDbEntity
  8
0
100
AcDbLine
 62
7
  6
CONTINUOUS
 10
132.9287244964
 20
303.234325558
 11
132.5714318993
 21
305.9985522809
  0
LINE
  5
2B4
100
AcDbEntity
  8
0
100
AcDbLine
 62
7
  6
CONTINUOUS
 10
132.4732230327
 20
306.7583541221
 11
132.4255192142
 21
307.1274190595
  0
LINE
  5
2B5
100
AcDbEntity
  8
0
100
AcDbLine
 62
7
  6
CONTINUOUS
 10
132.8123007097
 20
306.5091480576
 11
132.8048356992
 21
306.5669017905
  0
LINE
  5
2B6
100
AcDbEntity
  8
0
100
AcDbLine
 62
7
  6
CONTINUOUS
 10
132.6663880235
 20
307.6380148319
 11
132.6589230123
 21
307.6957685704
  0
LINE
  5
2B7
100
AcDbEntity
  8
0
100
AcDbLine
 62
7
  6
CONTINUOUS
 10
133.8397386645
 20
306.3109375505
 11
133.887442483
 21
305.9418726131
  0
LINE
  5
2B8
100
AcDbEntity
  8
0
100
AcDbLine
 62
7
  6
CONTINUOUS
 10
133.9856513496
 20
305.1820707719
 11
134.1518421403
 21
303.8963205815
  0
LINE
  5
2B9
100
AcDbEntity
  8
0
100
AcDbLine
 62
7
  6
CONTINUOUS
 10
134.0609657005
 20
306.9734936897
 11
134.0806074738
 21
306.8215333229
  0
LINE
  5
2BA
100
AcDbEntity
  8
0
100
AcDbLine
 62
7
  6
CONTINUOUS
 10
134.2068783872
 20
305.8446269115
 11
134.22652016
 21
305.6926665486
  0
LINE
  5
2BB
100
AcDbEntity
  8
0
100
AcDbLine
 62
7
  6
CONTINUOUS
 10
243.6113310889
 20
253.2969081431
 11
237.5809190076
 21
249.6599641931
  0
LINE
  5
2BC
100
AcDbEntity
  8
0
100
AcDbLine
 62
7
  6
CONTINUOUS
 10
240.2120960828
 20
248.1408877665
 11
248.8068960362
 21
253.2862138642
  0
LINE
  5
2BD
100
AcDbEntity
  8
0
100
AcDbLine
 62
7
  6
CONTINUOUS
 10
225.3829672529
 20
249.2637738775
 11
227.8578306831
 21
250.6926284161
  0
LINE
  5
2BE
100
AcDbEntity
  8
0
100
AcDbLine
 62
7
  6
CONTINUOUS
 10
224.3829717298
 20
248.4646697767
 11
220.779796291
 21
246.3843878848
  0
LINE
  5
2BF
100
AcDbEntity
  8
0
100
AcDbLine
 62
7
  6
CONTINUOUS
 10
228.9714092878
 20
250.8251149191
 11
230.8011953214
 21
251.8815360721
  0
LINE
  5
2C0
100
AcDbEntity
  8
0
100
AcDbLine
 62
7
  6
CONTINUOUS
 10
221.6059448265
 20
245.9074258077
 11
220.5828663169
 21
245.3167546806
  0
LINE
  5
2C1
100
AcDbEntity
  8
0
100
AcDbLine
 62
7
  6
CONTINUOUS
 10
222.3012887675
 20
244.3246454607
 11
228.0240758046
 21
247.6286783746
  0
LINE
  5
2C2
100
AcDbEntity
  8
0
100
AcDbLine
 62
7
  6
CONTINUOUS
 10
222.4363608447
 20
244.2466633247
 11
228.2546590887
 21
247.6058393306
  0
LINE
  5
2C3
100
AcDbEntity
  8
0
100
AcDbLine
 62
7
  6
CONTINUOUS
 10
230.4021027802
 20
246.3660401852
 11
224.5838045362
 21
243.0068641794
  0
LINE
  5
2C4
100
AcDbEntity
  8
0
100
AcDbLine
 62
7
  6
CONTINUOUS
 10
232.9054256084
 20
247.7784640544
 11
230.4305621782
 21
246.3496095159
  0
LINE
  5
2C5
100
AcDbEntity
  8
0
100
AcDbLine
 62
7
  6
CONTINUOUS
 10
230.757001164
 20
245.7842037455
 11
233.2318645943
 21
247.213058284
  0
LINE
  5
2C6
100
AcDbEntity
  8
0
100
AcDbLine
 62
7
  6
CONTINUOUS
 10
225.2936074368
 20
242.5970685545
 11
230.757001164
 21
245.7513415651
  0
LINE
  5
2C7
100
AcDbEntity
  8
0
100
AcDbLine
 62
7
  6
CONTINUOUS
 10
230.757001164
 20
245.6643328519
 11
225.5084057169
 21
242.6340729459
  0
LINE
  5
2C8
100
AcDbEntity
  8
0
100
AcDbLine
 62
7
  6
CONTINUOUS
 10
233.2318645943
 20
247.0640005757
 11
230.757001164
 21
245.6351460372
  0
LINE
  5
2C9
100
AcDbEntity
  8
0
100
AcDbLine
 62
7
  6
CONTINUOUS
 10
230.5396680302
 20
245.3692532608
 11
230.6531403768
 21
245.4347661595
  0
LINE
  5
2CA
100
AcDbEntity
  8
0
100
AcDbLine
 62
7
  6
CONTINUOUS
 10
230.6626225462
 20
245.4265380767
 11
233.1374859764
 21
246.8553926152
  0
LINE
  5
2CB
100
AcDbEntity
  8
0
100
AcDbLine
 62
7
  6
CONTINUOUS
 10
220.6454592738
 20
238.3229496346
 11
220.3993871384
 21
238.1808806691
  0
LINE
  5
2CC
100
AcDbEntity
  8
0
100
AcDbLine
 62
7
  6
CONTINUOUS
 10
227.9067532518
 20
240.3885378602
 11
240.9744439938
 21
247.700755952
  0
LINE
  5
2CD
100
AcDbEntity
  8
0
100
AcDbLine
 62
7
  6
CONTINUOUS
 10
241.234838682
 20
254.6754129724
 11
236.3438826277
 21
251.9607098859
  0
LINE
  5
2CE
100
AcDbEntity
  8
0
100
AcDbLine
 62
7
  6
CONTINUOUS
 10
225.3875671796
 20
242.5428220989
 11
234.2925227053
 21
247.3625025871
  0
LINE
  5
2CF
100
AcDbEntity
  8
0
100
AcDbLine
 62
7
  6
CONTINUOUS
 10
225.7930786469
 20
231.0887408789
 11
230.913692468
 21
233.2718908533
  0
LINE
  5
2D0
100
AcDbEntity
  8
0
100
AcDbLine
 62
7
  6
CONTINUOUS
 10
214.4810330239
 20
172.9985186031
 11
220.1801118619
 21
169.7082283242
  0
LINE
  5
2D1
100
AcDbEntity
  8
0
100
AcDbLine
 62
7
  6
CONTINUOUS
 10
220.1545514669
 20
170.7027756481
 11
214.9052953269
 21
173.7333665453
  0
LINE
  5
2D2
100
AcDbEntity
  8
0
100
AcDbLine
 62
7
  6
CONTINUOUS
 10
214.2032732991
 20
174.2333799288
 11
219.9565499565
 21
170.9117992461
  0
LINE
  5
2D3
100
AcDbEntity
  8
0
100
AcDbLine
 62
7
  6
CONTINUOUS
 10
210.6544799653
 20
178.4867868898
 11
220.3009645285
 21
172.9175124244
  0
LINE
  5
2D4
100
AcDbEntity
  8
0
100
AcDbLine
 62
7
  6
CONTINUOUS
 10
210.7251903492
 20
178.5276113051
 11
220.3716749124
 21
172.9583368396
  0
LINE
  5
2D5
100
AcDbEntity
  8
0
100
AcDbLine
 62
7
  6
CONTINUOUS
 10
221.1968654335
 20
239.0495714948
 11
225.6478463448
 21
242.3925532527
  0
LINE
  5
2D6
100
AcDbEntity
  8
0
100
AcDbLine
 62
7
  6
CONTINUOUS
 10
246.5248536628
 20
245.1295181098
 11
243.1876786576
 21
243.1316992263
  0
LINE
  5
2D7
100
AcDbEntity
  8
0
100
AcDbLine
 62
7
  6
CONTINUOUS
 10
243.1876786576
 20
243.8673423444
 11
230.3093503812
 21
236.2214462582
  0
LINE
  5
2D8
100
AcDbEntity
  8
0
100
AcDbLine
 62
7
  6
CONTINUOUS
 10
255.929957111
 20
252.1877497914
 11
245.4532215096
 21
245.9840466347
  0
LINE
  5
2D9
100
AcDbEntity
  8
0
100
AcDbLine
 62
7
  6
CONTINUOUS
 10
224.6420454893
 20
230.8324216395
 11
224.8881176246
 21
230.9744906051
  0
LINE
  5
2DA
100
AcDbEntity
  8
0
100
AcDbLine
 62
7
  6
CONTINUOUS
 10
249.3571096525
 20
243.4943513442
 11
243.1876786576
 21
239.964471489
  0
LINE
  5
2DB
100
AcDbEntity
  8
0
100
AcDbLine
 62
7
  6
CONTINUOUS
 10
193.4585071991
 20
87.2500123148
 11
193.4585071991
 21
95.7416374526
  0
LINE
  5
2DC
100
AcDbEntity
  8
0
100
AcDbLine
 62
7
  6
CONTINUOUS
 10
243.6113310888
 20
253.2969081432
 11
248.8068960329
 21
253.2862138643
  0
LINE
  5
2DD
100
AcDbEntity
  8
0
100
AcDbLine
 62
7
  6
CONTINUOUS
 10
255.9297671067
 20
252.1877506213
 11
262.9446491345
 21
252.1571068731
  0
LINE
  5
2DE
100
AcDbEntity
  8
0
100
AcDbLine
 62
7
  6
CONTINUOUS
 10
55.9963760417
 20
312.7659459085
 11
205.055106102
 21
226.7087948561
  0
LINE
  5
2DF
100
AcDbEntity
  8
0
100
AcDbLine
 62
7
  6
CONTINUOUS
 10
68.1586639032
 20
308.9285661085
 11
57.3398851083
 21
315.1746496529
  0
LINE
  5
2E0
100
AcDbEntity
  8
0
100
AcDbLine
 62
7
  6
CONTINUOUS
 10
205.7622158272
 20
225.4840516844
 11
205.7622158272
 21
96.4766697779
  0
LINE
  5
2E1
100
AcDbEntity
  8
0
100
AcDbLine
 62
7
  6
CONTINUOUS
 10
208.5199443447
 20
124.6512789131
 11
208.5199443447
 21
177.2543769392
  0
LINE
  5
2E2
100
AcDbEntity
  8
0
100
AcDbLine
 62
7
  6
CONTINUOUS
 10
209.1451483943
 20
178.6362846748
 11
209.215858778
 21
178.6771090902
  0
LINE
  5
2E3
100
AcDbEntity
  8
0
100
AcDbLine
 62
7
  6
CONTINUOUS
 10
210.6544799653
 20
178.4867868898
 11
210.725190349
 21
178.5276113052
  0
LINE
  5
2E4
100
AcDbEntity
  8
0
100
AcDbLine
 62
7
  6
CONTINUOUS
 10
213.1515130437
 20
173.6261285007
 11
213.4682955628
 21
173.8090218817
  0
LINE
  5
2E5
100
AcDbEntity
  8
0
100
AcDbLine
 62
7
  6
CONTINUOUS
 10
214.4391872845
 20
173.7795340821
 11
214.7391279694
 21
173.9527038836
  0
LINE
  5
2E6
100
AcDbEntity
  8
0
100
AcDbLine
 62
7
  6
CONTINUOUS
 10
214.9052953269
 20
173.7333665453
 11
214.9873177186
 21
173.7807219126
  0
LINE
  5
2E7
100
AcDbEntity
  8
0
100
AcDbLine
 62
7
  6
CONTINUOUS
 10
242.2087419428
 20
254.7894968733
 11
242.2384971547
 21
254.7872444484
  0
LINE
  5
2E8
100
AcDbEntity
  8
0
100
AcDbLine
 62
7
  6
CONTINUOUS
 10
57.3398851083
 20
322.68647189
 11
68.1586639031
 21
316.440388346
  0
LINE
  5
2E9
100
AcDbEntity
  8
0
100
AcDbLine
 62
7
  6
CONTINUOUS
 10
57.410595492
 20
322.7272963054
 11
68.2293742868
 21
316.4812127614
  0
LINE
  5
2EA
100
AcDbEntity
  8
0
100
AcDbLine
 62
7
  6
CONTINUOUS
 10
213.1515130437
 20
122.8198016779
 11
213.1515130437
 21
173.6261284993
  0
LINE
  5
2EB
100
AcDbEntity
  8
0
100
AcDbLine
 62
7
  6
CONTINUOUS
 10
213.4682955628
 20
123.0026950561
 11
213.4682955628
 21
173.8090218817
  0
LINE
  5
2EC
100
AcDbEntity
  8
0
100
AcDbLine
 62
7
  6
CONTINUOUS
 10
213.6804284818
 20
122.7922857895
 11
213.6804284818
 21
173.5863885667
  0
LINE
  5
2ED
100
AcDbEntity
  8
0
100
AcDbLine
 62
7
  6
CONTINUOUS
 10
214.0703791523
 20
173.1078323018
 11
214.0703791523
 21
123.0609593633
  0
LINE
  5
2EE
100
AcDbEntity
  8
0
100
AcDbLine
 62
7
  6
CONTINUOUS
 10
214.24611685
 20
122.8160128715
 11
214.24611685
 21
172.8628858108
  0
LINE
  5
2EF
100
AcDbEntity
  8
0
100
AcDbLine
 62
7
  6
CONTINUOUS
 10
220.3979714588
 20
169.3308866551
 11
220.3979714588
 21
119.3116922319
  0
LINE
  5
2F0
100
AcDbEntity
  8
0
100
AcDbLine
 62
7
  6
CONTINUOUS
 10
221.0004309943
 20
169.1037542891
 11
221.0004309943
 21
118.2795624614
  0
LINE
  5
2F1
100
AcDbEntity
  8
0
100
AcDbLine
 62
7
  6
CONTINUOUS
 10
222.4500059301
 20
169.1952841918
 11
222.4500059301
 21
116.7203498098
  0
LINE
  5
2F2
100
AcDbEntity
  8
0
100
AcDbLine
 62
7
  6
CONTINUOUS
 10
222.4500059301
 20
79.0037665174
 11
222.4500059301
 21
70.5121413791
  0
LINE
  5
2F3
100
AcDbEntity
  8
0
100
AcDbLine
 62
7
  6
CONTINUOUS
 10
222.5207163139
 20
169.236108609
 11
222.5207163139
 21
116.7611742256
  0
LINE
  5
2F4
100
AcDbEntity
  8
0
100
AcDbLine
 62
7
  6
CONTINUOUS
 10
222.5207163139
 20
79.0445909328
 11
222.5207163139
 21
70.5529657945
  0
LINE
  5
2F5
100
AcDbEntity
  8
0
100
AcDbLine
 62
7
  6
CONTINUOUS
 10
213.1515130437
 20
173.6261284993
 11
213.4595890494
 21
174.3070147656
  0
LINE
  5
2F6
100
AcDbEntity
  8
0
100
AcDbLine
 62
7
  6
CONTINUOUS
 10
220.3716749122
 20
172.9583368398
 11
220.3009645285
 21
172.9175124244
  0
LINE
  5
2F7
100
AcDbEntity
  8
0
100
AcDbLine
 62
7
  6
CONTINUOUS
 10
222.4500059301
 20
169.1952841918
 11
222.5207163139
 21
169.2361086072
  0
LINE
  5
2F8
100
AcDbEntity
  8
0
100
AcDbLine
 62
7
  6
CONTINUOUS
 10
202.794044661
 20
276.8622463307
 11
222.0300942965
 21
275.778601733
  0
LINE
  5
2F9
100
AcDbEntity
  8
0
100
AcDbLine
 62
7
  6
CONTINUOUS
 10
39.5207194458
 20
342.6088656754
 11
220.3993871384
 21
238.1808806691
  0
LINE
  5
2FA
100
AcDbEntity
  8
0
100
AcDbLine
 62
7
  6
CONTINUOUS
 10
39.766791579
 20
342.7509346422
 11
220.6454592759
 21
238.3229496334
  0
LINE
  5
2FB
100
AcDbEntity
  8
0
100
AcDbLine
 62
7
  6
CONTINUOUS
 10
220.7199190658
 20
238.3659472994
 11
38.9852279519
 21
343.2881464778
  0
LINE
  5
2FC
100
AcDbEntity
  8
0
100
AcDbLine
 62
7
  6
CONTINUOUS
 10
38.5082815842
 20
344.5224884418
 11
221.1968654335
 21
239.0495714948
  0
LINE
  5
2FD
100
AcDbEntity
  8
0
100
AcDbLine
 62
7
  6
CONTINUOUS
 10
43.5324920919
 20
347.5345234246
 11
225.6478463445
 21
242.3925532525
  0
LINE
  5
2FE
100
AcDbEntity
  8
0
100
AcDbLine
 62
7
  6
CONTINUOUS
 10
58.1515555272
 20
340.2757223618
 11
61.8546843984
 21
338.1377682782
  0
LINE
  5
2FF
100
AcDbEntity
  8
0
100
AcDbLine
 62
7
  6
CONTINUOUS
 10
217.9583534104
 20
248.0133118403
 11
221.6064948244
 21
245.9071040617
  0
LINE
  5
300
100
AcDbEntity
  8
0
100
AcDbLine
 62
7
  6
CONTINUOUS
 10
124.5069921174
 20
303.4826193831
 11
117.4527856481
 21
307.5552748212
  0
LINE
  5
301
100
AcDbEntity
  8
0
100
AcDbLine
 62
7
  6
CONTINUOUS
 10
128.4131165074
 20
301.2274656863
 11
127.0165426811
 21
302.0337528
  0
LINE
  5
302
100
AcDbEntity
  8
0
100
AcDbLine
 62
7
  6
CONTINUOUS
 10
115.0294550036
 20
308.9543517077
 11
113.596127194
 21
309.7818580813
  0
LINE
  5
303
100
AcDbEntity
  8
0
100
AcDbLine
 62
7
  6
CONTINUOUS
 10
125.1704623446
 20
303.9010733763
 11
118.8064748183
 21
307.575240167
  0
LINE
  5
304
100
AcDbEntity
  8
0
100
AcDbLine
 62
7
  6
CONTINUOUS
 10
119.3872335839
 20
308.5811494414
 11
125.7512211102
 21
304.9069826507
  0
LINE
  5
305
100
AcDbEntity
  8
0
100
AcDbLine
 62
7
  6
CONTINUOUS
 10
126.2461937971
 20
304.7845023503
 11
125.8926418784
 21
304.988631482
  0
LINE
  5
306
100
AcDbEntity
  8
0
100
AcDbLine
 62
7
  6
CONTINUOUS
 10
119.5286543521
 20
308.6627982726
 11
125.8926418784
 21
304.988631482
  0
LINE
  5
307
100
AcDbEntity
  8
0
100
AcDbLine
 62
7
  6
CONTINUOUS
 10
120.2357581893
 20
309.0710424265
 11
126.5997457157
 21
305.3968756358
  0
LINE
  5
308
100
AcDbEntity
  8
0
100
AcDbLine
 62
7
  6
CONTINUOUS
 10
127.0947184011
 20
305.2743953347
 11
126.7411664825
 21
305.4785244663
  0
LINE
  5
309
100
AcDbEntity
  8
0
100
AcDbLine
 62
7
  6
CONTINUOUS
 10
120.3771789562
 20
309.152691257
 11
126.7411664825
 21
305.4785244663
  0
LINE
  5
30A
100
AcDbEntity
  8
0
100
AcDbLine
 62
7
  6
CONTINUOUS
 10
65.5761693697
 20
341.5261843991
 11
68.5108755263
 21
339.8318693402
  0
LINE
  5
30B
100
AcDbEntity
  8
0
100
AcDbLine
 62
7
  6
CONTINUOUS
 10
225.3829672529
 20
249.2637738775
 11
228.2546590887
 21
247.6058393306
  0
LINE
  5
30C
100
AcDbEntity
  8
0
100
AcDbLine
 62
7
  6
CONTINUOUS
 10
230.4021027802
 20
246.3660401852
 11
230.4305621782
 21
246.3496095159
  0
LINE
  5
30D
100
AcDbEntity
  8
0
100
AcDbLine
 62
7
  6
CONTINUOUS
 10
224.6420454893
 20
230.8324216395
 11
224.6420454893
 21
69.3282435306
  0
LINE
  5
30E
100
AcDbEntity
  8
0
100
AcDbLine
 62
7
  6
CONTINUOUS
 10
224.8881176246
 20
230.9744906051
 11
224.8881176246
 21
69.4703124962
  0
LINE
  5
30F
100
AcDbEntity
  8
0
100
AcDbLine
 62
7
  6
CONTINUOUS
 10
224.9625774167
 20
231.0174882696
 11
224.9625774167
 21
68.5248565057
  0
LINE
  5
310
100
AcDbEntity
  8
0
100
AcDbLine
 62
7
  6
CONTINUOUS
 10
225.7930786469
 20
231.0887408789
 11
225.7930786469
 21
67.4946453734
  0
LINE
  5
311
100
AcDbEntity
  8
0
100
AcDbLine
 62
7
  6
CONTINUOUS
 10
225.8072060035
 20
252.2613916413
 11
225.8072060035
 21
250.5571156065
  0
LINE
  5
312
100
AcDbEntity
  8
0
100
AcDbLine
 62
7
  6
CONTINUOUS
 10
227.2214254538
 20
251.2527759098
 11
227.2214254538
 21
251.4449101323
  0
LINE
  5
313
100
AcDbEntity
  8
0
100
AcDbLine
 62
7
  6
CONTINUOUS
 10
229.5548681166
 20
251.1619730202
 11
229.5548681166
 21
252.7078527758
  0
LINE
  5
314
100
AcDbEntity
  8
0
100
AcDbLine
 62
7
  6
CONTINUOUS
 10
230.0498643544
 20
249.8119471142
 11
230.0498643544
 21
249.6198128917
  0
LINE
  5
315
100
AcDbEntity
  8
0
100
AcDbLine
 62
7
  6
CONTINUOUS
 10
230.757001164
 20
245.6643328519
 11
230.757001164
 21
245.6351460372
  0
LINE
  5
316
100
AcDbEntity
  8
0
100
AcDbLine
 62
7
  6
CONTINUOUS
 10
230.757001164
 20
245.7842037455
 11
230.757001164
 21
245.7513415651
  0
LINE
  5
317
100
AcDbEntity
  8
0
100
AcDbLine
 62
7
  6
CONTINUOUS
 10
230.9136924676
 20
233.2718908535
 11
230.9136924676
 21
70.3395645289
  0
LINE
  5
318
100
AcDbEntity
  8
0
100
AcDbLine
 62
7
  6
CONTINUOUS
 10
231.817645144
 20
246.0933867039
 11
231.817645144
 21
246.0230103169
  0
LINE
  5
319
100
AcDbEntity
  8
0
100
AcDbLine
 62
7
  6
CONTINUOUS
 10
233.2318645943
 20
247.0640005757
 11
233.2318645943
 21
247.213058284
  0
LINE
  5
31A
100
AcDbEntity
  8
0
100
AcDbLine
 62
7
  6
CONTINUOUS
 10
138.5862064222
 20
306.6903938279
 11
138.5528168805
 21
306.7050690588
  0
LINE
  5
31B
100
AcDbEntity
  8
0
100
AcDbLine
 62
7
  6
CONTINUOUS
 10
121.0842827934
 20
309.5609354108
 11
127.4482703198
 21
305.8867686202
  0
LINE
  5
31C
100
AcDbEntity
  8
0
100
AcDbLine
 62
7
  6
CONTINUOUS
 10
127.9432430066
 20
305.7642883197
 11
127.589691088
 21
305.9684174514
  0
LINE
  5
31D
100
AcDbEntity
  8
0
100
AcDbLine
 62
7
  6
CONTINUOUS
 10
121.2257035616
 20
309.6425842421
 11
127.589691088
 21
305.9684174514
  0
LINE
  5
31E
100
AcDbEntity
  8
0
100
AcDbLine
 62
7
  6
CONTINUOUS
 10
129.2547415102
 20
305.596080619
 11
128.7917676107
 21
305.8633727071
  0
LINE
  5
31F
100
AcDbEntity
  8
0
100
AcDbLine
 62
7
  6
CONTINUOUS
 10
119.432374335
 20
311.4648851144
 11
119.885759359
 21
311.2031290705
  0
LINE
  5
320
100
AcDbEntity
  8
0
100
AcDbLine
 62
7
  6
CONTINUOUS
 10
121.9328073989
 20
310.0508283959
 11
128.2967949252
 21
306.3766616052
  0
LINE
  5
321
100
AcDbEntity
  8
0
100
AcDbLine
 62
7
  6
CONTINUOUS
 10
128.7917676107
 20
306.2541813041
 11
128.4382156921
 21
306.4583104357
  0
LINE
  5
322
100
AcDbEntity
  8
0
100
AcDbLine
 62
7
  6
CONTINUOUS
 10
122.0742281658
 20
310.1324772264
 11
128.4382156921
 21
306.4583104357
  0
LINE
  5
323
100
AcDbEntity
  8
0
100
AcDbLine
 62
7
  6
CONTINUOUS
 10
122.8371516095
 20
310.3802941943
 11
129.8548653113
 21
306.3287064963
  0
LINE
  5
324
100
AcDbEntity
  8
0
100
AcDbLine
 62
7
  6
CONTINUOUS
 10
68.0510327999
 20
342.9550389377
 11
73.0661066048
 21
340.0596502289
  0
LINE
  5
325
100
AcDbEntity
  8
0
100
AcDbLine
 62
7
  6
CONTINUOUS
 10
227.8578306831
 20
250.6926284161
 11
232.9054256084
 21
247.7784640544
  0
LINE
  5
326
100
AcDbEntity
  8
0
100
AcDbLine
 62
7
  6
CONTINUOUS
 10
119.1363471217
 20
313.7551266171
 11
120.550566572
 21
312.9386451081
  0
LINE
  5
327
100
AcDbEntity
  8
0
100
AcDbLine
 62
7
  6
CONTINUOUS
 10
132.5714318998
 20
305.9985522817
 11
133.9856513501
 21
305.1820707727
  0
LINE
  5
328
100
AcDbEntity
  8
0
100
AcDbLine
 62
7
  6
CONTINUOUS
 10
234.2925227053
 20
247.362502587
 11
230.0498643544
 21
249.8119471142
  0
LINE
  5
329
100
AcDbEntity
  8
0
100
AcDbLine
 62
7
  6
CONTINUOUS
 10
227.2214254538
 20
251.4449101323
 11
225.8072060035
 21
252.2613916413
  0
LINE
  5
32A
100
AcDbEntity
  8
0
100
AcDbLine
 62
7
  6
CONTINUOUS
 10
66.0004081203
 20
344.5238021629
 11
67.4146275706
 21
343.7073206539
  0
LINE
  5
32B
100
AcDbEntity
  8
0
100
AcDbLine
 62
7
  6
CONTINUOUS
 10
70.2430664712
 20
342.0743576358
 11
74.485724822
 21
339.6249131086
  0
LINE
  5
32C
100
AcDbEntity
  8
0
100
AcDbLine
 62
7
  6
CONTINUOUS
 10
119.3772159321
 20
314.2657223914
 11
120.7914353824
 21
313.4492408823
  0
LINE
  5
32D
100
AcDbEntity
  8
0
100
AcDbLine
 62
7
  6
CONTINUOUS
 10
132.8123007099
 20
306.5091480551
 11
134.2265201602
 21
305.6926665461
  0
LINE
  5
32E
100
AcDbEntity
  8
0
100
AcDbLine
 62
7
  6
CONTINUOUS
 10
119.038138255
 20
314.5149284573
 11
120.4523577053
 21
313.6984469483
  0
LINE
  5
32F
100
AcDbEntity
  8
0
100
AcDbLine
 62
7
  6
CONTINUOUS
 10
132.4732230328
 20
306.7583541215
 11
133.8874424831
 21
305.9418726125
  0
LINE
  5
330
100
AcDbEntity
  8
0
100
AcDbLine
 62
7
  6
CONTINUOUS
 10
118.9904344364
 20
314.8839933952
 11
120.4046538867
 21
314.0675118861
  0
LINE
  5
331
100
AcDbEntity
  8
0
100
AcDbLine
 62
7
  6
CONTINUOUS
 10
132.4255192143
 20
307.1274190593
 11
133.8397386646
 21
306.3109375503
  0
LINE
  5
332
100
AcDbEntity
  8
0
100
AcDbLine
 62
7
  6
CONTINUOUS
 10
119.2313032458
 20
315.3945891673
 11
120.6455226961
 21
314.5781076583
  0
LINE
  5
333
100
AcDbEntity
  8
0
100
AcDbLine
 62
7
  6
CONTINUOUS
 10
132.6663880236
 20
307.6380148314
 11
134.0806074739
 21
306.8215333224
  0
LINE
  5
334
100
AcDbEntity
  8
0
100
AcDbLine
 62
7
  6
CONTINUOUS
 10
118.8922255707
 20
315.6437952357
 11
120.306445021
 21
314.8273137267
  0
LINE
  5
335
100
AcDbEntity
  8
0
100
AcDbLine
 62
7
  6
CONTINUOUS
 10
132.3273103485
 20
307.8872208999
 11
133.7415297988
 21
307.0707393908
  0
LINE
  5
336
100
AcDbEntity
  8
0
100
AcDbLine
 62
7
  6
CONTINUOUS
 10
118.8922255707
 20
315.8887459609
 11
120.306445021
 21
315.0722644518
  0
LINE
  5
337
100
AcDbEntity
  8
0
100
AcDbLine
 62
7
  6
CONTINUOUS
 10
132.3273103485
 20
308.1321716258
 11
133.7415297988
 21
307.3156901168
  0
LINE
  5
338
100
AcDbEntity
  8
0
100
AcDbLine
 62
7
  6
CONTINUOUS
 10
133.9536609505
 20
307.6831140875
 11
132.5394415002
 21
308.4995955966
  0
LINE
  5
339
100
AcDbEntity
  8
0
100
AcDbLine
 62
7
  6
CONTINUOUS
 10
120.5185761725
 20
315.4396884233
 11
119.1043567222
 21
316.2561699323
  0
LINE
  5
33A
100
AcDbEntity
  8
0
100
AcDbLine
 62
7
  6
CONTINUOUS
 10
69.3945153708
 20
345.1743836747
 11
69.7480702334
 21
344.9702632974
  0
LINE
  5
33B
100
AcDbEntity
  8
0
100
AcDbLine
 62
7
  6
CONTINUOUS
 10
72.576509134
 20
343.3373002793
 11
72.9300639965
 21
343.133179902
  0
LINE
  5
33C
100
AcDbEntity
  8
0
100
AcDbLine
 62
7
  6
CONTINUOUS
 10
229.3440091817
 20
252.8295894845
 11
229.5548681166
 21
252.7078527758
  0
LINE
  5
33D
100
AcDbEntity
  8
0
100
AcDbLine
 62
7
  6
CONTINUOUS
 10
232.3833070172
 20
251.0748897577
 11
232.594165952
 21
250.953153049
  0
LINE
  5
33E
100
AcDbEntity
  8
0
100
AcDbLine
 62
7
  6
CONTINUOUS
 10
119.47939666
 20
316.4726980489
 11
120.8936161103
 21
315.6562165398
  0
LINE
  5
33F
100
AcDbEntity
  8
0
100
AcDbLine
 62
7
  6
CONTINUOUS
 10
132.9144814378
 20
308.716123713
 11
134.3287008881
 21
307.899642204
  0
LINE
  5
340
100
AcDbEntity
  8
0
100
AcDbLine
 62
7
  6
CONTINUOUS
 10
134.5438130279
 20
307.9395760623
 11
133.1295935776
 21
308.7560575713
  0
LINE
  5
341
100
AcDbEntity
  8
0
100
AcDbLine
 62
7
  6
CONTINUOUS
 10
121.10872825
 20
315.6961503982
 11
119.6945087997
 21
316.5126319072
  0
LINE
  5
342
100
AcDbEntity
  8
0
100
AcDbLine
 62
7
  6
CONTINUOUS
 10
123.703512652
 20
315.2781249037
 11
125.1177321022
 21
314.4616433946
  0
LINE
  5
343
100
AcDbEntity
  8
0
100
AcDbLine
 62
7
  6
CONTINUOUS
 10
137.1385974302
 20
307.5215505677
 11
138.5528168804
 21
306.7050690586
  0
LINE
  5
344
100
AcDbEntity
  8
0
100
AcDbLine
 62
7
  6
CONTINUOUS
 10
138.5862637379
 20
306.6904933355
 11
137.1720442876
 21
307.5069748445
  0
LINE
  5
345
100
AcDbEntity
  8
0
100
AcDbLine
 62
7
  6
CONTINUOUS
 10
125.1511789612
 20
314.4470676715
 11
123.7369595109
 21
315.2635491806
  0
LINE
  5
346
100
AcDbEntity
  8
0
100
AcDbLine
 62
7
  6
CONTINUOUS
 10
240.9744439938
 20
247.700755952
 11
237.5809190075
 21
249.6599641932
  0
LINE
  5
347
100
AcDbEntity
  8
0
100
AcDbLine
 62
7
  6
CONTINUOUS
 10
63.8998172948
 20
349.9325265517
 11
67.3859445566
 21
347.9198555714
  0
LINE
  5
348
100
AcDbEntity
  8
0
100
AcDbLine
 62
7
  6
CONTINUOUS
 10
249.3571096522
 20
243.4943513443
 11
246.5248536628
 21
245.1295181098
  0
LINE
  5
349
100
AcDbEntity
  8
0
100
AcDbLine
 62
7
  6
CONTINUOUS
 10
124.5551136179
 20
315.7167499583
 11
125.9792864533
 21
314.8945215206
  0
LINE
  5
34A
100
AcDbEntity
  8
0
100
AcDbLine
 62
7
  6
CONTINUOUS
 10
137.9700043267
 20
307.9718344132
 11
139.4157202284
 21
307.1371685251
  0
LINE
  5
34B
100
AcDbEntity
  8
0
100
AcDbLine
 62
7
  6
CONTINUOUS
 10
236.3476921549
 20
251.9538464355
 11
235.512659178
 21
252.4359420431
  0
LINE
  5
34C
100
AcDbEntity
  8
0
100
AcDbLine
 62
7
  6
CONTINUOUS
 10
232.0894176806
 20
254.4123067318
 11
231.254384715
 21
254.8944023328
  0
LINE
  5
34D
100
AcDbEntity
  8
0
100
AcDbLine
 62
7
  6
CONTINUOUS
 10
70.292355002
 20
349.405665668
 11
73.6406739133
 21
347.472556576
  0
LINE
  5
34E
100
AcDbEntity
  8
0
100
AcDbLine
 62
7
  6
CONTINUOUS
 10
77.176222539
 20
345.4313528034
 11
199.2585254749
 21
274.9486968708
  0
LINE
  5
34F
100
AcDbEntity
  8
0
100
AcDbLine
 62
7
  6
CONTINUOUS
 10
243.1876786576
 20
243.867342329
 11
243.1876786576
 21
239.964471489
  0
LINE
  5
350
100
AcDbEntity
  8
0
100
AcDbLine
 62
7
  6
CONTINUOUS
 10
243.1876786577
 20
86.8782797621
 11
243.1876786577
 21
90.7967965845
  0
LINE
  5
351
100
AcDbEntity
  8
0
100
AcDbLine
 62
7
  6
CONTINUOUS
 10
205.7622158272
 20
96.4766697779
 11
205.5550930172
 21
96.018902623
  0
LINE
  5
352
100
AcDbEntity
  8
0
100
AcDbLine
 62
7
  6
CONTINUOUS
 10
55.4963891266
 20
312.8154514009
 11
55.9963760417
 21
312.7659459085
  0
LINE
  5
353
100
AcDbEntity
  8
0
100
AcDbLine
 62
7
  6
CONTINUOUS
 10
133.887442483
 20
305.9418726131
 11
134.2068783872
 21
305.8446269115
  0
LINE
  5
354
100
AcDbEntity
  8
0
100
AcDbLine
 62
7
  6
CONTINUOUS
 10
133.7415297988
 20
307.0707393906
 11
134.0609657005
 21
306.9734936897
  0
LINE
  5
355
100
AcDbEntity
  8
0
100
AcDbLine
 62
7
  6
CONTINUOUS
 10
120.4523577053
 20
313.6984469484
 11
120.7717936095
 21
313.6012012468
  0
LINE
  5
356
100
AcDbEntity
  8
0
100
AcDbLine
 62
7
  6
CONTINUOUS
 10
120.306445021
 20
314.8273137265
 11
120.6258809227
 21
314.7300680256
  0
LINE
  5
357
100
AcDbEntity
  8
0
100
AcDbLine
 62
7
  6
CONTINUOUS
 10
138.5528168805
 20
306.7050690588
 11
134.5438130288
 21
307.9395760622
  0
LINE
  5
358
100
AcDbEntity
  8
0
100
AcDbLine
 62
7
  6
CONTINUOUS
 10
133.1295935786
 20
308.7560575712
 11
137.1385974302
 21
307.5215505678
  0
LINE
  5
359
100
AcDbEntity
  8
0
100
AcDbLine
 62
7
  6
CONTINUOUS
 10
125.1177321056
 20
314.4616433936
 11
121.1087282509
 21
315.696150398
  0
LINE
  5
35A
100
AcDbEntity
  8
0
100
AcDbLine
 62
7
  6
CONTINUOUS
 10
119.6945088006
 20
316.512631907
 11
123.7035126553
 21
315.2781249027
  0
LINE
  5
35B
100
AcDbEntity
  8
0
100
AcDbLine
 62
7
  6
CONTINUOUS
 10
125.1511567516
 20
314.447029124
 11
125.1177321056
 21
314.4616433936
  0
LINE
  5
35C
100
AcDbEntity
  8
0
100
AcDbLine
 62
7
  6
CONTINUOUS
 10
123.7035126553
 20
315.2781249027
 11
123.7369373013
 21
315.263510633
  0
LINE
  5
35D
100
AcDbEntity
  8
0
100
AcDbLine
 62
7
  6
CONTINUOUS
 10
137.1385974302
 20
307.5215505678
 11
137.1719869719
 21
307.506875337
  0
LINE
  5
35E
100
AcDbEntity
  8
0
100
AcDbLine
 62
7
  6
CONTINUOUS
 10
202.794044661
 20
276.8622463307
 11
236.2723330763
 21
257.5339847658
  0
LINE
  5
35F
100
AcDbEntity
  8
0
100
AcDbLine
 62
7
  6
CONTINUOUS
 10
241.2291975146
 20
254.6722024902
 11
243.6113310888
 21
253.2969081432
  0
LINE
  5
360
100
AcDbEntity
  8
0
100
AcDbLine
 62
7
  6
CONTINUOUS
 10
222.0300942965
 20
275.7786017329
 11
262.9446491342
 21
252.1571068732
  0
LINE
  5
361
100
AcDbEntity
  8
0
100
AcDbLine
 62
7
  6
CONTINUOUS
 10
249.3571096525
 20
94.5832881001
 11
249.3571096525
 21
243.4943513442
  0
LINE
  5
362
100
AcDbEntity
  8
0
100
AcDbLine
 62
7
  6
CONTINUOUS
 10
214.0815943155
 20
123.0430220978
 11
213.6804284813
 21
122.7921956642
  0
LINE
  5
363
100
AcDbEntity
  8
0
100
AcDbLine
 62
7
  6
CONTINUOUS
 10
213.4682955628
 20
123.0026950561
 11
213.1515130437
 21
122.8198016751
  0
LINE
  5
364
100
AcDbEntity
  8
0
100
AcDbLine
 62
7
  6
CONTINUOUS
 10
214.2038684798
 20
120.997078711
 11
214.5206509989
 21
121.179972092
  0
LINE
  5
365
100
AcDbEntity
  8
0
100
AcDbLine
 62
7
  6
CONTINUOUS
 10
215.2858884218
 20
121.7560106806
 11
214.5151284382
 21
121.3464609561
  0
LINE
  5
366
100
AcDbEntity
  8
0
100
AcDbLine
 62
7
  6
CONTINUOUS
 10
262.9446491342
 20
252.1571068732
 11
262.9446491342
 21
109.7088976538
  0
LINE
  5
367
100
AcDbEntity
  8
0
100
AcDbLine
 62
7
  6
CONTINUOUS
 10
220.2530320454
 20
118.0337557073
 11
221.0004309943
 21
118.5107546947
  0
LINE
  5
368
100
AcDbEntity
  8
0
100
AcDbLine
 62
7
  6
CONTINUOUS
 10
220.2724503603
 20
117.8592443072
 11
219.9556678413
 21
117.6763509263
  0
LINE
  5
369
100
AcDbEntity
  8
0
100
AcDbLine
 62
7
  6
CONTINUOUS
 10
222.5207163139
 20
116.7611742252
 11
222.4500059301
 21
116.7203498098
  0
LINE
  5
36A
100
AcDbEntity
  8
0
100
AcDbLine
 62
7
  6
CONTINUOUS
 10
221.7887260586
 20
115.2587025762
 11
221.8594364423
 21
115.2995269916
  0
LINE
  5
36B
100
AcDbEntity
  8
0
100
AcDbLine
 62
7
  6
CONTINUOUS
 10
194.0798864639
 20
97.1149201535
 11
194.1505968476
 21
97.1557445688
  0
LINE
  5
36C
100
AcDbEntity
  8
0
100
AcDbLine
 62
7
  6
CONTINUOUS
 10
195.5798363745
 20
96.9664224404
 11
195.6505467583
 21
97.0072468555
  0
LINE
  5
36D
100
AcDbEntity
  8
0
100
AcDbLine
 62
7
  6
CONTINUOUS
 10
205.1258164857
 20
96.1092325307
 11
205.055106102
 21
96.0684081153
  0
LINE
  5
36E
100
AcDbEntity
  8
0
100
AcDbLine
 62
7
  6
CONTINUOUS
 10
249.3571097371
 20
98.7907770421
 11
250.1048151867
 21
99.2373386857
  0
LINE
  5
36F
100
AcDbEntity
  8
0
100
AcDbLine
 62
7
  6
CONTINUOUS
 10
249.3571096525
 20
98.7907737195
 11
250.1047496083
 21
99.2348708148
  0
LINE
  5
370
100
AcDbEntity
  8
0
100
AcDbLine
 62
7
  6
CONTINUOUS
 10
256.8703519212
 20
103.2254974431
 11
257.1650330091
 21
103.3982425774
  0
LINE
  5
371
100
AcDbEntity
  8
0
100
AcDbLine
 62
7
  6
CONTINUOUS
 10
256.8704008957
 20
103.2268625154
 11
257.1650330091
 21
103.3982425774
  0
LINE
  5
372
100
AcDbEntity
  8
0
100
AcDbLine
 62
7
  6
CONTINUOUS
 10
220.3993871384
 20
82.7188204477
 11
220.3286767547
 21
82.6779960326
  0
LINE
  5
373
100
AcDbEntity
  8
0
100
AcDbLine
 62
7
  6
CONTINUOUS
 10
249.3571096525
 20
97.5215224862
 11
250.6716534249
 21
98.2804701568
  0
LINE
  5
374
100
AcDbEntity
  8
0
100
AcDbLine
 62
7
  6
CONTINUOUS
 10
222.4500059301
 20
79.0037665174
 11
222.5207163139
 21
79.0445909328
  0
LINE
  5
375
100
AcDbEntity
  8
0
100
AcDbLine
 62
7
  6
CONTINUOUS
 10
257.1650330091
 20
103.3982425774
 11
262.9446491342
 21
109.7088976538
  0
LINE
  5
376
100
AcDbEntity
  8
0
100
AcDbLine
 62
7
  6
CONTINUOUS
 10
249.3571096525
 20
96.9504192832
 11
250.6716534249
 21
98.2804701568
  0
LINE
  5
377
100
AcDbEntity
  8
0
100
AcDbLine
 62
7
  6
CONTINUOUS
 10
230.9136924676
 20
78.0059375359
 11
242.5800421653
 21
85.4702302633
  0
LINE
  5
378
100
AcDbEntity
  8
0
100
AcDbLine
 62
7
  6
CONTINUOUS
 10
230.9136924676
 20
79.1094193281
 11
243.1876786577
 21
86.8782797621
  0
LINE
  5
379
100
AcDbEntity
  8
0
100
AcDbLine
 62
7
  6
CONTINUOUS
 10
249.3571096522
 20
94.5832881003
 11
243.1876786573
 21
90.7967965847
  0
LINE
  5
37A
100
AcDbEntity
  8
0
100
AcDbLine
 62
7
  6
CONTINUOUS
 10
222.5207163139
 20
70.5529657945
 11
222.4500059301
 21
70.5121413791
  0
LINE
  5
37B
100
AcDbEntity
  8
0
100
AcDbLine
 62
7
  6
CONTINUOUS
 10
221.8286266654
 20
69.1388586777
 11
221.8993370491
 21
69.1796830931
  0
LINE
  5
37C
100
AcDbEntity
  8
0
100
AcDbLine
 62
7
  6
CONTINUOUS
 10
224.8881176246
 20
69.4703124962
 11
224.6420454893
 21
69.3282435306
  0
LINE
  5
37D
100
AcDbEntity
  8
0
100
AcDbLine
 62
7
  6
CONTINUOUS
 10
221.0734709844
 20
66.2794086071
 11
220.7199190658
 21
66.0752865301
  0
LINE
  5
37E
100
AcDbEntity
  8
0
100
AcDbLine
 62
7
  6
CONTINUOUS
 10
225.7930786469
 20
67.4946453734
 11
230.913692468
 21
70.3395645287
  0
LINE
  5
37F
100
AcDbEntity
  8
0
100
AcDbLine
 62
7
  6
CONTINUOUS
 10
224.3158349974
 20
64.4494701052
 11
229.2212651169
 21
66.8508117331
  0
ARC
  5
380
100
AcDbEntity
  8
0
100
AcDbCircle
 62
7
  6
CONTINUOUS
 10
-311.4003209449
 20
1325.2815734643
 40
1204.2057783812
100
AcDbArc
 50
296.8557257741
 51
297.0114814207
  0
ARC
  5
381
100
AcDbEntity
  8
0
100
AcDbCircle
 62
7
  6
CONTINUOUS
 10
238.0141947784
 20
264.1081827647
 40
6.7743760694
100
AcDbArc
 50
268.1350617285
 51
268.3836406071
  0
ARC
  5
382
100
AcDbEntity
  8
0
100
AcDbCircle
 62
7
  6
CONTINUOUS
 10
218.9485019557
 20
230.8321161876
 40
5.6935435418
100
AcDbArc
 50
0.0030738516
 51
1.0308092284
  0
ARC
  5
383
100
AcDbEntity
  8
0
100
AcDbCircle
 62
7
  6
CONTINUOUS
 10
217.5524835026
 20
233.25039815
 40
5.6933749379
100
AcDbArc
 50
58.9698557389
 51
59.997487991
  0
ARC
  5
384
100
AcDbEntity
  8
0
100
AcDbCircle
 62
7
  6
CONTINUOUS
 10
68.8689998
 20
340.8951224979
 40
5.197053523
100
AcDbArc
 50
29.8558852779
 51
34.223695744
  0
ARC
  5
385
100
AcDbEntity
  8
0
100
AcDbCircle
 62
7
  6
CONTINUOUS
 10
65.8460526706
 20
339.1520396848
 40
5.1756771106
100
AcDbArc
 50
28.4151987346
 51
31.8368781178
  0
ARC
  5
386
100
AcDbEntity
  8
0
100
AcDbCircle
 62
7
  6
CONTINUOUS
 10
225.6528505538
 20
246.8896291632
 40
5.1756771107
100
AcDbArc
 50
28.4151987346
 51
31.8368781178
  0
ARC
  5
387
100
AcDbEntity
  8
0
100
AcDbCircle
 62
7
  6
CONTINUOUS
 10
231.5998404664
 20
250.3198467723
 40
5.1688168806
100
AcDbArc
 50
27.1203811379
 51
29.7853142845
  0
ARC
  5
388
100
AcDbEntity
  8
0
100
AcDbCircle
 62
7
  6
CONTINUOUS
 10
129.6450195345
 20
301.3179331441
 40
5.1666503177
100
AcDbArc
 50
150.002368038
 51
153.6261427039
  0
ARC
  5
389
100
AcDbEntity
  8
0
100
AcDbCircle
 62
7
  6
CONTINUOUS
 10
65.8953784744
 20
339.1819701969
 40
5.1179838169
100
AcDbArc
 50
31.8435047542
 51
33.4602393132
  0
ARC
  5
38A
100
AcDbEntity
  8
0
100
AcDbCircle
 62
7
  6
CONTINUOUS
 10
225.7021763576
 20
246.9195596754
 40
5.1179838168
100
AcDbArc
 50
31.8435047542
 51
33.4602393132
  0
ARC
  5
38B
100
AcDbEntity
  8
0
100
AcDbCircle
 62
7
  6
CONTINUOUS
 10
123.235823208
 20
305.0155554507
 40
5.1157710078
100
AcDbArc
 50
149.9767291054
 51
157.7999659688
  0
ARC
  5
38C
100
AcDbEntity
  8
0
100
AcDbCircle
 62
7
  6
CONTINUOUS
 10
231.6520114851
 20
250.3469877282
 40
5.1100095243
100
AcDbArc
 50
26.4982056302
 51
27.11618694
  0
ARC
  5
38D
100
AcDbEntity
  8
0
100
AcDbCircle
 62
7
  6
CONTINUOUS
 10
129.5929383103
 20
301.3430845395
 40
5.1088171121
100
AcDbArc
 50
153.6193872347
 51
156.333555211
  0
ARC
  5
38E
100
AcDbEntity
  8
0
100
AcDbCircle
 62
7
  6
CONTINUOUS
 10
62.9701842293
 20
345.7226974941
 40
4.5977433403
100
AcDbArc
 50
35.1003739407
 51
39.5820187727
  0
ARC
  5
38F
100
AcDbEntity
  8
0
100
AcDbCircle
 62
7
  6
CONTINUOUS
 10
63.1780726486
 20
345.8267940976
 40
4.4905605352
100
AcDbArc
 50
32.4453761803
 51
39.5566089644
  0
ARC
  5
390
100
AcDbEntity
  8
0
100
AcDbCircle
 62
7
  6
CONTINUOUS
 10
218.2228825213
 20
167.288763247
 40
3.2343008577
100
AcDbArc
 50
180.028446541
 51
183.1290128952
  0
ARC
  5
391
100
AcDbEntity
  8
0
100
AcDbCircle
 62
7
  6
CONTINUOUS
 10
219.814264504
 20
243.3675265712
 40
3.133167658
100
AcDbArc
 50
21.8545005316
 51
30.0293700106
  0
ARC
  5
392
100
AcDbEntity
  8
0
100
AcDbCircle
 62
7
  6
CONTINUOUS
 10
66.4313971079
 20
340.262248146
 40
3.0472683465
100
AcDbArc
 50
180.0314920602
 51
183.2959837011
  0
ARC
  5
393
100
AcDbEntity
  8
0
100
AcDbCircle
 62
7
  6
CONTINUOUS
 10
226.2381949912
 20
247.9998376244
 40
3.0472683466
100
AcDbArc
 50
180.0314920603
 51
183.295983701
  0
ARC
  5
394
100
AcDbEntity
  8
0
100
AcDbCircle
 62
7
  6
CONTINUOUS
 10
60.1537741922
 20
335.7133618662
 40
2.9833479263
100
AcDbArc
 50
20.6476140271
 51
30.0482456705
  0
ARC
  5
395
100
AcDbEntity
  8
0
100
AcDbCircle
 62
7
  6
CONTINUOUS
 10
217.897610228
 20
167.288904484
 40
2.9090286904
100
AcDbArc
 50
175.9902908062
 51
180.0344090654
  0
ARC
  5
396
100
AcDbEntity
  8
0
100
AcDbCircle
 62
7
  6
CONTINUOUS
 10
218.49884257
 20
168.8651004406
 40
2.5353871457
100
AcDbArc
 50
29.994708912
 51
35.5489885156
  0
ARC
  5
397
100
AcDbEntity
  8
0
100
AcDbCircle
 62
7
  6
CONTINUOUS
 10
215.6313960081
 20
122.9548089962
 40
1.9704892362
100
AcDbArc
 50
210.0012119352
 51
219.9061514591
  0
ARC
  5
398
100
AcDbEntity
  8
0
100
AcDbCircle
 62
7
  6
CONTINUOUS
 10
216.2196589361
 20
167.0371101654
 40
1.9199518661
100
AcDbArc
 50
74.8947565733
 51
78.7725260595
  0
ARC
  5
399
100
AcDbEntity
  8
0
100
AcDbCircle
 62
7
  6
CONTINUOUS
 10
216.2479130758
 20
167.1752244211
 40
1.77897983
100
AcDbArc
 50
78.7989975108
 51
80.9259501689
  0
ARC
  5
39A
100
AcDbEntity
  8
0
100
AcDbCircle
 62
7
  6
CONTINUOUS
 10
226.8640215386
 20
249.4234972559
 40
1.5684428435
100
AcDbArc
 50
81.2943088203
 51
84.1091512977
  0
ARC
  5
39B
100
AcDbEntity
  8
0
100
AcDbCircle
 62
7
  6
CONTINUOUS
 10
67.0572236554
 20
341.6859077775
 40
1.5684428435
100
AcDbArc
 50
81.2943088202
 51
84.1091512978
  0
ARC
  5
39C
100
AcDbEntity
  8
0
100
AcDbCircle
 62
7
  6
CONTINUOUS
 10
218.7593372557
 20
165.0838544032
 40
1.5399438021
100
AcDbArc
 50
292.9374580672
 51
299.9927877373
  0
ARC
  5
39D
100
AcDbEntity
  8
0
100
AcDbCircle
 62
7
  6
CONTINUOUS
 10
214.9348301397
 20
123.0038116491
 40
1.466535002
100
AcDbArc
 50
180.0436238585
 51
183.8143219748
  0
ARC
  5
39E
100
AcDbEntity
  8
0
100
AcDbCircle
 62
7
  6
CONTINUOUS
 10
219.2264202964
 20
169.6495247147
 40
1.458227113
100
AcDbArc
 50
56.0520083315
 51
59.9538888674
  0
ARC
  5
39F
100
AcDbEntity
  8
0
100
AcDbCircle
 62
7
  6
CONTINUOUS
 10
219.5422615622
 20
169.1025685993
 40
1.4581699141
100
AcDbArc
 50
0.0465892428
 51
3.9449477538
  0
ARC
  5
3A0
100
AcDbEntity
  8
0
100
AcDbCircle
 62
7
  6
CONTINUOUS
 10
230.8058766781
 20
251.9720457409
 40
1.1815815992
100
AcDbArc
 50
142.3855430864
 51
144.0490954178
  0
ARC
  5
3A1
100
AcDbEntity
  8
0
100
AcDbCircle
 62
7
  6
CONTINUOUS
 10
70.9918365713
 20
344.2398500003
 40
1.1725522581
100
AcDbArc
 50
141.2581401382
 51
144.054689895
  0
ARC
  5
3A2
100
AcDbEntity
  8
0
100
AcDbCircle
 62
7
  6
CONTINUOUS
 10
226.8547723846
 20
249.8616898084
 40
1.1280816641
100
AcDbArc
 50
101.1558871959
 51
104.2433025453
  0
ARC
  5
3A3
100
AcDbEntity
  8
0
100
AcDbCircle
 62
7
  6
CONTINUOUS
 10
67.0479745013
 20
342.12410033
 40
1.1280816642
100
AcDbArc
 50
101.155887196
 51
104.2433025453
  0
ARC
  5
3A4
100
AcDbEntity
  8
0
100
AcDbCircle
 62
7
  6
CONTINUOUS
 10
230.6782483577
 20
252.0933374925
 40
1.004972457
100
AcDbArc
 50
119.9670704347
 51
127.9572191127
  0
ARC
  5
3A5
100
AcDbEntity
  8
0
100
AcDbCircle
 62
7
  6
CONTINUOUS
 10
122.423760659
 20
309.5039831952
 40
0.9755033471
100
AcDbArc
 50
80.4827496087
 51
97.4394966235
  0
ARC
  5
3A6
100
AcDbEntity
  8
0
100
AcDbCircle
 62
7
  6
CONTINUOUS
 10
214.1037374497
 20
173.9865654392
 40
0.6048607385
100
AcDbArc
 50
142.0571930368
 51
148.8963994057
  0
ARC
  5
3A7
100
AcDbEntity
  8
0
100
AcDbCircle
 62
7
  6
CONTINUOUS
 10
220.7406603925
 20
118.3191695059
 40
0.6022911338
100
AcDbArc
 50
270.9176382678
 51
277.7951753563
  0
ARC
  5
3A8
100
AcDbEntity
  8
0
100
AcDbCircle
 62
7
  6
CONTINUOUS
 10
1319.735311648
 20
-1687.796662319
 40
2221.7922428266
100
AcDbArc
 50
119.040103439
 51
119.1841905924
  0
SPLINE
  5
3A9
100
AcDbEntity
  8
0
100
AcDbSpline
 62
7
  6
CONTINUOUS
 70
0
 71
3
 72
11
 73
7
 74
0
 42
0.0000001
 43
0.0000001
 44
0.0000000001
 40
0.0
 40
0.0
 40
0.0
 40
0.0
 40
0.2895207639
 40
0.5483127662
 40
0.7818367418
 40
1.0
 40
1.0
 40
1.0
 40
1.0
 10
125.2561718815
 20
314.2175804058
 30
0.0
 10
125.2561718815
 20
314.2429949428
 30
0.0
 10
125.2520588173
 20
314.2913031645
 30
0.0
 10
125.2318231529
 20
314.3575119693
 30
0.0
 10
125.198692167
 20
314.4112881137
 30
0.0
 10
125.1677640581
 20
314.4374924726
 30
0.0
 10
125.1511789952
 20
314.4470676519
 30
0.0
  0
SPLINE
  5
3AA
100
AcDbEntity
  8
0
100
AcDbSpline
 62
7
  6
CONTINUOUS
 70
0
 71
3
 72
11
 73
7
 74
0
 42
0.0000001
 43
0.0000001
 44
0.0000000001
 40
0.0
 40
0.0
 40
0.0
 40
0.0
 40
0.2843552353
 40
0.5438361708
 40
0.7807094916
 40
1.0
 40
1.0
 40
1.0
 40
1.0
 10
119.47939666
 20
316.4726980489
 30
0.0
 10
119.4978240616
 20
316.4833370507
 30
0.0
 10
119.5345607965
 20
316.5012777359
 30
0.0
 10
119.5908904187
 20
316.517915338
 30
0.0
 10
119.6446212843
 20
316.5227261193
 30
0.0
 10
119.6788261505
 20
316.5174611218
 30
0.0
 10
119.6945088005
 20
316.5126319069
 30
0.0
  0
SPLINE
  5
3AB
100
AcDbEntity
  8
0
100
AcDbSpline
 62
7
  6
CONTINUOUS
 70
0
 71
3
 72
11
 73
7
 74
0
 42
0.0000001
 43
0.0000001
 44
0.0000000001
 40
0.0
 40
0.0
 40
0.0
 40
0.0
 40
0.2372314069
 40
0.500001618
 40
0.7627709484
 40
1.0
 40
1.0
 40
1.0
 40
1.0
 10
118.8922255707
 20
315.8887459609
 30
0.0
 10
118.8922363404
 20
315.9235202915
 30
0.0
 10
118.9052673381
 20
315.9968596768
 30
0.0
 10
118.9507387634
 20
316.0999128909
 30
0.0
 10
119.0172490725
 20
316.190818975
 30
0.0
 10
119.0742469074
 20
316.2387736906
 30
0.0
 10
119.1043567222
 20
316.2561699323
 30
0.0
  0
SPLINE
  5
3AC
100
AcDbEntity
  8
0
100
AcDbSpline
 62
7
  6
CONTINUOUS
 70
0
 71
3
 72
11
 73
7
 74
0
 42
0.0000001
 43
0.0000001
 44
0.0000000001
 40
0.0
 40
0.0
 40
0.0
 40
0.0
 40
0.2372290516
 40
0.499998382
 40
0.7627685931
 40
1.0
 40
1.0
 40
1.0
 40
1.0
 10
120.5185761725
 20
315.4396884233
 30
0.0
 10
120.4884663577
 20
315.4222921815
 30
0.0
 10
120.4314685228
 20
315.3743374659
 30
0.0
 10
120.3649582137
 20
315.2834313819
 30
0.0
 10
120.3194867884
 20
315.1803781677
 30
0.0
 10
120.3064557907
 20
315.1070387825
 30
0.0
 10
120.306445021
 20
315.0722644518
 30
0.0
  0
SPLINE
  5
3AD
100
AcDbEntity
  8
0
100
AcDbSpline
 62
7
  6
CONTINUOUS
 70
0
 71
3
 72
11
 73
7
 74
0
 42
0.0000001
 43
0.0000001
 44
0.0000000001
 40
0.0
 40
0.0
 40
0.0
 40
0.0
 40
0.2192905084
 40
0.4561638292
 40
0.7156447647
 40
1.0
 40
1.0
 40
1.0
 40
1.0
 10
121.1087282508
 20
315.6961503978
 30
0.0
 10
121.0930456008
 20
315.7009796128
 30
0.0
 10
121.0588407346
 20
315.7062446103
 30
0.0
 10
121.005109869
 20
315.701433829
 30
0.0
 10
120.9487802468
 20
315.6847962269
 30
0.0
 10
120.9120435119
 20
315.6668555416
 30
0.0
 10
120.8936161103
 20
315.6562165398
 30
0.0
  0
SPLINE
  5
3AE
100
AcDbEntity
  8
0
100
AcDbSpline
 62
7
  6
CONTINUOUS
 70
0
 71
3
 72
11
 73
7
 74
0
 42
0.0000001
 43
0.0000001
 44
0.0000000001
 40
0.0
 40
0.0
 40
0.0
 40
0.0
 40
0.2843552348
 40
0.5438361701
 40
0.7807094911
 40
1.0
 40
1.0
 40
1.0
 40
1.0
 10
132.9144814378
 20
308.716123713
 30
0.0
 10
132.9329088394
 20
308.7267627148
 30
0.0
 10
132.9696455743
 20
308.7447034
 30
0.0
 10
133.0259751965
 20
308.7613410021
 30
0.0
 10
133.0797060621
 20
308.7661517834
 30
0.0
 10
133.1139109284
 20
308.760886786
 30
0.0
 10
133.1295935785
 20
308.7560575711
 30
0.0
  0
SPLINE
  5
3AF
100
AcDbEntity
  8
0
100
AcDbSpline
 62
7
  6
CONTINUOUS
 70
0
 71
3
 72
11
 73
7
 74
0
 42
0.0000001
 43
0.0000001
 44
0.0000000001
 40
0.0
 40
0.0
 40
0.0
 40
0.0
 40
0.2372314073
 40
0.5000016182
 40
0.7627709484
 40
1.0
 40
1.0
 40
1.0
 40
1.0
 10
132.3273103485
 20
308.1321716258
 30
0.0
 10
132.3273211184
 20
308.1669459565
 30
0.0
 10
132.3403521164
 20
308.2402853415
 30
0.0
 10
132.3858235418
 20
308.3433385554
 30
0.0
 10
132.4523338508
 20
308.4342446392
 30
0.0
 10
132.5093316855
 20
308.4821993548
 30
0.0
 10
132.5394415002
 20
308.4995955966
 30
0.0
  0
SPLINE
  5
3B0
100
AcDbEntity
  8
0
100
AcDbSpline
 62
7
  6
CONTINUOUS
 70
0
 71
3
 72
11
 73
7
 74
0
 42
0.0000001
 43
0.0000001
 44
0.0000000001
 40
0.0
 40
0.0
 40
0.0
 40
0.0
 40
0.2895207552
 40
0.5483127594
 40
0.7818367419
 40
1.0
 40
1.0
 40
1.0
 40
1.0
 10
138.6912566593
 20
306.4610060699
 30
0.0
 10
138.6912566592
 20
306.4864205988
 30
0.0
 10
138.6871435972
 20
306.5347288059
 30
0.0
 10
138.6669079456
 20
306.6009375934
 30
0.0
 10
138.6337769814
 20
306.6547137298
 30
0.0
 10
138.6028488919
 20
306.6809180933
 30
0.0
 10
138.5862638382
 20
306.6904932776
 30
0.0
  0
SPLINE
  5
3B1
100
AcDbEntity
  8
0
100
AcDbSpline
 62
7
  6
CONTINUOUS
 70
0
 71
3
 72
11
 73
7
 74
0
 42
0.0000001
 43
0.0000001
 44
0.0000000001
 40
0.0
 40
0.0
 40
0.0
 40
0.0
 40
0.2372290516
 40
0.4999983818
 40
0.7627685927
 40
1.0
 40
1.0
 40
1.0
 40
1.0
 10
133.9536609505
 20
307.6831140875
 30
0.0
 10
133.9235511358
 20
307.6657178457
 30
0.0
 10
133.8665533011
 20
307.6177631301
 30
0.0
 10
133.8000429921
 20
307.5268570463
 30
0.0
 10
133.7545715667
 20
307.4238038325
 30
0.0
 10
133.7415405687
 20
307.3504644474
 30
0.0
 10
133.7415297988
 20
307.3156901168
 30
0.0
  0
SPLINE
  5
3B2
100
AcDbEntity
  8
0
100
AcDbSpline
 62
7
  6
CONTINUOUS
 70
0
 71
3
 72
11
 73
7
 74
0
 42
0.0000001
 43
0.0000001
 44
0.0000000001
 40
0.0
 40
0.0
 40
0.0
 40
0.0
 40
0.2192905089
 40
0.4561638299
 40
0.7156447652
 40
1.0
 40
1.0
 40
1.0
 40
1.0
 10
134.5438130288
 20
307.939576062
 30
0.0
 10
134.5281303787
 20
307.9444052769
 30
0.0
 10
134.4939255124
 20
307.9496702744
 30
0.0
 10
134.4401946468
 20
307.9448594931
 30
0.0
 10
134.3838650246
 20
307.9282218909
 30
0.0
 10
134.3471282897
 20
307.9102812057
 30
0.0
 10
134.3287008881
 20
307.899642204
 30
0.0
  0
SPLINE
  5
3B3
100
AcDbEntity
  8
0
100
AcDbSpline
 62
7
  6
CONTINUOUS
 70
0
 71
3
 72
11
 73
7
 74
0
 42
0.0000001
 43
0.0000001
 44
0.0000000001
 40
0.0
 40
0.0
 40
0.0
 40
0.0
 40
0.2887122226
 40
0.5547624855
 40
0.7899540553
 40
1.0
 40
1.0
 40
1.0
 40
1.0
 10
243.259517637
 20
90.2441822492
 30
0.0
 10
243.3944805659
 20
89.9787542136
 30
0.0
 10
243.60579325
 20
89.4420874168
 30
0.0
 10
243.7359387401
 20
88.6301915458
 30
0.0
 10
243.6493573165
 20
87.8891453958
 30
0.0
 10
243.4065985707
 20
87.4744640848
 30
0.0
 10
243.2492974607
 20
87.3255096302
 30
0.0
  0
SPLINE
  5
3B4
100
AcDbEntity
  8
0
100
AcDbSpline
 62
7
  6
CONTINUOUS
 70
0
 71
3
 72
9
 73
5
 74
0
 42
0.0000001
 43
0.0000001
 44
0.0000000001
 40
0.0
 40
0.0
 40
0.0
 40
0.0
 40
0.2192805078
 40
1.0
 40
1.0
 40
1.0
 40
1.0
 10
139.5608656274
 20
306.9344542442
 30
0.0
 10
139.5603878387
 20
306.9165385887
 30
0.0
 10
139.5432760362
 20
306.8346735957
 30
0.0
 10
139.4720112008
 20
306.7757863959
 30
0.0
 10
139.4158943177
 20
306.7454139313
 30
0.0
  0
SPLINE
  5
3B5
100
AcDbEntity
  8
0
100
AcDbSpline
 62
7
  6
CONTINUOUS
 70
0
 71
3
 72
9
 73
5
 74
0
 42
0.0000001
 43
0.0000001
 44
0.0000000001
 40
0.0
 40
0.0
 40
0.0
 40
0.0
 40
0.219280509
 40
1.0
 40
1.0
 40
1.0
 40
1.0
 10
126.1249907249
 20
314.6910267031
 30
0.0
 10
126.1245110962
 20
314.6730420646
 30
0.0
 10
126.1073334048
 20
314.5908618568
 30
0.0
 10
126.0357941701
 20
314.531747916
 30
0.0
 10
125.9794612131
 20
314.5012585044
 30
0.0
  0
SPLINE
  5
3B6
100
AcDbEntity
  8
0
100
AcDbSpline
 62
7
  6
CONTINUOUS
 70
0
 71
3
 72
9
 73
5
 74
0
 42
0.0000001
 43
0.0000001
 44
0.0000000001
 40
0.0
 40
0.0
 40
0.0
 40
0.0
 40
0.2192805062
 40
1.0
 40
1.0
 40
1.0
 40
1.0
 10
130.0059256627
 20
306.1177312198
 30
0.0
 10
130.0054284034
 20
306.0990854671
 30
0.0
 10
129.9876192638
 20
306.0138843184
 30
0.0
 10
129.9134502489
 20
305.9525973525
 30
0.0
 10
129.8550464951
 20
305.9209871517
 30
0.0
  0
SPLINE
  5
3B7
100
AcDbEntity
  8
0
100
AcDbSpline
 62
7
  6
CONTINUOUS
 70
0
 71
3
 72
10
 73
6
 74
0
 42
0.0000001
 43
0.0000001
 44
0.0000000001
 40
0.0
 40
0.0
 40
0.0
 40
0.0
 40
0.4933687081
 40
0.7449957332
 40
1.0
 40
1.0
 40
1.0
 40
1.0
 10
250.6716534248
 20
98.2804701567
 30
0.0
 10
251.5909672772
 20
99.2096920917
 30
0.0
 10
253.0530733435
 20
100.5433952534
 30
0.0
 10
255.1586156864
 20
102.1531846504
 30
0.0
 10
256.2831929068
 20
102.890184914
 30
0.0
 10
256.8675378717
 20
103.2292829547
 30
0.0
  0
SPLINE
  5
3B8
100
AcDbEntity
  8
0
100
AcDbSpline
 62
7
  6
CONTINUOUS
 70
0
 71
3
 72
11
 73
7
 74
0
 42
0.0000001
 43
0.0000001
 44
0.0000000001
 40
0.0
 40
0.0
 40
0.0
 40
0.0
 40
0.2147093703
 40
0.4499635326
 40
0.7125837958
 40
1.0
 40
1.0
 40
1.0
 40
1.0
 10
64.3948932431
 20
349.719646854
 30
0.0
 10
64.572654087
 20
349.7752037596
 30
0.0
 10
64.976557785
 20
349.7991458058
 30
0.0
 10
65.5724894057
 20
349.6019261719
 30
0.0
 10
66.1444243374
 20
349.221084205
 30
0.0
 10
66.4813118411
 20
348.87861697
 30
0.0
 10
66.6402757518
 20
348.6865639472
 30
0.0
  0
SPLINE
  5
3B9
100
AcDbEntity
  8
0
100
AcDbSpline
 62
7
  6
CONTINUOUS
 70
0
 71
3
 72
11
 73
7
 74
0
 42
0.0000001
 43
0.0000001
 44
0.0000000001
 40
0.0
 40
0.0
 40
0.0
 40
0.0
 40
0.288610418
 40
0.5484077117
 40
0.7822687893
 40
1.0
 40
1.0
 40
1.0
 40
1.0
 10
243.1876786576
 20
86.8782797621
 30
0.0
 10
243.1876693802
 20
86.7248263826
 30
0.0
 10
243.1648801963
 20
86.4323524678
 30
0.0
 10
243.0508674941
 20
86.0288522958
 30
0.0
 10
242.858783938
 20
85.6975768876
 30
0.0
 10
242.6774842103
 20
85.5327474074
 30
0.0
 10
242.5799516628
 20
85.4703821698
 30
0.0
  0
SPLINE
  5
3BA
100
AcDbEntity
  8
0
100
AcDbSpline
 62
7
  6
CONTINUOUS
 70
0
 71
3
 72
11
 73
7
 74
0
 42
0.0000001
 43
0.0000001
 44
0.0000000001
 40
0.0
 40
0.0
 40
0.0
 40
0.0
 40
0.2177283773
 40
0.4515350839
 40
0.7113174181
 40
1.0
 40
1.0
 40
1.0
 40
1.0
 10
62.3735075482
 20
350.108482748
 30
0.0
 10
62.476326132
 20
350.1622369549
 30
0.0
 10
62.7100161595
 20
350.2377035929
 30
0.0
 10
63.0937989978
 20
350.2390918593
 30
0.0
 10
63.5012569049
 20
350.1361819295
 30
0.0
 10
63.7665893614
 20
350.0094332555
 30
0.0
 10
63.8998172948
 20
349.9325265517
 30
0.0
  0
SPLINE
  5
3BB
100
AcDbEntity
  8
0
100
AcDbSpline
 62
7
  6
CONTINUOUS
 70
0
 71
3
 72
9
 73
5
 74
0
 42
0.0000001
 43
0.0000001
 44
0.0000000001
 40
0.0
 40
0.0
 40
0.0
 40
0.0
 40
0.7444561869
 40
1.0
 40
1.0
 40
1.0
 40
1.0
 10
240.4652148047
 20
248.0676989784
 30
0.0
 10
240.5798113664
 20
248.1035146857
 30
0.0
 10
240.7423221292
 20
248.1278074695
 30
0.0
 10
240.9035398429
 20
248.122855112
 30
0.0
 10
240.9446465398
 20
248.1198951022
 30
0.0
  0
SPLINE
  5
3BC
100
AcDbEntity
  8
0
100
AcDbSpline
 62
7
  6
CONTINUOUS
 70
0
 71
3
 72
9
 73
5
 74
0
 42
0.0000001
 43
0.0000001
 44
0.0000000001
 40
0.0
 40
0.0
 40
0.0
 40
0.0
 40
0.2425171941
 40
1.0
 40
1.0
 40
1.0
 40
1.0
 10
240.9446465398
 20
248.1198951022
 30
0.0
 10
240.9846058021
 20
248.1170177168
 30
0.0
 10
241.1488802356
 20
248.0984762041
 30
0.0
 10
241.3098499897
 20
248.0546608671
 30
0.0
 10
241.4271495363
 20
248.0110833107
 30
0.0
  0
SPLINE
  5
3BD
100
AcDbEntity
  8
0
100
AcDbSpline
 62
7
  6
CONTINUOUS
 70
0
 71
3
 72
9
 73
5
 74
0
 42
0.0000001
 43
0.0000001
 44
0.0000000001
 40
0.0
 40
0.0
 40
0.0
 40
0.0
 40
0.2297543379
 40
1.0
 40
1.0
 40
1.0
 40
1.0
 10
241.4271495363
 20
248.0110833107
 30
0.0
 10
241.5436963014
 20
247.9677854176
 30
0.0
 10
242.0338913923
 20
247.7334344519
 30
0.0
 10
242.4448281702
 20
247.3557063562
 30
0.0
 10
242.7105973134
 20
247.0346160716
 30
0.0
  0
SPLINE
  5
3BE
100
AcDbEntity
  8
0
100
AcDbSpline
 62
7
  6
CONTINUOUS
 70
0
 71
3
 72
9
 73
5
 74
0
 42
0.0000001
 43
0.0000001
 44
0.0000000001
 40
0.0
 40
0.0
 40
0.0
 40
0.0
 40
0.5313593812
 40
1.0
 40
1.0
 40
1.0
 40
1.0
 10
242.7105973134
 20
247.0346160716
 30
0.0
 10
243.0716213949
 20
246.5984430693
 30
0.0
 10
243.5997751421
 20
245.6505716247
 30
0.0
 10
243.7570277312
 20
244.5418754179
 30
0.0
 10
243.655201714
 20
244.0529961822
 30
0.0
  0
SPLINE
  5
3BF
100
AcDbEntity
  8
0
100
AcDbSpline
 62
7
  6
CONTINUOUS
 70
0
 71
3
 72
9
 73
5
 74
0
 42
0.0000001
 43
0.0000001
 44
0.0000000001
 40
0.0
 40
0.0
 40
0.0
 40
0.0
 40
0.2573351304
 40
1.0
 40
1.0
 40
1.0
 40
1.0
 10
243.655201714
 20
244.0529961822
 30
0.0
 10
243.6475300327
 20
244.0161634962
 30
0.0
 10
243.6136408348
 20
243.8739480723
 30
0.0
 10
243.5625315748
 20
243.7355546023
 30
0.0
 10
243.5138833525
 20
243.6384828797
 30
0.0
  0
SPLINE
  5
3C0
100
AcDbEntity
  8
0
100
AcDbSpline
 62
7
  6
CONTINUOUS
 70
0
 71
3
 72
9
 73
5
 74
0
 42
0.0000001
 43
0.0000001
 44
0.0000000001
 40
0.0
 40
0.0
 40
0.0
 40
0.0
 40
0.2551123601
 40
1.0
 40
1.0
 40
1.0
 40
1.0
 10
243.5138833525
 20
243.6384828797
 30
0.0
 10
243.4967823869
 20
243.6043599434
 30
0.0
 10
243.4246304373
 20
243.4732740681
 30
0.0
 10
243.3302188729
 20
243.3540988909
 30
0.0
 10
243.2492974607
 20
243.2774713019
 30
0.0
  0
SPLINE
  5
3C1
100
AcDbEntity
  8
0
100
AcDbSpline
 62
7
  6
CONTINUOUS
 70
0
 71
3
 72
9
 73
5
 74
0
 42
0.0000001
 43
0.0000001
 44
0.0000000001
 40
0.0
 40
0.0
 40
0.0
 40
0.0
 40
0.2476563281
 40
1.0
 40
1.0
 40
1.0
 40
1.0
 10
236.8318567981
 20
252.2238861974
 30
0.0
 10
236.8119826783
 20
252.2890629391
 30
0.0
 10
236.7249793002
 20
252.5501436662
 30
0.0
 10
236.6120806969
 20
252.8024827989
 30
0.0
 10
236.5146572437
 20
252.9851210802
 30
0.0
  0
SPLINE
  5
3C2
100
AcDbEntity
  8
0
100
AcDbSpline
 62
7
  6
CONTINUOUS
 70
0
 71
3
 72
12
 73
8
 74
0
 42
0.0000001
 43
0.0000001
 44
0.0000000001
 40
0.0
 40
0.0
 40
0.0
 40
0.0
 40
0.2699894542
 40
0.5249109398
 40
0.7635725543
 40
0.8813752191
 40
1.0
 40
1.0
 40
1.0
 40
1.0
 10
236.5146572437
 20
252.9851210802
 30
0.0
 10
236.3357245899
 20
253.3205634328
 30
0.0
 10
235.9035169133
 20
253.9318638834
 30
0.0
 10
235.0606434574
 20
254.6238201401
 30
0.0
 10
234.2106042302
 20
254.898255524
 30
0.0
 10
233.5356701841
 20
254.8447483784
 30
0.0
 10
233.2199849055
 20
254.7213900729
 30
0.0
 10
233.075323852
 20
254.6378704732
 30
0.0
  0
SPLINE
  5
3C3
100
AcDbEntity
  8
0
100
AcDbSpline
 62
7
  6
CONTINUOUS
 70
0
 71
3
 72
8
 73
4
 74
0
 42
0.0000001
 43
0.0000001
 44
0.0000000001
 40
0.0
 40
0.0
 40
0.0
 40
0.0
 40
1.0
 40
1.0
 40
1.0
 40
1.0
 10
230.0601170122
 20
252.885728355
 30
0.0
 10
229.9889879703
 20
252.8302434539
 30
0.0
 10
229.9249673282
 20
252.7646739298
 30
0.0
 10
229.8699037512
 20
252.6932182278
 30
0.0
  0
SPLINE
  5
3C4
100
AcDbEntity
  8
0
100
AcDbSpline
 62
7
  6
CONTINUOUS
 70
0
 71
3
 72
9
 73
5
 74
0
 42
0.0000001
 43
0.0000001
 44
0.0000000001
 40
0.0
 40
0.0
 40
0.0
 40
0.0
 40
0.2242098815
 40
1.0
 40
1.0
 40
1.0
 40
1.0
 10
229.8493623203
 20
252.6657426193
 30
0.0
 10
229.7999709038
 20
252.5976465454
 30
0.0
 10
229.6118933514
 20
252.2701818742
 30
0.0
 10
229.5548622287
 20
251.8817842868
 30
0.0
 10
229.5548622287
 20
251.5907116175
 30
0.0
  0
SPLINE
  5
3C5
100
AcDbEntity
  8
0
100
AcDbSpline
 62
7
  6
CONTINUOUS
 70
0
 71
3
 72
8
 73
4
 74
0
 42
0.0000001
 43
0.0000001
 44
0.0000000001
 40
0.0
 40
0.0
 40
0.0
 40
0.0
 40
1.0
 40
1.0
 40
1.0
 40
1.0
 10
226.3079055407
 20
250.8460364907
 30
0.0
 10
226.3917803643
 20
250.8944656762
 30
0.0
 10
226.4833480743
 20
250.9312487918
 30
0.0
 10
226.5772191771
 20
250.9550938774
 30
0.0
  0
SPLINE
  5
3C6
100
AcDbEntity
  8
0
100
AcDbSpline
 62
7
  6
CONTINUOUS
 70
0
 71
3
 72
9
 73
5
 74
0
 42
0.0000001
 43
0.0000001
 44
0.0000000001
 40
0.0
 40
0.0
 40
0.0
 40
0.0
 40
0.241753955
 40
1.0
 40
1.0
 40
1.0
 40
1.0
 10
226.6365122238
 20
250.968455702
 30
0.0
 10
226.6673145603
 20
250.9745350726
 30
0.0
 10
226.7957406873
 20
250.9944675714
 30
0.0
 10
226.9270408437
 20
250.9937401566
 30
0.0
 10
227.0249965701
 20
250.9836575017
 30
0.0
  0
SPLINE
  5
3C7
100
AcDbEntity
  8
0
100
AcDbSpline
 62
7
  6
CONTINUOUS
 70
0
 71
3
 72
9
 73
5
 74
0
 42
0.0000001
 43
0.0000001
 44
0.0000000001
 40
0.0
 40
0.0
 40
0.0
 40
0.0
 40
0.2323575929
 40
1.0
 40
1.0
 40
1.0
 40
1.0
 10
227.101419489
 20
250.9738698455
 30
0.0
 10
227.1634131992
 20
250.964392258
 30
0.0
 10
227.4278143355
 20
250.9079308096
 30
0.0
 10
227.6783987971
 20
250.7962211202
 30
0.0
 10
227.8578306831
 20
250.6926284161
 30
0.0
  0
SPLINE
  5
3C8
100
AcDbEntity
  8
0
100
AcDbSpline
 62
7
  6
CONTINUOUS
 70
0
 71
3
 72
11
 73
7
 74
0
 42
0.0000001
 43
0.0000001
 44
0.0000000001
 40
0.0
 40
0.0
 40
0.0
 40
0.0
 40
0.217745073
 40
0.4508830113
 40
0.7104597664
 40
1.0
 40
1.0
 40
1.0
 40
1.0
 10
223.8330609199
 20
249.4171489272
 30
0.0
 10
223.7308224714
 20
249.3581218351
 30
0.0
 10
223.5393408515
 20
249.1975128756
 30
0.0
 10
223.3356509783
 20
248.8643211007
 30
0.0
 10
223.2148962722
 20
248.4538476321
 30
0.0
 10
223.1909271049
 20
248.1551424772
 30
0.0
 10
223.1909271049
 20
247.9981627235
 30
0.0
  0
SPLINE
  5
3C9
100
AcDbEntity
  8
0
100
AcDbSpline
 62
7
  6
CONTINUOUS
 70
0
 71
3
 72
11
 73
7
 74
0
 42
0.0000001
 43
0.0000001
 44
0.0000000001
 40
0.0
 40
0.0
 40
0.0
 40
0.0
 40
0.2372200201
 40
0.4999989082
 40
0.7627783905
 40
1.0
 40
1.0
 40
1.0
 40
1.0
 10
225.6478463445
 20
242.3925532525
 30
0.0
 10
226.3953554818
 20
241.9609281587
 30
0.0
 10
227.8100662058
 20
240.7702591532
 30
0.0
 10
229.4612871892
 20
238.5138100821
 30
0.0
 10
230.589832842
 20
235.9555860193
 30
0.0
 10
230.9136402851
 20
234.1350710855
 30
0.0
 10
230.9136924676
 20
233.2718908535
 30
0.0
  0
SPLINE
  5
3CA
100
AcDbEntity
  8
0
100
AcDbSpline
 62
7
  6
CONTINUOUS
 70
0
 71
3
 72
11
 73
7
 74
0
 42
0.0000001
 43
0.0000001
 44
0.0000000001
 40
0.0
 40
0.0
 40
0.0
 40
0.0
 40
0.2909753173
 40
0.5498254086
 40
0.781921575
 40
1.0
 40
1.0
 40
1.0
 40
1.0
 10
230.9136924676
 20
70.3395645289
 30
0.0
 10
230.9136685729
 20
69.9443364051
 30
0.0
 10
230.8506278088
 20
69.1947742887
 30
0.0
 10
230.5313078382
 20
68.1704439735
 30
0.0
 10
229.9903226637
 20
67.3552168109
 30
0.0
 10
229.4873667006
 20
66.9809291987
 30
0.0
 10
229.2212350915
 20
66.8508668271
 30
0.0
  0
SPLINE
  5
3CB
100
AcDbEntity
  8
0
100
AcDbSpline
 62
7
  6
CONTINUOUS
 70
0
 71
3
 72
11
 73
7
 74
0
 42
0.0000001
 43
0.0000001
 44
0.0000000001
 40
0.0
 40
0.0
 40
0.0
 40
0.0
 40
0.2372274205
 40
0.5000077029
 40
0.7627837862
 40
1.0
 40
1.0
 40
1.0
 40
1.0
 10
38.5078180108
 20
170.3141292164
 30
0.0
 10
37.8554015074
 20
170.6909230878
 30
0.0
 10
36.6206815912
 20
171.7302338954
 30
0.0
 10
35.1795634562
 20
173.6997484978
 30
0.0
 10
34.1946523278
 20
175.9325903187
 30
0.0
 10
33.9120885028
 20
177.5215255484
 30
0.0
 10
33.9120683622
 20
178.274896166
 30
0.0
  0
SPLINE
  5
3CC
100
AcDbEntity
  8
0
100
AcDbSpline
 62
7
  6
CONTINUOUS
 70
0
 71
3
 72
11
 73
7
 74
0
 42
0.0000001
 43
0.0000001
 44
0.0000000001
 40
0.0
 40
0.0
 40
0.0
 40
0.0
 40
0.2883672186
 40
0.5479358974
 40
0.7821377409
 40
1.0
 40
1.0
 40
1.0
 40
1.0
 10
33.9120684264
 20
341.8693178664
 30
0.0
 10
33.9121148793
 20
342.1829625483
 30
0.0
 10
33.9581172732
 20
342.7806294293
 30
0.0
 10
34.186725257
 20
343.60693464
 30
0.0
 10
34.572393816
 20
344.2883949532
 30
0.0
 10
34.9360377499
 20
344.6333397846
 30
0.0
 10
35.1325934995
 20
344.765686382
 30
0.0
  0
SPLINE
  5
3CD
100
AcDbEntity
  8
0
100
AcDbSpline
 62
7
  6
CONTINUOUS
 70
0
 71
3
 72
11
 73
7
 74
0
 42
0.0000001
 43
0.0000001
 44
0.0000000001
 40
0.0
 40
0.0
 40
0.0
 40
0.0
 40
0.237239768
 40
0.4999988394
 40
0.7627585384
 40
1.0
 40
1.0
 40
1.0
 40
1.0
 10
220.7199190664
 20
238.3659472991
 30
0.0
 10
221.3222570275
 20
238.0181951823
 30
0.0
 10
222.462099669
 20
237.058873524
 30
0.0
 10
223.7924509415
 20
235.2409082203
 30
0.0
 10
224.7016909905
 20
233.1798072162
 30
0.0
 10
224.9625774167
 20
231.7130092688
 30
0.0
 10
224.9625774167
 20
231.0174882696
 30
0.0
  0
SPLINE
  5
3CE
100
AcDbEntity
  8
0
100
AcDbSpline
 62
7
  6
CONTINUOUS
 70
0
 71
3
 72
11
 73
7
 74
0
 42
0.0000001
 43
0.0000001
 44
0.0000000001
 40
0.0
 40
0.0
 40
0.0
 40
0.0
 40
0.2897033281
 40
0.5490895198
 40
0.7822165953
 40
1.0
 40
1.0
 40
1.0
 40
1.0
 10
224.9625774167
 20
68.5248565057
 30
0.0
 10
224.9625774167
 20
68.2208476393
 30
0.0
 10
224.9164851998
 20
67.6426872072
 30
0.0
 10
224.6823371614
 20
66.8483250714
 30
0.0
 10
224.2881096282
 20
66.2037451205
 30
0.0
 10
223.9178103144
 20
65.8924349771
 30
0.0
 10
223.7198906657
 20
65.7781667841
 30
0.0
  0
SPLINE
  5
3CF
100
AcDbEntity
  8
0
100
AcDbSpline
 62
7
  6
CONTINUOUS
 70
0
 71
3
 72
11
 73
7
 74
0
 42
0.0000001
 43
0.0000001
 44
0.0000000001
 40
0.0
 40
0.0
 40
0.0
 40
0.0
 40
0.289702329
 40
0.5490881649
 40
0.7822156414
 40
1.0
 40
1.0
 40
1.0
 40
1.0
 10
220.3993871406
 20
66.8786735541
 30
0.0
 10
220.6626600848
 20
66.7266762875
 30
0.0
 10
221.1863948647
 20
66.4775253851
 30
0.0
 10
221.9913856429
 20
66.2831345353
 30
0.0
 10
222.7467024935
 20
66.3022590211
 30
0.0
 10
223.2014435667
 20
66.4672880781
 30
0.0
 10
223.3993587382
 20
66.581553809
 30
0.0
  0
SPLINE
  5
3D0
100
AcDbEntity
  8
0
100
AcDbSpline
 62
7
  6
CONTINUOUS
 70
0
 71
3
 72
11
 73
7
 74
0
 42
0.0000001
 43
0.0000001
 44
0.0000000001
 40
0.0
 40
0.0
 40
0.0
 40
0.0
 40
0.2372413575
 40
0.5000010231
 40
0.762760128
 40
1.0
 40
1.0
 40
1.0
 40
1.0
 10
35.2780610949
 20
178.6551175912
 30
0.0
 10
35.2780610949
 20
177.959596897
 30
0.0
 10
35.5389473345
 20
176.4927993517
 30
0.0
 10
36.4481870546
 20
174.4316985335
 30
0.0
 10
37.7785383229
 20
172.6137328528
 30
0.0
 10
38.9183812186
 20
171.654410832
 30
0.0
 10
39.5207194437
 20
171.3066585628
 30
0.0
  0
SPLINE
  5
3D1
100
AcDbEntity
  8
0
100
AcDbSpline
 62
7
  6
CONTINUOUS
 70
0
 71
3
 72
9
 73
5
 74
0
 42
0.0000001
 43
0.0000001
 44
0.0000000001
 40
0.0
 40
0.0
 40
0.0
 40
0.0
 40
0.4999988717
 40
1.0
 40
1.0
 40
1.0
 40
1.0
 10
205.055106102
 20
226.7087948561
 30
0.0
 10
205.264986124
 20
226.5876233101
 30
0.0
 10
205.5965948209
 20
226.2049279437
 30
0.0
 10
205.7622158272
 20
225.726399982
 30
0.0
 10
205.7622158272
 20
225.4840516844
 30
0.0
  0
SPLINE
  5
3D2
100
AcDbEntity
  8
0
100
AcDbSpline
 62
7
  6
CONTINUOUS
 70
0
 71
3
 72
11
 73
7
 74
0
 42
0.0000001
 43
0.0000001
 44
0.0000000001
 40
0.0
 40
0.0
 40
0.0
 40
0.0
 40
0.2895391946
 40
0.5491157945
 40
0.7822541179
 40
1.0
 40
1.0
 40
1.0
 40
1.0
 10
220.1923023188
 20
115.4168267535
 30
0.0
 10
220.3323197093
 20
115.3359895042
 30
0.0
 10
220.6110918494
 20
115.2035494096
 30
0.0
 10
221.0393956915
 20
115.0998801658
 30
0.0
 10
221.4414772806
 20
115.1099806398
 30
0.0
 10
221.6833381151
 20
115.1980634186
 30
0.0
 10
221.7886367328
 20
115.2588572912
 30
0.0
  0
SPLINE
  5
3D3
100
AcDbEntity
  8
0
100
AcDbSpline
 62
7
  6
CONTINUOUS
 70
0
 71
3
 72
11
 73
7
 74
0
 42
0.0000001
 43
0.0000001
 44
0.0000000001
 40
0.0
 40
0.0
 40
0.0
 40
0.0
 40
0.2372539654
 40
0.5000012591
 40
0.7627478695
 40
1.0
 40
1.0
 40
1.0
 40
1.0
 10
208.5199443447
 20
124.6512789124
 30
0.0
 10
208.5199443447
 20
124.2969619632
 30
0.0
 10
208.6527889313
 20
123.5497523334
 30
0.0
 10
209.1161581741
 20
122.4999481747
 30
0.0
 10
209.7936334219
 20
121.5737620163
 30
0.0
 10
210.3743142554
 20
121.0851165709
 30
0.0
 10
210.6811610967
 20
120.9079624723
 30
0.0
  0
SPLINE
  5
3D4
100
AcDbEntity
  8
0
100
AcDbSpline
 62
7
  6
CONTINUOUS
 70
0
 71
3
 72
9
 73
5
 74
0
 42
0.0000001
 43
0.0000001
 44
0.0000000001
 40
0.0
 40
0.0
 40
0.0
 40
0.0
 40
0.2345569605
 40
1.0
 40
1.0
 40
1.0
 40
1.0
 10
220.0407528525
 20
170.8591894622
 30
0.0
 10
220.0886635029
 20
170.8269918647
 30
0.0
 10
220.2853294665
 20
170.6785137045
 30
0.0
 10
220.4521364031
 20
170.4924208081
 30
0.0
 10
220.5616809977
 20
170.3391715379
 30
0.0
  0
SPLINE
  5
3D5
100
AcDbEntity
  8
0
100
AcDbSpline
 62
7
  6
CONTINUOUS
 70
0
 71
3
 72
9
 73
5
 74
0
 42
0.0000001
 43
0.0000001
 44
0.0000000001
 40
0.0
 40
0.0
 40
0.0
 40
0.0
 40
0.2635052948
 40
1.0
 40
1.0
 40
1.0
 40
1.0
 10
220.6946693048
 20
170.132591241
 30
0.0
 10
220.7377966376
 20
170.0578929241
 30
0.0
 10
220.8867434516
 20
169.7666830282
 30
0.0
 10
220.980581536
 20
169.4434094945
 30
0.0
 10
220.9969765101
 20
169.2028876845
 30
0.0
  0
SPLINE
  5
3D6
100
AcDbEntity
  8
0
100
AcDbSpline
 62
7
  6
CONTINUOUS
 70
0
 71
3
 72
9
 73
5
 74
0
 42
0.0000001
 43
0.0000001
 44
0.0000000001
 40
0.0
 40
0.0
 40
0.0
 40
0.0
 40
0.2677113232
 40
1.0
 40
1.0
 40
1.0
 40
1.0
 10
221.0004309943
 20
118.2795624614
 30
0.0
 10
221.0004309943
 20
118.2456762995
 30
0.0
 10
220.99569766
 20
118.119261734
 30
0.0
 10
220.9712893138
 20
117.9926999633
 30
0.0
 10
220.9383899529
 20
117.9060439248
 30
0.0
  0
SPLINE
  5
3D7
100
AcDbEntity
  8
0
100
AcDbSpline
 62
7
  6
CONTINUOUS
 70
0
 71
3
 72
9
 73
5
 74
0
 42
0.0000001
 43
0.0000001
 44
0.0000000001
 40
0.0
 40
0.0
 40
0.0
 40
0.0
 40
0.2699352861
 40
1.0
 40
1.0
 40
1.0
 40
1.0
 10
220.9383899529
 20
117.9060439248
 30
0.0
 10
220.9258345647
 20
117.8729733673
 30
0.0
 10
220.871536575
 20
117.7538085684
 30
0.0
 10
220.7772585754
 20
117.6510414632
 30
0.0
 10
220.6944045426
 20
117.6032059639
 30
0.0
  0
SPLINE
  5
3D8
100
AcDbEntity
  8
0
100
AcDbSpline
 62
7
  6
CONTINUOUS
 70
0
 71
3
 72
11
 73
7
 74
0
 42
0.0000001
 43
0.0000001
 44
0.0000000001
 40
0.0
 40
0.0
 40
0.0
 40
0.0
 40
0.2678368587
 40
0.5252890239
 40
0.7669995246
 40
1.0
 40
1.0
 40
1.0
 40
1.0
 10
76.7433763284
 20
345.1795402624
 30
0.0
 10
76.5956982931
 20
345.4683052282
 30
0.0
 10
76.2438748624
 20
346.0053516869
 30
0.0
 10
75.568018422
 20
346.6551807272
 30
0.0
 10
74.7750342945
 20
347.0820973785
 30
0.0
 10
74.1825141039
 20
347.1489369597
 30
0.0
 10
73.9026495281
 20
347.1130880816
 30
0.0
  0
SPLINE
  5
3D9
100
AcDbEntity
  8
0
100
AcDbSpline
 62
7
  6
CONTINUOUS
 70
0
 71
3
 72
9
 73
5
 74
0
 42
0.0000001
 43
0.0000001
 44
0.0000000001
 40
0.0
 40
0.0
 40
0.0
 40
0.0
 40
0.7468973354
 40
1.0
 40
1.0
 40
1.0
 40
1.0
 10
73.9026495281
 20
347.1130880816
 30
0.0
 10
73.7368500262
 20
347.0918502164
 30
0.0
 10
73.5169646353
 20
347.0306665102
 30
0.0
 10
73.3175810888
 20
346.9286028125
 30
0.0
 10
73.2685259688
 20
346.9002809948
 30
0.0
  0
SPLINE
  5
3DA
100
AcDbEntity
  8
0
100
AcDbSpline
 62
7
  6
CONTINUOUS
 70
0
 71
3
 72
9
 73
5
 74
0
 42
0.0000001
 43
0.0000001
 44
0.0000000001
 40
0.0
 40
0.0
 40
0.0
 40
0.0
 40
0.2609310936
 40
1.0
 40
1.0
 40
1.0
 40
1.0
 10
219.6555062479
 20
164.5927684829
 30
0.0
 10
219.6555062479
 20
164.5436384342
 30
0.0
 10
219.6509692188
 20
164.3554160809
 30
0.0
 10
219.6278241769
 20
164.1673531354
 30
0.0
 10
219.5978643195
 20
164.0314591044
 30
0.0
  0
SPLINE
  5
3DB
100
AcDbEntity
  8
0
100
AcDbSpline
 62
7
  6
CONTINUOUS
 70
0
 71
3
 72
9
 73
5
 74
0
 42
0.0000001
 43
0.0000001
 44
0.0000000001
 40
0.0
 40
0.0
 40
0.0
 40
0.0
 40
0.2587674402
 40
1.0
 40
1.0
 40
1.0
 40
1.0
 10
219.5978643195
 20
164.0314591044
 30
0.0
 10
219.5912320082
 20
164.0013757998
 30
0.0
 10
219.563150316
 20
163.8856884005
 30
0.0
 10
219.524794052
 20
163.7723810923
 30
0.0
 10
219.4898797972
 20
163.6913398679
 30
0.0
  0
SPLINE
  5
3DC
100
AcDbEntity
  8
0
100
AcDbSpline
 62
7
  6
CONTINUOUS
 70
0
 71
3
 72
9
 73
5
 74
0
 42
0.0000001
 43
0.0000001
 44
0.0000000001
 40
0.0
 40
0.0
 40
0.0
 40
0.0
 40
0.2620696869
 40
1.0
 40
1.0
 40
1.0
 40
1.0
 10
219.4898797972
 20
163.6913398679
 30
0.0
 10
219.4720139554
 20
163.6498705683
 30
0.0
 10
219.3974889994
 20
163.4945476229
 30
0.0
 10
219.2952512875
 20
163.3517431636
 30
0.0
 10
219.2053735843
 20
163.2618122267
 30
0.0
  0
SPLINE
  5
3DD
100
AcDbEntity
  8
0
100
AcDbSpline
 62
7
  6
CONTINUOUS
 70
0
 71
3
 72
8
 73
4
 74
0
 42
0.0000001
 43
0.0000001
 44
0.0000000001
 40
0.0
 40
0.0
 40
0.0
 40
0.0
 40
1.0
 40
1.0
 40
1.0
 40
1.0
 10
219.2053735843
 20
163.2618122267
 30
0.0
 10
219.135975532
 20
163.1923730707
 30
0.0
 10
219.0569882982
 20
163.1312801437
 30
0.0
 10
218.9719689883
 20
163.0821924364
 30
0.0
  0
SPLINE
  5
3DE
100
AcDbEntity
  8
0
100
AcDbSpline
 62
7
  6
CONTINUOUS
 70
0
 71
3
 72
9
 73
5
 74
0
 42
0.0000001
 43
0.0000001
 44
0.0000000001
 40
0.0
 40
0.0
 40
0.0
 40
0.0
 40
0.7443556015
 40
1.0
 40
1.0
 40
1.0
 40
1.0
 10
70.3694645341
 20
345.2263683418
 30
0.0
 10
70.2861481821
 20
345.1783499767
 30
0.0
 10
70.1830417429
 20
345.0966662378
 30
0.0
 10
70.0979496669
 20
344.9994046731
 30
0.0
 10
70.077276998
 20
344.973648055
 30
0.0
  0
SPLINE
  5
3DF
100
AcDbEntity
  8
0
100
AcDbSpline
 62
7
  6
CONTINUOUS
 70
0
 71
3
 72
9
 73
5
 74
0
 42
0.0000001
 43
0.0000001
 44
0.0000000001
 40
0.0
 40
0.0
 40
0.0
 40
0.0
 40
0.2430246625
 40
1.0
 40
1.0
 40
1.0
 40
1.0
 10
70.0425644371
 20
344.9281531409
 30
0.0
 10
70.0286321233
 20
344.9089446238
 30
0.0
 10
69.9736583473
 20
344.828208424
 30
0.0
 10
69.9281746253
 20
344.7411340933
 30
0.0
 10
69.8989169765
 20
344.6732593784
 30
0.0
  0
SPLINE
  5
3E0
100
AcDbEntity
  8
0
100
AcDbSpline
 62
7
  6
CONTINUOUS
 70
0
 71
3
 72
9
 73
5
 74
0
 42
0.0000001
 43
0.0000001
 44
0.0000000001
 40
0.0
 40
0.0
 40
0.0
 40
0.0
 40
0.2311264357
 40
1.0
 40
1.0
 40
1.0
 40
1.0
 10
69.8989169765
 20
344.6732593784
 30
0.0
 10
69.8733836921
 20
344.614024803
 30
0.0
 10
69.7797120468
 20
344.3504967353
 30
0.0
 10
69.7480643454
 20
344.067701353
 30
0.0
 10
69.7480643454
 20
343.853122139
 30
0.0
  0
SPLINE
  5
3E1
100
AcDbEntity
  8
0
100
AcDbSpline
 62
7
  6
CONTINUOUS
 70
0
 71
3
 72
8
 73
4
 74
0
 42
0.0000001
 43
0.0000001
 44
0.0000000001
 40
0.0
 40
0.0
 40
0.0
 40
0.0
 40
1.0
 40
1.0
 40
1.0
 40
1.0
 10
66.5011076575
 20
343.1084470122
 30
0.0
 10
66.5849824811
 20
343.1568761977
 30
0.0
 10
66.6765501911
 20
343.1936593134
 30
0.0
 10
66.7704212939
 20
343.217504399
 30
0.0
  0
SPLINE
  5
3E2
100
AcDbEntity
  8
0
100
AcDbSpline
 62
7
  6
CONTINUOUS
 70
0
 71
3
 72
9
 73
5
 74
0
 42
0.0000001
 43
0.0000001
 44
0.0000000001
 40
0.0
 40
0.0
 40
0.0
 40
0.0
 40
0.241753955
 40
1.0
 40
1.0
 40
1.0
 40
1.0
 10
66.8297143406
 20
343.2308662236
 30
0.0
 10
66.860516677
 20
343.2369455942
 30
0.0
 10
66.9889428041
 20
343.256878093
 30
0.0
 10
67.1202429605
 20
343.2561506781
 30
0.0
 10
67.2181986869
 20
343.2460680233
 30
0.0
  0
SPLINE
  5
3E3
100
AcDbEntity
  8
0
100
AcDbSpline
 62
7
  6
CONTINUOUS
 70
0
 71
3
 72
9
 73
5
 74
0
 42
0.0000001
 43
0.0000001
 44
0.0000000001
 40
0.0
 40
0.0
 40
0.0
 40
0.0
 40
0.2323575929
 40
1.0
 40
1.0
 40
1.0
 40
1.0
 10
67.2946216058
 20
343.236280367
 30
0.0
 10
67.3566153159
 20
343.2268027796
 30
0.0
 10
67.6210164523
 20
343.1703413311
 30
0.0
 10
67.8716009138
 20
343.0586316418
 30
0.0
 10
68.0510327999
 20
342.9550389377
 30
0.0
  0
SPLINE
  5
3E4
100
AcDbEntity
  8
0
100
AcDbSpline
 62
7
  6
CONTINUOUS
 70
0
 71
3
 72
11
 73
7
 74
0
 42
0.0000001
 43
0.0000001
 44
0.0000000001
 40
0.0
 40
0.0
 40
0.0
 40
0.0
 40
0.217745073
 40
0.4508830113
 40
0.7104597664
 40
1.0
 40
1.0
 40
1.0
 40
1.0
 10
64.0262630366
 20
341.6795594488
 30
0.0
 10
63.9240245882
 20
341.6205323566
 30
0.0
 10
63.7325429683
 20
341.4599233972
 30
0.0
 10
63.528853095
 20
341.1267316223
 30
0.0
 10
63.408098389
 20
340.7162581537
 30
0.0
 10
63.3841292217
 20
340.4175529988
 30
0.0
 10
63.3841292217
 20
340.260573245
 30
0.0
  0
SPLINE
  5
3E5
100
AcDbEntity
  8
0
100
AcDbSpline
 62
7
  6
CONTINUOUS
 70
0
 71
3
 72
11
 73
7
 74
0
 42
0.0000001
 43
0.0000001
 44
0.0000000001
 40
0.0
 40
0.0
 40
0.0
 40
0.0
 40
0.2895352454
 40
0.5491102999
 40
0.7822502503
 40
1.0
 40
1.0
 40
1.0
 40
1.0
 10
68.1586639036
 20
308.9285661082
 30
0.0
 10
68.2902214523
 20
308.852623645
 30
0.0
 10
68.552149301
 20
308.7282049821
 30
0.0
 10
68.9545695624
 20
308.6308238721
 30
0.0
 10
69.3323504172
 20
308.6403297493
 30
0.0
 10
69.5595937714
 20
308.7230932132
 30
0.0
 10
69.658529907
 20
308.7802137239
 30
0.0
  0
SPLINE
  5
3E6
100
AcDbEntity
  8
0
100
AcDbSpline
 62
7
  6
CONTINUOUS
 70
0
 71
3
 72
11
 73
7
 74
0
 42
0.0000001
 43
0.0000001
 44
0.0000000001
 40
0.0
 40
0.0
 40
0.0
 40
0.0
 40
0.237256205
 40
0.5000012589
 40
0.7627456297
 40
1.0
 40
1.0
 40
1.0
 40
1.0
 10
55.2185559329
 20
318.8488791681
 30
0.0
 10
55.2185769574
 20
318.5011007041
 30
0.0
 10
55.3489917824
 20
317.767694136
 30
0.0
 10
55.8038128055
 20
316.7372805763
 30
0.0
 10
56.4687693602
 20
315.8281925916
 30
0.0
 10
57.0387112614
 20
315.348552798
 30
0.0
 10
57.3398851082
 20
315.1746496529
 30
0.0
  0
SPLINE
  5
3E7
100
AcDbEntity
  8
0
100
AcDbSpline
 62
7
  6
CONTINUOUS
 70
0
 71
3
 72
11
 73
7
 74
0
 42
0.0000001
 43
0.0000001
 44
0.0000000001
 40
0.0
 40
0.0
 40
0.0
 40
0.0
 40
0.2895352454
 40
0.5491102999
 40
0.7822502502
 40
1.0
 40
1.0
 40
1.0
 40
1.0
 10
220.3286767579
 20
69.28735639
 30
0.0
 10
220.4602343064
 20
69.2114139269
 30
0.0
 10
220.7221621547
 20
69.0869952643
 30
0.0
 10
221.1245824153
 20
68.9896141548
 30
0.0
 10
221.5023632694
 20
68.9991200323
 30
0.0
 10
221.7296066232
 20
69.0818834962
 30
0.0
 10
221.8285427586
 20
69.1390040068
 30
0.0
  0
SPLINE
  5
3E8
100
AcDbEntity
  8
0
100
AcDbSpline
 62
7
  6
CONTINUOUS
 70
0
 71
3
 72
11
 73
7
 74
0
 42
0.0000001
 43
0.0000001
 44
0.0000000001
 40
0.0
 40
0.0
 40
0.0
 40
0.0
 40
0.237256205
 40
0.5000012589
 40
0.7627456297
 40
1.0
 40
1.0
 40
1.0
 40
1.0
 10
193.4585071991
 20
87.2500123148
 30
0.0
 10
193.4585282237
 20
86.902233851
 30
0.0
 10
193.5889430487
 20
86.1688272833
 30
0.0
 10
194.0437640716
 20
85.1384137241
 30
0.0
 10
194.7087206258
 20
84.2293257397
 30
0.0
 10
195.2786625266
 20
83.7496859462
 30
0.0
 10
195.5798363733
 20
83.5757828013
 30
0.0
  0
SPLINE
  5
3E9
100
AcDbEntity
  8
0
100
AcDbSpline
 62
7
  6
CONTINUOUS
 70
0
 71
3
 72
11
 73
7
 74
0
 42
0.0000001
 43
0.0000001
 44
0.0000000001
 40
0.0
 40
0.0
 40
0.0
 40
0.0
 40
0.2177489406
 40
0.4508885058
 40
0.7104637156
 40
1.0
 40
1.0
 40
1.0
 40
1.0
 10
194.0799703706
 20
97.1147748244
 30
0.0
 10
193.981031956
 20
97.0576529978
 30
0.0
 10
193.7957301406
 20
96.902232614
 30
0.0
 10
193.5986041627
 20
96.5798083034
 30
0.0
 10
193.4817283206
 20
96.1825996078
 30
0.0
 10
193.4585163832
 20
95.8935454718
 30
0.0
 10
193.4585071991
 20
95.741637452
 30
0.0
  0
SPLINE
  5
3EA
100
AcDbEntity
  8
0
100
AcDbSpline
 62
7
  6
CONTINUOUS
 70
0
 71
3
 72
11
 73
7
 74
0
 42
0.0000001
 43
0.0000001
 44
0.0000000001
 40
0.0
 40
0.0
 40
0.0
 40
0.0
 40
0.2177489406
 40
0.4508885058
 40
0.7104637156
 40
1.0
 40
1.0
 40
1.0
 40
1.0
 10
55.8400191044
 20
322.8348242744
 30
0.0
 10
55.7410806897
 20
322.7777024479
 30
0.0
 10
55.5557788743
 20
322.622282064
 30
0.0
 10
55.3586528965
 20
322.2998577535
 30
0.0
 10
55.2417770544
 20
321.9026490578
 30
0.0
 10
55.2185651169
 20
321.6135949218
 30
0.0
 10
55.2185559329
 20
321.4616869021
 30
0.0
  0
SPLINE
  5
3EB
100
AcDbEntity
  8
0
100
AcDbSpline
 62
7
  6
CONTINUOUS
 70
0
 71
3
 72
8
 73
4
 74
0
 42
0.0000001
 43
0.0000001
 44
0.0000000001
 40
0.0
 40
0.0
 40
0.0
 40
0.0
 40
1.0
 40
1.0
 40
1.0
 40
1.0
 10
216.4752414775
 20
168.9136710139
 30
0.0
 10
216.3280905001
 20
168.820479534
 30
0.0
 10
216.1954425134
 20
168.7002257249
 30
0.0
 10
216.0870553192
 20
168.5638795544
 30
0.0
  0
SPLINE
  5
3EC
100
AcDbEntity
  8
0
100
AcDbSpline
 62
7
  6
CONTINUOUS
 70
0
 71
3
 72
8
 73
4
 74
0
 42
0.0000001
 43
0.0000001
 44
0.0000000001
 40
0.0
 40
0.0
 40
0.0
 40
0.0
 40
1.0
 40
1.0
 40
1.0
 40
1.0
 10
216.0870553192
 20
168.5638795544
 30
0.0
 10
215.9526421566
 20
168.3947938972
 30
0.0
 10
215.8510834334
 20
168.196370843
 30
0.0
 10
215.7842778913
 20
167.99095936
 30
0.0
  0
SPLINE
  5
3ED
100
AcDbEntity
  8
0
100
AcDbSpline
 62
7
  6
CONTINUOUS
 70
0
 71
3
 72
9
 73
5
 74
0
 42
0.0000001
 43
0.0000001
 44
0.0000000001
 40
0.0
 40
0.0
 40
0.0
 40
0.0
 40
0.2454830434
 40
1.0
 40
1.0
 40
1.0
 40
1.0
 10
215.7842778913
 20
167.99095936
 30
0.0
 10
215.7651793185
 20
167.9322356965
 30
0.0
 10
215.6982461256
 20
167.6894949819
 30
0.0
 10
215.6735065963
 20
167.4361356786
 30
0.0
 10
215.6735065963
 20
167.2463367868
 30
0.0
  0
SPLINE
  5
3EE
100
AcDbEntity
  8
0
100
AcDbSpline
 62
7
  6
CONTINUOUS
 70
0
 71
3
 72
13
 73
9
 74
0
 42
0.0000001
 43
0.0000001
 44
0.0000000001
 40
0.0
 40
0.0
 40
0.0
 40
0.0
 40
0.256654229
 40
0.5257806309
 40
0.6536452583
 40
0.7735691581
 40
0.8880192555
 40
1.0
 40
1.0
 40
1.0
 40
1.0
 10
215.6735065963
 20
167.2463367868
 30
0.0
 10
215.6735065963
 20
166.7460229708
 30
0.0
 10
215.9322108889
 20
165.721300855
 30
0.0
 10
216.6419483643
 20
164.6343192307
 30
0.0
 10
217.4061711362
 20
163.9678097245
 30
0.0
 10
218.0359332342
 20
163.631258215
 30
0.0
 10
218.7099529526
 20
163.4974894205
 30
0.0
 10
219.1584624564
 20
163.5805974118
 30
0.0
 10
219.359493559
 20
163.6656727063
 30
0.0
  0
SPLINE
  5
3EF
100
AcDbEntity
  8
0
100
AcDbSpline
 62
7
  6
CONTINUOUS
 70
0
 71
3
 72
9
 73
5
 74
0
 42
0.0000001
 43
0.0000001
 44
0.0000000001
 40
0.0
 40
0.0
 40
0.0
 40
0.0
 40
0.47928691
 40
1.0
 40
1.0
 40
1.0
 40
1.0
 10
215.6721193218
 20
168.7977335091
 30
0.0
 10
215.7938580042
 20
168.8680219272
 30
0.0
 10
216.0790760169
 20
168.9648511779
 30
0.0
 10
216.3776621049
 20
168.9560050531
 30
0.0
 10
216.5284774714
 20
168.9319409193
 30
0.0
  0
SPLINE
  5
3F0
100
AcDbEntity
  8
0
100
AcDbSpline
 62
7
  6
CONTINUOUS
 70
0
 71
3
 72
11
 73
7
 74
0
 42
0.0000001
 43
0.0000001
 44
0.0000000001
 40
0.0
 40
0.0
 40
0.0
 40
0.0
 40
0.2194739315
 40
0.4811449722
 40
0.7534431333
 40
1.0
 40
1.0
 40
1.0
 40
1.0
 10
216.7199846894
 20
168.8907253651
 30
0.0
 10
217.1073156489
 20
168.7864204938
 30
0.0
 10
217.8875836974
 20
168.319176988
 30
0.0
 10
218.8047815102
 20
167.2747925784
 30
0.0
 10
219.4590879738
 20
165.99163828
 30
0.0
 10
219.6555062479
 20
165.0433969564
 30
0.0
 10
219.6555062479
 20
164.5927684829
 30
0.0
  0
SPLINE
  5
3F1
100
AcDbEntity
  8
0
100
AcDbSpline
 62
7
  6
CONTINUOUS
 70
0
 71
3
 72
8
 73
4
 74
0
 42
0.0000001
 43
0.0000001
 44
0.0000000001
 40
0.0
 40
0.0
 40
0.0
 40
0.0
 40
1.0
 40
1.0
 40
1.0
 40
1.0
 10
214.4391872845
 20
173.7795340821
 30
0.0
 10
214.3670044808
 20
173.7378595697
 30
0.0
 10
214.3013098269
 20
173.6824798317
 30
0.0
 10
214.2479127816
 20
173.6184807872
 30
0.0
  0
SPLINE
  5
3F2
100
AcDbEntity
  8
0
100
AcDbSpline
 62
7
  6
CONTINUOUS
 70
0
 71
3
 72
9
 73
5
 74
0
 42
0.0000001
 43
0.0000001
 44
0.0000000001
 40
0.0
 40
0.0
 40
0.0
 40
0.0
 40
0.252411129
 40
1.0
 40
1.0
 40
1.0
 40
1.0
 10
214.2479127816
 20
173.6184807872
 30
0.0
 10
214.2184231045
 20
173.583135926
 30
0.0
 10
214.114758559
 20
173.4321421095
 30
0.0
 10
214.070379152
 20
173.2441679998
 30
0.0
 10
214.070379152
 20
173.107832302
 30
0.0
  0
SPLINE
  5
3F3
100
AcDbEntity
  8
0
100
AcDbSpline
 62
7
  6
CONTINUOUS
 70
0
 71
3
 72
9
 73
5
 74
0
 42
0.0000001
 43
0.0000001
 44
0.0000000001
 40
0.0
 40
0.0
 40
0.0
 40
0.0
 40
0.2980439614
 40
1.0
 40
1.0
 40
1.0
 40
1.0
 10
117.4527856481
 20
307.5552748212
 30
0.0
 10
117.4329587315
 20
307.5667216367
 30
0.0
 10
117.370062111
 20
307.6089314871
 30
0.0
 10
117.3203493774
 20
307.6843304908
 30
0.0
 10
117.3217868518
 20
307.7382315478
 30
0.0
  0
SPLINE
  5
3F4
100
AcDbEntity
  8
0
100
AcDbSpline
 62
7
  6
CONTINUOUS
 70
0
 71
3
 72
9
 73
5
 74
0
 42
0.0000001
 43
0.0000001
 44
0.0000000001
 40
0.0
 40
0.0
 40
0.0
 40
0.0
 40
0.497949649
 40
1.0
 40
1.0
 40
1.0
 40
1.0
 10
125.3224547534
 20
303.4677863563
 30
0.0
 10
125.2002457157
 20
303.4016424533
 30
0.0
 10
124.9129022712
 20
303.3543699245
 30
0.0
 10
124.6283273171
 20
303.4125680651
 30
0.0
 10
124.5069921174
 20
303.4826193831
 30
0.0
  0
SPLINE
  5
3F5
100
AcDbEntity
  8
0
100
AcDbSpline
 62
7
  6
CONTINUOUS
 70
0
 71
3
 72
9
 73
5
 74
0
 42
0.0000001
 43
0.0000001
 44
0.0000000001
 40
0.0
 40
0.0
 40
0.0
 40
0.0
 40
0.5551795477
 40
1.0
 40
1.0
 40
1.0
 40
1.0
 10
113.596127194
 20
309.7818580813
 30
0.0
 10
113.5549143842
 20
309.8056515656
 30
0.0
 10
113.4846117623
 20
309.859097734
 30
0.0
 10
113.4506655388
 20
309.9454795508
 30
0.0
 10
113.4516820002
 20
309.9835944796
 30
0.0
  0
SPLINE
  5
3F6
100
AcDbEntity
  8
0
100
AcDbSpline
 62
7
  6
CONTINUOUS
 70
0
 71
3
 72
9
 73
5
 74
0
 42
0.0000001
 43
0.0000001
 44
0.0000000001
 40
0.0
 40
0.0
 40
0.0
 40
0.0
 40
0.4979493588
 40
1.0
 40
1.0
 40
1.0
 40
1.0
 10
115.7080603288
 20
308.9420089062
 30
0.0
 10
115.6063614439
 20
308.8869658317
 30
0.0
 10
115.367242318
 20
308.8476267748
 30
0.0
 10
115.1304270365
 20
308.8960572964
 30
0.0
 10
115.0294550036
 20
308.9543517077
 30
0.0
  0
SPLINE
  5
3F7
100
AcDbEntity
  8
0
100
AcDbSpline
 62
7
  6
CONTINUOUS
 70
0
 71
3
 72
9
 73
5
 74
0
 42
0.0000001
 43
0.0000001
 44
0.0000000001
 40
0.0
 40
0.0
 40
0.0
 40
0.0
 40
0.298044142
 40
1.0
 40
1.0
 40
1.0
 40
1.0
 10
127.0165426811
 20
302.0337528
 30
0.0
 10
126.9956004678
 20
302.0458434151
 30
0.0
 10
126.9291658828
 20
302.0904274306
 30
0.0
 10
126.8766571182
 20
302.170067663
 30
0.0
 10
126.8781754236
 20
302.227000574
 30
0.0
  0
SPLINE
  5
3F8
100
AcDbEntity
  8
0
100
AcDbSpline
 62
7
  6
CONTINUOUS
 70
0
 71
3
 72
9
 73
5
 74
0
 42
0.0000001
 43
0.0000001
 44
0.0000000001
 40
0.0
 40
0.0
 40
0.0
 40
0.0
 40
0.4979493588
 40
1.0
 40
1.0
 40
1.0
 40
1.0
 10
129.1945425974
 20
301.213252731
 30
0.0
 10
129.0774345244
 20
301.1498696526
 30
0.0
 10
128.802084602
 20
301.1045700297
 30
0.0
 10
128.5293875975
 20
301.1603386359
 30
0.0
 10
128.4131165074
 20
301.2274656863
 30
0.0
  0
SPLINE
  5
3F9
100
AcDbEntity
  8
0
100
AcDbSpline
 62
7
  6
CONTINUOUS
 70
0
 71
3
 72
9
 73
5
 74
0
 42
0.0000001
 43
0.0000001
 44
0.0000000001
 40
0.0
 40
0.0
 40
0.0
 40
0.0
 40
0.5000438368
 40
1.0
 40
1.0
 40
1.0
 40
1.0
 10
214.0703791524
 20
123.0609593632
 30
0.0
 10
214.0703791524
 20
122.8812036629
 30
0.0
 10
214.1777931279
 20
122.5197643453
 30
0.0
 10
214.4371114207
 20
122.2460412247
 30
0.0
 10
214.5927580095
 20
122.1561806577
 30
0.0
  0
SPLINE
  5
3FA
100
AcDbEntity
  8
0
100
AcDbSpline
 62
7
  6
CONTINUOUS
 70
0
 71
3
 72
9
 73
5
 74
0
 42
0.0000001
 43
0.0000001
 44
0.0000000001
 40
0.0
 40
0.0
 40
0.0
 40
0.0
 40
0.4994696852
 40
1.0
 40
1.0
 40
1.0
 40
1.0
 10
220.2588381847
 20
118.8849417486
 30
0.0
 10
220.3697038443
 20
118.8209348782
 30
0.0
 10
220.6225058597
 20
118.736735004
 30
0.0
 10
220.8881037004
 20
118.7874144249
 30
0.0
 10
221.003182396
 20
118.8441122392
 30
0.0
  0
SPLINE
  5
3FB
100
AcDbEntity
  8
0
100
AcDbSpline
 62
7
  6
CONTINUOUS
 70
0
 71
3
 72
11
 73
7
 74
0
 42
0.0000001
 43
0.0000001
 44
0.0000000001
 40
0.0
 40
0.0
 40
0.0
 40
0.0
 40
0.217745073
 40
0.4508830113
 40
0.7104597664
 40
1.0
 40
1.0
 40
1.0
 40
1.0
 10
209.145232847
 20
178.6361384002
 30
0.0
 10
209.0456764542
 20
178.5786597856
 30
0.0
 10
208.8592180362
 20
178.4222641351
 30
0.0
 10
208.660871628
 20
178.0978130925
 30
0.0
 10
208.5432847208
 20
177.6981077128
 30
0.0
 10
208.5199443447
 20
177.4072385909
 30
0.0
 10
208.5199443447
 20
177.25437694
 30
0.0
  0
SPLINE
  5
3FC
100
AcDbEntity
  8
0
100
AcDbSpline
 62
7
  6
CONTINUOUS
 70
0
 71
3
 72
11
 73
7
 74
0
 42
0.0000001
 43
0.0000001
 44
0.0000000001
 40
0.0
 40
0.0
 40
0.0
 40
0.0
 40
0.2177833598
 40
0.4509104088
 40
0.7102966711
 40
1.0
 40
1.0
 40
1.0
 40
1.0
 10
36.520747846
 20
342.9059854217
 30
0.0
 10
36.3228282919
 20
342.7917171605
 30
0.0
 10
35.9525289411
 20
342.480407235
 30
0.0
 10
35.5583013945
 20
341.8358272458
 30
0.0
 10
35.3241534154
 20
341.0414650633
 30
0.0
 10
35.2780610949
 20
340.4633045663
 30
0.0
 10
35.2780610949
 20
340.1592957001
 30
0.0
  0
SPLINE
  5
3FD
100
AcDbEntity
  8
0
100
AcDbSpline
 62
7
  6
CONTINUOUS
 70
0
 71
3
 72
11
 73
7
 74
0
 42
0.0000001
 43
0.0000001
 44
0.0000000001
 40
0.0
 40
0.0
 40
0.0
 40
0.0
 40
0.2177843137
 40
0.4509117637
 40
0.7102976701
 40
1.0
 40
1.0
 40
1.0
 40
1.0
 10
35.985256352
 20
343.5852662238
 30
0.0
 10
36.1831715354
 20
343.6995318387
 30
0.0
 10
36.6379124387
 20
343.8645610368
 30
0.0
 10
37.3932293297
 20
343.8836855149
 30
0.0
 10
38.1982201189
 20
343.6892945901
 30
0.0
 10
38.721955007
 20
343.4401437448
 30
0.0
 10
38.9852279513
 20
343.2881464781
 30
0.0
  0
SPLINE
  5
3FE
100
AcDbEntity
  8
0
100
AcDbSpline
 62
7
  6
CONTINUOUS
 70
0
 71
3
 72
9
 73
5
 74
0
 42
0.0000001
 43
0.0000001
 44
0.0000000001
 40
0.0
 40
0.0
 40
0.0
 40
0.0
 40
0.2392308985
 40
1.0
 40
1.0
 40
1.0
 40
1.0
 10
67.4146275706
 20
343.5151864314
 30
0.0
 10
67.4606792699
 20
343.5361612044
 30
0.0
 10
67.6598469551
 20
343.6092651262
 30
0.0
 10
67.8787229569
 20
343.6205963418
 30
0.0
 10
68.0386117465
 20
343.6023916884
 30
0.0
  0
SPLINE
  5
3FF
100
AcDbEntity
  8
0
100
AcDbSpline
 62
7
  6
CONTINUOUS
 70
0
 71
3
 72
9
 73
5
 74
0
 42
0.0000001
 43
0.0000001
 44
0.0000000001
 40
0.0
 40
0.0
 40
0.0
 40
0.0
 40
0.2377946496
 40
1.0
 40
1.0
 40
1.0
 40
1.0
 10
68.0386117465
 20
343.6023916884
 30
0.0
 10
68.0780120295
 20
343.5979056422
 30
0.0
 10
68.242940337
 20
343.5724393397
 30
0.0
 10
68.4035658747
 20
343.522195254
 30
0.0
 10
68.5212393391
 20
343.4741442216
 30
0.0
  0
SPLINE
  5
400
100
AcDbEntity
  8
0
100
AcDbSpline
 62
7
  6
CONTINUOUS
 70
0
 71
3
 72
9
 73
5
 74
0
 42
0.0000001
 43
0.0000001
 44
0.0000000001
 40
0.0
 40
0.0
 40
0.0
 40
0.0
 40
0.4647008382
 40
1.0
 40
1.0
 40
1.0
 40
1.0
 10
68.5212393391
 20
343.4741442216
 30
0.0
 10
68.8408336318
 20
343.3436404093
 30
0.0
 10
69.4656738185
 20
342.9114239024
 30
0.0
 10
69.9459023526
 20
342.3355676934
 30
0.0
 10
70.165151876
 20
342.0038124052
 30
0.0
  0
SPLINE
  5
401
100
AcDbEntity
  8
0
100
AcDbSpline
 62
7
  6
CONTINUOUS
 70
0
 71
3
 72
11
 73
7
 74
0
 42
0.0000001
 43
0.0000001
 44
0.0000000001
 40
0.0
 40
0.0
 40
0.0
 40
0.0
 40
0.2180793152
 40
0.4501761012
 40
0.7090259203
 40
1.0
 40
1.0
 40
1.0
 40
1.0
 10
39.6649922895
 20
347.8131534812
 30
0.0
 10
39.9106969542
 20
347.978593434
 30
0.0
 10
40.4863158149
 20
348.227012648
 30
0.0
 10
41.4628066375
 20
348.2879040586
 30
0.0
 10
42.5095515431
 20
348.0522863694
 30
0.0
 10
43.1902055993
 20
347.7321105615
 30
0.0
 10
43.5324920919
 20
347.5345234246
 30
0.0
  0
SPLINE
  5
402
100
AcDbEntity
  8
0
100
AcDbSpline
 62
7
  6
CONTINUOUS
 70
0
 71
3
 72
11
 73
7
 74
0
 42
0.0000001
 43
0.0000001
 44
0.0000000001
 40
0.0
 40
0.0
 40
0.0
 40
0.0
 40
0.2178557371
 40
0.4520551124
 40
0.711626335
 40
1.0
 40
1.0
 40
1.0
 40
1.0
 10
224.3158087257
 20
64.449518163
 30
0.0
 10
224.1028799721
 20
64.3454568061
 30
0.0
 10
223.6222378516
 20
64.2030009109
 30
0.0
 10
222.8391010689
 20
64.2097986263
 30
0.0
 10
222.0090545868
 20
64.4250958744
 30
0.0
 10
221.4683762884
 20
64.6842009687
 30
0.0
 10
221.1966894141
 20
64.8410461788
 30
0.0
  0
SPLINE
  5
403
100
AcDbEntity
  8
0
100
AcDbSpline
 62
7
  6
CONTINUOUS
 70
0
 71
3
 72
9
 73
5
 74
0
 42
0.0000001
 43
0.0000001
 44
0.0000000001
 40
0.0
 40
0.0
 40
0.0
 40
0.0
 40
0.2840262236
 40
1.0
 40
1.0
 40
1.0
 40
1.0
 10
73.425066711
 20
339.3535863816
 30
0.0
 10
73.425066711
 20
339.3338004267
 30
0.0
 10
73.4207805487
 20
339.2646716963
 30
0.0
 10
73.3954440914
 20
339.193570639
 30
0.0
 10
73.3614464585
 20
339.1570764886
 30
0.0
  0
SPLINE
  5
404
100
AcDbEntity
  8
0
100
AcDbSpline
 62
7
  6
CONTINUOUS
 70
0
 71
3
 72
8
 73
4
 74
0
 42
0.0000001
 43
0.0000001
 44
0.0000000001
 40
0.0
 40
0.0
 40
0.0
 40
0.0
 40
1.0
 40
1.0
 40
1.0
 40
1.0
 10
73.3614464585
 20
339.1570764886
 30
0.0
 10
73.3499349802
 20
339.1447196984
 30
0.0
 10
73.3364993285
 20
339.1338823517
 30
0.0
 10
73.3218699682
 20
339.1254451594
 30
0.0
  0
SPLINE
  5
405
100
AcDbEntity
  8
0
100
AcDbSpline
 62
7
  6
CONTINUOUS
 70
0
 71
3
 72
9
 73
5
 74
0
 42
0.0000001
 43
0.0000001
 44
0.0000000001
 40
0.0
 40
0.0
 40
0.0
 40
0.0
 40
0.4999970032
 40
1.0
 40
1.0
 40
1.0
 40
1.0
 10
73.0661066048
 20
340.0596502289
 30
0.0
 10
73.1726528125
 20
339.9981371388
 30
0.0
 10
73.3410466448
 20
339.8038983839
 30
0.0
 10
73.425066711
 20
339.5609462819
 30
0.0
 10
73.425066711
 20
339.4379165395
 30
0.0
  0
SPLINE
  5
406
100
AcDbEntity
  8
0
100
AcDbSpline
 62
7
  6
CONTINUOUS
 70
0
 71
3
 72
9
 73
5
 74
0
 42
0.0000001
 43
0.0000001
 44
0.0000000001
 40
0.0
 40
0.0
 40
0.0
 40
0.0
 40
0.2287864873
 40
1.0
 40
1.0
 40
1.0
 40
1.0
 10
61.8546843984
 20
338.1377682782
 30
0.0
 10
61.9398799797
 20
338.0885816991
 30
0.0
 10
62.2927377299
 20
337.840335562
 30
0.0
 10
62.5703663825
 20
337.4943935544
 30
0.0
 10
62.7361723111
 20
337.2072108561
 30
0.0
  0
SPLINE
  5
407
100
AcDbEntity
  8
0
100
AcDbSpline
 62
7
  6
CONTINUOUS
 70
0
 71
3
 72
9
 73
5
 74
0
 42
0.0000001
 43
0.0000001
 44
0.0000000001
 40
0.0
 40
0.0
 40
0.0
 40
0.0
 40
0.250580465
 40
1.0
 40
1.0
 40
1.0
 40
1.0
 10
250.1048151867
 20
99.2373386857
 30
0.0
 10
250.6682590083
 20
99.573379796
 30
0.0
 10
252.9187676645
 20
100.9111464999
 30
0.0
 10
255.1747176664
 20
102.2397958837
 30
0.0
 10
256.8704008957
 20
103.2268625154
 30
0.0
  0
SPLINE
  5
408
100
AcDbEntity
  8
0
100
AcDbSpline
 62
7
  6
CONTINUOUS
 70
0
 71
3
 72
9
 73
5
 74
0
 42
0.0000001
 43
0.0000001
 44
0.0000000001
 40
0.0
 40
0.0
 40
0.0
 40
0.0
 40
0.2635849896
 40
1.0
 40
1.0
 40
1.0
 40
1.0
 10
245.4532215096
 20
245.984048182
 30
0.0
 10
245.5370816923
 20
245.8973309079
 30
0.0
 10
245.8648963016
 20
245.5781086884
 30
0.0
 10
246.2329748353
 20
245.2980306172
 30
0.0
 10
246.5248536634
 20
245.1295181095
 30
0.0
  0
SPLINE
  5
409
100
AcDbEntity
  8
0
100
AcDbSpline
 62
7
  6
CONTINUOUS
 70
0
 71
3
 72
11
 73
7
 74
0
 42
0.0000001
 43
0.0000001
 44
0.0000000001
 40
0.0
 40
0.0
 40
0.0
 40
0.0
 40
0.2375778137
 40
0.4999989078
 40
0.7624206029
 40
1.0
 40
1.0
 40
1.0
 40
1.0
 10
240.9744440003
 20
247.7007559505
 30
0.0
 10
241.2890236456
 20
247.5191120575
 30
0.0
 10
241.8805727509
 20
247.0156547741
 30
0.0
 10
242.5789641286
 20
246.0715200768
 30
0.0
 10
243.0474189394
 20
244.9946279327
 30
0.0
 10
243.187656698
 20
244.2306006621
 30
0.0
 10
243.1876786558
 20
243.8673423305
 30
0.0
  0
SPLINE
  5
40A
100
AcDbEntity
  8
0
100
AcDbSpline
 62
7
  6
CONTINUOUS
 70
0
 71
3
 72
10
 73
6
 74
0
 42
0.0000001
 43
0.0000001
 44
0.0000000001
 40
0.0
 40
0.0
 40
0.0
 40
0.0
 40
0.5785106819
 40
0.8142249254
 40
1.0
 40
1.0
 40
1.0
 40
1.0
 10
242.2087419428
 20
254.7894968733
 30
0.0
 10
242.0183303748
 20
254.7960614125
 30
0.0
 10
241.7489325308
 20
254.7921712249
 30
0.0
 10
241.4225817913
 20
254.7480166606
 30
0.0
 10
241.288260513
 20
254.7052373306
 30
0.0
 10
241.2348397831
 20
254.6754124106
 30
0.0
  0
SPLINE
  5
40B
100
AcDbEntity
  8
0
100
AcDbSpline
 62
7
  6
CONTINUOUS
 70
0
 71
3
 72
9
 73
5
 74
0
 42
0.0000001
 43
0.0000001
 44
0.0000000001
 40
0.0
 40
0.0
 40
0.0
 40
0.0
 40
0.2350892306
 40
1.0
 40
1.0
 40
1.0
 40
1.0
 10
243.7954230064
 20
254.6685777999
 30
0.0
 10
243.6731071223
 20
254.6725173115
 30
0.0
 10
243.1530130111
 20
254.6953599757
 30
0.0
 10
242.6340482213
 20
254.7415117292
 30
0.0
 10
242.2384971547
 20
254.7872444484
 30
0.0
  0
SPLINE
  5
40C
100
AcDbEntity
  8
0
100
AcDbSpline
 62
7
  6
CONTINUOUS
 70
0
 71
3
 72
9
 73
5
 74
0
 42
0.0000001
 43
0.0000001
 44
0.0000000001
 40
0.0
 40
0.0
 40
0.0
 40
0.0
 40
0.2388573504
 40
1.0
 40
1.0
 40
1.0
 40
1.0
 10
232.0894173158
 20
254.4123069423
 30
0.0
 10
232.0382683909
 20
254.3780972441
 30
0.0
 10
231.8359122571
 20
254.2170219621
 30
0.0
 10
231.692733302
 20
253.9893337885
 30
0.0
 10
231.6191102849
 20
253.8075935765
 30
0.0
  0
SPLINE
  5
40D
100
AcDbEntity
  8
0
100
AcDbSpline
 62
7
  6
CONTINUOUS
 70
0
 71
3
 72
9
 73
5
 74
0
 42
0.0000001
 43
0.0000001
 44
0.0000000001
 40
0.0
 40
0.0
 40
0.0
 40
0.0
 40
0.2830899028
 40
1.0
 40
1.0
 40
1.0
 40
1.0
 10
233.2318645943
 20
247.0640005767
 30
0.0
 10
233.2318645943
 20
247.0463253885
 30
0.0
 10
233.2280825901
 20
246.9843353844
 30
0.0
 10
233.2060869141
 20
246.920717253
 30
0.0
 10
233.17636613
 20
246.8872469017
 30
0.0
  0
SPLINE
  5
40E
100
AcDbEntity
  8
0
100
AcDbSpline
 62
7
  6
CONTINUOUS
 70
0
 71
3
 72
8
 73
4
 74
0
 42
0.0000001
 43
0.0000001
 44
0.0000000001
 40
0.0
 40
0.0
 40
0.0
 40
0.0
 40
1.0
 40
1.0
 40
1.0
 40
1.0
 10
233.17636613
 20
246.8872469017
 30
0.0
 10
233.1652407947
 20
246.8747179967
 30
0.0
 10
233.1520101952
 20
246.8637462459
 30
0.0
 10
233.1374956164
 20
246.8553752514
 30
0.0
  0
SPLINE
  5
40F
100
AcDbEntity
  8
0
100
AcDbSpline
 62
7
  6
CONTINUOUS
 70
0
 71
3
 72
9
 73
5
 74
0
 42
0.0000001
 43
0.0000001
 44
0.0000000001
 40
0.0
 40
0.0
 40
0.0
 40
0.0
 40
0.4999970033
 40
1.0
 40
1.0
 40
1.0
 40
1.0
 10
232.9054256084
 20
247.7784640544
 30
0.0
 10
233.0023189273
 20
247.7225239362
 30
0.0
 10
233.1554565905
 20
247.5458828523
 30
0.0
 10
233.2318645943
 20
247.3249417601
 30
0.0
 10
233.2318645943
 20
247.2130582843
 30
0.0
  0
SPLINE
  5
410
100
AcDbEntity
  8
0
100
AcDbSpline
 62
7
  6
CONTINUOUS
 70
0
 71
3
 72
9
 73
5
 74
0
 42
0.0000001
 43
0.0000001
 44
0.0000000001
 40
0.0
 40
0.0
 40
0.0
 40
0.0
 40
0.2287682533
 40
1.0
 40
1.0
 40
1.0
 40
1.0
 10
221.6064948244
 20
245.9071040617
 30
0.0
 10
221.6954606112
 20
245.8557845077
 30
0.0
 10
222.0638867373
 20
245.596573478
 30
0.0
 10
222.3537357258
 20
245.2353577358
 30
0.0
 10
222.5268638975
 20
244.9355010938
 30
0.0
  0
SPLINE
  5
411
100
AcDbEntity
  8
0
100
AcDbSpline
 62
7
  6
CONTINUOUS
 70
0
 71
3
 72
8
 73
4
 74
0
 42
0.0000001
 43
0.0000001
 44
0.0000000001
 40
0.0
 40
0.0
 40
0.0
 40
0.0
 40
1.0
 40
1.0
 40
1.0
 40
1.0
 10
230.6223907881
 20
245.4105565014
 30
0.0
 10
230.6364336807
 20
245.4139008752
 30
0.0
 10
230.6501633615
 20
245.4192462193
 30
0.0
 10
230.6626818605
 20
245.4264347415
 30
0.0
  0
SPLINE
  5
412
100
AcDbEntity
  8
0
100
AcDbSpline
 62
7
  6
CONTINUOUS
 70
0
 71
3
 72
9
 73
5
 74
0
 42
0.0000001
 43
0.0000001
 44
0.0000000001
 40
0.0
 40
0.0
 40
0.0
 40
0.0
 40
0.2392308985
 40
1.0
 40
1.0
 40
1.0
 40
1.0
 10
227.2214254538
 20
251.2527759098
 30
0.0
 10
227.2674771532
 20
251.2737506828
 30
0.0
 10
227.4666448383
 20
251.3468546046
 30
0.0
 10
227.6855208401
 20
251.3581858203
 30
0.0
 10
227.8454096297
 20
251.3399811669
 30
0.0
  0
SPLINE
  5
413
100
AcDbEntity
  8
0
100
AcDbSpline
 62
7
  6
CONTINUOUS
 70
0
 71
3
 72
9
 73
5
 74
0
 42
0.0000001
 43
0.0000001
 44
0.0000000001
 40
0.0
 40
0.0
 40
0.0
 40
0.0
 40
0.2377946496
 40
1.0
 40
1.0
 40
1.0
 40
1.0
 10
227.8454096297
 20
251.3399811669
 30
0.0
 10
227.8848099127
 20
251.3354951207
 30
0.0
 10
228.0497382202
 20
251.3100288181
 30
0.0
 10
228.2103637579
 20
251.2597847324
 30
0.0
 10
228.3280372223
 20
251.2117337
 30
0.0
  0
SPLINE
  5
414
100
AcDbEntity
  8
0
100
AcDbSpline
 62
7
  6
CONTINUOUS
 70
0
 71
3
 72
9
 73
5
 74
0
 42
0.0000001
 43
0.0000001
 44
0.0000000001
 40
0.0
 40
0.0
 40
0.0
 40
0.0
 40
0.4647008382
 40
1.0
 40
1.0
 40
1.0
 40
1.0
 10
228.3280372223
 20
251.2117337
 30
0.0
 10
228.647631515
 20
251.0812298877
 30
0.0
 10
229.2724717018
 20
250.6490133808
 30
0.0
 10
229.7527002358
 20
250.0731571718
 30
0.0
 10
229.9719497592
 20
249.7414018836
 30
0.0
  0
SPLINE
  5
415
100
AcDbEntity
  8
0
100
AcDbSpline
 62
7
  6
CONTINUOUS
 70
0
 71
3
 72
9
 73
5
 74
0
 42
0.0000001
 43
0.0000001
 44
0.0000000001
 40
0.0
 40
0.0
 40
0.0
 40
0.0
 40
0.5551795459
 40
1.0
 40
1.0
 40
1.0
 40
1.0
 10
139.4157202284
 20
307.1371685251
 30
0.0
 10
139.4571327126
 20
307.1132595483
 30
0.0
 10
139.5277760966
 20
307.0595544412
 30
0.0
 10
139.5618870333
 20
306.9727539238
 30
0.0
 10
139.5608656274
 20
306.9344542442
 30
0.0
  0
SPLINE
  5
416
100
AcDbEntity
  8
0
100
AcDbSpline
 62
7
  6
CONTINUOUS
 70
0
 71
3
 72
9
 73
5
 74
0
 42
0.0000001
 43
0.0000001
 44
0.0000000001
 40
0.0
 40
0.0
 40
0.0
 40
0.0
 40
0.4979496507
 40
1.0
 40
1.0
 40
1.0
 40
1.0
 10
137.3195626975
 20
307.9836657659
 30
0.0
 10
137.4170409172
 20
308.0364244655
 30
0.0
 10
137.6462361337
 20
308.0741306833
 30
0.0
 10
137.8732231229
 20
308.0277098236
 30
0.0
 10
137.9700043267
 20
307.9718344132
 30
0.0
  0
SPLINE
  5
417
100
AcDbEntity
  8
0
100
AcDbSpline
 62
7
  6
CONTINUOUS
 70
0
 71
3
 72
11
 73
7
 74
0
 42
0.0000001
 43
0.0000001
 44
0.0000000001
 40
0.0
 40
0.0
 40
0.0
 40
0.0
 40
0.237239768
 40
0.4999988394
 40
0.7627585384
 40
1.0
 40
1.0
 40
1.0
 40
1.0
 10
38.9852279513
 20
170.9974857088
 30
0.0
 10
38.3828899903
 20
171.3452378256
 30
0.0
 10
37.2430473488
 20
172.304559484
 30
0.0
 10
35.9126960762
 20
174.1225247876
 30
0.0
 10
35.0034560272
 20
176.1836257917
 30
0.0
 10
34.742569601
 20
177.6504237391
 30
0.0
 10
34.742569601
 20
178.3459447384
 30
0.0
  0
SPLINE
  5
418
100
AcDbEntity
  8
0
100
AcDbSpline
 62
7
  6
CONTINUOUS
 70
0
 71
3
 72
9
 73
5
 74
0
 42
0.0000001
 43
0.0000001
 44
0.0000000001
 40
0.0
 40
0.0
 40
0.0
 40
0.0
 40
0.2192805049
 40
1.0
 40
1.0
 40
1.0
 40
1.0
 10
117.3217868518
 20
307.7382315478
 30
0.0
 10
117.3222180724
 20
307.7544010531
 30
0.0
 10
117.3376620699
 20
307.8282870722
 30
0.0
 10
117.4019810769
 20
307.8814348287
 30
0.0
 10
117.4526285261
 20
307.90884704
 30
0.0
  0
SPLINE
  5
419
100
AcDbEntity
  8
0
100
AcDbSpline
 62
7
  6
CONTINUOUS
 70
0
 71
3
 72
9
 73
5
 74
0
 42
0.0000001
 43
0.0000001
 44
0.0000000001
 40
0.0
 40
0.0
 40
0.0
 40
0.0
 40
0.4499755387
 40
1.0
 40
1.0
 40
1.0
 40
1.0
 10
214.592719469
 20
122.156113902
 30
0.0
 10
214.5521867599
 20
122.1795149439
 30
0.0
 10
214.4827329138
 20
122.2673612047
 30
0.0
 10
214.4684906171
 20
122.3736431765
 30
0.0
 10
214.4684906171
 20
122.4308523464
 30
0.0
  0
SPLINE
  5
41A
100
AcDbEntity
  8
0
100
AcDbSpline
 62
7
  6
CONTINUOUS
 70
0
 71
3
 72
9
 73
5
 74
0
 42
0.0000001
 43
0.0000001
 44
0.0000000001
 40
0.0
 40
0.0
 40
0.0
 40
0.0
 40
0.2265918512
 40
1.0
 40
1.0
 40
1.0
 40
1.0
 10
213.5858347434
 20
174.2990287167
 30
0.0
 10
213.5659997174
 20
174.2662214165
 30
0.0
 10
213.491752265
 20
174.1133391751
 30
0.0
 10
213.4682955628
 20
173.9398755111
 30
0.0
 10
213.4682955628
 20
173.8090218802
 30
0.0
  0
SPLINE
  5
41B
100
AcDbEntity
  8
0
100
AcDbSpline
 62
7
  6
CONTINUOUS
 70
0
 71
3
 72
9
 73
5
 74
0
 42
0.0000001
 43
0.0000001
 44
0.0000000001
 40
0.0
 40
0.0
 40
0.0
 40
0.0
 40
0.4562614297
 40
1.0
 40
1.0
 40
1.0
 40
1.0
 10
209.4697414992
 20
178.7810027751
 30
0.0
 10
209.6616862647
 20
178.8314586816
 30
0.0
 10
210.1144677917
 20
178.8214954059
 30
0.0
 10
210.5203598151
 20
178.6458675938
 30
0.0
 10
210.7251903492
 20
178.5276113051
 30
0.0
  0
SPLINE
  5
41C
100
AcDbEntity
  8
0
100
AcDbSpline
 62
7
  6
CONTINUOUS
 70
0
 71
3
 72
11
 73
7
 74
0
 42
0.0000001
 43
0.0000001
 44
0.0000000001
 40
0.0
 40
0.0
 40
0.0
 40
0.0
 40
0.217745073
 40
0.4508830113
 40
0.7104597664
 40
1.0
 40
1.0
 40
1.0
 40
1.0
 10
221.7886367328
 20
115.2588572912
 30
0.0
 10
221.893937776
 20
115.3196525642
 30
0.0
 10
222.0911553066
 20
115.4850726311
 30
0.0
 10
222.3009467937
 20
115.8282453025
 30
0.0
 10
222.4253187566
 20
116.2510146728
 30
0.0
 10
222.4500059301
 20
116.5586676634
 30
0.0
 10
222.4500059301
 20
116.7203498102
 30
0.0
  0
SPLINE
  5
41D
100
AcDbEntity
  8
0
100
AcDbSpline
 62
7
  6
CONTINUOUS
 70
0
 71
3
 72
9
 73
5
 74
0
 42
0.0000001
 43
0.0000001
 44
0.0000000001
 40
0.0
 40
0.0
 40
0.0
 40
0.0
 40
0.4676996265
 40
1.0
 40
1.0
 40
1.0
 40
1.0
 10
36.7668199813
 20
343.0480543872
 30
0.0
 10
37.0582597446
 20
343.2163160798
 30
0.0
 10
37.7844874717
 20
343.4097573472
 30
0.0
 10
38.5101431363
 20
343.2763600788
 30
0.0
 10
38.8739509553
 20
343.156616367
 30
0.0
  0
SPLINE
  5
41E
100
AcDbEntity
  8
0
100
AcDbSpline
 62
7
  6
CONTINUOUS
 70
0
 71
3
 72
9
 73
5
 74
0
 42
0.0000001
 43
0.0000001
 44
0.0000000001
 40
0.0
 40
0.0
 40
0.0
 40
0.0
 40
0.2396416542
 40
1.0
 40
1.0
 40
1.0
 40
1.0
 10
38.8739509553
 20
343.156616367
 30
0.0
 10
38.9484368893
 20
343.1321000654
 30
0.0
 10
39.2562381826
 20
343.0206850163
 30
0.0
 10
39.5513157671
 20
342.8753368458
 30
0.0
 10
39.766791579
 20
342.7509346422
 30
0.0
  0
SPLINE
  5
41F
100
AcDbEntity
  8
0
100
AcDbSpline
 62
7
  6
CONTINUOUS
 70
0
 71
3
 72
10
 73
6
 74
0
 42
0.0000001
 43
0.0000001
 44
0.0000000001
 40
0.0
 40
0.0
 40
0.0
 40
0.0
 40
0.2275119717
 40
0.4653810943
 40
1.0
 40
1.0
 40
1.0
 40
1.0
 10
223.3993587382
 20
66.581553809
 30
0.0
 10
223.5556598253
 20
66.671793773
 30
0.0
 10
223.8512032693
 20
66.9018265411
 30
0.0
 10
224.3348789608
 20
67.5392202163
 30
0.0
 10
224.5204199717
 20
68.1455549671
 30
0.0
 10
224.5855140517
 20
68.5646321358
 30
0.0
  0
SPLINE
  5
420
100
AcDbEntity
  8
0
100
AcDbSpline
 62
7
  6
CONTINUOUS
 70
0
 71
3
 72
9
 73
5
 74
0
 42
0.0000001
 43
0.0000001
 44
0.0000000001
 40
0.0
 40
0.0
 40
0.0
 40
0.0
 40
0.242191433
 40
1.0
 40
1.0
 40
1.0
 40
1.0
 10
224.5855140517
 20
68.5646321358
 30
0.0
 10
224.5950072592
 20
68.6257496216
 30
0.0
 10
224.6288514634
 20
68.8789204636
 30
0.0
 10
224.6420454893
 20
69.1347158802
 30
0.0
 10
224.6420454893
 20
69.3282435306
 30
0.0
  0
SPLINE
  5
421
100
AcDbEntity
  8
0
100
AcDbSpline
 62
7
  6
CONTINUOUS
 70
0
 71
3
 72
9
 73
5
 74
0
 42
0.0000001
 43
0.0000001
 44
0.0000000001
 40
0.0
 40
0.0
 40
0.0
 40
0.0
 40
0.2461245467
 40
1.0
 40
1.0
 40
1.0
 40
1.0
 10
35.9676405338
 20
343.5138445143
 30
0.0
 10
35.9399933988
 20
343.4880239527
 30
0.0
 10
35.8304865695
 20
343.3801175916
 30
0.0
 10
35.7325651566
 20
343.260576704
 30
0.0
 10
35.6658311722
 20
343.1658526649
 30
0.0
  0
SPLINE
  5
422
100
AcDbEntity
  8
0
100
AcDbSpline
 62
7
  6
CONTINUOUS
 70
0
 71
3
 72
9
 73
5
 74
0
 42
0.0000001
 43
0.0000001
 44
0.0000000001
 40
0.0
 40
0.0
 40
0.0
 40
0.0
 40
0.2244731955
 40
1.0
 40
1.0
 40
1.0
 40
1.0
 10
35.6658311722
 20
343.1658526649
 30
0.0
 10
35.5702123048
 20
343.0301286346
 30
0.0
 10
35.2070398643
 20
342.3806080247
 30
0.0
 10
35.0961215196
 20
341.6162908471
 30
0.0
 10
35.0961215196
 20
341.0426985792
 30
0.0
  0
SPLINE
  5
423
100
AcDbEntity
  8
0
100
AcDbSpline
 62
7
  6
CONTINUOUS
 70
0
 71
3
 72
9
 73
5
 74
0
 42
0.0000001
 43
0.0000001
 44
0.0000000001
 40
0.0
 40
0.0
 40
0.0
 40
0.0
 40
0.2791996601
 40
1.0
 40
1.0
 40
1.0
 40
1.0
 10
221.073470985
 20
66.2794086067
 30
0.0
 10
221.2501255864
 20
66.1774193324
 30
0.0
 10
221.899219485
 20
65.8471471071
 30
0.0
 10
222.6473067896
 20
65.667126853
 30
0.0
 10
223.1722416555
 20
65.7091403456
 30
0.0
  0
SPLINE
  5
424
100
AcDbEntity
  8
0
100
AcDbSpline
 62
7
  6
CONTINUOUS
 70
0
 71
3
 72
9
 73
5
 74
0
 42
0.0000001
 43
0.0000001
 44
0.0000000001
 40
0.0
 40
0.0
 40
0.0
 40
0.0
 40
0.2555198164
 40
1.0
 40
1.0
 40
1.0
 40
1.0
 10
223.1722416555
 20
65.7091403456
 30
0.0
 10
223.2193575051
 20
65.7129112923
 30
0.0
 10
223.4032631948
 20
65.7330345699
 30
0.0
 10
223.5848695098
 20
65.7754371691
 30
0.0
 10
223.7151992376
 20
65.8199305407
 30
0.0
  0
SPLINE
  5
425
100
AcDbEntity
  8
0
100
AcDbSpline
 62
7
  6
CONTINUOUS
 70
0
 71
3
 72
11
 73
7
 74
0
 42
0.0000001
 43
0.0000001
 44
0.0000000001
 40
0.0
 40
0.0
 40
0.0
 40
0.0
 40
0.2372413576
 40
0.5000010231
 40
0.762760128
 40
1.0
 40
1.0
 40
1.0
 40
1.0
 10
35.0961215196
 20
178.5500668153
 30
0.0
 10
35.0961215196
 20
177.8545461209
 30
0.0
 10
35.3570077593
 20
176.3877485752
 30
0.0
 10
36.2662474798
 20
174.3266477566
 30
0.0
 10
37.5965987487
 20
172.5086820757
 30
0.0
 10
38.7364416448
 20
171.549360055
 30
0.0
 10
39.33877987
 20
171.2016077858
 30
0.0
  0
SPLINE
  5
426
100
AcDbEntity
  8
0
100
AcDbSpline
 62
7
  6
CONTINUOUS
 70
0
 71
3
 72
11
 73
7
 74
0
 42
0.0000001
 43
0.0000001
 44
0.0000000001
 40
0.0
 40
0.0
 40
0.0
 40
0.0
 40
0.2177843137
 40
0.4509117637
 40
0.7102976701
 40
1.0
 40
1.0
 40
1.0
 40
1.0
 10
223.7198906657
 20
65.7781667841
 30
0.0
 10
223.5219754823
 20
65.6639011692
 30
0.0
 10
223.067234579
 20
65.4988719711
 30
0.0
 10
222.311917688
 20
65.479747493
 30
0.0
 10
221.5069268988
 20
65.6741384178
 30
0.0
 10
220.9831920107
 20
65.9232892632
 30
0.0
 10
220.7199190664
 20
66.0752865298
 30
0.0
  0
SPLINE
  5
427
100
AcDbEntity
  8
0
100
AcDbSpline
 62
7
  6
CONTINUOUS
 70
0
 71
3
 72
11
 73
7
 74
0
 42
0.0000001
 43
0.0000001
 44
0.0000000001
 40
0.0
 40
0.0
 40
0.0
 40
0.0
 40
0.2180771094
 40
0.4501729279
 40
0.7090236116
 40
1.0
 40
1.0
 40
1.0
 40
1.0
 10
35.1325934995
 20
344.765686382
 30
0.0
 10
35.3470633344
 20
344.9100950443
 30
0.0
 10
35.8495122298
 20
345.1269308816
 30
0.0
 10
36.701876219
 20
345.180061436
 30
0.0
 10
37.6155610123
 20
344.9743652134
 30
0.0
 10
38.2096882406
 20
344.6948670985
 30
0.0
 10
38.5084615608
 20
344.5223845447
 30
0.0
  0
SPLINE
  5
428
100
AcDbEntity
  8
0
100
AcDbSpline
 62
7
  6
CONTINUOUS
 70
0
 71
3
 72
11
 73
7
 74
0
 42
0.0000001
 43
0.0000001
 44
0.0000000001
 40
0.0
 40
0.0
 40
0.0
 40
0.0
 40
0.237239768
 40
0.4999988394
 40
0.7627585385
 40
1.0
 40
1.0
 40
1.0
 40
1.0
 10
220.6454592759
 20
238.3229496334
 30
0.0
 10
221.2477972369
 20
237.9751975167
 30
0.0
 10
222.387639878
 20
237.0158758582
 30
0.0
 10
223.7179911499
 20
235.1979105548
 30
0.0
 10
224.6272311986
 20
233.1368095512
 30
0.0
 10
224.8881176246
 20
231.6700116042
 30
0.0
 10
224.8881176246
 20
230.9744906051
 30
0.0
  0
SPLINE
  5
429
100
AcDbEntity
  8
0
100
AcDbSpline
 62
7
  6
CONTINUOUS
 70
0
 71
3
 72
9
 73
5
 74
0
 42
0.0000001
 43
0.0000001
 44
0.0000000001
 40
0.0
 40
0.0
 40
0.0
 40
0.0
 40
0.2662648406
 40
1.0
 40
1.0
 40
1.0
 40
1.0
 10
68.6395800581
 20
342.739630282
 30
0.0
 10
68.5800361742
 20
342.7864024288
 30
0.0
 10
68.3509959733
 20
342.9547682535
 30
0.0
 10
68.0988838114
 20
343.0939786532
 30
0.0
 10
67.9037667905
 20
343.1679016284
 30
0.0
  0
SPLINE
  5
42A
100
AcDbEntity
  8
0
100
AcDbSpline
 62
7
  6
CONTINUOUS
 70
0
 71
3
 72
9
 73
5
 74
0
 42
0.0000001
 43
0.0000001
 44
0.0000000001
 40
0.0
 40
0.0
 40
0.0
 40
0.0
 40
0.2756025888
 40
1.0
 40
1.0
 40
1.0
 40
1.0
 10
67.9037667905
 20
343.1679016284
 30
0.0
 10
67.8264438899
 20
343.1971965553
 30
0.0
 10
67.5410523313
 20
343.2874652089
 30
0.0
 10
67.2249770899
 20
343.3028156628
 30
0.0
 10
67.0148314801
 20
343.2473830534
 30
0.0
  0
SPLINE
  5
42B
100
AcDbEntity
  8
0
100
AcDbSpline
 62
7
  6
CONTINUOUS
 70
0
 71
3
 72
9
 73
5
 74
0
 42
0.0000001
 43
0.0000001
 44
0.0000000001
 40
0.0
 40
0.0
 40
0.0
 40
0.0
 40
0.230990846
 40
1.0
 40
1.0
 40
1.0
 40
1.0
 10
240.4582052585
 20
248.0599505964
 30
0.0
 10
240.5184425877
 20
248.0766131585
 30
0.0
 10
240.7862655006
 20
248.1241307501
 30
0.0
 10
241.0642898395
 20
248.0727196497
 30
0.0
 10
241.2603902349
 20
248.0031610262
 30
0.0
  0
SPLINE
  5
42C
100
AcDbEntity
  8
0
100
AcDbSpline
 62
7
  6
CONTINUOUS
 70
0
 71
3
 72
9
 73
5
 74
0
 42
0.0000001
 43
0.0000001
 44
0.0000000001
 40
0.0
 40
0.0
 40
0.0
 40
0.0
 40
0.4645976385
 40
1.0
 40
1.0
 40
1.0
 40
1.0
 10
241.2603902349
 20
248.0031610262
 30
0.0
 10
241.5048502931
 20
247.9164487833
 30
0.0
 10
241.9944487119
 20
247.6272981165
 30
0.0
 10
242.3934532443
 20
247.2306169659
 30
0.0
 10
242.5840474971
 20
247.0003495912
 30
0.0
  0
SPLINE
  5
42D
100
AcDbEntity
  8
0
100
AcDbSpline
 62
7
  6
CONTINUOUS
 70
0
 71
3
 72
9
 73
5
 74
0
 42
0.0000001
 43
0.0000001
 44
0.0000000001
 40
0.0
 40
0.0
 40
0.0
 40
0.0
 40
0.2605126788
 40
1.0
 40
1.0
 40
1.0
 40
1.0
 10
224.8881176246
 20
69.4703124962
 30
0.0
 10
224.8881176246
 20
69.3850708911
 30
0.0
 10
224.8806323887
 20
69.0579641974
 30
0.0
 10
224.8424415307
 20
68.7311181947
 30
0.0
 10
224.7930406547
 20
68.4942493132
 30
0.0
  0
SPLINE
  5
42E
100
AcDbEntity
  8
0
100
AcDbSpline
 62
7
  6
CONTINUOUS
 70
0
 71
3
 72
9
 73
5
 74
0
 42
0.0000001
 43
0.0000001
 44
0.0000000001
 40
0.0
 40
0.0
 40
0.0
 40
0.0
 40
0.5323020252
 40
1.0
 40
1.0
 40
1.0
 40
1.0
 10
224.7930406547
 20
68.4942493132
 30
0.0
 10
224.7148406494
 20
68.1192934566
 30
0.0
 10
224.4675395108
 20
67.4241267574
 30
0.0
 10
223.9368810699
 20
66.8918904907
 30
0.0
 10
223.6454308736
 20
66.7236227746
 30
0.0
  0
SPLINE
  5
42F
100
AcDbEntity
  8
0
100
AcDbSpline
 62
7
  6
CONTINUOUS
 70
0
 71
3
 72
9
 73
5
 74
0
 42
0.0000001
 43
0.0000001
 44
0.0000000001
 40
0.0
 40
0.0
 40
0.0
 40
0.0
 40
0.2578773763
 40
1.0
 40
1.0
 40
1.0
 40
1.0
 10
39.5207194437
 20
342.6088656766
 30
0.0
 10
39.4636872069
 20
342.641792509
 30
0.0
 10
39.2403036875
 20
342.7655492242
 30
0.0
 10
39.0078701934
 20
342.8732635202
 30
0.0
 10
38.8311426534
 20
342.9417056848
 30
0.0
  0
SPLINE
  5
430
100
AcDbEntity
  8
0
100
AcDbSpline
 62
7
  6
CONTINUOUS
 70
0
 71
3
 72
10
 73
6
 74
0
 42
0.0000001
 43
0.0000001
 44
0.0000000001
 40
0.0
 40
0.0
 40
0.0
 40
0.0
 40
0.5346172525
 40
0.7724869236
 40
1.0
 40
1.0
 40
1.0
 40
1.0
 10
38.8311426534
 20
342.9417056848
 30
0.0
 10
38.4356771628
 20
343.0948595975
 30
0.0
 10
37.8178267583
 20
343.2373296696
 30
0.0
 10
37.0240189256
 20
343.1371494268
 30
0.0
 10
36.6770441628
 20
342.9962226316
 30
0.0
 10
36.520747846
 20
342.9059854217
 30
0.0
  0
SPLINE
  5
431
100
AcDbEntity
  8
0
100
AcDbSpline
 62
7
  6
CONTINUOUS
 70
0
 71
3
 72
11
 73
7
 74
0
 42
0.0000001
 43
0.0000001
 44
0.0000000001
 40
0.0
 40
0.0
 40
0.0
 40
0.0
 40
0.2379167929
 40
0.5000011517
 40
0.7620848811
 40
1.0
 40
1.0
 40
1.0
 40
1.0
 10
224.6411240889
 20
230.9345432891
 30
0.0
 10
224.628900621
 20
231.6159092642
 30
0.0
 10
224.3608847716
 20
233.0447819988
 30
0.0
 10
223.468342334
 20
235.0537839695
 30
0.0
 10
222.1747592386
 20
236.8312379212
 30
0.0
 10
221.0713239795
 20
237.7777699897
 30
0.0
 10
220.4873555054
 20
238.1290295677
 30
0.0
  0
SPLINE
  5
432
100
AcDbEntity
  8
0
100
AcDbSpline
 62
7
  6
CONTINUOUS
 70
0
 71
3
 72
11
 73
7
 74
0
 42
0.0000001
 43
0.0000001
 44
0.0000000001
 40
0.0
 40
0.0
 40
0.0
 40
0.0
 40
0.2372523758
 40
0.4999990757
 40
0.7627462798
 40
1.0
 40
1.0
 40
1.0
 40
1.0
 10
220.3716749124
 20
172.9583368396
 30
0.0
 10
220.6767934281
 20
172.7821805677
 30
0.0
 10
221.2542032818
 20
172.2962875017
 30
0.0
 10
221.9278619156
 20
171.3753186098
 30
0.0
 10
222.3886203316
 20
170.3314288075
 30
0.0
 10
222.5207163139
 20
169.5884291271
 30
0.0
 10
222.5207163139
 20
169.236108609
 30
0.0
  0
SPLINE
  5
433
100
AcDbEntity
  8
0
100
AcDbSpline
 62
7
  6
CONTINUOUS
 70
0
 71
3
 72
9
 73
5
 74
0
 42
0.0000001
 43
0.0000001
 44
0.0000000001
 40
0.0
 40
0.0
 40
0.0
 40
0.0
 40
0.5437422847
 40
1.0
 40
1.0
 40
1.0
 40
1.0
 10
222.5207163139
 20
116.7611742256
 30
0.0
 10
222.5207163139
 20
116.5109866218
 30
0.0
 10
222.4669315979
 20
116.046267711
 30
0.0
 10
222.2365656048
 20
115.6262205431
 30
0.0
 10
222.0888154223
 20
115.4770823776
 30
0.0
  0
SPLINE
  5
434
100
AcDbEntity
  8
0
100
AcDbSpline
 62
7
  6
CONTINUOUS
 70
0
 71
3
 72
9
 73
5
 74
0
 42
0.0000001
 43
0.0000001
 44
0.0000000001
 40
0.0
 40
0.0
 40
0.0
 40
0.0
 40
0.4999988717
 40
1.0
 40
1.0
 40
1.0
 40
1.0
 10
55.9963760417
 20
182.1255591678
 30
0.0
 10
55.7864960197
 20
182.2467307137
 30
0.0
 10
55.4548873229
 20
182.6294260801
 30
0.0
 10
55.2892663166
 20
183.1079540419
 30
0.0
 10
55.2892663166
 20
183.3503023395
 30
0.0
  0
SPLINE
  5
435
100
AcDbEntity
  8
0
100
AcDbSpline
 62
7
  6
CONTINUOUS
 70
0
 71
3
 72
9
 73
5
 74
0
 42
0.0000001
 43
0.0000001
 44
0.0000000001
 40
0.0
 40
0.0
 40
0.0
 40
0.0
 40
0.5437378972
 40
1.0
 40
1.0
 40
1.0
 40
1.0
 10
70.3507034622
 20
310.1941755117
 30
0.0
 10
70.3506892508
 20
309.9591119776
 30
0.0
 10
70.3001290396
 20
309.522485364
 30
0.0
 10
70.0836697524
 20
309.1278392976
 30
0.0
 10
69.9448455631
 20
308.9877173481
 30
0.0
  0
SPLINE
  5
436
100
AcDbEntity
  8
0
100
AcDbSpline
 62
7
  6
CONTINUOUS
 70
0
 71
3
 72
11
 73
7
 74
0
 42
0.0000001
 43
0.0000001
 44
0.0000000001
 40
0.0
 40
0.0
 40
0.0
 40
0.0
 40
0.2372546155
 40
0.4999990758
 40
0.7627440402
 40
1.0
 40
1.0
 40
1.0
 40
1.0
 10
68.2293742868
 20
316.4812127614
 30
0.0
 10
68.5305484449
 20
316.3073094367
 30
0.0
 10
69.1004906641
 20
315.8276692133
 30
0.0
 10
69.7654472045
 20
314.9185807729
 30
0.0
 10
70.220267826
 20
313.8881674286
 30
0.0
 10
70.3506824378
 20
313.1547613508
 30
0.0
 10
70.3507034622
 20
312.8069832462
 30
0.0
  0
SPLINE
  5
437
100
AcDbEntity
  8
0
100
AcDbSpline
 62
7
  6
CONTINUOUS
 70
0
 71
3
 72
9
 73
5
 74
0
 42
0.0000001
 43
0.0000001
 44
0.0000000001
 40
0.0
 40
0.0
 40
0.0
 40
0.0
 40
0.5437378972
 40
1.0
 40
1.0
 40
1.0
 40
1.0
 10
222.5207163139
 20
70.5529657945
 30
0.0
 10
222.5207021024
 20
70.3179022605
 30
0.0
 10
222.4701418912
 20
69.8812756468
 30
0.0
 10
222.253682604
 20
69.4866295804
 30
0.0
 10
222.1148584147
 20
69.3465076309
 30
0.0
  0
SPLINE
  5
438
100
AcDbEntity
  8
0
100
AcDbSpline
 62
7
  6
CONTINUOUS
 70
0
 71
3
 72
11
 73
7
 74
0
 42
0.0000001
 43
0.0000001
 44
0.0000000001
 40
0.0
 40
0.0
 40
0.0
 40
0.0
 40
0.2372546155
 40
0.4999990758
 40
0.7627440402
 40
1.0
 40
1.0
 40
1.0
 40
1.0
 10
220.3993871384
 20
82.7188204476
 30
0.0
 10
220.7005612965
 20
82.5449171229
 30
0.0
 10
221.2705035157
 20
82.0652768996
 30
0.0
 10
221.935460056
 20
81.1561884593
 30
0.0
 10
222.3902806775
 20
80.1257751151
 30
0.0
 10
222.5206952893
 20
79.3923690373
 30
0.0
 10
222.5207163139
 20
79.0445909328
 30
0.0
  0
SPLINE
  5
439
100
AcDbEntity
  8
0
100
AcDbSpline
 62
7
  6
CONTINUOUS
 70
0
 71
3
 72
11
 73
7
 74
0
 42
0.0000001
 43
0.0000001
 44
0.0000000001
 40
0.0
 40
0.0
 40
0.0
 40
0.0
 40
0.2895391946
 40
0.5491157945
 40
0.7822541179
 40
1.0
 40
1.0
 40
1.0
 40
1.0
 10
65.5761693697
 20
341.5261843991
 30
0.0
 10
65.4402242705
 20
341.6046705632
 30
0.0
 10
65.1695599901
 20
341.7332587459
 30
0.0
 10
64.753713015
 20
341.8339128545
 30
0.0
 10
64.3633256402
 20
341.8241061446
 30
0.0
 10
64.1284991302
 20
341.7385851814
 30
0.0
 10
64.0262630366
 20
341.6795594488
 30
0.0
  0
SPLINE
  5
43A
100
AcDbEntity
  8
0
100
AcDbSpline
 62
7
  6
CONTINUOUS
 70
0
 71
3
 72
12
 73
8
 74
0
 42
0.0000001
 43
0.0000001
 44
0.0000000001
 40
0.0
 40
0.0
 40
0.0
 40
0.0
 40
0.3078047253
 40
0.581778579
 40
0.8087218016
 40
0.9071645672
 40
1.0
 40
1.0
 40
1.0
 40
1.0
 10
73.1661733371
 20
343.8180773237
 30
0.0
 10
72.970621583
 20
344.1055045988
 30
0.0
 10
72.5442237639
 20
344.6138115832
 30
0.0
 10
71.8059544006
 20
345.1656641104
 30
0.0
 10
71.143193253
 20
345.3872587871
 30
0.0
 10
70.6660087223
 20
345.3570971952
 30
0.0
 10
70.4603075633
 20
345.2787246156
 30
0.0
 10
70.3694645341
 20
345.2263683418
 30
0.0
  0
SPLINE
  5
43B
100
AcDbEntity
  8
0
100
AcDbSpline
 62
7
  6
CONTINUOUS
 70
0
 71
3
 72
11
 73
7
 74
0
 42
0.0000001
 43
0.0000001
 44
0.0000000001
 40
0.0
 40
0.0
 40
0.0
 40
0.0
 40
0.2895391946
 40
0.5491157945
 40
0.7822541179
 40
1.0
 40
1.0
 40
1.0
 40
1.0
 10
210.6544799655
 20
178.4867868897
 30
0.0
 10
210.5221011598
 20
178.5632140998
 30
0.0
 10
210.2585373066
 20
178.6884289854
 30
0.0
 10
209.8535993852
 20
178.786442601
 30
0.0
 10
209.4734531738
 20
178.7768931538
 30
0.0
 10
209.2447869467
 20
178.6936156908
 30
0.0
 10
209.145232847
 20
178.6361384002
 30
0.0
  0
SPLINE
  5
43C
100
AcDbEntity
  8
0
100
AcDbSpline
 62
7
  6
CONTINUOUS
 70
0
 71
3
 72
11
 73
7
 74
0
 42
0.0000001
 43
0.0000001
 44
0.0000000001
 40
0.0
 40
0.0
 40
0.0
 40
0.0
 40
0.2372539655
 40
0.5000012591
 40
0.7627478695
 40
1.0
 40
1.0
 40
1.0
 40
1.0
 10
222.4500059301
 20
169.1952841936
 30
0.0
 10
222.4500059301
 20
169.547605076
 30
0.0
 10
222.3179097318
 20
170.2906052532
 30
0.0
 10
221.8571509086
 20
171.3344952738
 30
0.0
 10
221.1834922604
 20
172.255463704
 30
0.0
 10
220.6060827289
 20
172.7413563344
 30
0.0
 10
220.3009645287
 20
172.9175124242
 30
0.0
  0
SPLINE
  5
43D
100
AcDbEntity
  8
0
100
AcDbSpline
 62
7
  6
CONTINUOUS
 70
0
 71
3
 72
13
 73
9
 74
0
 42
0.0000001
 43
0.0000001
 44
0.0000000001
 40
0.0
 40
0.0
 40
0.0
 40
0.0
 40
0.0907700646
 40
0.1880100411
 40
0.2961815616
 40
0.4171693821
 40
0.6938088784
 40
1.0
 40
1.0
 40
1.0
 40
1.0
 10
233.0753777464
 20
254.6377770717
 30
0.0
 10
233.1748289789
 20
254.6950972238
 30
0.0
 10
233.4033484805
 20
254.7780881338
 30
0.0
 10
233.7829628102
 20
254.7866318819
 30
0.0
 10
234.1876883098
 20
254.6880804149
 30
0.0
 10
234.7673242778
 20
254.4093410862
 30
0.0
 10
235.4564999254
 20
253.8251853289
 30
0.0
 10
235.893496203
 20
253.2235324339
 30
0.0
 10
236.0858194541
 20
252.887464436
 30
0.0
  0
SPLINE
  5
43E
100
AcDbEntity
  8
0
100
AcDbSpline
 62
7
  6
CONTINUOUS
 70
0
 71
3
 72
9
 73
5
 74
0
 42
0.0000001
 43
0.0000001
 44
0.0000000001
 40
0.0
 40
0.0
 40
0.0
 40
0.0
 40
0.2533055927
 40
1.0
 40
1.0
 40
1.0
 40
1.0
 10
236.225206001
 20
252.6269195823
 30
0.0
 10
236.2528520874
 20
252.5714656024
 30
0.0
 10
236.3579922426
 20
252.3505813839
 30
0.0
 10
236.447181858
 20
252.1220338151
 30
0.0
 10
236.5033718423
 20
251.9482359499
 30
0.0
  0
SPLINE
  5
43F
100
AcDbEntity
  8
0
100
AcDbSpline
 62
7
  6
CONTINUOUS
 70
0
 71
3
 72
10
 73
6
 74
0
 42
0.0000001
 43
0.0000001
 44
0.0000000001
 40
0.0
 40
0.0
 40
0.0
 40
0.0
 40
0.1990254621
 40
0.5607089037
 40
1.0
 40
1.0
 40
1.0
 40
1.0
 10
64.3878836969
 20
349.7118984719
 30
0.0
 10
64.5465952496
 20
349.7558005031
 30
0.0
 10
65.0267495191
 20
349.7630289067
 30
0.0
 10
65.7973147002
 20
349.3956881399
 30
0.0
 10
66.2819721018
 20
348.9322919896
 30
0.0
 10
66.5137259355
 20
348.6522974668
 30
0.0
  0
SPLINE
  5
440
100
AcDbEntity
  8
0
100
AcDbSpline
 62
7
  6
CONTINUOUS
 70
0
 71
3
 72
11
 73
7
 74
0
 42
0.0000001
 43
0.0000001
 44
0.0000000001
 40
0.0
 40
0.0
 40
0.0
 40
0.0
 40
0.1904527893
 40
0.4176891871
 40
0.6915304826
 40
1.0
 40
1.0
 40
1.0
 40
1.0
 10
230.801208797
 20
251.8815127584
 30
0.0
 10
230.9068887281
 20
251.942446206
 30
0.0
 10
231.1866671115
 20
251.9964176006
 30
0.0
 10
231.6182839347
 20
251.8548590185
 30
0.0
 10
232.0432601533
 20
251.5485838568
 30
0.0
 10
232.2892715628
 20
251.2636119221
 30
0.0
 10
232.4032804062
 20
251.1022433133
 30
0.0
  0
SPLINE
  5
441
100
AcDbEntity
  8
0
100
AcDbSpline
 62
7
  6
CONTINUOUS
 70
0
 71
3
 72
11
 73
7
 74
0
 42
0.0000001
 43
0.0000001
 44
0.0000000001
 40
0.0
 40
0.0
 40
0.0
 40
0.0
 40
0.2372428334
 40
0.4999989083
 40
0.7627555772
 40
1.0
 40
1.0
 40
1.0
 40
1.0
 10
214.2038684801
 20
120.9970787109
 30
0.0
 10
214.0544623124
 20
121.0833364506
 30
0.0
 10
213.7717441943
 20
121.3212990518
 30
0.0
 10
213.441765924
 20
121.7722257744
 30
0.0
 10
213.2162382796
 20
122.2834587425
 30
0.0
 10
213.1515130437
 20
122.6472821155
 30
0.0
 10
213.1515130437
 20
122.8198016779
 30
0.0
  0
SPLINE
  5
442
100
AcDbEntity
  8
0
100
AcDbSpline
 62
7
  6
CONTINUOUS
 70
0
 71
3
 72
9
 73
5
 74
0
 42
0.0000001
 43
0.0000001
 44
0.0000000001
 40
0.0
 40
0.0
 40
0.0
 40
0.0
 40
0.2757190551
 40
1.0
 40
1.0
 40
1.0
 40
1.0
 10
220.2724503601
 20
117.8592443074
 30
0.0
 10
220.3123818051
 20
117.8361903984
 30
0.0
 10
220.460878213
 20
117.7601391423
 30
0.0
 10
220.6292018077
 20
117.714901469
 30
0.0
 10
220.75030616
 20
117.7169556161
 30
0.0
  0
SPLINE
  5
443
100
AcDbEntity
  8
0
100
AcDbSpline
 62
7
  6
CONTINUOUS
 70
0
 71
3
 72
9
 73
5
 74
0
 42
0.0000001
 43
0.0000001
 44
0.0000000001
 40
0.0
 40
0.0
 40
0.0
 40
0.0
 40
0.2329672259
 40
1.0
 40
1.0
 40
1.0
 40
1.0
 10
213.4715437021
 20
122.9062528801
 30
0.0
 10
213.4766203938
 20
122.8292448589
 30
0.0
 10
213.5225125575
 20
122.5004238876
 30
0.0
 10
213.6494912678
 20
122.1855585665
 30
0.0
 10
213.7765394765
 20
121.9655058357
 30
0.0
  0
SPLINE
  5
444
100
AcDbEntity
  8
0
100
AcDbSpline
 62
7
  6
CONTINUOUS
 70
0
 71
3
 72
8
 73
4
 74
0
 42
0.0000001
 43
0.0000001
 44
0.0000000001
 40
0.0
 40
0.0
 40
0.0
 40
0.0
 40
1.0
 40
1.0
 40
1.0
 40
1.0
 10
213.7765394765
 20
121.9655058357
 30
0.0
 10
213.8507154353
 20
121.8370300195
 30
0.0
 10
213.9362272081
 20
121.7143671633
 30
0.0
 10
214.0319882172
 20
121.6010625414
 30
0.0
  0
SPLINE
  5
445
100
AcDbEntity
  8
0
100
AcDbSpline
 62
7
  6
CONTINUOUS
 70
0
 71
3
 72
9
 73
5
 74
0
 42
0.0000001
 43
0.0000001
 44
0.0000000001
 40
0.0
 40
0.0
 40
0.0
 40
0.0
 40
0.2659387379
 40
1.0
 40
1.0
 40
1.0
 40
1.0
 10
214.0319882172
 20
121.6010625414
 30
0.0
 10
214.0689959364
 20
121.5572749323
 30
0.0
 10
214.2141238847
 20
121.397997894
 30
0.0
 10
214.3836010898
 20
121.2590961039
 30
0.0
 10
214.5206509992
 20
121.1799720918
 30
0.0
  0
SPLINE
  5
446
100
AcDbEntity
  8
0
100
AcDbSpline
 62
7
  6
CONTINUOUS
 70
0
 71
3
 72
9
 73
5
 74
0
 42
0.0000001
 43
0.0000001
 44
0.0000000001
 40
0.0
 40
0.0
 40
0.0
 40
0.0
 40
0.2330767268
 40
1.0
 40
1.0
 40
1.0
 40
1.0
 10
214.5152198434
 20
121.3464081832
 30
0.0
 10
214.4798413551
 20
121.3668316385
 30
0.0
 10
214.3331665586
 20
121.4632627306
 30
0.0
 10
214.2061043188
 20
121.5875937953
 30
0.0
 10
214.1198410467
 20
121.690677109
 30
0.0
  0
SPLINE
  5
447
100
AcDbEntity
  8
0
100
AcDbSpline
 62
7
  6
CONTINUOUS
 70
0
 71
3
 72
9
 73
5
 74
0
 42
0.0000001
 43
0.0000001
 44
0.0000000001
 40
0.0
 40
0.0
 40
0.0
 40
0.0
 40
0.5248484036
 40
1.0
 40
1.0
 40
1.0
 40
1.0
 10
213.9249231123
 20
121.9695282822
 30
0.0
 10
213.8492519478
 20
122.1005939788
 30
0.0
 10
213.7332760781
 20
122.3671514558
 30
0.0
 10
213.6804250715
 20
122.6552742272
 30
0.0
 10
213.6804284802
 20
122.7922857904
 30
0.0
  0
SPLINE
  5
448
100
AcDbEntity
  8
0
100
AcDbSpline
 62
7
  6
CONTINUOUS
 70
0
 71
3
 72
9
 73
5
 74
0
 42
0.0000001
 43
0.0000001
 44
0.0000000001
 40
0.0
 40
0.0
 40
0.0
 40
0.0
 40
0.5507638638
 40
1.0
 40
1.0
 40
1.0
 40
1.0
 10
213.6804284818
 20
173.5863885667
 30
0.0
 10
213.6804360443
 20
173.7114767102
 30
0.0
 10
213.7109122557
 20
173.9439043452
 30
0.0
 10
213.8634868415
 20
174.1349491522
 30
0.0
 10
213.9518460876
 20
174.1859652769
 30
0.0
  0
SPLINE
  5
449
100
AcDbEntity
  8
0
100
AcDbSpline
 62
7
  6
CONTINUOUS
 70
0
 71
3
 72
9
 73
5
 74
0
 42
0.0000001
 43
0.0000001
 44
0.0000000001
 40
0.0
 40
0.0
 40
0.0
 40
0.0
 40
0.7406301419
 40
1.0
 40
1.0
 40
1.0
 40
1.0
 10
213.9518460876
 20
174.1859652769
 30
0.0
 10
213.9994362809
 20
174.2134425058
 30
0.0
 10
214.0717462812
 20
174.2381368407
 30
0.0
 10
214.1455764909
 20
174.2456998722
 30
0.0
 10
214.1647967632
 20
174.2466673019
 30
0.0
  0
SPLINE
  5
44A
100
AcDbEntity
  8
0
100
AcDbSpline
 62
7
  6
CONTINUOUS
 70
0
 71
3
 72
9
 73
5
 74
0
 42
0.0000001
 43
0.0000001
 44
0.0000000001
 40
0.0
 40
0.0
 40
0.0
 40
0.0
 40
0.2287401605
 40
1.0
 40
1.0
 40
1.0
 40
1.0
 10
220.3979714588
 20
169.3308866556
 30
0.0
 10
220.4370917422
 20
169.3083010604
 30
0.0
 10
220.6197239729
 20
169.230559886
 30
0.0
 10
220.8270380464
 20
169.217756264
 30
0.0
 10
220.977527601
 20
169.2412317832
 30
0.0
  0
SPLINE
  5
44B
100
AcDbEntity
  8
0
100
AcDbSpline
 62
7
  6
CONTINUOUS
 70
0
 71
3
 72
8
 73
4
 74
0
 42
0.0000001
 43
0.0000001
 44
0.0000000001
 40
0.0
 40
0.0
 40
0.0
 40
0.0
 40
1.0
 40
1.0
 40
1.0
 40
1.0
 10
220.4897576992
 20
170.3584347882
 30
0.0
 10
220.4545622721
 20
170.3266964831
 30
0.0
 10
220.4219820595
 20
170.2918689304
 30
0.0
 10
220.3922431248
 20
170.2549686072
 30
0.0
  0
SPLINE
  5
44C
100
AcDbEntity
  8
0
100
AcDbSpline
 62
7
  6
CONTINUOUS
 70
0
 71
3
 72
9
 73
5
 74
0
 42
0.0000001
 43
0.0000001
 44
0.0000000001
 40
0.0
 40
0.0
 40
0.0
 40
0.0
 40
0.2630867325
 40
1.0
 40
1.0
 40
1.0
 40
1.0
 10
220.3922431248
 20
170.2549686072
 30
0.0
 10
220.3596667338
 20
170.2145475441
 30
0.0
 10
220.2490217955
 20
170.0516534519
 30
0.0
 10
220.1801119731
 20
169.8536413651
 30
0.0
 10
220.1801119728
 20
169.7082282601
 30
0.0
  0
SPLINE
  5
44D
100
AcDbEntity
  8
0
100
AcDbSpline
 62
7
  6
CONTINUOUS
 70
0
 71
3
 72
9
 73
5
 74
0
 42
0.0000001
 43
0.0000001
 44
0.0000000001
 40
0.0
 40
0.0
 40
0.0
 40
0.0
 40
0.5500244613
 40
1.0
 40
1.0
 40
1.0
 40
1.0
 10
220.1345707923
 20
119.1596134373
 30
0.0
 10
220.1345707923
 20
119.1024042674
 30
0.0
 10
220.148813089
 20
118.9961222956
 30
0.0
 10
220.2182669351
 20
118.9082760348
 30
0.0
 10
220.2587996442
 20
118.8848749929
 30
0.0
  0
SPLINE
  5
44E
100
AcDbEntity
  8
0
100
AcDbSpline
 62
7
  6
CONTINUOUS
 70
0
 71
3
 72
9
 73
5
 74
0
 42
0.0000001
 43
0.0000001
 44
0.0000000001
 40
0.0
 40
0.0
 40
0.0
 40
0.0
 40
0.262004863
 40
1.0
 40
1.0
 40
1.0
 40
1.0
 10
221.0023178081
 20
119.2262435019
 30
0.0
 10
220.9493549926
 20
119.2165274569
 30
0.0
 10
220.745170672
 20
119.1971701356
 30
0.0
 10
220.5293232194
 20
119.2358579719
 30
0.0
 10
220.3979714588
 20
119.3116922307
 30
0.0
  0
SPLINE
  5
44F
100
AcDbEntity
  8
0
100
AcDbSpline
 62
7
  6
CONTINUOUS
 70
0
 71
3
 72
9
 73
5
 74
0
 42
0.0000001
 43
0.0000001
 44
0.0000000001
 40
0.0
 40
0.0
 40
0.0
 40
0.0
 40
0.5500256835
 40
1.0
 40
1.0
 40
1.0
 40
1.0
 10
214.24611685
 20
122.8160128709
 30
0.0
 10
214.1965730674
 20
122.84461634
 30
0.0
 10
214.1116526303
 20
122.9100888393
 30
0.0
 10
214.0703020702
 20
123.0141577493
 30
0.0
 10
214.07030207
 20
123.0609593633
 30
0.0
  0
SPLINE
  5
450
100
AcDbEntity
  8
0
100
AcDbSpline
 62
7
  6
CONTINUOUS
 70
0
 71
3
 72
9
 73
5
 74
0
 42
0.0000001
 43
0.0000001
 44
0.0000000001
 40
0.0
 40
0.0
 40
0.0
 40
0.0
 40
0.2287411567
 40
1.0
 40
1.0
 40
1.0
 40
1.0
 10
214.4810330239
 20
172.9985186031
 30
0.0
 10
214.481033024
 20
173.0436908539
 30
0.0
 10
214.5050213888
 20
173.2407262459
 30
0.0
 10
214.5975891501
 20
173.4266686451
 30
0.0
 10
214.6931641758
 20
173.5452589501
 30
0.0
  0
SPLINE
  5
451
100
AcDbEntity
  8
0
100
AcDbSpline
 62
7
  6
CONTINUOUS
 70
0
 71
3
 72
9
 73
5
 74
0
 42
0.0000001
 43
0.0000001
 44
0.0000000001
 40
0.0
 40
0.0
 40
0.0
 40
0.0
 40
0.2669232142
 40
1.0
 40
1.0
 40
1.0
 40
1.0
 10
214.6931641758
 20
173.5452589501
 30
0.0
 10
214.7090397694
 20
173.5649575216
 30
0.0
 10
214.7714216262
 20
173.6362322037
 30
0.0
 10
214.8451215152
 20
173.698625386
 30
0.0
 10
214.9052953271
 20
173.7333665451
 30
0.0
  0
SPLINE
  5
452
100
AcDbEntity
  8
0
100
AcDbSpline
 62
7
  6
CONTINUOUS
 70
0
 71
3
 72
9
 73
5
 74
0
 42
0.0000001
 43
0.0000001
 44
0.0000000001
 40
0.0
 40
0.0
 40
0.0
 40
0.0
 40
0.2655576083
 40
1.0
 40
1.0
 40
1.0
 40
1.0
 10
214.9052953269
 20
173.7333665453
 30
0.0
 10
214.8887098271
 20
173.7429419715
 30
0.0
 10
214.8251029737
 20
173.7768754926
 30
0.0
 10
214.7565005176
 20
173.8021588699
 30
0.0
 10
214.7046615505
 20
173.8130254981
 30
0.0
  0
SPLINE
  5
453
100
AcDbEntity
  8
0
100
AcDbSpline
 62
7
  6
CONTINUOUS
 70
0
 71
3
 72
9
 73
5
 74
0
 42
0.0000001
 43
0.0000001
 44
0.0000000001
 40
0.0
 40
0.0
 40
0.0
 40
0.0
 40
0.2727621489
 40
1.0
 40
1.0
 40
1.0
 40
1.0
 10
214.7046615505
 20
173.8130254981
 30
0.0
 10
214.6805556767
 20
173.8180786383
 30
0.0
 10
214.5912684417
 20
173.8307673956
 30
0.0
 10
214.4960574756
 20
173.8123678962
 30
0.0
 10
214.4391872845
 20
173.7795340821
 30
0.0
  0
SPLINE
  5
454
100
AcDbEntity
  8
0
100
AcDbSpline
 62
7
  6
CONTINUOUS
 70
0
 71
3
 72
9
 73
5
 74
0
 42
0.0000001
 43
0.0000001
 44
0.0000000001
 40
0.0
 40
0.0
 40
0.0
 40
0.0
 40
0.5506197784
 40
1.0
 40
1.0
 40
1.0
 40
1.0
 10
220.1345707923
 20
119.1596134373
 30
0.0
 10
220.173866282
 20
119.1369266889
 30
0.0
 10
220.2576648652
 20
119.1038699589
 30
0.0
 10
220.3411049649
 20
119.1493188308
 30
0.0
 10
220.3623977787
 20
119.1796165366
 30
0.0
  0
SPLINE
  5
455
100
AcDbEntity
  8
0
100
AcDbSpline
 62
7
  6
CONTINUOUS
 70
0
 71
3
 72
9
 73
5
 74
0
 42
0.0000001
 43
0.0000001
 44
0.0000000001
 40
0.0
 40
0.0
 40
0.0
 40
0.0
 40
0.2254926036
 40
1.0
 40
1.0
 40
1.0
 40
1.0
 10
220.3623977787
 20
119.1796165366
 30
0.0
 10
220.3683636346
 20
119.1881053981
 30
0.0
 10
220.3908010754
 20
119.2285907496
 30
0.0
 10
220.3979714588
 20
119.2760549365
 30
0.0
 10
220.3979714588
 20
119.3116922319
 30
0.0
  0
SPLINE
  5
456
100
AcDbEntity
  8
0
100
AcDbSpline
 62
7
  6
CONTINUOUS
 70
0
 71
3
 72
11
 73
7
 74
0
 42
0.0000001
 43
0.0000001
 44
0.0000000001
 40
0.0
 40
0.0
 40
0.0
 40
0.0
 40
0.300480706
 40
0.5720135656
 40
0.8042679996
 40
1.0
 40
1.0
 40
1.0
 40
1.0
 10
243.2741607768
 20
89.9256284721
 30
0.0
 10
243.3847719157
 20
89.6731210462
 30
0.0
 10
243.5541856837
 20
89.1725605566
 30
0.0
 10
243.6448297812
 20
88.4341021724
 30
0.0
 10
243.5563758578
 20
87.7889133272
 30
0.0
 10
243.3524934358
 20
87.434638104
 30
0.0
 10
243.2241003321
 20
87.3090948411
 30
0.0
  0
SPLINE
  5
457
100
AcDbEntity
  8
0
100
AcDbSpline
 62
7
  6
CONTINUOUS
 70
0
 71
3
 72
9
 73
5
 74
0
 42
0.0000001
 43
0.0000001
 44
0.0000000001
 40
0.0
 40
0.0
 40
0.0
 40
0.0
 40
0.2287558293
 40
1.0
 40
1.0
 40
1.0
 40
1.0
 10
214.24611685
 20
122.8160128715
 30
0.0
 10
214.24611685
 20
122.7923830144
 30
0.0
 10
214.2586594469
 20
122.6893196405
 30
0.0
 10
214.3069942452
 20
122.5920423024
 30
0.0
 10
214.3569098615
 20
122.5299509907
 30
0.0
  0
SPLINE
  5
458
100
AcDbEntity
  8
0
100
AcDbSpline
 62
7
  6
CONTINUOUS
 70
0
 71
3
 72
9
 73
5
 74
0
 42
0.0000001
 43
0.0000001
 44
0.0000000001
 40
0.0
 40
0.0
 40
0.0
 40
0.0
 40
0.2669302226
 40
1.0
 40
1.0
 40
1.0
 40
1.0
 10
214.3569098615
 20
122.5299509907
 30
0.0
 10
214.3652537887
 20
122.5195717663
 30
0.0
 10
214.3980476362
 20
122.4820191054
 30
0.0
 10
214.4368172677
 20
122.4491385495
 30
0.0
 10
214.4684907301
 20
122.4308522811
 30
0.0
  0
SPLINE
  5
459
100
AcDbEntity
  8
0
100
AcDbSpline
 62
7
  6
CONTINUOUS
 70
0
 71
3
 72
9
 73
5
 74
0
 42
0.0000001
 43
0.0000001
 44
0.0000000001
 40
0.0
 40
0.0
 40
0.0
 40
0.0
 40
0.5506197788
 40
1.0
 40
1.0
 40
1.0
 40
1.0
 10
214.4810330239
 20
172.9985186031
 30
0.0
 10
214.4459869997
 20
173.0187519769
 30
0.0
 10
214.371250505
 20
173.0482339092
 30
0.0
 10
214.2968337264
 20
173.007699938
 30
0.0
 10
214.2778435453
 20
172.9806786657
 30
0.0
  0
SPLINE
  5
45A
100
AcDbEntity
  8
0
100
AcDbSpline
 62
7
  6
CONTINUOUS
 70
0
 71
3
 72
9
 73
5
 74
0
 42
0.0000001
 43
0.0000001
 44
0.0000000001
 40
0.0
 40
0.0
 40
0.0
 40
0.0
 40
0.2254926037
 40
1.0
 40
1.0
 40
1.0
 40
1.0
 10
214.2778435453
 20
172.9806786657
 30
0.0
 10
214.2725228449
 20
172.9731078009
 30
0.0
 10
214.2525118187
 20
172.9370005888
 30
0.0
 10
214.24611685
 20
172.8946692418
 30
0.0
 10
214.24611685
 20
172.8628858108
 30
0.0
  0
SPLINE
  5
45B
100
AcDbEntity
  8
0
100
AcDbSpline
 62
7
  6
CONTINUOUS
 70
0
 71
3
 72
9
 73
5
 74
0
 42
0.0000001
 43
0.0000001
 44
0.0000000001
 40
0.0
 40
0.0
 40
0.0
 40
0.0
 40
0.4999992989
 40
1.0
 40
1.0
 40
1.0
 40
1.0
 10
220.3979714588
 20
169.3308866551
 30
0.0
 10
220.3979714588
 20
169.4055551356
 30
0.0
 10
220.3469784537
 20
169.5530072636
 30
0.0
 10
220.2447772098
 20
169.6708946126
 30
0.0
 10
220.1801118619
 20
169.7082283242
 30
0.0
  0
SPLINE
  5
45C
100
AcDbEntity
  8
0
100
AcDbSpline
 62
7
  6
CONTINUOUS
 70
0
 71
3
 72
10
 73
6
 74
0
 42
0.0000001
 43
0.0000001
 44
0.0000000001
 40
0.0
 40
0.0
 40
0.0
 40
0.0
 40
0.5417686639
 40
0.7773697068
 40
1.0
 40
1.0
 40
1.0
 40
1.0
 10
214.9957022139
 20
167.4923198201
 30
0.0
 10
215.0151055488
 20
167.7666776037
 30
0.0
 10
215.1019451016
 20
168.1674953324
 30
0.0
 10
215.3899681958
 20
168.5922600801
 30
0.0
 10
215.5742384692
 20
168.7412199165
 30
0.0
 10
215.6721193218
 20
168.7977335091
 30
0.0
  0
SPLINE
  5
45D
100
AcDbEntity
  8
0
100
AcDbSpline
 62
7
  6
CONTINUOUS
 70
0
 71
3
 72
8
 73
4
 74
0
 42
0.0000001
 43
0.0000001
 44
0.0000000001
 40
0.0
 40
0.0
 40
0.0
 40
0.0
 40
1.0
 40
1.0
 40
1.0
 40
1.0
 10
73.2685798632
 20
346.9001875933
 30
0.0
 10
73.3706136259
 20
346.9589962239
 30
0.0
 10
73.4846942723
 20
346.9998176308
 30
0.0
 10
73.6004961433
 20
347.0212482267
 30
0.0
  0
SPLINE
  5
45E
100
AcDbEntity
  8
0
100
AcDbSpline
 62
7
  6
CONTINUOUS
 70
0
 71
3
 72
10
 73
6
 74
0
 42
0.0000001
 43
0.0000001
 44
0.0000000001
 40
0.0
 40
0.0
 40
0.0
 40
0.0
 40
0.4249103466
 40
0.7024375143
 40
1.0
 40
1.0
 40
1.0
 40
1.0
 10
73.6004961433
 20
347.0212482267
 30
0.0
 10
74.0997088354
 20
347.1136338277
 30
0.0
 10
74.9749123498
 20
346.716311645
 30
0.0
 10
75.8125202966
 20
345.8859027695
 30
0.0
 10
76.2002505153
 20
345.3061426803
 30
0.0
 10
76.3659792996
 20
344.991600037
 30
0.0
  0
SPLINE
  5
45F
100
AcDbEntity
  8
0
100
AcDbSpline
 62
7
  6
CONTINUOUS
 70
0
 71
3
 72
8
 73
4
 74
0
 42
0.0000001
 43
0.0000001
 44
0.0000000001
 40
0.0
 40
0.0
 40
0.0
 40
0.0
 40
1.0
 40
1.0
 40
1.0
 40
1.0
 10
219.1286832174
 20
163.5960296341
 30
0.0
 10
219.1997517621
 20
163.5812346341
 30
0.0
 10
219.2718608009
 20
163.5706037878
 30
0.0
 10
219.3442346217
 20
163.564977053
 30
0.0
  0
SPLINE
  5
460
100
AcDbEntity
  8
0
100
AcDbSpline
 62
7
  6
CONTINUOUS
 70
0
 71
3
 72
9
 73
5
 74
0
 42
0.0000001
 43
0.0000001
 44
0.0000000001
 40
0.0
 40
0.0
 40
0.0
 40
0.0
 40
0.2208548516
 40
1.0
 40
1.0
 40
1.0
 40
1.0
 10
228.0240545327
 20
247.6287152399
 30
0.0
 10
228.0392595689
 20
247.6374938295
 30
0.0
 10
228.1156922487
 20
247.6651835011
 30
0.0
 10
228.2010176003
 20
247.6368085578
 30
0.0
 10
228.2546590888
 20
247.6058393305
 30
0.0
  0
SPLINE
  5
461
100
AcDbEntity
  8
0
100
AcDbSpline
 62
7
  6
CONTINUOUS
 70
0
 71
3
 72
14
 73
10
 74
0
 42
0.0000001
 43
0.0000001
 44
0.0000000001
 40
0.0
 40
0.0
 40
0.0
 40
0.0
 40
0.2732179797
 40
0.4223927695
 40
0.5677549437
 40
0.7009409728
 40
0.8162963046
 40
0.913397278
 40
1.0
 40
1.0
 40
1.0
 40
1.0
 10
219.0191063171
 20
165.1234821438
 30
0.0
 10
219.0191063171
 20
165.5308568637
 30
0.0
 10
218.8463361797
 20
166.1616589395
 30
0.0
 10
218.4327821494
 20
166.9009758938
 30
0.0
 10
218.0275145783
 20
167.3987794073
 30
0.0
 10
217.5727849239
 20
167.7772828686
 30
0.0
 10
217.1033932115
 20
168.0053770532
 30
0.0
 10
216.647675279
 20
168.0579143893
 30
0.0
 10
216.3801575195
 20
167.9488412644
 30
0.0
 10
216.2783437002
 20
167.8694204039
 30
0.0
  0
SPLINE
  5
462
100
AcDbEntity
  8
0
100
AcDbSpline
 62
7
  6
CONTINUOUS
 70
0
 71
3
 72
9
 73
5
 74
0
 42
0.0000001
 43
0.0000001
 44
0.0000000001
 40
0.0
 40
0.0
 40
0.0
 40
0.0
 40
0.4523553807
 40
1.0
 40
1.0
 40
1.0
 40
1.0
 10
216.2783437002
 20
167.8694204039
 30
0.0
 10
216.15400588
 20
167.7724294773
 30
0.0
 10
215.9516891097
 20
167.4644995001
 30
0.0
 10
215.9078235265
 20
167.11065289
 30
0.0
 10
215.9078235265
 20
166.9197414618
 30
0.0
  0
SPLINE
  5
463
100
AcDbEntity
  8
0
100
AcDbSpline
 62
7
  6
CONTINUOUS
 70
0
 71
3
 72
9
 73
5
 74
0
 42
0.0000001
 43
0.0000001
 44
0.0000000001
 40
0.0
 40
0.0
 40
0.0
 40
0.0
 40
0.2215464812
 40
1.0
 40
1.0
 40
1.0
 40
1.0
 10
218.7220052478
 20
164.2391678713
 30
0.0
 10
218.7711749512
 20
164.2889264547
 30
0.0
 10
218.9630215848
 20
164.544126744
 30
0.0
 10
219.0191063171
 20
164.8776826331
 30
0.0
 10
219.0191063171
 20
165.1234821438
 30
0.0
  0
SPLINE
  5
464
100
AcDbEntity
  8
0
100
AcDbSpline
 62
7
  6
CONTINUOUS
 70
0
 71
3
 72
14
 73
10
 74
0
 42
0.0000001
 43
0.0000001
 44
0.0000000001
 40
0.0
 40
0.0
 40
0.0
 40
0.0
 40
0.2764446497
 40
0.4270619457
 40
0.5728258805
 40
0.7049770081
 40
0.8180722783
 40
0.9130290982
 40
1.0
 40
1.0
 40
1.0
 40
1.0
 10
215.9078235265
 20
166.9197414618
 30
0.0
 10
215.9078235265
 20
166.4987379788
 30
0.0
 10
216.0915514155
 20
165.8473771515
 30
0.0
 10
216.5279322075
 20
165.0912775295
 30
0.0
 10
216.9526253203
 20
164.589642599
 30
0.0
 10
217.4253043174
 20
164.21951594
 30
0.0
 10
217.9086538414
 20
164.012035024
 30
0.0
 10
218.3739803974
 20
163.9989276706
 30
0.0
 10
218.6289082068
 20
164.1449558556
 30
0.0
 10
218.7220052478
 20
164.2391678713
 30
0.0
  0
SPLINE
  5
465
100
AcDbEntity
  8
0
100
AcDbSpline
 62
7
  6
CONTINUOUS
 70
0
 71
3
 72
11
 73
7
 74
0
 42
0.0000001
 43
0.0000001
 44
0.0000000001
 40
0.0
 40
0.0
 40
0.0
 40
0.0
 40
0.1904527893
 40
0.4176891871
 40
0.6915304826
 40
1.0
 40
1.0
 40
1.0
 40
1.0
 10
70.9944109138
 20
344.14392328
 30
0.0
 10
71.1000908449
 20
344.2048567276
 30
0.0
 10
71.3798692283
 20
344.2588281222
 30
0.0
 10
71.8114860515
 20
344.1172695401
 30
0.0
 10
72.2364622701
 20
343.8109943783
 30
0.0
 10
72.4824736795
 20
343.5260224437
 30
0.0
 10
72.596482523
 20
343.3646538348
 30
0.0
  0
SPLINE
  5
466
100
AcDbEntity
  8
0
100
AcDbSpline
 62
7
  6
CONTINUOUS
 70
0
 71
3
 72
13
 73
9
 74
0
 42
0.0000001
 43
0.0000001
 44
0.0000000001
 40
0.0
 40
0.0
 40
0.0
 40
0.0
 40
0.0878415012
 40
0.1843169333
 40
0.2944893082
 40
0.4193809918
 40
0.7025046916
 40
1.0
 40
1.0
 40
1.0
 40
1.0
 10
64.5762164126
 20
340.7270064548
 30
0.0
 10
64.6556096274
 20
340.7727690931
 30
0.0
 10
64.8444151038
 20
340.8336049155
 30
0.0
 10
65.1562850631
 20
340.8125339217
 30
0.0
 10
65.4843880743
 20
340.6925063677
 30
0.0
 10
65.9427654755
 20
340.3999902148
 30
0.0
 10
66.4474726058
 20
339.8480685894
 30
0.0
 10
66.7319410509
 20
339.3044678003
 30
0.0
 10
66.8352214829
 20
339.0118043365
 30
0.0
  0
SPLINE
  5
467
100
AcDbEntity
  8
0
100
AcDbSpline
 62
7
  6
CONTINUOUS
 70
0
 71
3
 72
9
 73
5
 74
0
 42
0.0000001
 43
0.0000001
 44
0.0000000001
 40
0.0
 40
0.0
 40
0.0
 40
0.0
 40
0.4499631795
 40
1.0
 40
1.0
 40
1.0
 40
1.0
 10
68.2357093909
 20
339.8591657461
 30
0.0
 10
68.2728788
 20
339.8806254113
 30
0.0
 10
68.374489733
 20
339.8954867077
 30
0.0
 10
68.4654392871
 20
339.8581013716
 30
0.0
 10
68.5108755263
 20
339.8318693401
 30
0.0
  0
SPLINE
  5
468
100
AcDbEntity
  8
0
100
AcDbSpline
 62
7
  6
CONTINUOUS
 70
0
 71
3
 72
8
 73
4
 74
0
 42
0.0000001
 43
0.0000001
 44
0.0000000001
 40
0.0
 40
0.0
 40
0.0
 40
0.0
 40
1.0
 40
1.0
 40
1.0
 40
1.0
 10
70.8566969716
 20
337.688180454
 30
0.0
 10
70.868548526
 20
337.6950190441
 30
0.0
 10
70.8795334933
 20
337.7035802938
 30
0.0
 10
70.889158403
 20
337.7133058667
 30
0.0
  0
SPLINE
  5
469
100
AcDbEntity
  8
0
100
AcDbSpline
 62
7
  6
CONTINUOUS
 70
0
 71
3
 72
9
 73
5
 74
0
 42
0.0000001
 43
0.0000001
 44
0.0000000001
 40
0.0
 40
0.0
 40
0.0
 40
0.0
 40
0.2216001246
 40
1.0
 40
1.0
 40
1.0
 40
1.0
 10
70.889158403
 20
337.7133058667
 30
0.0
 10
70.899266945
 20
337.7235201299
 30
0.0
 10
70.9386823978
 20
337.775926235
 30
0.0
 10
70.9502032809
 20
337.8444328198
 30
0.0
 10
70.9502032809
 20
337.8949114186
 30
0.0
  0
SPLINE
  5
46A
100
AcDbEntity
  8
0
100
AcDbSpline
 62
7
  6
CONTINUOUS
 70
0
 71
3
 72
9
 73
5
 74
0
 42
0.0000001
 43
0.0000001
 44
0.0000000001
 40
0.0
 40
0.0
 40
0.0
 40
0.0
 40
0.28927731
 40
1.0
 40
1.0
 40
1.0
 40
1.0
 10
205.1258164857
 20
96.1092325307
 30
0.0
 10
205.1644565945
 20
96.0869241582
 30
0.0
 10
205.3016263881
 20
96.0191976569
 30
0.0
 10
205.4723871875
 20
95.9976295537
 30
0.0
 10
205.5751131772
 20
96.0358916167
 30
0.0
  0
SPLINE
  5
46B
100
AcDbEntity
  8
0
100
AcDbSpline
 62
7
  6
CONTINUOUS
 70
0
 71
3
 72
9
 73
5
 74
0
 42
0.0000001
 43
0.0000001
 44
0.0000000001
 40
0.0
 40
0.0
 40
0.0
 40
0.0
 40
0.5000011283
 40
1.0
 40
1.0
 40
1.0
 40
1.0
 10
55.3599767003
 20
183.3911267548
 30
0.0
 10
55.3599767003
 20
183.1487784573
 30
0.0
 10
55.5255977066
 20
182.6702504955
 30
0.0
 10
55.8572064035
 20
182.2875551291
 30
0.0
 10
56.0670864255
 20
182.1663835832
 30
0.0
  0
SPLINE
  5
46C
100
AcDbEntity
  8
0
100
AcDbSpline
 62
7
  6
CONTINUOUS
 70
0
 71
3
 72
9
 73
5
 74
0
 42
0.0000001
 43
0.0000001
 44
0.0000000001
 40
0.0
 40
0.0
 40
0.0
 40
0.0
 40
0.2208143062
 40
1.0
 40
1.0
 40
1.0
 40
1.0
 10
230.6626818605
 20
245.4264347415
 30
0.0
 10
230.6777273822
 20
245.435074361
 30
0.0
 10
230.7391446085
 20
245.486915214
 30
0.0
 10
230.757001164
 20
245.5739244257
 30
0.0
 10
230.757001164
 20
245.6351460382
 30
0.0
  0
SPLINE
  5
46D
100
AcDbEntity
  8
0
100
AcDbSpline
 62
7
  6
CONTINUOUS
 70
0
 71
3
 72
13
 73
9
 74
0
 42
0.0000001
 43
0.0000001
 44
0.0000000001
 40
0.0
 40
0.0
 40
0.0
 40
0.0
 40
0.0879795575
 40
0.1844340081
 40
0.2943926131
 40
0.4189587678
 40
0.7016521556
 40
1.0
 40
1.0
 40
1.0
 40
1.0
 10
224.3830142958
 20
248.4645959332
 30
0.0
 10
224.4614907205
 20
248.5098301292
 30
0.0
 10
224.6476644397
 20
248.5703528125
 30
0.0
 10
224.955395725
 20
248.5514527603
 30
0.0
 10
225.2795038233
 20
248.4355970512
 30
0.0
 10
225.733255893
 20
248.1509899088
 30
0.0
 10
226.235867032
 20
247.6104009216
 30
0.0
 10
226.5220277393
 20
247.0765567997
 30
0.0
 10
226.6280180136
 20
246.7882574464
 30
0.0
  0
SPLINE
  5
46E
100
AcDbEntity
  8
0
100
AcDbSpline
 62
7
  6
CONTINUOUS
 70
0
 71
3
 72
11
 73
7
 74
0
 42
0.0000001
 43
0.0000001
 44
0.0000000001
 40
0.0
 40
0.0
 40
0.0
 40
0.0
 40
0.2895352454
 40
0.5491102999
 40
0.7822502503
 40
1.0
 40
1.0
 40
1.0
 40
1.0
 10
57.3398851082
 20
322.68647189
 30
0.0
 10
57.2083275595
 20
322.7624143532
 30
0.0
 10
56.9463997107
 20
322.8868330162
 30
0.0
 10
56.5439794492
 20
322.9842141263
 30
0.0
 10
56.1661985943
 20
322.9747082491
 30
0.0
 10
55.93895524
 20
322.8919447852
 30
0.0
 10
55.8400191044
 20
322.8348242744
 30
0.0
  0
SPLINE
  5
46F
100
AcDbEntity
  8
0
100
AcDbSpline
 62
7
  6
CONTINUOUS
 70
0
 71
3
 72
11
 73
7
 74
0
 42
0.0000001
 43
0.0000001
 44
0.0000000001
 40
0.0
 40
0.0
 40
0.0
 40
0.0
 40
0.2372562049
 40
0.5000012589
 40
0.7627456297
 40
1.0
 40
1.0
 40
1.0
 40
1.0
 10
70.2799930785
 20
312.7661588308
 30
0.0
 10
70.279972054
 20
313.1139372947
 30
0.0
 10
70.149557229
 20
313.8473438627
 30
0.0
 10
69.694736206
 20
314.8777574224
 30
0.0
 10
69.0297796514
 20
315.7868454072
 30
0.0
 10
68.4598377503
 20
316.2664852008
 30
0.0
 10
68.1586639034
 20
316.4403883458
 30
0.0
  0
SPLINE
  5
470
100
AcDbEntity
  8
0
100
AcDbSpline
 62
7
  6
CONTINUOUS
 70
0
 71
3
 72
11
 73
7
 74
0
 42
0.0000001
 43
0.0000001
 44
0.0000000001
 40
0.0
 40
0.0
 40
0.0
 40
0.0
 40
0.2895352453
 40
0.5491102999
 40
0.7822502503
 40
1.0
 40
1.0
 40
1.0
 40
1.0
 10
195.5798363773
 20
96.9664224388
 30
0.0
 10
195.4482788284
 20
97.0423649022
 30
0.0
 10
195.186350979
 20
97.1667835655
 30
0.0
 10
194.7839307169
 20
97.264164676
 30
0.0
 10
194.4061498612
 20
97.2546587993
 30
0.0
 10
194.1789065064
 20
97.1718953352
 30
0.0
 10
194.0799703706
 20
97.1147748244
 30
0.0
  0
SPLINE
  5
471
100
AcDbEntity
  8
0
100
AcDbSpline
 62
7
  6
CONTINUOUS
 70
0
 71
3
 72
11
 73
7
 74
0
 42
0.0000001
 43
0.0000001
 44
0.0000000001
 40
0.0
 40
0.0
 40
0.0
 40
0.0
 40
0.237256205
 40
0.500001259
 40
0.7627456297
 40
1.0
 40
1.0
 40
1.0
 40
1.0
 10
222.4500059301
 20
79.0037665174
 30
0.0
 10
222.4499849056
 20
79.3515449816
 30
0.0
 10
222.3195700804
 20
80.0849515501
 30
0.0
 10
221.8647490567
 20
81.1153651103
 30
0.0
 10
221.1997925013
 20
82.0244530953
 30
0.0
 10
220.6298505996
 20
82.5040928887
 30
0.0
 10
220.3286767526
 20
82.6779960338
 30
0.0
  0
SPLINE
  5
472
100
AcDbEntity
  8
0
100
AcDbSpline
 62
7
  6
CONTINUOUS
 70
0
 71
3
 72
9
 73
5
 74
0
 42
0.0000001
 43
0.0000001
 44
0.0000000001
 40
0.0
 40
0.0
 40
0.0
 40
0.0
 40
0.4562658161
 40
1.0
 40
1.0
 40
1.0
 40
1.0
 10
194.402902658
 20
97.2589964465
 30
0.0
 10
194.593652574
 20
97.3091429077
 30
0.0
 10
195.0436121752
 20
97.2992627724
 30
0.0
 10
195.4469865638
 20
97.124753321
 30
0.0
 10
195.6505467583
 20
97.0072468553
 30
0.0
  0
SPLINE
  5
473
100
AcDbEntity
  8
0
100
AcDbSpline
 62
7
  6
CONTINUOUS
 70
0
 71
3
 72
10
 73
6
 74
0
 42
0.0000001
 43
0.0000001
 44
0.0000000001
 40
0.0
 40
0.0
 40
0.0
 40
0.0
 40
0.434864298
 40
0.6971920281
 40
1.0
 40
1.0
 40
1.0
 40
1.0
 10
248.8068960329
 20
253.2862138643
 30
0.0
 10
249.8548950207
 20
253.284056718
 30
0.0
 10
251.536249429
 20
253.1519700439
 30
0.0
 10
253.9131991542
 20
252.7536322133
 30
0.0
 10
255.2378809442
 20
252.4197670377
 30
0.0
 10
255.9297671067
 20
252.1877506213
 30
0.0
  0
SPLINE
  5
474
100
AcDbEntity
  8
0
100
AcDbSpline
 62
7
  6
CONTINUOUS
 70
0
 71
3
 72
8
 73
4
 74
0
 42
0.0000001
 43
0.0000001
 44
0.0000000001
 40
0.0
 40
0.0
 40
0.0
 40
0.0
 40
1.0
 40
1.0
 40
1.0
 40
1.0
 10
236.2723424667
 20
257.5339793444
 30
0.0
 10
235.0409155312
 20
256.8844080026
 30
0.0
 10
233.8089907692
 20
256.2357791122
 30
0.0
 10
232.5764573845
 20
255.5883096679
 30
0.0
  0
SPLINE
  5
475
100
AcDbEntity
  8
0
100
AcDbSpline
 62
7
  6
CONTINUOUS
 70
0
 71
3
 72
9
 73
5
 74
0
 42
0.0000001
 43
0.0000001
 44
0.0000000001
 40
0.0
 40
0.0
 40
0.0
 40
0.0
 40
0.4572296424
 40
1.0
 40
1.0
 40
1.0
 40
1.0
 10
237.793763138
 20
257.3373772103
 30
0.0
 10
237.5598113269
 20
257.343806327
 30
0.0
 10
237.0491245758
 20
257.3891561387
 30
0.0
 10
236.5436251184
 20
257.4740879643
 30
0.0
 10
236.2723330763
 20
257.5339847658
 30
0.0
  0
LINE
  5
476
100
AcDbEntity
  8
0
100
AcDbLine
 62
7
  6
CONTINUOUS
 10
233.3401016388
 20
254.7267662316
 11
233.7059043232
 21
254.942038034
  0
SPLINE
  5
477
100
AcDbEntity
  8
0
100
AcDbSpline
 62
7
  6
CONTINUOUS
 70
0
 71
3
 72
11
 73
7
 74
0
 42
0.0000001
 43
0.0000001
 44
0.0000000001
 40
0.0
 40
0.0
 40
0.0
 40
0.0
 40
0.5003528418
 40
0.7497915089
 40
0.8743389334
 40
1.0
 40
1.0
 40
1.0
 40
1.0
 10
233.7059043232
 20
254.942038034
 30
0.0
 10
234.3867263361
 20
255.3419892147
 30
0.0
 10
235.4095683242
 20
255.9368695212
 30
0.0
 10
236.6018127578
 20
256.6314034722
 30
0.0
 10
237.2859890854
 20
257.0233928073
 30
0.0
 10
237.6243565795
 20
257.2269682252
 30
0.0
 10
237.7960528452
 20
257.3261931936
 30
0.0
  0
SPLINE
  5
478
100
AcDbEntity
  8
0
100
AcDbSpline
 62
7
  6
CONTINUOUS
 70
0
 71
3
 72
9
 73
5
 74
0
 42
0.0000001
 43
0.0000001
 44
0.0000000001
 40
0.0
 40
0.0
 40
0.0
 40
0.0
 40
0.2691185374
 40
1.0
 40
1.0
 40
1.0
 40
1.0
 10
239.1284988191
 20
257.3629667805
 30
0.0
 10
239.0113986065
 20
257.3667383075
 30
0.0
 10
238.5761911983
 20
257.3756669148
 30
0.0
 10
238.1400748946
 20
257.3643896029
 30
0.0
 10
237.8231096036
 20
257.3365022062
 30
0.0
  0
SPLINE
  5
479
100
AcDbEntity
  8
0
100
AcDbSpline
 62
7
  6
CONTINUOUS
 70
0
 71
3
 72
8
 73
4
 74
0
 42
0.0000001
 43
0.0000001
 44
0.0000000001
 40
0.0
 40
0.0
 40
0.0
 40
0.0
 40
1.0
 40
1.0
 40
1.0
 40
1.0
 10
232.0894176806
 20
254.4123067318
 30
0.0
 10
231.4776136963
 20
254.0607538425
 30
0.0
 10
230.8661243641
 20
253.7086526724
 30
0.0
 10
230.2549851978
 20
253.3559453312
 30
0.0
  0
SPLINE
  5
47A
100
AcDbEntity
  8
0
100
AcDbSpline
 62
7
  6
CONTINUOUS
 70
0
 71
3
 72
11
 73
7
 74
0
 42
0.0000001
 43
0.0000001
 44
0.0000000001
 40
0.0
 40
0.0
 40
0.0
 40
0.0
 40
0.2177489406
 40
0.4508885058
 40
0.7104637156
 40
1.0
 40
1.0
 40
1.0
 40
1.0
 10
221.8285427586
 20
69.1390040068
 30
0.0
 10
221.9274811733
 20
69.1961258333
 30
0.0
 10
222.1127829887
 20
69.3515462172
 30
0.0
 10
222.3099089665
 20
69.6739705277
 30
0.0
 10
222.4267848086
 20
70.0711792234
 30
0.0
 10
222.4499967461
 20
70.3602333594
 30
0.0
 10
222.4500059301
 20
70.5121413791
 30
0.0
  0
SPLINE
  5
47B
100
AcDbEntity
  8
0
100
AcDbSpline
 62
7
  6
CONTINUOUS
 70
0
 71
3
 72
9
 73
5
 74
0
 42
0.0000001
 43
0.0000001
 44
0.0000000001
 40
0.0
 40
0.0
 40
0.0
 40
0.0
 40
0.4562658161
 40
1.0
 40
1.0
 40
1.0
 40
1.0
 10
56.1629513918
 20
322.9790458965
 30
0.0
 10
56.3537013078
 20
323.0291923577
 30
0.0
 10
56.803660909
 20
323.0193122225
 30
0.0
 10
57.2070352975
 20
322.8448027711
 30
0.0
 10
57.410595492
 20
322.7272963054
 30
0.0
  0
SPLINE
  5
47C
100
AcDbEntity
  8
0
100
AcDbSpline
 62
7
  6
CONTINUOUS
 70
0
 71
3
 72
11
 73
7
 74
0
 42
0.0000001
 43
0.0000001
 44
0.0000000001
 40
0.0
 40
0.0
 40
0.0
 40
0.0
 40
0.2177489406
 40
0.4508885058
 40
0.7104637156
 40
1.0
 40
1.0
 40
1.0
 40
1.0
 10
69.658529907
 20
308.7802137239
 30
0.0
 10
69.7574683217
 20
308.8373355505
 30
0.0
 10
69.9427701371
 20
308.9927559344
 30
0.0
 10
70.1398961149
 20
309.3151802449
 30
0.0
 10
70.256771957
 20
309.7123889406
 30
0.0
 10
70.2799838944
 20
310.0014430766
 30
0.0
 10
70.2799930785
 20
310.1533510963
 30
0.0
  0
SPLINE
  5
47D
100
AcDbEntity
  8
0
100
AcDbSpline
 62
7
  6
CONTINUOUS
 70
0
 71
3
 72
9
 73
5
 74
0
 42
0.0000001
 43
0.0000001
 44
0.0000000001
 40
0.0
 40
0.0
 40
0.0
 40
0.0
 40
0.2206226777
 40
1.0
 40
1.0
 40
1.0
 40
1.0
 10
55.5211128539
 20
312.8242953279
 30
0.0
 10
55.4947894297
 20
312.8025412514
 30
0.0
 10
55.3901194653
 20
312.6853947837
 30
0.0
 10
55.3599767003
 20
312.5191447232
 30
0.0
 10
55.3599767003
 20
312.3985086613
 30
0.0
  0
SPLINE
  5
47E
100
AcDbEntity
  8
0
100
AcDbSpline
 62
7
  6
CONTINUOUS
 70
0
 71
3
 72
9
 73
5
 74
0
 42
0.0000001
 43
0.0000001
 44
0.0000000001
 40
0.0
 40
0.0
 40
0.0
 40
0.0
 40
0.2662648406
 40
1.0
 40
1.0
 40
1.0
 40
1.0
 10
228.4463779413
 20
250.4772197604
 30
0.0
 10
228.3868340574
 20
250.5239919072
 30
0.0
 10
228.1577938565
 20
250.6923577319
 30
0.0
 10
227.9056816946
 20
250.8315681316
 30
0.0
 10
227.7105646737
 20
250.9054911068
 30
0.0
  0
SPLINE
  5
47F
100
AcDbEntity
  8
0
100
AcDbSpline
 62
7
  6
CONTINUOUS
 70
0
 71
3
 72
9
 73
5
 74
0
 42
0.0000001
 43
0.0000001
 44
0.0000000001
 40
0.0
 40
0.0
 40
0.0
 40
0.0
 40
0.2756025888
 40
1.0
 40
1.0
 40
1.0
 40
1.0
 10
227.7105646737
 20
250.9054911068
 30
0.0
 10
227.6332417731
 20
250.9347860337
 30
0.0
 10
227.3478502145
 20
251.0250546873
 30
0.0
 10
227.0317749731
 20
251.0404051412
 30
0.0
 10
226.8216293634
 20
250.9849725318
 30
0.0
  0
SPLINE
  5
480
100
AcDbEntity
  8
0
100
AcDbSpline
 62
7
  6
CONTINUOUS
 70
0
 71
3
 72
14
 73
10
 74
0
 42
0.0000001
 43
0.0000001
 44
0.0000000001
 40
0.0
 40
0.0
 40
0.0
 40
0.0
 40
0.0868849635
 40
0.1857376487
 40
0.3019619347
 40
0.4344863986
 40
0.5781577523
 40
0.725679541
 40
1.0
 40
1.0
 40
1.0
 40
1.0
 10
218.9719689883
 20
163.0821924364
 30
0.0
 10
218.8117760441
 20
162.9897016321
 30
0.0
 10
218.4122664252
 20
162.883479335
 30
0.0
 10
217.7662422431
 20
163.0014305888
 30
0.0
 10
217.1032516931
 20
163.3476294842
 30
0.0
 10
216.4628371912
 20
163.8924560016
 30
0.0
 10
215.8892535496
 20
164.5953387242
 30
0.0
 10
215.2897727753
 20
165.6409870299
 30
0.0
 10
215.0249983347
 20
166.5290525651
 30
0.0
 10
214.9934034939
 20
167.1122207601
 30
0.0
  0
SPLINE
  5
481
100
AcDbEntity
  8
0
100
AcDbSpline
 62
7
  6
CONTINUOUS
 70
0
 71
3
 72
9
 73
5
 74
0
 42
0.0000001
 43
0.0000001
 44
0.0000000001
 40
0.0
 40
0.0
 40
0.0
 40
0.0
 40
0.4499743165
 40
1.0
 40
1.0
 40
1.0
 40
1.0
 10
214.07030207
 20
173.1078323018
 30
0.0
 10
214.0703020702
 20
173.0610306879
 30
0.0
 10
214.1116526303
 20
172.9569617778
 30
0.0
 10
214.1965730674
 20
172.8914892786
 30
0.0
 10
214.24611685
 20
172.8628858095
 30
0.0
  0
SPLINE
  5
482
100
AcDbEntity
  8
0
100
AcDbSpline
 62
7
  6
CONTINUOUS
 70
0
 71
3
 72
11
 73
7
 74
0
 42
0.0000001
 43
0.0000001
 44
0.0000000001
 40
0.0
 40
0.0
 40
0.0
 40
0.0
 40
0.2372274205
 40
0.5000077029
 40
0.7627837862
 40
1.0
 40
1.0
 40
1.0
 40
1.0
 10
221.1973290057
 20
239.0493037922
 30
0.0
 10
221.8497455094
 20
238.6725099209
 30
0.0
 10
223.0844654261
 20
237.6331991131
 30
0.0
 10
224.5255835616
 20
235.66368451
 30
0.0
 10
225.5104946902
 20
233.4308426884
 30
0.0
 10
225.7930585151
 20
231.8419074582
 30
0.0
 10
225.7930786555
 20
231.0885368404
 30
0.0
  0
SPLINE
  5
483
100
AcDbEntity
  8
0
100
AcDbSpline
 62
7
  6
CONTINUOUS
 70
0
 71
3
 72
11
 73
7
 74
0
 42
0.0000001
 43
0.0000001
 44
0.0000000001
 40
0.0
 40
0.0
 40
0.0
 40
0.0
 40
0.2895391946
 40
0.5491157945
 40
0.7822541179
 40
1.0
 40
1.0
 40
1.0
 40
1.0
 10
225.3829672529
 20
249.2637738775
 30
0.0
 10
225.2470221537
 20
249.3422600416
 30
0.0
 10
224.9763578733
 20
249.4708482243
 30
0.0
 10
224.5605108982
 20
249.5715023329
 30
0.0
 10
224.1701235234
 20
249.561695623
 30
0.0
 10
223.9352970134
 20
249.4761746598
 30
0.0
 10
223.8330609199
 20
249.4171489272
 30
0.0
  0
SPLINE
  5
484
100
AcDbEntity
  8
0
100
AcDbSpline
 62
7
  6
CONTINUOUS
 70
0
 71
3
 72
9
 73
5
 74
0
 42
0.0000001
 43
0.0000001
 44
0.0000000001
 40
0.0
 40
0.0
 40
0.0
 40
0.0
 40
0.4999931761
 40
1.0
 40
1.0
 40
1.0
 40
1.0
 10
230.4305621782
 20
246.3496095159
 30
0.0
 10
230.5274546927
 20
246.2936698621
 30
0.0
 10
230.6805910585
 20
246.1170282867
 30
0.0
 10
230.7570011641
 20
245.8960880052
 30
0.0
 10
230.7570011641
 20
245.7842037454
 30
0.0
  0
SPLINE
  5
485
100
AcDbEntity
  8
0
100
AcDbSpline
 62
7
  6
CONTINUOUS
 70
0
 71
3
 72
11
 73
7
 74
0
 42
0.0000001
 43
0.0000001
 44
0.0000000001
 40
0.0
 40
0.0
 40
0.0
 40
0.0
 40
0.2909693288
 40
0.549817176
 40
0.7819158511
 40
1.0
 40
1.0
 40
1.0
 40
1.0
 10
225.79307859
 20
67.4941062064
 30
0.0
 10
225.7930269959
 20
67.1491884117
 30
0.0
 10
225.7379544511
 20
66.4950426575
 30
0.0
 10
225.4592066625
 20
65.6011151368
 30
0.0
 10
224.987028936
 20
64.8896727377
 30
0.0
 10
224.5480741518
 20
64.5630296311
 30
0.0
 10
224.3158087257
 20
64.449518163
 30
0.0
  0
SPLINE
  5
486
100
AcDbEntity
  8
0
100
AcDbSpline
 62
7
  6
CONTINUOUS
 70
0
 71
3
 72
9
 73
5
 74
0
 42
0.0000001
 43
0.0000001
 44
0.0000000001
 40
0.0
 40
0.0
 40
0.0
 40
0.0
 40
0.5507819802
 40
1.0
 40
1.0
 40
1.0
 40
1.0
 10
230.757001164
 20
245.6643328504
 30
0.0
 10
230.757001164
 20
245.6164435013
 30
0.0
 10
230.7453836935
 20
245.5274318746
 30
0.0
 10
230.6869309192
 20
245.454355849
 30
0.0
 10
230.6531286983
 20
245.4347859218
 30
0.0
  0
SPLINE
  5
487
100
AcDbEntity
  8
0
100
AcDbSpline
 62
7
  6
CONTINUOUS
 70
0
 71
3
 72
9
 73
5
 74
0
 42
0.0000001
 43
0.0000001
 44
0.0000000001
 40
0.0
 40
0.0
 40
0.0
 40
0.0
 40
0.5551795459
 40
1.0
 40
1.0
 40
1.0
 40
1.0
 10
129.8548653113
 20
306.3287064963
 30
0.0
 10
129.8979654365
 20
306.3038231875
 30
0.0
 10
129.9714876744
 20
306.2479294905
 30
0.0
 10
130.0069886924
 20
306.157591685
 30
0.0
 10
130.0059256627
 20
306.1177312198
 30
0.0
  0
SPLINE
  5
488
100
AcDbEntity
  8
0
100
AcDbSpline
 62
7
  6
CONTINUOUS
 70
0
 71
3
 72
9
 73
5
 74
0
 42
0.0000001
 43
0.0000001
 44
0.0000000001
 40
0.0
 40
0.0
 40
0.0
 40
0.0
 40
0.2298514212
 40
1.0
 40
1.0
 40
1.0
 40
1.0
 10
122.0455370639
 20
310.3946934432
 30
0.0
 10
122.0633339275
 20
310.4043257424
 30
0.0
 10
122.1433118456
 20
310.4414707507
 30
0.0
 10
122.2302302916
 20
310.4624128713
 30
0.0
 10
122.2974532947
 20
310.4712748937
 30
0.0
  0
SPLINE
  5
489
100
AcDbEntity
  8
0
100
AcDbSpline
 62
7
  6
CONTINUOUS
 70
0
 71
3
 72
9
 73
5
 74
0
 42
0.0000001
 43
0.0000001
 44
0.0000000001
 40
0.0
 40
0.0
 40
0.0
 40
0.0
 40
0.266970107
 40
1.0
 40
1.0
 40
1.0
 40
1.0
 10
122.5850548165
 20
310.4660595825
 30
0.0
 10
122.6084874774
 20
310.46212123
 30
0.0
 10
122.695554574
 20
310.4439387971
 30
0.0
 10
122.7806497624
 20
310.4129148167
 30
0.0
 10
122.8371516095
 20
310.3802941943
 30
0.0
  0
SPLINE
  5
48A
100
AcDbEntity
  8
0
100
AcDbSpline
 62
7
  6
CONTINUOUS
 70
0
 71
3
 72
9
 73
5
 74
0
 42
0.0000001
 43
0.0000001
 44
0.0000000001
 40
0.0
 40
0.0
 40
0.0
 40
0.0
 40
0.2192804531
 40
1.0
 40
1.0
 40
1.0
 40
1.0
 10
126.8781754236
 20
302.227000574
 30
0.0
 10
126.8786308923
 20
302.2440795858
 30
0.0
 10
126.8949435427
 20
302.3221215952
 30
0.0
 10
126.9628804254
 20
302.3782588299
 30
0.0
 10
127.0163767213
 20
302.407212939
 30
0.0
  0
SPLINE
  5
48B
100
AcDbEntity
  8
0
100
AcDbSpline
 62
7
  6
CONTINUOUS
 70
0
 71
3
 72
13
 73
9
 74
0
 42
0.0000001
 43
0.0000001
 44
0.0000000001
 40
0.0
 40
0.0
 40
0.0
 40
0.0
 40
0.3068857622
 40
0.5823208248
 40
0.7027888746
 40
0.8108569214
 40
0.9084836307
 40
1.0
 40
1.0
 40
1.0
 40
1.0
 10
233.1025994931
 20
251.3553479929
 30
0.0
 10
232.9080846246
 20
251.6716317437
 30
0.0
 10
232.4747861415
 20
252.2347522512
 30
0.0
 10
231.8028002003
 20
252.7761739077
 30
0.0
 10
231.2441373378
 20
253.0287266317
 30
0.0
 10
230.8553571777
 20
253.1146657168
 30
0.0
 10
230.4913264881
 20
253.1003915054
 30
0.0
 10
230.2721980953
 20
253.0192491801
 30
0.0
 10
230.1762624173
 20
252.9639578202
 30
0.0
  0
SPLINE
  5
48C
100
AcDbEntity
  8
0
100
AcDbSpline
 62
7
  6
CONTINUOUS
 70
0
 71
3
 72
9
 73
5
 74
0
 42
0.0000001
 43
0.0000001
 44
0.0000000001
 40
0.0
 40
0.0
 40
0.0
 40
0.0
 40
0.5551795458
 40
1.0
 40
1.0
 40
1.0
 40
1.0
 10
125.9792864533
 20
314.8945215206
 30
0.0
 10
126.020858391
 20
314.8705204804
 30
0.0
 10
126.0917737818
 20
314.8166085888
 30
0.0
 10
126.126016064
 20
314.7294738528
 30
0.0
 10
126.1249907249
 20
314.6910267031
 30
0.0
  0
SPLINE
  5
48D
100
AcDbEntity
  8
0
100
AcDbSpline
 62
7
  6
CONTINUOUS
 70
0
 71
3
 72
10
 73
6
 74
0
 42
0.0000001
 43
0.0000001
 44
0.0000000001
 40
0.0
 40
0.0
 40
0.0
 40
0.0
 40
0.5397769461
 40
0.7875214458
 40
1.0
 40
1.0
 40
1.0
 40
1.0
 10
242.5840474971
 20
247.0003495912
 30
0.0
 10
242.9738655719
 20
246.5293889858
 30
0.0
 10
243.416946341
 20
245.7195503215
 30
0.0
 10
243.641570098
 20
244.6038040881
 30
0.0
 10
243.608676829
 20
244.0724295973
 30
0.0
 10
243.5456236039
 20
243.8401796357
 30
0.0
  0
SPLINE
  5
48E
100
AcDbEntity
  8
0
100
AcDbSpline
 62
7
  6
CONTINUOUS
 70
0
 71
3
 72
9
 73
5
 74
0
 42
0.0000001
 43
0.0000001
 44
0.0000000001
 40
0.0
 40
0.0
 40
0.0
 40
0.0
 40
0.2697381732
 40
1.0
 40
1.0
 40
1.0
 40
1.0
 10
243.5456236039
 20
243.8401796357
 30
0.0
 10
243.5299197104
 20
243.782335986
 30
0.0
 10
243.4608046204
 20
243.5713803241
 30
0.0
 10
243.3401219793
 20
243.3745029188
 30
0.0
 10
243.2241003321
 20
243.2610565128
 30
0.0
  0
SPLINE
  5
48F
100
AcDbEntity
  8
0
100
AcDbSpline
 62
7
  6
CONTINUOUS
 70
0
 71
3
 72
9
 73
5
 74
0
 42
0.0000001
 43
0.0000001
 44
0.0000000001
 40
0.0
 40
0.0
 40
0.0
 40
0.0
 40
0.4979496496
 40
1.0
 40
1.0
 40
1.0
 40
1.0
 10
123.8642938803
 20
315.7293157777
 30
0.0
 10
123.9678233516
 20
315.7853496311
 30
0.0
 10
124.2112465435
 20
315.8253965698
 30
0.0
 10
124.4523244366
 20
315.7760940111
 30
0.0
 10
124.5551136179
 20
315.7167499583
 30
0.0
  0
SPLINE
  5
490
100
AcDbEntity
  8
0
100
AcDbSpline
 62
7
  6
CONTINUOUS
 70
0
 71
3
 72
9
 73
5
 74
0
 42
0.0000001
 43
0.0000001
 44
0.0000000001
 40
0.0
 40
0.0
 40
0.0
 40
0.0
 40
0.2192804531
 40
1.0
 40
1.0
 40
1.0
 40
1.0
 10
113.4516820002
 20
309.9835944796
 30
0.0
 10
113.4521574758
 20
310.0014237062
 30
0.0
 10
113.4691866776
 20
310.0828937981
 30
0.0
 10
113.5401077638
 20
310.1414969235
 30
0.0
 10
113.5959539443
 20
310.1717228742
 30
0.0
  0
SPLINE
  5
491
100
AcDbEntity
  8
0
100
AcDbSpline
 62
7
  6
CONTINUOUS
 70
0
 71
3
 72
11
 73
7
 74
0
 42
0.0000001
 43
0.0000001
 44
0.0000000001
 40
0.0
 40
0.0
 40
0.0
 40
0.0
 40
0.2897033281
 40
0.5490895198
 40
0.7822165953
 40
1.0
 40
1.0
 40
1.0
 40
1.0
 10
34.742569601
 20
340.8385765022
 30
0.0
 10
34.742569601
 20
341.1425853686
 30
0.0
 10
34.7886618179
 20
341.7207458007
 30
0.0
 10
35.0228098564
 20
342.5151079365
 30
0.0
 10
35.4170373895
 20
343.1596878874
 30
0.0
 10
35.7873367034
 20
343.4709980309
 30
0.0
 10
35.985256352
 20
343.5852662238
 30
0.0
  0
ELLIPSE
  5
492
100
AcDbEntity
  8
0
100
AcDbEllipse
 62
7
  6
CONTINUOUS
 10
241.4619609128
 20
256.0157722902
 30
0.0
 11
4.9954294627
 21
-0.793615797
 31
0.0
 40
0.2197801521
 41
5.2329993065
 42
8.3745919601
  0
ENDSEC
  0
SECTION
  2
OBJECTS
  0
DICTIONARY
  5
C
100
AcDbDictionary
280
0
281
1
  3
ACAD_GROUP
350
D
  3
ACAD_MLINESTYLE
350
17
  3
ACAD_LAYOUT
350
1A
  3
ACAD_PLOTSETTINGS
350
19
  3
ACAD_PLOTSTYLENAME
350
E
  0
DICTIONARY
  5
D
102
{ACAD_REACTORS
330
C
102
}
100
AcDbDictionary
280
0
281
1
  0
ACDBDICTIONARYWDFLT
  5
E
102
{ACAD_REACTORS
330
C
102
}
100
AcDbDictionary
281
1
  3
Normal
350
F
100
AcDbDictionaryWithDefault
340
F
  0
DICTIONARY
  5
17
102
{ACAD_REACTORS
330
C
102
}
100
AcDbDictionary
280
0
281
1
  3
Standard
350
18
  0
DICTIONARY
  5
19
102
{ACAD_REACTORS
330
C
102
}
100
AcDbDictionary
281
1
  0
DICTIONARY
  5
1A
102
{ACAD_REACTORS
330
C
102
}
100
AcDbDictionary
281
1
  3
Model
350
493
  3
Layout1
350
494
  0
ACDBPLACEHOLDER
  5
F
102
{ACAD_REACTORS
330
E
102
}
  0
MLINESTYLE
  5
18
102
{ACAD_REACTORS
330
17
102
}
100
AcDbMlineStyle
  2
STANDARD
 70
0
  3

 62
256
 51
90.0
 52
90.0
 71
2
 49
0.5
 62
256
  6
BYLAYER
 49
-0.5
 62
256
  6
BYLAYER
  0
LAYOUT
  5
493
102
{ACAD_REACTORS
330
1A
102
}
100
AcDbPlotSettings
  1

  2
none_device
  4

  6

 40
0.0
 41
0.0
 42
0.0
 43
0.0
 44
210.0
 45
297.0
 46
0.0
 47
0.0
 48
0.0
 49
0.0
140
0.0
141
0.0
142
1.0
143
1.0
 70
1024
 72
1
 73
0
 74
0
  7

 75
0
147
1.0
148
0.0
149
0.0
100
AcDbLayout
  1
Model
 70
0
 71
0
 10
0.0
 20
0.0
 11
210.0
 21
297.0
 12
0.0
 22
0.0
 32
0.0
 14
0.0
 24
0.0
 34
0.0
 15
0.0
 25
0.0
 35
0.0
146
0.0
 13
0.0
 23
0.0
 33
0.0
 16
1.0
 26
0.0
 36
0.0
 17
0.0
 27
1.0
 37
0.0
 76
0
330
210
345
0
346
0
  0
LAYOUT
  5
494
102
{ACAD_REACTORS
330
1A
102
}
100
AcDbPlotSettings
  1

  2
none_device
  4

  6

 40
0.0
 41
0.0
 42
0.0
 43
0.0
 44
210.0
 45
297.0
 46
0.0
 47
0.0
 48
0.0
 49
0.0
140
0.0
141
0.0
142
1.0
143
1.0
 70
0
 72
1
 73
0
 74
0
  7

 75
0
147
1.0
148
0.0
149
0.0
100
AcDbLayout
  1
Layout1
 70
0
 71
1
 10
0.0
 20
0.0
 11
210.0
 21
297.0
 12
0.0
 22
0.0
 32
0.0
 14
0.0
 24
0.0
 34
0.0
 15
0.0
 25
0.0
 35
0.0
146
0.0
 13
0.0
 23
0.0
 33
0.0
 16
1.0
 26
0.0
 36
0.0
 17
0.0
 27
1.0
 37
0.0
 76
0
330
211
345
0
346
0
  0
ENDSEC
  0
EOF
