999
DXF file: C:\Users\sesa63760\Dev\_Creo\CAD\MCADID0003942_3D-CAD\drw0001_5.dxf
999
Pro/ENGINEER 2019471 by Parametric Technology Corporation
  0
SECTION
  2
HEADER
  9
$ACADVER
  1
AC1024
  9
$DWGCODEPAGE
  3
ANSI_1252
  9
$EXTMAX
 10
76.7718580137
 20
108.5773420479
 30
0.0
  9
$EXTMIN
 10
0.0
 20
0.0
 30
0.0
  9
$LIMMIN
 10
0.0
 20
0.0
  9
$LIMMAX
 10
76.7718580137
 20
108.5773420479
  9
$VIEWCTR
 10
38.3859290068
 20
54.288671024
  9
$VIEWSIZE
 40
108.5773420479
  9
$CLAYER
  8
0
  9
$LTSCALE
 40
7.0776341483
  9
$CELTYPE
  6
BYLAYER
  9
$DIMSCALE
 40
1.0
  9
$DIMASZ
 40
0.9139506906
  9
$DIMEXO
 40
1.0
  9
$DIMDLI
 40
4.8900017752
  9
$DIMEXE
 40
1.0
  9
$DIMCEN
 40
1.1581583152
  9
$DIMLFAC
 40
1.0
  9
$DIMBLK
  1
_FILLED
  9
$DIMALT
 70
0
  9
$DIMALTF
 40
0.0393700787
  9
$DIMTXT
 40
1.2795309669
  9
$DIMTOL
 70
1
  9
$DIMLIM
 70
0
  9
$DIMTFAC
 40
1.0
  9
$DIMTP
 40
0.01
  9
$DIMTM
 40
0.01
  9
$DIMGAP
 40
0.625
  9
$DIMDSEP
 70
46
  9
$AUNITS
 70
0
  9
$PDMODE
 70
3
  9
$PDSIZE
 40
0.3125
  9
$HANDSEED
  5
298
  9
$TILEMODE
 70
1
  9
$MEASUREMENT
 70
1
  9
$INSUNITS
 70
4
  0
ENDSEC
  0
SECTION
  2
CLASSES
  0
CLASS
  1
ACDBDICTIONARYWDFLT
  2
AcDbDictionaryWithDefault
  3
AutoCAD 2000
 90
0
 91
1
280
0
281
0
  0
CLASS
  1
ACDBPLACEHOLDER
  2
AcDbPlaceHolder
  3
AutoCAD 2000
 90
0
 91
1
280
0
281
0
  0
CLASS
  1
LAYOUT
  2
AcDbLayout
  3
AutoCAD 2000
 90
0
 91
0
280
0
281
0
  0
ENDSEC
  0
SECTION
  2
TABLES
  0
TABLE
  2
VPORT
  5
8
100
AcDbSymbolTable
 70
2
  0
VPORT
  5
1F4
100
AcDbSymbolTableRecord
100
AcDbViewportTableRecord
  2
*ACTIVE
 70
0
 10
0.0
 20
0.0
 11
1.0
 21
1.0
 12
38.3859290068
 22
54.288671024
 13
0.0
 23
0.0
 14
1.0
 24
1.0
 15
0.0
 25
0.0
 16
0.0
 26
0.0
 36
1.0
 17
0.0
 27
0.0
 37
0.0
 40
108.5773420479
 41
0.7070707071
 42
50.0
 43
0.0
 44
0.0
 50
0.0
 51
0.0
 71
0
 72
100
 73
1
 74
1
 75
0
 76
0
 77
0
 78
0
  0
ENDTAB
  0
TABLE
  2
LTYPE
  5
5
100
AcDbSymbolTable
 70
6
  0
LTYPE
  5
14
100
AcDbSymbolTableRecord
100
AcDbLinetypeTableRecord
  2
BYBLOCK
 70
0
  3

 72
65
 73
0
 40
0.0
  0
LTYPE
  5
15
100
AcDbSymbolTableRecord
100
AcDbLinetypeTableRecord
  2
BYLAYER
 70
0
  3

 72
65
 73
0
 40
0.0
  0
LTYPE
  5
16
100
AcDbSymbolTableRecord
100
AcDbLinetypeTableRecord
  2
CONTINUOUS
 70
64
  3
Solid line
 72
65
 73
0
 40
0.0
  0
LTYPE
  5
1F5
100
AcDbSymbolTableRecord
100
AcDbLinetypeTableRecord
  2
CENTER
 70
64
  3
____ _ ____ _ ____ _ ____ _ ____ _ ____ _ ____
 72
65
 73
4
 40
0.6
 49
0.375
 74
0
 49
-0.075
 74
0
 49
0.075
 74
0
 49
-0.075
 74
0
  0
LTYPE
  5
1F6
100
AcDbSymbolTableRecord
100
AcDbLinetypeTableRecord
  2
HIDDEN
 70
64
  3
- - - - - - - - - - - - - - - - - - - -
 72
65
 73
2
 40
0.2
 49
0.1
 74
0
 49
-0.1
 74
0
  0
LTYPE
  5
1F7
100
AcDbSymbolTableRecord
100
AcDbLinetypeTableRecord
  2
PHANTOM
 70
64
  3
_____ _ _ _____ _ _ _____ _ _ _____
 72
65
 73
6
 40
0.8
 49
0.45
 74
0
 49
-0.05
 74
0
 49
0.1
 74
0
 49
-0.05
 74
0
 49
0.1
 74
0
 49
-0.05
 74
0
  0
LTYPE
  5
1F8
100
AcDbSymbolTableRecord
100
AcDbLinetypeTableRecord
  2
DOT
 70
64
  3
. . . . . . . . . . . . . . . . . . . .
 72
65
 73
2
 40
0.2
 49
0.1
 74
0
 49
-0.1
 74
0
  0
LTYPE
  5
1F9
100
AcDbSymbolTableRecord
100
AcDbLinetypeTableRecord
  2
DASHED
 70
64
  3
- - - - - - - - - - - - - - - - - - - -
 72
65
 73
2
 40
0.2
 49
0.1
 74
0
 49
-0.1
 74
0
  0
ENDTAB
  0
TABLE
  2
LAYER
  5
2
100
AcDbSymbolTable
 70
36
  0
LAYER
  5
10
100
AcDbSymbolTableRecord
100
AcDbLayerTableRecord
  2
0
 70
0
 62
7
  6
CONTINUOUS
370
-3
390
F
  0
LAYER
  5
1FA
100
AcDbSymbolTableRecord
100
AcDbLayerTableRecord
  2
DEFAULT_1
 70
0
 62
7
  6
CENTER
370
-3
390
F
  0
LAYER
  5
1FB
100
AcDbSymbolTableRecord
100
AcDbLayerTableRecord
  2
DEFAULT_2
 70
0
 62
7
  6
HIDDEN
370
-3
390
F
  0
LAYER
  5
1FC
100
AcDbSymbolTableRecord
100
AcDbLayerTableRecord
  2
DEFAULT_3
 70
0
 62
7
  6
PHANTOM
370
-3
390
F
  0
LAYER
  5
1FD
100
AcDbSymbolTableRecord
100
AcDbLayerTableRecord
  2
00_COMPONENTS
 70
0
 62
7
  6
CONTINUOUS
370
-3
390
F
  0
LAYER
  5
1FE
100
AcDbSymbolTableRecord
100
AcDbLayerTableRecord
  2
01_1_DEFAULT_DATUMS
 70
0
 62
7
  6
CONTINUOUS
370
-3
390
F
  0
LAYER
  5
1FF
100
AcDbSymbolTableRecord
100
AcDbLayerTableRecord
  2
01_PLANES
 70
0
 62
7
  6
CONTINUOUS
370
-3
390
F
  0
LAYER
  5
200
100
AcDbSymbolTableRecord
100
AcDbLayerTableRecord
  2
02_COORD_SYS
 70
0
 62
7
  6
CONTINUOUS
370
-3
390
F
  0
LAYER
  5
201
100
AcDbSymbolTableRecord
100
AcDbLayerTableRecord
  2
03_AXES
 70
0
 62
7
  6
CONTINUOUS
370
-3
390
F
  0
LAYER
  5
202
100
AcDbSymbolTableRecord
100
AcDbLayerTableRecord
  2
04_POINTS
 70
0
 62
7
  6
CONTINUOUS
370
-3
390
F
  0
LAYER
  5
203
100
AcDbSymbolTableRecord
100
AcDbLayerTableRecord
  2
05_CURVES
 70
0
 62
7
  6
CONTINUOUS
370
-3
390
F
  0
LAYER
  5
204
100
AcDbSymbolTableRecord
100
AcDbLayerTableRecord
  2
06_SURFS
 70
0
 62
7
  6
CONTINUOUS
370
-3
390
F
  0
LAYER
  5
205
100
AcDbSymbolTableRecord
100
AcDbLayerTableRecord
  2
07_COSMETICS
 70
0
 62
7
  6
CONTINUOUS
370
-3
390
F
  0
LAYER
  5
206
100
AcDbSymbolTableRecord
100
AcDbLayerTableRecord
  2
10_NOTES
 70
0
 62
7
  6
CONTINUOUS
370
-3
390
F
  0
LAYER
  5
207
100
AcDbSymbolTableRecord
100
AcDbLayerTableRecord
  2
11_NOTES_PUB
 70
0
 62
7
  6
CONTINUOUS
370
-3
390
F
  0
LAYER
  5
208
100
AcDbSymbolTableRecord
100
AcDbLayerTableRecord
  2
13_REF_GTOL
 70
0
 62
7
  6
CONTINUOUS
370
-3
390
F
  0
LAYER
  5
209
100
AcDbSymbolTableRecord
100
AcDbLayerTableRecord
  2
16_MISC
 70
0
 62
7
  6
CONTINUOUS
370
-3
390
F
  0
LAYER
  5
20A
100
AcDbSymbolTableRecord
100
AcDbLayerTableRecord
  2
17_NO_PRINT
 70
0
 62
7
  6
CONTINUOUS
370
-3
390
F
  0
LAYER
  5
20B
100
AcDbSymbolTableRecord
100
AcDbLayerTableRecord
  2
18_DATUM_CAMS_JOINTS
 70
0
 62
7
  6
CONTINUOUS
370
-3
390
F
  0
LAYER
  5
20C
100
AcDbSymbolTableRecord
100
AcDbLayerTableRecord
  2
19_DATUM_FUNCTIONAL
 70
0
 62
7
  6
CONTINUOUS
370
-3
390
F
  0
LAYER
  5
20D
100
AcDbSymbolTableRecord
100
AcDbLayerTableRecord
  2
20_DATUM_KINEMATIC_SCHEME
 70
0
 62
7
  6
CONTINUOUS
370
-3
390
F
  0
ENDTAB
  0
TABLE
  2
STYLE
  5
3
100
AcDbSymbolTable
 70
1
  0
STYLE
  5
11
100
AcDbSymbolTableRecord
100
AcDbTextStyleTableRecord
  2
STANDARD
 70
0
 40
0.0
 41
1.0
 50
0.0
 71
0
 42
0.2
  3
ARIAL.TTF
  4

  0
STYLE
  5
20E
100
AcDbSymbolTableRecord
100
AcDbTextStyleTableRecord
  2
TEXTSTYLE_1
 70
0
 40
0.0
 41
0.8
 50
0.0
 71
0
 42
0.2
  3
gdt
  4

  0
ENDTAB
  0
TABLE
  2
VIEW
  5
6
100
AcDbSymbolTable
 70
0
  0
ENDTAB
  0
TABLE
  2
UCS
  5
7
100
AcDbSymbolTable
 70
0
  0
ENDTAB
  0
TABLE
  2
APPID
  5
9
100
AcDbSymbolTable
 70
1
  0
APPID
  5
20F
100
AcDbSymbolTableRecord
100
AcDbRegAppTableRecord
  2
ACAD
 70
0
  0
ENDTAB
  0
TABLE
  2
BLOCK_RECORD
  5
1
100
AcDbSymbolTable
 70
0
  0
BLOCK_RECORD
  5
210
100
AcDbSymbolTableRecord
100
AcDbBlockTableRecord
  2
*Model_Space
  0
BLOCK_RECORD
  5
211
100
AcDbSymbolTableRecord
100
AcDbBlockTableRecord
  2
*Paper_Space
  0
BLOCK_RECORD
  5
212
100
AcDbSymbolTableRecord
100
AcDbBlockTableRecord
  2
_FILLED
  0
ENDTAB
  0
TABLE
  2
DIMSTYLE
  5
A
100
AcDbSymbolTable
 70
1
100
AcDbDimStyleTable
 71
0
  0
DIMSTYLE
105
213
100
AcDbSymbolTableRecord
100
AcDbDimStyleTableRecord
  2
STANDARD
 70
0
  3

  4

 40
1.0
 41
0.9139506906
 42
1.0
 43
0.38
 44
1.0
 45
0.0
 46
0.0
 47
0.01
 48
0.01
140
1.2795309669
141
0.09
142
0.0
143
25.4
144
1.0
145
0.0
146
1.0
147
0.625
 71
1
 72
0
 73
0
 74
0
 75
0
 76
0
 77
1
 78
8
 79
2
170
0
171
1
172
0
173
0
174
0
175
0
176
0
177
0
178
0
270
2
179
2
271
2
272
2
273
2
274
2
275
0
280
0
281
0
282
0
283
1
284
8
285
0
286
0
287
3
288
0
340
11
278
46
341
212
342
212
343
212
344
212
  0
ENDTAB
  0
ENDSEC
  0
SECTION
  2
BLOCKS
  0
BLOCK
  5
20
100
AcDbEntity
  8
0
100
AcDbBlockBegin
  2
*Model_Space
 70
0
 10
0.0
 20
0.0
 30
0.0
  3
*Model_Space
  1

  0
ENDBLK
  5
21
100
AcDbEntity
  8
0
100
AcDbBlockEnd
  0
BLOCK
  5
1C
100
AcDbEntity
  8
0
100
AcDbBlockBegin
  2
*Paper_Space
 70
0
 10
0.0
 20
0.0
 30
0.0
  3
*Paper_Space
  1

  0
ENDBLK
  5
1D
100
AcDbEntity
  8
0
100
AcDbBlockEnd
  0
BLOCK
  5
214
100
AcDbEntity
  8
0
100
AcDbBlockBegin
  2
_FILLED
 70
64
 10
0.0
 20
0.0
  3
_FILLED
  1

  0
SOLID
  5
215
100
AcDbEntity
  8
0
  6
BYBLOCK
 62
0
100
AcDbTrace
 10
0.0
 20
0.0
 11
-1.0
 21
0.25
 12
-1.0
 22
-0.25
 13
-1.0
 23
-0.25
  0
ENDBLK
  5
216
100
AcDbEntity
  8
0
  6
BYBLOCK
 62
0
100
AcDbBlockEnd
  0
ENDSEC
  0
SECTION
  2
ENTITIES
  0
LINE
  5
217
100
AcDbEntity
  8
0
100
AcDbLine
 62
7
  6
BYLAYER
 10
8.9491098347
 20
49.3715690409
 11
8.9491098347
 21
59.4715725669
  0
LINE
  5
218
100
AcDbEntity
  8
0
100
AcDbLine
 62
7
  6
BYLAYER
 10
9.1491098347
 20
49.2215686274
 11
9.1491098347
 21
59.6215686274
  0
LINE
  5
219
100
AcDbEntity
  8
0
100
AcDbLine
 62
7
  6
BYLAYER
 10
9.3491098347
 20
48.6216820872
 11
9.3491098347
 21
60.2215444358
  0
LINE
  5
21A
100
AcDbEntity
  8
0
100
AcDbLine
 62
7
  6
BYLAYER
 10
9.5491098347
 20
48.4215686274
 11
9.5491098347
 21
60.4215686274
  0
LINE
  5
21B
100
AcDbEntity
  8
0
100
AcDbLine
 62
7
  6
BYLAYER
 10
13.9491098347
 20
45.921571495
 11
13.9491098347
 21
62.9215657599
  0
LINE
  5
21C
100
AcDbEntity
  8
0
100
AcDbLine
 62
7
  6
BYLAYER
 10
13.9491098347
 20
62.9215686274
 11
14.6000460378
 21
64.0490232037
  0
LINE
  5
21D
100
AcDbEntity
  8
0
100
AcDbLine
 62
7
  6
BYLAYER
 10
9.3491098347
 20
60.2215686274
 11
9.5491098347
 21
60.4215686274
  0
LINE
  5
21E
100
AcDbEntity
  8
0
100
AcDbLine
 62
7
  6
BYLAYER
 10
9.3491098347
 20
48.6215686275
 11
9.5491098347
 21
48.4215686275
  0
LINE
  5
21F
100
AcDbEntity
  8
0
100
AcDbLine
 62
7
  6
BYLAYER
 10
13.9491098347
 20
45.9215686274
 11
14.6000460378
 21
44.7941140512
  0
LINE
  5
220
100
AcDbEntity
  8
0
100
AcDbLine
 62
7
  6
BYLAYER
 10
17.9491098347
 20
62.9215657599
 11
17.9491098347
 21
45.921571495
  0
LINE
  5
221
100
AcDbEntity
  8
0
100
AcDbLine
 62
7
  6
BYLAYER
 10
21.9491098347
 20
62.9215686274
 11
22.6000460378
 21
64.0490232037
  0
LINE
  5
222
100
AcDbEntity
  8
0
100
AcDbLine
 62
7
  6
BYLAYER
 10
21.9491098347
 20
45.9215686274
 11
22.6000460378
 21
44.7941140512
  0
LINE
  5
223
100
AcDbEntity
  8
0
100
AcDbLine
 62
7
  6
BYLAYER
 10
21.9491098347
 20
45.921571495
 11
21.9491098347
 21
62.9215657599
  0
LINE
  5
224
100
AcDbEntity
  8
0
100
AcDbLine
 62
7
  6
BYLAYER
 10
25.9491098347
 20
62.9215657599
 11
25.9491098347
 21
45.921571495
  0
LINE
  5
225
100
AcDbEntity
  8
0
100
AcDbLine
 62
7
  6
BYLAYER
 10
17.9491098347
 20
45.9215686274
 11
17.2981736317
 21
44.7941140512
  0
LINE
  5
226
100
AcDbEntity
  8
0
100
AcDbLine
 62
7
  6
BYLAYER
 10
17.9491098347
 20
62.9215686274
 11
17.2981736317
 21
64.0490232037
  0
LINE
  5
227
100
AcDbEntity
  8
0
100
AcDbLine
 62
7
  6
BYLAYER
 10
69.7838394702
 20
49.271652078
 11
68.6491098347
 21
49.0715686274
  0
LINE
  5
228
100
AcDbEntity
  8
0
100
AcDbLine
 62
7
  6
BYLAYER
 10
17.2745072753
 20
44.7566140512
 11
14.6237123942
 21
44.7566140512
  0
LINE
  5
229
100
AcDbEntity
  8
0
100
AcDbLine
 62
7
  6
BYLAYER
 10
22.6237122577
 20
44.7566140512
 11
25.2745074118
 21
44.7566140512
  0
LINE
  5
22A
100
AcDbEntity
  8
0
100
AcDbLine
 62
7
  6
BYLAYER
 10
17.328602471
 20
44.8566140512
 11
14.5696171985
 21
44.8566140512
  0
LINE
  5
22B
100
AcDbEntity
  8
0
100
AcDbLine
 62
7
  6
BYLAYER
 10
22.5696174887
 20
44.8566140512
 11
25.3286021717
 21
44.8566140512
  0
LINE
  5
22C
100
AcDbEntity
  8
0
100
AcDbLine
 62
7
  6
BYLAYER
 10
25.9491098347
 20
45.9215686274
 11
25.2981736317
 21
44.7941140512
  0
LINE
  5
22D
100
AcDbEntity
  8
0
100
AcDbLine
 62
7
  6
BYLAYER
 10
25.9491098347
 20
62.9215686274
 11
25.2981736317
 21
64.0490232037
  0
LINE
  5
22E
100
AcDbEntity
  8
0
100
AcDbLine
 62
7
  6
BYLAYER
 10
9.5491098347
 20
48.4215686274
 11
13.9491098347
 21
48.4215686274
  0
LINE
  5
22F
100
AcDbEntity
  8
0
100
AcDbLine
 62
7
  6
BYLAYER
 10
17.9491098347
 20
48.4215686274
 11
21.9491098347
 21
48.4215686274
  0
LINE
  5
230
100
AcDbEntity
  8
0
100
AcDbLine
 62
7
  6
BYLAYER
 10
25.9491098347
 20
48.4215686274
 11
46.4491098347
 21
48.4215686274
  0
LINE
  5
231
100
AcDbEntity
  8
0
100
AcDbLine
 62
7
  6
BYLAYER
 10
61.8491098347
 20
48.4215686274
 11
67.3491098347
 21
48.4215686274
  0
LINE
  5
232
100
AcDbEntity
  8
0
100
AcDbLine
 62
7
  6
BYLAYER
 10
46.4491098347
 20
49.0715686274
 11
52.348438907
 21
49.0715686274
  0
LINE
  5
233
100
AcDbEntity
  8
0
100
AcDbLine
 62
7
  6
BYLAYER
 10
58.4491098347
 20
49.0715686274
 11
61.1991098347
 21
49.0715686274
  0
LINE
  5
234
100
AcDbEntity
  8
0
100
AcDbLine
 62
7
  6
BYLAYER
 10
67.9991098347
 20
49.0715686274
 11
68.6491098347
 21
49.0715686274
  0
LINE
  5
235
100
AcDbEntity
  8
0
100
AcDbLine
 62
7
  6
BYLAYER
 10
52.4491098347
 20
49.1715686274
 11
58.2491098347
 21
49.1715686274
  0
LINE
  5
236
100
AcDbEntity
  8
0
100
AcDbLine
 62
7
  6
BYLAYER
 10
9.0168222585
 20
49.2215686274
 11
9.3491098347
 21
49.2215686274
  0
LINE
  5
237
100
AcDbEntity
  8
0
100
AcDbLine
 62
7
  6
BYLAYER
 10
17.3286021779
 20
49.2640913393
 11
14.5696175005
 21
49.2640913393
  0
LINE
  5
238
100
AcDbEntity
  8
0
100
AcDbLine
 62
7
  6
BYLAYER
 10
22.5696172026
 20
49.2640913393
 11
25.3286024669
 21
49.2640913393
  0
LINE
  5
239
100
AcDbEntity
  8
0
100
AcDbLine
 62
7
  6
BYLAYER
 10
17.2745073002
 20
49.8140913393
 11
14.6237123693
 21
49.8140913393
  0
LINE
  5
23A
100
AcDbEntity
  8
0
100
AcDbLine
 62
7
  6
BYLAYER
 10
22.6237124036
 20
49.8140913393
 11
25.2745072658
 21
49.8140913393
  0
LINE
  5
23B
100
AcDbEntity
  8
0
100
AcDbLine
 62
7
  6
BYLAYER
 10
17.2745072658
 20
59.0290459156
 11
14.6237124037
 21
59.0290459156
  0
LINE
  5
23C
100
AcDbEntity
  8
0
100
AcDbLine
 62
7
  6
BYLAYER
 10
22.6237123693
 20
59.0290459156
 11
25.2745073002
 21
59.0290459156
  0
LINE
  5
23D
100
AcDbEntity
  8
0
100
AcDbLine
 62
7
  6
BYLAYER
 10
17.328602471
 20
59.5790459156
 11
14.5696171985
 21
59.5790459156
  0
LINE
  5
23E
100
AcDbEntity
  8
0
100
AcDbLine
 62
7
  6
BYLAYER
 10
22.5696174887
 20
59.5790459156
 11
25.3286021717
 21
59.5790459156
  0
LINE
  5
23F
100
AcDbEntity
  8
0
100
AcDbLine
 62
7
  6
BYLAYER
 10
9.3491098347
 20
59.6215686274
 11
9.0168222585
 21
59.6215686274
  0
LINE
  5
240
100
AcDbEntity
  8
0
100
AcDbLine
 62
7
  6
BYLAYER
 10
52.4491098347
 20
59.6715686274
 11
58.2491098347
 21
59.6715686274
  0
LINE
  5
241
100
AcDbEntity
  8
0
100
AcDbLine
 62
7
  6
BYLAYER
 10
52.348438907
 20
59.7715686274
 11
46.4491098347
 21
59.7715686274
  0
LINE
  5
242
100
AcDbEntity
  8
0
100
AcDbLine
 62
7
  6
BYLAYER
 10
58.4491098347
 20
59.7715686274
 11
61.1991098347
 21
59.7715686274
  0
LINE
  5
243
100
AcDbEntity
  8
0
100
AcDbLine
 62
7
  6
BYLAYER
 10
67.9991098347
 20
59.7715686274
 11
68.6491098347
 21
59.7715686274
  0
LINE
  5
244
100
AcDbEntity
  8
0
100
AcDbLine
 62
7
  6
BYLAYER
 10
9.5491098347
 20
60.4215686274
 11
13.9491098347
 21
60.4215686274
  0
LINE
  5
245
100
AcDbEntity
  8
0
100
AcDbLine
 62
7
  6
BYLAYER
 10
17.9491098347
 20
60.4215686274
 11
21.9491098347
 21
60.4215686274
  0
LINE
  5
246
100
AcDbEntity
  8
0
100
AcDbLine
 62
7
  6
BYLAYER
 10
25.9491098347
 20
60.4215686274
 11
46.4491098347
 21
60.4215686274
  0
LINE
  5
247
100
AcDbEntity
  8
0
100
AcDbLine
 62
7
  6
BYLAYER
 10
61.8491098347
 20
60.4215686274
 11
67.3491098347
 21
60.4215686274
  0
LINE
  5
248
100
AcDbEntity
  8
0
100
AcDbLine
 62
7
  6
BYLAYER
 10
46.4491098347
 20
60.4215647921
 11
46.4491098347
 21
59.7715686274
  0
LINE
  5
249
100
AcDbEntity
  8
0
100
AcDbLine
 62
7
  6
BYLAYER
 10
46.4491098347
 20
49.0715686274
 11
46.4491098347
 21
48.4215724628
  0
LINE
  5
24A
100
AcDbEntity
  8
0
100
AcDbLine
 62
7
  6
BYLAYER
 10
17.3286021779
 20
63.9865232037
 11
14.5696175005
 21
63.9865232037
  0
LINE
  5
24B
100
AcDbEntity
  8
0
100
AcDbLine
 62
7
  6
BYLAYER
 10
22.5696172026
 20
63.9865232037
 11
25.3286024669
 21
63.9865232037
  0
LINE
  5
24C
100
AcDbEntity
  8
0
100
AcDbLine
 62
7
  6
BYLAYER
 10
17.274507413
 20
64.0865232037
 11
14.6237122565
 21
64.0865232037
  0
LINE
  5
24D
100
AcDbEntity
  8
0
100
AcDbLine
 62
7
  6
BYLAYER
 10
22.6237123934
 20
64.0865232037
 11
25.274507276
 21
64.0865232037
  0
LINE
  5
24E
100
AcDbEntity
  8
0
100
AcDbLine
 62
7
  6
BYLAYER
 10
69.7838394702
 20
59.5714851769
 11
68.6491098347
 21
59.7715686274
  0
LINE
  5
24F
100
AcDbEntity
  8
0
100
AcDbLine
 62
7
  6
BYLAYER
 10
51.6991098347
 20
59.7715686274
 11
51.6991098347
 21
49.0715686275
  0
LINE
  5
250
100
AcDbEntity
  8
0
100
AcDbLine
 62
7
  6
BYLAYER
 10
52.4491098347
 20
49.1715686274
 11
52.4491098347
 21
59.6715686274
  0
LINE
  5
251
100
AcDbEntity
  8
0
100
AcDbLine
 62
7
  6
BYLAYER
 10
61.1991098347
 20
59.7715686274
 11
61.8491098347
 21
60.4215686274
  0
LINE
  5
252
100
AcDbEntity
  8
0
100
AcDbLine
 62
7
  6
BYLAYER
 10
52.4491098347
 20
49.1715686274
 11
52.3491098347
 21
49.0715686274
  0
LINE
  5
253
100
AcDbEntity
  8
0
100
AcDbLine
 62
7
  6
BYLAYER
 10
61.1991098347
 20
49.0715686274
 11
61.8491098347
 21
48.4215686274
  0
LINE
  5
254
100
AcDbEntity
  8
0
100
AcDbLine
 62
7
  6
BYLAYER
 10
52.4491098347
 20
59.6715686274
 11
52.3491098347
 21
59.7715686274
  0
LINE
  5
255
100
AcDbEntity
  8
0
100
AcDbLine
 62
7
  6
BYLAYER
 10
58.2491098347
 20
59.6715686274
 11
58.2491098347
 21
49.1715686274
  0
LINE
  5
256
100
AcDbEntity
  8
0
100
AcDbLine
 62
7
  6
BYLAYER
 10
58.4491098347
 20
49.0715613016
 11
58.4491098347
 21
59.7715484659
  0
LINE
  5
257
100
AcDbEntity
  8
0
100
AcDbLine
 62
7
  6
BYLAYER
 10
61.1991098347
 20
59.7715686274
 11
61.1991098347
 21
49.0715686274
  0
LINE
  5
258
100
AcDbEntity
  8
0
100
AcDbLine
 62
7
  6
BYLAYER
 10
61.8491098347
 20
48.4215686274
 11
61.8491098347
 21
60.4215686274
  0
LINE
  5
259
100
AcDbEntity
  8
0
100
AcDbLine
 62
7
  6
BYLAYER
 10
67.9991098347
 20
49.0715686274
 11
67.3491098347
 21
48.4215686274
  0
LINE
  5
25A
100
AcDbEntity
  8
0
100
AcDbLine
 62
7
  6
BYLAYER
 10
67.9991098347
 20
59.7715686274
 11
67.3491098347
 21
60.4215686274
  0
LINE
  5
25B
100
AcDbEntity
  8
0
100
AcDbLine
 62
7
  6
BYLAYER
 10
67.3491098347
 20
60.4215686274
 11
67.3491098347
 21
48.4215686274
  0
LINE
  5
25C
100
AcDbEntity
  8
0
100
AcDbLine
 62
7
  6
BYLAYER
 10
67.9991098347
 20
49.0715686274
 11
67.9991098347
 21
59.7715686274
  0
LINE
  5
25D
100
AcDbEntity
  8
0
100
AcDbLine
 62
7
  6
BYLAYER
 10
68.6491098347
 20
59.7715686274
 11
68.6491098347
 21
49.0715686274
  0
LINE
  5
25E
100
AcDbEntity
  8
0
100
AcDbLine
 62
7
  6
BYLAYER
 10
69.7838394702
 20
59.5714851769
 11
69.7838394702
 21
49.271652078
  0
LINE
  5
25F
100
AcDbEntity
  8
0
100
AcDbLine
 62
7
  6
BYLAYER
 10
69.9491098347
 20
59.3744948696
 11
69.9491098347
 21
49.4686312575
  0
ARC
  5
260
100
AcDbEntity
  8
0
100
AcDbCircle
 62
7
  6
BYLAYER
 10
25.2038920348
 20
60.347318225
 40
10.6619906038
100
AcDbArc
 50
184.1321498338
 51
187.1023531199
  0
ARC
  5
261
100
AcDbEntity
  8
0
100
AcDbCircle
 62
7
  6
BYLAYER
 10
6.6943280764
 20
48.495819152
 40
10.6619901504
100
AcDbArc
 50
4.1321493523
 51
7.1023527625
  0
ARC
  5
262
100
AcDbEntity
  8
0
100
AcDbCircle
 62
7
  6
BYLAYER
 10
14.7112218948
 20
60.3456565919
 40
10.6450205367
100
AcDbArc
 50
352.8952788339
 51
355.8702182186
  0
ARC
  5
263
100
AcDbEntity
  8
0
100
AcDbCircle
 62
7
  6
BYLAYER
 10
33.186997162
 20
48.4974808019
 40
10.6450199117
100
AcDbArc
 50
172.8952791681
 51
175.8702187254
  0
ARC
  5
264
100
AcDbEntity
  8
0
100
AcDbCircle
 62
7
  6
BYLAYER
 10
14.7397857326
 20
48.5002901336
 40
10.616328561
100
AcDbArc
 50
4.1257603793
 51
7.1087417273
  0
ARC
  5
265
100
AcDbEntity
  8
0
100
AcDbCircle
 62
7
  6
BYLAYER
 10
33.1584337375
 20
60.3428471801
 40
10.6163283704
100
AcDbArc
 50
184.1257607719
 51
187.1087421756
  0
ARC
  5
266
100
AcDbEntity
  8
0
100
AcDbCircle
 62
7
  6
BYLAYER
 10
25.1374635963
 20
48.5023526675
 40
10.5952641877
100
AcDbArc
 50
172.8882923741
 51
175.8772055111
  0
ARC
  5
267
100
AcDbEntity
  8
0
100
AcDbCircle
 62
7
  6
BYLAYER
 10
6.760756439
 20
60.3407846295
 40
10.5952638298
100
AcDbArc
 50
352.8882919031
 51
355.8772051433
  0
ARC
  5
268
100
AcDbEntity
  8
0
100
AcDbCircle
 62
7
  6
BYLAYER
 10
9.1491098347
 20
59.4715686274
 40
0.2
100
AcDbArc
 50
131.4096221093
 51
180.0
  0
ARC
  5
269
100
AcDbEntity
  8
0
100
AcDbCircle
 62
7
  6
BYLAYER
 10
9.1491098347
 20
49.3715686274
 40
0.2
100
AcDbArc
 50
180.0
 51
228.5903778907
  0
ARC
  5
26A
100
AcDbEntity
  8
0
100
AcDbCircle
 62
7
  6
BYLAYER
 10
69.7491098347
 20
49.4686136286
 40
0.2
100
AcDbArc
 50
280.0
 51
360.0
  0
ARC
  5
26B
100
AcDbEntity
  8
0
100
AcDbCircle
 62
7
  6
BYLAYER
 10
69.7491098347
 20
59.3745236263
 40
0.2
100
AcDbArc
 50
0.0
 51
80.0
  0
ARC
  5
26C
100
AcDbEntity
  8
0
100
AcDbCircle
 62
7
  6
BYLAYER
 10
58.2491098347
 20
49.3715686274
 40
0.2
100
AcDbArc
 50
270.0
 51
360.0
  0
ARC
  5
26D
100
AcDbEntity
  8
0
100
AcDbCircle
 62
7
  6
BYLAYER
 10
58.2491098347
 20
59.4715686274
 40
0.2
100
AcDbArc
 50
0.0
 51
90.0
  0
SPLINE
  5
26E
100
AcDbEntity
  8
0
100
AcDbSpline
 62
7
  6
BYLAYER
 70
0
 71
3
 72
9
 73
5
 74
0
 42
0.0000001
 43
0.0000001
 44
0.0000000001
 40
0.0
 40
0.0
 40
0.0
 40
0.0
 40
0.2456458236
 40
1.0
 40
1.0
 40
1.0
 40
1.0
 10
14.6000446403
 20
64.0490232201
 30
0.0
 10
14.6018601948
 20
64.0521682997
 30
0.0
 10
14.6093819928
 20
64.0648958236
 30
0.0
 10
14.6174122988
 20
64.0773211979
 30
0.0
 10
14.6237122565
 20
64.0865232037
 30
0.0
  0
SPLINE
  5
26F
100
AcDbEntity
  8
0
100
AcDbSpline
 62
7
  6
BYLAYER
 70
0
 71
3
 72
9
 73
5
 74
0
 42
0.0000001
 43
0.0000001
 44
0.0000000001
 40
0.0
 40
0.0
 40
0.0
 40
0.0
 40
0.2456458246
 40
1.0
 40
1.0
 40
1.0
 40
1.0
 10
17.2981750299
 20
44.7941140348
 30
0.0
 10
17.2963594752
 20
44.7909689552
 30
0.0
 10
17.2888376764
 20
44.7782414314
 30
0.0
 10
17.2808073697
 20
44.7658160572
 30
0.0
 10
17.2745074118
 20
44.7566140512
 30
0.0
  0
SPLINE
  5
270
100
AcDbEntity
  8
0
100
AcDbSpline
 62
7
  6
BYLAYER
 70
0
 71
3
 72
9
 73
5
 74
0
 42
0.0000001
 43
0.0000001
 44
0.0000000001
 40
0.0
 40
0.0
 40
0.0
 40
0.0
 40
0.2544691177
 40
1.0
 40
1.0
 40
1.0
 40
1.0
 10
17.274507413
 20
64.0865232037
 30
0.0
 10
17.2766325919
 20
64.0834190704
 30
0.0
 10
17.2848742369
 20
64.071146022
 30
0.0
 10
17.2926648766
 20
64.0585684406
 30
0.0
 10
17.2981750291
 20
64.0490232201
 30
0.0
  0
SPLINE
  5
271
100
AcDbEntity
  8
0
100
AcDbSpline
 62
7
  6
BYLAYER
 70
0
 71
3
 72
9
 73
5
 74
0
 42
0.0000001
 43
0.0000001
 44
0.0000000001
 40
0.0
 40
0.0
 40
0.0
 40
0.0
 40
0.2544691145
 40
1.0
 40
1.0
 40
1.0
 40
1.0
 10
14.6237122576
 20
44.7566140512
 30
0.0
 10
14.6215870787
 20
44.7597181845
 30
0.0
 10
14.6133454333
 20
44.7719912331
 30
0.0
 10
14.6055547926
 20
44.7845688143
 30
0.0
 10
14.6000446395
 20
44.7941140348
 30
0.0
  0
SPLINE
  5
272
100
AcDbEntity
  8
0
100
AcDbSpline
 62
7
  6
BYLAYER
 70
0
 71
3
 72
9
 73
5
 74
0
 42
0.0000001
 43
0.0000001
 44
0.0000000001
 40
0.0
 40
0.0
 40
0.0
 40
0.0
 40
0.2567409433
 40
1.0
 40
1.0
 40
1.0
 40
1.0
 10
14.6000446395
 20
44.7941140348
 30
0.0
 10
14.597069012
 20
44.7992687048
 30
0.0
 10
14.5858167766
 20
44.8195375057
 30
0.0
 10
14.5759592733
 20
44.8405930969
 30
0.0
 10
14.5696171985
 20
44.8566140512
 30
0.0
  0
SPLINE
  5
273
100
AcDbEntity
  8
0
100
AcDbSpline
 62
7
  6
BYLAYER
 70
0
 71
3
 72
11
 73
7
 74
0
 42
0.0000001
 43
0.0000001
 44
0.0000000001
 40
0.0
 40
0.0
 40
0.0
 40
0.0
 40
0.2601203779
 40
0.5124283474
 40
0.7581434361
 40
1.0
 40
1.0
 40
1.0
 40
1.0
 10
17.3286021779
 20
63.9865232037
 30
0.0
 10
17.4226711096
 20
63.8095472067
 30
0.0
 10
17.5944580892
 20
63.4533818962
 30
0.0
 10
17.7940501709
 20
62.9030648592
 30
0.0
 10
17.9201532881
 20
62.3453820605
 30
0.0
 10
17.9491089187
 20
61.9691355165
 30
0.0
 10
17.9491069172
 20
61.7827845975
 30
0.0
  0
SPLINE
  5
274
100
AcDbEntity
  8
0
100
AcDbSpline
 62
7
  6
BYLAYER
 70
0
 71
3
 72
11
 73
7
 74
0
 42
0.0000001
 43
0.0000001
 44
0.0000000001
 40
0.0
 40
0.0
 40
0.0
 40
0.0
 40
0.2418535359
 40
0.4875642883
 40
0.739874916
 40
1.0
 40
1.0
 40
1.0
 40
1.0
 10
17.9491069172
 20
61.7827845975
 30
0.0
 10
17.9491094278
 20
61.5964361096
 30
0.0
 10
17.9201435129
 20
61.2201970253
 30
0.0
 10
17.7940637506
 20
60.6625125765
 30
0.0
 10
17.5944442978
 20
60.1122029929
 30
0.0
 10
17.4226727557
 20
59.7560250213
 30
0.0
 10
17.3286021717
 20
59.5790459156
 30
0.0
  0
SPLINE
  5
275
100
AcDbEntity
  8
0
100
AcDbSpline
 62
7
  6
BYLAYER
 70
0
 71
3
 72
11
 73
7
 74
0
 42
0.0000001
 43
0.0000001
 44
0.0000000001
 40
0.0
 40
0.0
 40
0.0
 40
0.0
 40
0.2500091884
 40
0.5000115385
 40
0.7500068875
 40
1.0
 40
1.0
 40
1.0
 40
1.0
 10
17.2745072658
 20
59.0290459156
 30
0.0
 10
17.3777494979
 20
58.6538038737
 30
0.0
 10
17.5661219431
 20
57.8981488316
 30
0.0
 10
17.7819139421
 20
56.7499390994
 30
0.0
 10
17.9179845952
 20
55.5893887044
 30
0.0
 10
17.9491098347
 20
54.8107293529
 30
0.0
 10
17.9491098347
 20
54.4215686274
 30
0.0
  0
SPLINE
  5
276
100
AcDbEntity
  8
0
100
AcDbSpline
 62
7
  6
BYLAYER
 70
0
 71
3
 72
11
 73
7
 74
0
 42
0.0000001
 43
0.0000001
 44
0.0000000001
 40
0.0
 40
0.0
 40
0.0
 40
0.0
 40
0.2499931512
 40
0.4999885034
 40
0.7499908384
 40
1.0
 40
1.0
 40
1.0
 40
1.0
 10
17.9491098347
 20
54.4215686274
 30
0.0
 10
17.9491098347
 20
54.0324078417
 30
0.0
 10
17.9179846091
 20
53.253748424
 30
0.0
 10
17.7819139166
 20
52.0931979901
 30
0.0
 10
17.5661218861
 20
50.9449883268
 30
0.0
 10
17.3777494869
 20
50.189333341
 30
0.0
 10
17.2745072658
 20
49.8140913393
 30
0.0
  0
SPLINE
  5
277
100
AcDbEntity
  8
0
100
AcDbSpline
 62
7
  6
BYLAYER
 70
0
 71
3
 72
11
 73
7
 74
0
 42
0.0000001
 43
0.0000001
 44
0.0000000001
 40
0.0
 40
0.0
 40
0.0
 40
0.0
 40
0.2601203779
 40
0.5124283474
 40
0.7581434361
 40
1.0
 40
1.0
 40
1.0
 40
1.0
 10
17.3286021779
 20
49.2640913393
 30
0.0
 10
17.4226711096
 20
49.0871153424
 30
0.0
 10
17.5944580892
 20
48.7309500319
 30
0.0
 10
17.7940501709
 20
48.1806329949
 30
0.0
 10
17.9201532881
 20
47.6229501962
 30
0.0
 10
17.9491089187
 20
47.2467036522
 30
0.0
 10
17.9491069172
 20
47.0603527332
 30
0.0
  0
SPLINE
  5
278
100
AcDbEntity
  8
0
100
AcDbSpline
 62
7
  6
BYLAYER
 70
0
 71
3
 72
11
 73
7
 74
0
 42
0.0000001
 43
0.0000001
 44
0.0000000001
 40
0.0
 40
0.0
 40
0.0
 40
0.0
 40
0.2500091884
 40
0.5000115385
 40
0.7500068875
 40
1.0
 40
1.0
 40
1.0
 40
1.0
 10
14.6237124037
 20
49.8140913393
 30
0.0
 10
14.5204701715
 20
50.1893333812
 30
0.0
 10
14.3320977264
 20
50.9449884233
 30
0.0
 10
14.1163057273
 20
52.0931981555
 30
0.0
 10
13.9802350743
 20
53.2537485505
 30
0.0
 10
13.9491098347
 20
54.032407902
 30
0.0
 10
13.9491098347
 20
54.4215686274
 30
0.0
  0
SPLINE
  5
279
100
AcDbEntity
  8
0
100
AcDbSpline
 62
7
  6
BYLAYER
 70
0
 71
3
 72
11
 73
7
 74
0
 42
0.0000001
 43
0.0000001
 44
0.0000000001
 40
0.0
 40
0.0
 40
0.0
 40
0.0
 40
0.2418535353
 40
0.4875642888
 40
0.7398749179
 40
1.0
 40
1.0
 40
1.0
 40
1.0
 10
13.9491127523
 20
47.0603527241
 30
0.0
 10
13.949110245
 20
47.2467012064
 30
0.0
 10
13.978076137
 20
47.6229402824
 30
0.0
 10
14.1041559318
 20
48.1806247116
 30
0.0
 10
14.3037753986
 20
48.7309342707
 30
0.0
 10
14.4755469197
 20
49.0871122399
 30
0.0
 10
14.5696175005
 20
49.2640913393
 30
0.0
  0
SPLINE
  5
27A
100
AcDbEntity
  8
0
100
AcDbSpline
 62
7
  6
BYLAYER
 70
0
 71
3
 72
9
 73
5
 74
0
 42
0.0000001
 43
0.0000001
 44
0.0000000001
 40
0.0
 40
0.0
 40
0.0
 40
0.0
 40
0.2567409432
 40
1.0
 40
1.0
 40
1.0
 40
1.0
 10
17.2981750291
 20
64.0490232201
 30
0.0
 10
17.3011506564
 20
64.0438685501
 30
0.0
 10
17.312402891
 20
64.0235997492
 30
0.0
 10
17.3222603922
 20
64.0025441577
 30
0.0
 10
17.3286024669
 20
63.9865232037
 30
0.0
  0
SPLINE
  5
27B
100
AcDbEntity
  8
0
100
AcDbSpline
 62
7
  6
BYLAYER
 70
0
 71
3
 72
11
 73
7
 74
0
 42
0.0000001
 43
0.0000001
 44
0.0000000001
 40
0.0
 40
0.0
 40
0.0
 40
0.0
 40
0.2499931512
 40
0.4999885034
 40
0.7499908384
 40
1.0
 40
1.0
 40
1.0
 40
1.0
 10
13.9491098347
 20
54.4215686274
 30
0.0
 10
13.9491098347
 20
54.8107294132
 30
0.0
 10
13.9802350604
 20
55.5893888309
 30
0.0
 10
14.1163057528
 20
56.7499392648
 30
0.0
 10
14.3320977834
 20
57.8981489281
 30
0.0
 10
14.5204701826
 20
58.6538039139
 30
0.0
 10
14.6237124037
 20
59.0290459156
 30
0.0
  0
SPLINE
  5
27C
100
AcDbEntity
  8
0
100
AcDbSpline
 62
7
  6
BYLAYER
 70
0
 71
3
 72
11
 73
7
 74
0
 42
0.0000001
 43
0.0000001
 44
0.0000000001
 40
0.0
 40
0.0
 40
0.0
 40
0.0
 40
0.2601203797
 40
0.5124283479
 40
0.7581434355
 40
1.0
 40
1.0
 40
1.0
 40
1.0
 10
14.5696174887
 20
59.5790459156
 30
0.0
 10
14.4755485539
 20
59.7560219186
 30
0.0
 10
14.3037615546
 20
60.1121872323
 30
0.0
 10
14.1041694856
 20
60.6625042932
 30
0.0
 10
13.9780663997
 20
61.2201871115
 30
0.0
 10
13.9491107474
 20
61.5964336638
 30
0.0
 10
13.9491127523
 20
61.7827845884
 30
0.0
  0
SPLINE
  5
27D
100
AcDbEntity
  8
0
100
AcDbSpline
 62
7
  6
BYLAYER
 70
0
 71
3
 72
11
 73
7
 74
0
 42
0.0000001
 43
0.0000001
 44
0.0000000001
 40
0.0
 40
0.0
 40
0.0
 40
0.0
 40
0.2418535353
 40
0.4875642888
 40
0.7398749179
 40
1.0
 40
1.0
 40
1.0
 40
1.0
 10
13.9491127523
 20
61.7827845884
 30
0.0
 10
13.949110245
 20
61.9691330707
 30
0.0
 10
13.978076137
 20
62.3453721467
 30
0.0
 10
14.1041559318
 20
62.9030565759
 30
0.0
 10
14.3037753986
 20
63.4533661351
 30
0.0
 10
14.4755469197
 20
63.8095441042
 30
0.0
 10
14.5696175005
 20
63.9865232037
 30
0.0
  0
SPLINE
  5
27E
100
AcDbEntity
  8
0
100
AcDbSpline
 62
7
  6
BYLAYER
 70
0
 71
3
 72
9
 73
5
 74
0
 42
0.0000001
 43
0.0000001
 44
0.0000000001
 40
0.0
 40
0.0
 40
0.0
 40
0.0
 40
0.2437249866
 40
1.0
 40
1.0
 40
1.0
 40
1.0
 10
14.5696172025
 20
63.9865232037
 30
0.0
 10
14.5716969018
 20
63.9917768103
 30
0.0
 10
14.580661368
 20
64.0131604092
 30
0.0
 10
14.5912792255
 20
64.0338389186
 30
0.0
 10
14.6000446403
 20
64.0490232201
 30
0.0
  0
SPLINE
  5
27F
100
AcDbEntity
  8
0
100
AcDbSpline
 62
7
  6
BYLAYER
 70
0
 71
3
 72
11
 73
7
 74
0
 42
0.0000001
 43
0.0000001
 44
0.0000000001
 40
0.0
 40
0.0
 40
0.0
 40
0.0
 40
0.2418535359
 40
0.4875642883
 40
0.739874916
 40
1.0
 40
1.0
 40
1.0
 40
1.0
 10
17.9491069172
 20
47.0603527332
 30
0.0
 10
17.9491094278
 20
46.8740042452
 30
0.0
 10
17.9201435129
 20
46.497765161
 30
0.0
 10
17.7940637506
 20
45.9400807122
 30
0.0
 10
17.5944442978
 20
45.3897711286
 30
0.0
 10
17.4226727557
 20
45.0335931569
 30
0.0
 10
17.3286021717
 20
44.8566140512
 30
0.0
  0
SPLINE
  5
280
100
AcDbEntity
  8
0
100
AcDbSpline
 62
7
  6
BYLAYER
 70
0
 71
3
 72
9
 73
5
 74
0
 42
0.0000001
 43
0.0000001
 44
0.0000000001
 40
0.0
 40
0.0
 40
0.0
 40
0.0
 40
0.2437249846
 40
1.0
 40
1.0
 40
1.0
 40
1.0
 10
17.328602471
 20
44.8566140512
 30
0.0
 10
17.3265227718
 20
44.8513604446
 30
0.0
 10
17.3175583044
 20
44.8299768456
 30
0.0
 10
17.3069404456
 20
44.8092983363
 30
0.0
 10
17.2981750299
 20
44.7941140348
 30
0.0
  0
SPLINE
  5
281
100
AcDbEntity
  8
0
100
AcDbSpline
 62
7
  6
BYLAYER
 70
0
 71
3
 72
11
 73
7
 74
0
 42
0.0000001
 43
0.0000001
 44
0.0000000001
 40
0.0
 40
0.0
 40
0.0
 40
0.0
 40
0.2601203797
 40
0.5124283479
 40
0.7581434355
 40
1.0
 40
1.0
 40
1.0
 40
1.0
 10
14.5696174887
 20
44.8566140512
 30
0.0
 10
14.4755485539
 20
45.0335900543
 30
0.0
 10
14.3037615546
 20
45.389755368
 30
0.0
 10
14.1041694856
 20
45.9400724288
 30
0.0
 10
13.9780663997
 20
46.4977552472
 30
0.0
 10
13.9491107474
 20
46.8740017995
 30
0.0
 10
13.9491127523
 20
47.0603527241
 30
0.0
  0
SPLINE
  5
282
100
AcDbEntity
  8
0
100
AcDbSpline
 62
7
  6
BYLAYER
 70
0
 71
3
 72
9
 73
5
 74
0
 42
0.0000001
 43
0.0000001
 44
0.0000000001
 40
0.0
 40
0.0
 40
0.0
 40
0.0
 40
0.2456243928
 40
1.0
 40
1.0
 40
1.0
 40
1.0
 10
25.2981786648
 20
64.0490232629
 30
0.0
 10
25.2963637929
 20
64.0521685565
 30
0.0
 10
25.2888424218
 20
64.0648971428
 30
0.0
 10
25.2808078289
 20
64.0773205287
 30
0.0
 10
25.274507413
 20
64.0865232037
 30
0.0
  0
SPLINE
  5
283
100
AcDbEntity
  8
0
100
AcDbSpline
 62
7
  6
BYLAYER
 70
0
 71
3
 72
9
 73
5
 74
0
 42
0.0000001
 43
0.0000001
 44
0.0000000001
 40
0.0
 40
0.0
 40
0.0
 40
0.0
 40
0.2456243938
 40
1.0
 40
1.0
 40
1.0
 40
1.0
 10
22.6000410039
 20
44.794113992
 30
0.0
 10
22.6018558759
 20
44.7909686984
 30
0.0
 10
22.6093772479
 20
44.7782401122
 30
0.0
 10
22.6174118417
 20
44.7658167264
 30
0.0
 10
22.6237122577
 20
44.7566140512
 30
0.0
  0
SPLINE
  5
284
100
AcDbEntity
  8
0
100
AcDbSpline
 62
7
  6
BYLAYER
 70
0
 71
3
 72
9
 73
5
 74
0
 42
0.0000001
 43
0.0000001
 44
0.0000000001
 40
0.0
 40
0.0
 40
0.0
 40
0.0
 40
0.2544714823
 40
1.0
 40
1.0
 40
1.0
 40
1.0
 10
25.2745074118
 20
44.7566140512
 30
0.0
 10
25.276632702
 20
44.759718347
 30
0.0
 10
25.2848759132
 20
44.7719910641
 30
0.0
 10
25.2926701283
 20
44.7845673317
 30
0.0
 10
25.2981786656
 20
44.794113992
 30
0.0
  0
SPLINE
  5
285
100
AcDbEntity
  8
0
100
AcDbSpline
 62
7
  6
BYLAYER
 70
0
 71
3
 72
9
 73
5
 74
0
 42
0.0000001
 43
0.0000001
 44
0.0000000001
 40
0.0
 40
0.0
 40
0.0
 40
0.0
 40
0.2544714856
 40
1.0
 40
1.0
 40
1.0
 40
1.0
 10
22.6237122564
 20
64.0865232037
 30
0.0
 10
22.6215869663
 20
64.0834189079
 30
0.0
 10
22.6133437555
 20
64.0711461909
 30
0.0
 10
22.6055495414
 20
64.0585699232
 30
0.0
 10
22.6000410047
 20
64.0490232629
 30
0.0
  0
SPLINE
  5
286
100
AcDbEntity
  8
0
100
AcDbSpline
 62
7
  6
BYLAYER
 70
0
 71
3
 72
9
 73
5
 74
0
 42
0.0000001
 43
0.0000001
 44
0.0000000001
 40
0.0
 40
0.0
 40
0.0
 40
0.0
 40
0.2567075078
 40
1.0
 40
1.0
 40
1.0
 40
1.0
 10
25.2981786656
 20
44.794113992
 30
0.0
 10
25.3011528346
 20
44.799268424
 30
0.0
 10
25.3123957476
 20
44.8195415977
 30
0.0
 10
25.3222602815
 20
44.8405928071
 30
0.0
 10
25.328602471
 20
44.8566140512
 30
0.0
  0
SPLINE
  5
287
100
AcDbEntity
  8
0
100
AcDbSpline
 62
7
  6
BYLAYER
 70
0
 71
3
 72
11
 73
7
 74
0
 42
0.0000001
 43
0.0000001
 44
0.0000000001
 40
0.0
 40
0.0
 40
0.0
 40
0.0
 40
0.2601203779
 40
0.5124283474
 40
0.7581434361
 40
1.0
 40
1.0
 40
1.0
 40
1.0
 10
25.3286021779
 20
63.9865232037
 30
0.0
 10
25.4226711095
 20
63.8095472067
 30
0.0
 10
25.5944580892
 20
63.4533818963
 30
0.0
 10
25.7940501709
 20
62.9030648592
 30
0.0
 10
25.9201532881
 20
62.3453820605
 30
0.0
 10
25.9491089187
 20
61.9691355165
 30
0.0
 10
25.9491069172
 20
61.7827845975
 30
0.0
  0
SPLINE
  5
288
100
AcDbEntity
  8
0
100
AcDbSpline
 62
7
  6
BYLAYER
 70
0
 71
3
 72
11
 73
7
 74
0
 42
0.0000001
 43
0.0000001
 44
0.0000000001
 40
0.0
 40
0.0
 40
0.0
 40
0.0
 40
0.2500091884
 40
0.5000115385
 40
0.7500068875
 40
1.0
 40
1.0
 40
1.0
 40
1.0
 10
25.2745072658
 20
59.0290459156
 30
0.0
 10
25.3777494979
 20
58.6538038737
 30
0.0
 10
25.5661219431
 20
57.8981488316
 30
0.0
 10
25.7819139421
 20
56.7499390994
 30
0.0
 10
25.9179845952
 20
55.5893887043
 30
0.0
 10
25.9491098347
 20
54.8107293529
 30
0.0
 10
25.9491098347
 20
54.4215686274
 30
0.0
  0
SPLINE
  5
289
100
AcDbEntity
  8
0
100
AcDbSpline
 62
7
  6
BYLAYER
 70
0
 71
3
 72
11
 73
7
 74
0
 42
0.0000001
 43
0.0000001
 44
0.0000000001
 40
0.0
 40
0.0
 40
0.0
 40
0.0
 40
0.2418535359
 40
0.4875642883
 40
0.739874916
 40
1.0
 40
1.0
 40
1.0
 40
1.0
 10
25.9491069172
 20
61.7827845975
 30
0.0
 10
25.9491094278
 20
61.5964361096
 30
0.0
 10
25.9201435129
 20
61.2201970253
 30
0.0
 10
25.7940637506
 20
60.6625125765
 30
0.0
 10
25.5944442978
 20
60.1122029929
 30
0.0
 10
25.4226727557
 20
59.7560250213
 30
0.0
 10
25.3286021717
 20
59.5790459156
 30
0.0
  0
SPLINE
  5
28A
100
AcDbEntity
  8
0
100
AcDbSpline
 62
7
  6
BYLAYER
 70
0
 71
3
 72
11
 73
7
 74
0
 42
0.0000001
 43
0.0000001
 44
0.0000000001
 40
0.0
 40
0.0
 40
0.0
 40
0.0
 40
0.2601203797
 40
0.5124283479
 40
0.7581434355
 40
1.0
 40
1.0
 40
1.0
 40
1.0
 10
22.5696174887
 20
44.8566140512
 30
0.0
 10
22.4755485539
 20
45.0335900543
 30
0.0
 10
22.3037615546
 20
45.389755368
 30
0.0
 10
22.1041694856
 20
45.9400724288
 30
0.0
 10
21.9780663997
 20
46.4977552472
 30
0.0
 10
21.9491107474
 20
46.8740017995
 30
0.0
 10
21.9491127523
 20
47.0603527241
 30
0.0
  0
SPLINE
  5
28B
100
AcDbEntity
  8
0
100
AcDbSpline
 62
7
  6
BYLAYER
 70
0
 71
3
 72
9
 73
5
 74
0
 42
0.0000001
 43
0.0000001
 44
0.0000000001
 40
0.0
 40
0.0
 40
0.0
 40
0.0
 40
0.2567075076
 40
1.0
 40
1.0
 40
1.0
 40
1.0
 10
22.6000410047
 20
64.0490232629
 30
0.0
 10
22.597066836
 20
64.0438688309
 30
0.0
 10
22.5858239237
 20
64.0235956572
 30
0.0
 10
22.575959392
 20
64.0025444474
 30
0.0
 10
22.5696172026
 20
63.9865232037
 30
0.0
  0
SPLINE
  5
28C
100
AcDbEntity
  8
0
100
AcDbSpline
 62
7
  6
BYLAYER
 70
0
 71
3
 72
9
 73
5
 74
0
 42
0.0000001
 43
0.0000001
 44
0.0000000001
 40
0.0
 40
0.0
 40
0.0
 40
0.0
 40
0.2437474309
 40
1.0
 40
1.0
 40
1.0
 40
1.0
 10
22.5696171985
 20
44.8566140512
 30
0.0
 10
22.571697035
 20
44.8513600978
 30
0.0
 10
22.5806681066
 20
44.8299799233
 30
0.0
 10
22.5912789965
 20
44.8092991317
 30
0.0
 10
22.6000410039
 20
44.794113992
 30
0.0
  0
SPLINE
  5
28D
100
AcDbEntity
  8
0
100
AcDbSpline
 62
7
  6
BYLAYER
 70
0
 71
3
 72
11
 73
7
 74
0
 42
0.0000001
 43
0.0000001
 44
0.0000000001
 40
0.0
 40
0.0
 40
0.0
 40
0.0
 40
0.2418535359
 40
0.4875642883
 40
0.739874916
 40
1.0
 40
1.0
 40
1.0
 40
1.0
 10
25.9491069172
 20
47.0603527332
 30
0.0
 10
25.9491094278
 20
46.8740042452
 30
0.0
 10
25.9201435129
 20
46.497765161
 30
0.0
 10
25.7940637506
 20
45.9400807122
 30
0.0
 10
25.5944442978
 20
45.3897711286
 30
0.0
 10
25.4226727557
 20
45.0335931569
 30
0.0
 10
25.3286021717
 20
44.8566140512
 30
0.0
  0
SPLINE
  5
28E
100
AcDbEntity
  8
0
100
AcDbSpline
 62
7
  6
BYLAYER
 70
0
 71
3
 72
9
 73
5
 74
0
 42
0.0000001
 43
0.0000001
 44
0.0000000001
 40
0.0
 40
0.0
 40
0.0
 40
0.0
 40
0.243747433
 40
1.0
 40
1.0
 40
1.0
 40
1.0
 10
25.3286024669
 20
63.9865232037
 30
0.0
 10
25.3265226304
 20
63.9917771571
 30
0.0
 10
25.3175515599
 20
64.0131573315
 30
0.0
 10
25.3069406713
 20
64.0338381231
 30
0.0
 10
25.2981786648
 20
64.0490232629
 30
0.0
  0
SPLINE
  5
28F
100
AcDbEntity
  8
0
100
AcDbSpline
 62
7
  6
BYLAYER
 70
0
 71
3
 72
11
 73
7
 74
0
 42
0.0000001
 43
0.0000001
 44
0.0000000001
 40
0.0
 40
0.0
 40
0.0
 40
0.0
 40
0.2601203779
 40
0.5124283474
 40
0.7581434361
 40
1.0
 40
1.0
 40
1.0
 40
1.0
 10
25.3286021779
 20
49.2640913393
 30
0.0
 10
25.4226711095
 20
49.0871153424
 30
0.0
 10
25.5944580892
 20
48.7309500319
 30
0.0
 10
25.7940501709
 20
48.1806329949
 30
0.0
 10
25.9201532881
 20
47.6229501962
 30
0.0
 10
25.9491089187
 20
47.2467036522
 30
0.0
 10
25.9491069172
 20
47.0603527332
 30
0.0
  0
SPLINE
  5
290
100
AcDbEntity
  8
0
100
AcDbSpline
 62
7
  6
BYLAYER
 70
0
 71
3
 72
11
 73
7
 74
0
 42
0.0000001
 43
0.0000001
 44
0.0000000001
 40
0.0
 40
0.0
 40
0.0
 40
0.0
 40
0.2418535353
 40
0.4875642888
 40
0.7398749179
 40
1.0
 40
1.0
 40
1.0
 40
1.0
 10
21.9491127523
 20
61.7827845884
 30
0.0
 10
21.949110245
 20
61.9691330707
 30
0.0
 10
21.978076137
 20
62.3453721467
 30
0.0
 10
22.1041559318
 20
62.9030565759
 30
0.0
 10
22.3037753986
 20
63.4533661351
 30
0.0
 10
22.4755469197
 20
63.8095441042
 30
0.0
 10
22.5696175005
 20
63.9865232037
 30
0.0
  0
SPLINE
  5
291
100
AcDbEntity
  8
0
100
AcDbSpline
 62
7
  6
BYLAYER
 70
0
 71
3
 72
11
 73
7
 74
0
 42
0.0000001
 43
0.0000001
 44
0.0000000001
 40
0.0
 40
0.0
 40
0.0
 40
0.0
 40
0.2601203797
 40
0.5124283479
 40
0.7581434355
 40
1.0
 40
1.0
 40
1.0
 40
1.0
 10
22.5696174887
 20
59.5790459156
 30
0.0
 10
22.4755485539
 20
59.7560219186
 30
0.0
 10
22.3037615546
 20
60.1121872323
 30
0.0
 10
22.1041694856
 20
60.6625042932
 30
0.0
 10
21.9780663997
 20
61.2201871115
 30
0.0
 10
21.9491107474
 20
61.5964336638
 30
0.0
 10
21.9491127523
 20
61.7827845884
 30
0.0
  0
SPLINE
  5
292
100
AcDbEntity
  8
0
100
AcDbSpline
 62
7
  6
BYLAYER
 70
0
 71
3
 72
11
 73
7
 74
0
 42
0.0000001
 43
0.0000001
 44
0.0000000001
 40
0.0
 40
0.0
 40
0.0
 40
0.0
 40
0.2499931512
 40
0.4999885034
 40
0.7499908384
 40
1.0
 40
1.0
 40
1.0
 40
1.0
 10
21.9491098347
 20
54.4215686274
 30
0.0
 10
21.9491098347
 20
54.8107294132
 30
0.0
 10
21.9802350604
 20
55.5893888309
 30
0.0
 10
22.1163057528
 20
56.7499392648
 30
0.0
 10
22.3320977834
 20
57.8981489281
 30
0.0
 10
22.5204701826
 20
58.6538039139
 30
0.0
 10
22.6237124036
 20
59.0290459156
 30
0.0
  0
SPLINE
  5
293
100
AcDbEntity
  8
0
100
AcDbSpline
 62
7
  6
BYLAYER
 70
0
 71
3
 72
11
 73
7
 74
0
 42
0.0000001
 43
0.0000001
 44
0.0000000001
 40
0.0
 40
0.0
 40
0.0
 40
0.0
 40
0.2500091884
 40
0.5000115385
 40
0.7500068875
 40
1.0
 40
1.0
 40
1.0
 40
1.0
 10
22.6237124036
 20
49.8140913393
 30
0.0
 10
22.5204701715
 20
50.1893333812
 30
0.0
 10
22.3320977264
 20
50.9449884233
 30
0.0
 10
22.1163057273
 20
52.0931981555
 30
0.0
 10
21.9802350743
 20
53.2537485505
 30
0.0
 10
21.9491098347
 20
54.032407902
 30
0.0
 10
21.9491098347
 20
54.4215686274
 30
0.0
  0
SPLINE
  5
294
100
AcDbEntity
  8
0
100
AcDbSpline
 62
7
  6
BYLAYER
 70
0
 71
3
 72
11
 73
7
 74
0
 42
0.0000001
 43
0.0000001
 44
0.0000000001
 40
0.0
 40
0.0
 40
0.0
 40
0.0
 40
0.2418535353
 40
0.4875642888
 40
0.7398749179
 40
1.0
 40
1.0
 40
1.0
 40
1.0
 10
21.9491127523
 20
47.0603527241
 30
0.0
 10
21.949110245
 20
47.2467012064
 30
0.0
 10
21.978076137
 20
47.6229402824
 30
0.0
 10
22.1041559318
 20
48.1806247116
 30
0.0
 10
22.3037753986
 20
48.7309342708
 30
0.0
 10
22.4755469197
 20
49.0871122399
 30
0.0
 10
22.5696175005
 20
49.2640913393
 30
0.0
  0
SPLINE
  5
295
100
AcDbEntity
  8
0
100
AcDbSpline
 62
7
  6
BYLAYER
 70
0
 71
3
 72
11
 73
7
 74
0
 42
0.0000001
 43
0.0000001
 44
0.0000000001
 40
0.0
 40
0.0
 40
0.0
 40
0.0
 40
0.2499931512
 40
0.4999885034
 40
0.7499908384
 40
1.0
 40
1.0
 40
1.0
 40
1.0
 10
25.9491098347
 20
54.4215686274
 30
0.0
 10
25.9491098347
 20
54.0324078417
 30
0.0
 10
25.9179846091
 20
53.253748424
 30
0.0
 10
25.7819139166
 20
52.0931979901
 30
0.0
 10
25.5661218861
 20
50.9449883268
 30
0.0
 10
25.3777494869
 20
50.189333341
 30
0.0
 10
25.2745072658
 20
49.8140913393
 30
0.0
  0
ENDSEC
  0
SECTION
  2
OBJECTS
  0
DICTIONARY
  5
C
100
AcDbDictionary
280
0
281
1
  3
ACAD_GROUP
350
D
  3
ACAD_MLINESTYLE
350
17
  3
ACAD_LAYOUT
350
1A
  3
ACAD_PLOTSETTINGS
350
19
  3
ACAD_PLOTSTYLENAME
350
E
  0
DICTIONARY
  5
D
102
{ACAD_REACTORS
330
C
102
}
100
AcDbDictionary
280
0
281
1
  0
ACDBDICTIONARYWDFLT
  5
E
102
{ACAD_REACTORS
330
C
102
}
100
AcDbDictionary
281
1
  3
Normal
350
F
100
AcDbDictionaryWithDefault
340
F
  0
DICTIONARY
  5
17
102
{ACAD_REACTORS
330
C
102
}
100
AcDbDictionary
280
0
281
1
  3
Standard
350
18
  0
DICTIONARY
  5
19
102
{ACAD_REACTORS
330
C
102
}
100
AcDbDictionary
281
1
  0
DICTIONARY
  5
1A
102
{ACAD_REACTORS
330
C
102
}
100
AcDbDictionary
281
1
  3
Model
350
296
  3
Layout1
350
297
  0
ACDBPLACEHOLDER
  5
F
102
{ACAD_REACTORS
330
E
102
}
  0
MLINESTYLE
  5
18
102
{ACAD_REACTORS
330
17
102
}
100
AcDbMlineStyle
  2
STANDARD
 70
0
  3

 62
256
 51
90.0
 52
90.0
 71
2
 49
0.5
 62
256
  6
BYLAYER
 49
-0.5
 62
256
  6
BYLAYER
  0
LAYOUT
  5
296
102
{ACAD_REACTORS
330
1A
102
}
100
AcDbPlotSettings
  1

  2
none_device
  4

  6

 40
0.0
 41
0.0
 42
0.0
 43
0.0
 44
210.0
 45
297.0
 46
0.0
 47
0.0
 48
0.0
 49
0.0
140
0.0
141
0.0
142
1.0
143
1.0
 70
1024
 72
1
 73
0
 74
0
  7

 75
0
147
1.0
148
0.0
149
0.0
100
AcDbLayout
  1
Model
 70
0
 71
0
 10
0.0
 20
0.0
 11
210.0
 21
297.0
 12
0.0
 22
0.0
 32
0.0
 14
0.0
 24
0.0
 34
0.0
 15
0.0
 25
0.0
 35
0.0
146
0.0
 13
0.0
 23
0.0
 33
0.0
 16
1.0
 26
0.0
 36
0.0
 17
0.0
 27
1.0
 37
0.0
 76
0
330
210
345
0
346
0
  0
LAYOUT
  5
297
102
{ACAD_REACTORS
330
1A
102
}
100
AcDbPlotSettings
  1

  2
none_device
  4

  6

 40
0.0
 41
0.0
 42
0.0
 43
0.0
 44
210.0
 45
297.0
 46
0.0
 47
0.0
 48
0.0
 49
0.0
140
0.0
141
0.0
142
1.0
143
1.0
 70
0
 72
1
 73
0
 74
0
  7

 75
0
147
1.0
148
0.0
149
0.0
100
AcDbLayout
  1
Layout1
 70
0
 71
1
 10
0.0
 20
0.0
 11
210.0
 21
297.0
 12
0.0
 22
0.0
 32
0.0
 14
0.0
 24
0.0
 34
0.0
 15
0.0
 25
0.0
 35
0.0
146
0.0
 13
0.0
 23
0.0
 33
0.0
 16
1.0
 26
0.0
 36
0.0
 17
0.0
 27
1.0
 37
0.0
 76
0
330
211
345
0
346
0
  0
ENDSEC
  0
EOF
