999
DXF file: C:\Users\sesa63760\Dev\_Creo\CAD\MCADID0002381_3D-CAD\drw0001_3.dxf
999
Pro/ENGINEER 2019471 by Parametric Technology Corporation
  0
SECTION
  2
HEADER
  9
$ACADVER
  1
AC1024
  9
$DWGCODEPAGE
  3
ANSI_1252
  9
$EXTMAX
 10
38.8324396809
 20
54.9201646915
 30
0.0
  9
$EXTMIN
 10
0.0
 20
0.0
 30
0.0
  9
$LIMMIN
 10
0.0
 20
0.0
  9
$LIMMAX
 10
38.8324396809
 20
54.9201646915
  9
$VIEWCTR
 10
19.4162198404
 20
27.4600823457
  9
$VIEWSIZE
 40
54.9201646915
  9
$CLAYER
  8
0
  9
$LTSCALE
 40
3.5799811058
  9
$CELTYPE
  6
BYLAYER
  9
$DIMSCALE
 40
1.0
  9
$DIMASZ
 40
0.4622909486
  9
$DIMEXO
 40
1.0
  9
$DIMDLI
 40
2.4734414913
  9
$DIMEXE
 40
1.0
  9
$DIMCEN
 40
0.58581509
  9
$DIMLFAC
 40
1.0
  9
$DIMBLK
  1
_FILLED
  9
$DIMALT
 70
0
  9
$DIMALTF
 40
0.0393700787
  9
$DIMTXT
 40
0.647207328
  9
$DIMTOL
 70
1
  9
$DIMLIM
 70
0
  9
$DIMTFAC
 40
1.0
  9
$DIMTP
 40
0.01
  9
$DIMTM
 40
0.01
  9
$DIMGAP
 40
0.625
  9
$DIMDSEP
 70
46
  9
$AUNITS
 70
0
  9
$PDMODE
 70
3
  9
$PDSIZE
 40
0.3125
  9
$HANDSEED
  5
302
  9
$TILEMODE
 70
1
  9
$MEASUREMENT
 70
1
  9
$INSUNITS
 70
4
  0
ENDSEC
  0
SECTION
  2
CLASSES
  0
CLASS
  1
ACDBDICTIONARYWDFLT
  2
AcDbDictionaryWithDefault
  3
AutoCAD 2000
 90
0
 91
1
280
0
281
0
  0
CLASS
  1
ACDBPLACEHOLDER
  2
AcDbPlaceHolder
  3
AutoCAD 2000
 90
0
 91
1
280
0
281
0
  0
CLASS
  1
LAYOUT
  2
AcDbLayout
  3
AutoCAD 2000
 90
0
 91
0
280
0
281
0
  0
ENDSEC
  0
SECTION
  2
TABLES
  0
TABLE
  2
VPORT
  5
8
100
AcDbSymbolTable
 70
2
  0
VPORT
  5
1F4
100
AcDbSymbolTableRecord
100
AcDbViewportTableRecord
  2
*ACTIVE
 70
0
 10
0.0
 20
0.0
 11
1.0
 21
1.0
 12
19.4162198404
 22
27.4600823457
 13
0.0
 23
0.0
 14
1.0
 24
1.0
 15
0.0
 25
0.0
 16
0.0
 26
0.0
 36
1.0
 17
0.0
 27
0.0
 37
0.0
 40
54.9201646915
 41
0.7070707071
 42
50.0
 43
0.0
 44
0.0
 50
0.0
 51
0.0
 71
0
 72
100
 73
1
 74
1
 75
0
 76
0
 77
0
 78
0
  0
ENDTAB
  0
TABLE
  2
LTYPE
  5
5
100
AcDbSymbolTable
 70
6
  0
LTYPE
  5
14
100
AcDbSymbolTableRecord
100
AcDbLinetypeTableRecord
  2
BYBLOCK
 70
0
  3

 72
65
 73
0
 40
0.0
  0
LTYPE
  5
15
100
AcDbSymbolTableRecord
100
AcDbLinetypeTableRecord
  2
BYLAYER
 70
0
  3

 72
65
 73
0
 40
0.0
  0
LTYPE
  5
16
100
AcDbSymbolTableRecord
100
AcDbLinetypeTableRecord
  2
CONTINUOUS
 70
64
  3
Solid line
 72
65
 73
0
 40
0.0
  0
LTYPE
  5
1F5
100
AcDbSymbolTableRecord
100
AcDbLinetypeTableRecord
  2
CENTER
 70
64
  3
____ _ ____ _ ____ _ ____ _ ____ _ ____ _ ____
 72
65
 73
4
 40
0.6
 49
0.375
 74
0
 49
-0.075
 74
0
 49
0.075
 74
0
 49
-0.075
 74
0
  0
LTYPE
  5
1F6
100
AcDbSymbolTableRecord
100
AcDbLinetypeTableRecord
  2
HIDDEN
 70
64
  3
- - - - - - - - - - - - - - - - - - - -
 72
65
 73
2
 40
0.2
 49
0.1
 74
0
 49
-0.1
 74
0
  0
LTYPE
  5
1F7
100
AcDbSymbolTableRecord
100
AcDbLinetypeTableRecord
  2
PHANTOM
 70
64
  3
_____ _ _ _____ _ _ _____ _ _ _____
 72
65
 73
6
 40
0.8
 49
0.45
 74
0
 49
-0.05
 74
0
 49
0.1
 74
0
 49
-0.05
 74
0
 49
0.1
 74
0
 49
-0.05
 74
0
  0
LTYPE
  5
1F8
100
AcDbSymbolTableRecord
100
AcDbLinetypeTableRecord
  2
DOT
 70
64
  3
. . . . . . . . . . . . . . . . . . . .
 72
65
 73
2
 40
0.2
 49
0.1
 74
0
 49
-0.1
 74
0
  0
LTYPE
  5
1F9
100
AcDbSymbolTableRecord
100
AcDbLinetypeTableRecord
  2
DASHED
 70
64
  3
- - - - - - - - - - - - - - - - - - - -
 72
65
 73
2
 40
0.2
 49
0.1
 74
0
 49
-0.1
 74
0
  0
ENDTAB
  0
TABLE
  2
LAYER
  5
2
100
AcDbSymbolTable
 70
36
  0
LAYER
  5
10
100
AcDbSymbolTableRecord
100
AcDbLayerTableRecord
  2
0
 70
0
 62
7
  6
CONTINUOUS
370
-3
390
F
  0
LAYER
  5
1FA
100
AcDbSymbolTableRecord
100
AcDbLayerTableRecord
  2
DEFAULT_1
 70
0
 62
7
  6
CENTER
370
-3
390
F
  0
LAYER
  5
1FB
100
AcDbSymbolTableRecord
100
AcDbLayerTableRecord
  2
DEFAULT_2
 70
0
 62
8
  6
HIDDEN
370
-3
390
F
  0
LAYER
  5
1FC
100
AcDbSymbolTableRecord
100
AcDbLayerTableRecord
  2
DEFAULT_3
 70
0
 62
7
  6
PHANTOM
370
-3
390
F
  0
LAYER
  5
1FD
100
AcDbSymbolTableRecord
100
AcDbLayerTableRecord
  2
00_COMPONENTS
 70
0
 62
7
  6
CONTINUOUS
370
-3
390
F
  0
LAYER
  5
1FE
100
AcDbSymbolTableRecord
100
AcDbLayerTableRecord
  2
01_1_DEFAULT_DATUMS
 70
0
 62
7
  6
CONTINUOUS
370
-3
390
F
  0
LAYER
  5
1FF
100
AcDbSymbolTableRecord
100
AcDbLayerTableRecord
  2
01_PLANES
 70
0
 62
7
  6
CONTINUOUS
370
-3
390
F
  0
LAYER
  5
200
100
AcDbSymbolTableRecord
100
AcDbLayerTableRecord
  2
02_COORD_SYS
 70
0
 62
7
  6
CONTINUOUS
370
-3
390
F
  0
LAYER
  5
201
100
AcDbSymbolTableRecord
100
AcDbLayerTableRecord
  2
03_AXES
 70
0
 62
7
  6
CONTINUOUS
370
-3
390
F
  0
LAYER
  5
202
100
AcDbSymbolTableRecord
100
AcDbLayerTableRecord
  2
04_POINTS
 70
0
 62
7
  6
CONTINUOUS
370
-3
390
F
  0
LAYER
  5
203
100
AcDbSymbolTableRecord
100
AcDbLayerTableRecord
  2
05_CURVES
 70
0
 62
7
  6
CONTINUOUS
370
-3
390
F
  0
LAYER
  5
204
100
AcDbSymbolTableRecord
100
AcDbLayerTableRecord
  2
06_SURFS
 70
0
 62
7
  6
CONTINUOUS
370
-3
390
F
  0
LAYER
  5
205
100
AcDbSymbolTableRecord
100
AcDbLayerTableRecord
  2
07_COSMETICS
 70
0
 62
7
  6
CONTINUOUS
370
-3
390
F
  0
LAYER
  5
206
100
AcDbSymbolTableRecord
100
AcDbLayerTableRecord
  2
10_NOTES
 70
0
 62
7
  6
CONTINUOUS
370
-3
390
F
  0
LAYER
  5
207
100
AcDbSymbolTableRecord
100
AcDbLayerTableRecord
  2
11_NOTES_PUB
 70
0
 62
7
  6
CONTINUOUS
370
-3
390
F
  0
LAYER
  5
208
100
AcDbSymbolTableRecord
100
AcDbLayerTableRecord
  2
13_REF_GTOL
 70
0
 62
7
  6
CONTINUOUS
370
-3
390
F
  0
LAYER
  5
209
100
AcDbSymbolTableRecord
100
AcDbLayerTableRecord
  2
16_MISC
 70
0
 62
7
  6
CONTINUOUS
370
-3
390
F
  0
LAYER
  5
20A
100
AcDbSymbolTableRecord
100
AcDbLayerTableRecord
  2
17_NO_PRINT
 70
0
 62
7
  6
CONTINUOUS
370
-3
390
F
  0
LAYER
  5
20B
100
AcDbSymbolTableRecord
100
AcDbLayerTableRecord
  2
18_DATUM_CAMS_JOINTS
 70
0
 62
7
  6
CONTINUOUS
370
-3
390
F
  0
LAYER
  5
20C
100
AcDbSymbolTableRecord
100
AcDbLayerTableRecord
  2
19_DATUM_FUNCTIONAL
 70
0
 62
7
  6
CONTINUOUS
370
-3
390
F
  0
LAYER
  5
20D
100
AcDbSymbolTableRecord
100
AcDbLayerTableRecord
  2
20_DATUM_KINEMATIC_SCHEME
 70
0
 62
7
  6
CONTINUOUS
370
-3
390
F
  0
ENDTAB
  0
TABLE
  2
STYLE
  5
3
100
AcDbSymbolTable
 70
1
  0
STYLE
  5
11
100
AcDbSymbolTableRecord
100
AcDbTextStyleTableRecord
  2
STANDARD
 70
0
 40
0.0
 41
0.8
 50
0.0
 71
0
 42
0.2
  3
txt
  4

  0
STYLE
  5
20E
100
AcDbSymbolTableRecord
100
AcDbTextStyleTableRecord
  2
TEXTSTYLE_1
 70
0
 40
0.0
 41
0.8
 50
0.0
 71
0
 42
0.2
  3
gdt
  4

  0
ENDTAB
  0
TABLE
  2
VIEW
  5
6
100
AcDbSymbolTable
 70
0
  0
ENDTAB
  0
TABLE
  2
UCS
  5
7
100
AcDbSymbolTable
 70
0
  0
ENDTAB
  0
TABLE
  2
APPID
  5
9
100
AcDbSymbolTable
 70
1
  0
APPID
  5
20F
100
AcDbSymbolTableRecord
100
AcDbRegAppTableRecord
  2
ACAD
 70
0
  0
ENDTAB
  0
TABLE
  2
BLOCK_RECORD
  5
1
100
AcDbSymbolTable
 70
0
  0
BLOCK_RECORD
  5
210
100
AcDbSymbolTableRecord
100
AcDbBlockTableRecord
  2
*Model_Space
  0
BLOCK_RECORD
  5
211
100
AcDbSymbolTableRecord
100
AcDbBlockTableRecord
  2
*Paper_Space
  0
BLOCK_RECORD
  5
212
100
AcDbSymbolTableRecord
100
AcDbBlockTableRecord
  2
_FILLED
  0
ENDTAB
  0
TABLE
  2
DIMSTYLE
  5
A
100
AcDbSymbolTable
 70
1
100
AcDbDimStyleTable
 71
0
  0
DIMSTYLE
105
213
100
AcDbSymbolTableRecord
100
AcDbDimStyleTableRecord
  2
STANDARD
 70
0
  3

  4

 40
1.0
 41
0.4622909486
 42
1.0
 43
0.38
 44
1.0
 45
0.0
 46
0.0
 47
0.01
 48
0.01
140
0.647207328
141
0.09
142
0.0
143
25.4
144
1.0
145
0.0
146
1.0
147
0.625
 71
1
 72
0
 73
0
 74
0
 75
0
 76
0
 77
1
 78
8
 79
2
170
0
171
1
172
0
173
0
174
0
175
0
176
0
177
0
178
0
270
2
179
2
271
2
272
2
273
2
274
2
275
0
280
0
281
0
282
0
283
1
284
8
285
0
286
0
287
3
288
0
340
11
278
46
341
212
342
212
343
212
344
212
  0
ENDTAB
  0
ENDSEC
  0
SECTION
  2
BLOCKS
  0
BLOCK
  5
20
100
AcDbEntity
  8
0
100
AcDbBlockBegin
  2
*Model_Space
 70
0
 10
0.0
 20
0.0
 30
0.0
  3
*Model_Space
  1

  0
ENDBLK
  5
21
100
AcDbEntity
  8
0
100
AcDbBlockEnd
  0
BLOCK
  5
1C
100
AcDbEntity
  8
0
100
AcDbBlockBegin
  2
*Paper_Space
 70
0
 10
0.0
 20
0.0
 30
0.0
  3
*Paper_Space
  1

  0
ENDBLK
  5
1D
100
AcDbEntity
  8
0
100
AcDbBlockEnd
  0
BLOCK
  5
214
100
AcDbEntity
  8
0
100
AcDbBlockBegin
  2
_FILLED
 70
64
 10
0.0
 20
0.0
  3
_FILLED
  1

  0
SOLID
  5
215
100
AcDbEntity
  8
0
  6
BYBLOCK
 62
0
100
AcDbTrace
 10
0.0
 20
0.0
 11
-1.0
 21
0.25
 12
-1.0
 22
-0.25
 13
-1.0
 23
-0.25
  0
ENDBLK
  5
216
100
AcDbEntity
  8
0
  6
BYBLOCK
 62
0
100
AcDbBlockEnd
  0
ENDSEC
  0
SECTION
  2
ENTITIES
  0
LINE
  5
217
100
AcDbEntity
  8
0
100
AcDbLine
 62
7
  6
CONTINUOUS
 10
27.9920514586
 20
4.4030242195
 11
25.6925810387
 21
4.4030242195
  0
LINE
  5
218
100
AcDbEntity
  8
0
100
AcDbLine
 62
7
  6
CONTINUOUS
 10
14.2154056366
 20
4.4030242195
 11
11.9159361232
 21
4.4030242195
  0
LINE
  5
219
100
AcDbEntity
  8
0
100
AcDbLine
 62
7
  6
CONTINUOUS
 10
10.8677196492
 20
5.6030242195
 11
15.6539937909
 21
5.6030242195
  0
LINE
  5
21A
100
AcDbEntity
  8
0
100
AcDbLine
 62
7
  6
CONTINUOUS
 10
24.2539937909
 20
5.6030242195
 11
29.035160478
 21
5.6030242195
  0
LINE
  5
21B
100
AcDbEntity
  8
0
100
AcDbLine
 62
7
  6
CONTINUOUS
 10
24.2539937909
 20
5.9030242195
 11
15.6539937909
 21
5.9030242195
  0
LINE
  5
21C
100
AcDbEntity
  8
0
100
AcDbLine
 62
7
  6
CONTINUOUS
 10
23.4539940648
 20
8.8040242195
 11
16.4539940648
 21
8.8040242195
  0
LINE
  5
21D
100
AcDbEntity
  8
0
100
AcDbLine
 62
7
  6
CONTINUOUS
 10
9.6275101436
 20
9.0030242195
 11
11.2539937909
 21
9.0030242195
  0
LINE
  5
21E
100
AcDbEntity
  8
0
100
AcDbLine
 62
7
  6
CONTINUOUS
 10
28.6539937909
 20
9.0030242195
 11
30.2805005197
 21
9.0030242195
  0
LINE
  5
21F
100
AcDbEntity
  8
0
100
AcDbLine
 62
7
  6
CONTINUOUS
 10
33.3006699407
 20
48.9670803551
 11
33.2960955015
 21
48.9657120919
  0
LINE
  5
220
100
AcDbEntity
  8
0
100
AcDbLine
 62
7
  6
CONTINUOUS
 10
6.0420918177
 20
48.4634739096
 11
5.7039937834
 21
35.5520237918
  0
LINE
  5
221
100
AcDbEntity
  8
0
100
AcDbLine
 62
7
  6
CONTINUOUS
 10
30.4782511956
 20
11.6920242195
 11
28.6539937909
 21
11.6920242195
  0
LINE
  5
222
100
AcDbEntity
  8
0
100
AcDbLine
 62
7
  6
CONTINUOUS
 10
11.2539937909
 20
11.6920242195
 11
9.4297363862
 21
11.6920242195
  0
LINE
  5
223
100
AcDbEntity
  8
0
100
AcDbLine
 62
7
  6
CONTINUOUS
 10
11.9533687734
 20
11.6920242195
 11
27.9546188084
 21
11.6920242195
  0
LINE
  5
224
100
AcDbEntity
  8
0
100
AcDbLine
 62
7
  6
CONTINUOUS
 10
5.7039937872
 20
25.7020242195
 11
5.7039937872
 21
34.3881000415
  0
LINE
  5
225
100
AcDbEntity
  8
0
100
AcDbLine
 62
7
  6
CONTINUOUS
 10
5.8039936136
 20
35.5520237918
 11
5.8039936136
 21
34.7520242195
  0
LINE
  5
226
100
AcDbEntity
  8
0
100
AcDbLine
 62
7
  6
CONTINUOUS
 10
7.3539937909
 20
24.5020242195
 11
7.3539937909
 21
23.2520242195
  0
LINE
  5
227
100
AcDbEntity
  8
0
100
AcDbLine
 62
7
  6
CONTINUOUS
 10
9.0789937909
 20
20.5530242195
 11
9.0789937909
 21
23.2520242195
  0
LINE
  5
228
100
AcDbEntity
  8
0
100
AcDbLine
 62
7
  6
CONTINUOUS
 10
9.982533266
 20
21.2306604048
 11
9.5335476844
 21
22.2683215293
  0
LINE
  5
229
100
AcDbEntity
  8
0
100
AcDbLine
 62
7
  6
CONTINUOUS
 10
9.4969113797
 20
22.456851447
 11
9.5335476844
 21
22.2683215293
  0
LINE
  5
22A
100
AcDbEntity
  8
0
100
AcDbLine
 62
7
  6
CONTINUOUS
 10
9.4970213617
 20
22.4673737435
 11
9.496893446
 21
23.2520242195
  0
LINE
  5
22B
100
AcDbEntity
  8
0
100
AcDbLine
 62
7
  6
CONTINUOUS
 10
9.4297363862
 20
19.8920242195
 11
9.4297363862
 21
11.6920242195
  0
LINE
  5
22C
100
AcDbEntity
  8
0
100
AcDbLine
 62
7
  6
CONTINUOUS
 10
9.4539937909
 20
19.8920242195
 11
9.4539937909
 21
20.3030242195
  0
LINE
  5
22D
100
AcDbEntity
  8
0
100
AcDbLine
 62
7
  6
CONTINUOUS
 10
9.6275101436
 20
8.1029991646
 11
9.6275101436
 21
9.0030242195
  0
LINE
  5
22E
100
AcDbEntity
  8
0
100
AcDbLine
 62
7
  6
CONTINUOUS
 10
9.6595833504
 20
9.0030242195
 11
9.6595833504
 21
7.9268000627
  0
LINE
  5
22F
100
AcDbEntity
  8
0
100
AcDbLine
 62
7
  6
CONTINUOUS
 10
9.4970213617
 20
22.4673737435
 11
9.4969113797
 21
22.456851447
  0
LINE
  5
230
100
AcDbEntity
  8
0
100
AcDbLine
 62
7
  6
CONTINUOUS
 10
6.9260887107
 20
34.7520242195
 11
5.7039937909
 21
34.3881000427
  0
LINE
  5
231
100
AcDbEntity
  8
0
100
AcDbLine
 62
7
  6
CONTINUOUS
 10
11.1852793789
 20
19.8920242195
 11
11.1852793789
 21
11.6920242195
  0
LINE
  5
232
100
AcDbEntity
  8
0
100
AcDbLine
 62
7
  6
CONTINUOUS
 10
11.1857300825
 20
9.0030242195
 11
11.1857300825
 21
5.6030242195
  0
LINE
  5
233
100
AcDbEntity
  8
0
100
AcDbLine
 62
7
  6
CONTINUOUS
 10
11.2539937909
 20
11.6920242195
 11
11.2539937909
 21
9.0030242195
  0
LINE
  5
234
100
AcDbEntity
  8
0
100
AcDbLine
 62
7
  6
CONTINUOUS
 10
11.5041417212
 20
5.6030242195
 11
11.5041417212
 21
19.8920242195
  0
LINE
  5
235
100
AcDbEntity
  8
0
100
AcDbLine
 62
7
  6
CONTINUOUS
 10
11.8157884328
 20
22.4673737435
 11
11.8158242997
 21
23.2520242195
  0
LINE
  5
236
100
AcDbEntity
  8
0
100
AcDbLine
 62
7
  6
CONTINUOUS
 10
11.9533688153
 20
19.8920242195
 11
11.9533688153
 21
11.6920242195
  0
LINE
  5
237
100
AcDbEntity
  8
0
100
AcDbLine
 62
7
  6
CONTINUOUS
 10
9.4297363862
 20
19.8920242195
 11
11.9533687734
 21
19.8920242195
  0
LINE
  5
238
100
AcDbEntity
  8
0
100
AcDbLine
 62
7
  6
CONTINUOUS
 10
27.9546188084
 20
19.8920242195
 11
30.4782511956
 21
19.8920242195
  0
LINE
  5
239
100
AcDbEntity
  8
0
100
AcDbLine
 62
7
  6
CONTINUOUS
 10
22.6798697969
 20
20.2920242195
 11
17.2281177849
 21
20.2920242195
  0
LINE
  5
23A
100
AcDbEntity
  8
0
100
AcDbLine
 62
7
  6
CONTINUOUS
 10
30.5789937909
 20
20.3030242195
 11
9.3289937909
 21
20.3030242195
  0
LINE
  5
23B
100
AcDbEntity
  8
0
100
AcDbLine
 62
7
  6
CONTINUOUS
 10
30.8289937909
 20
20.5530242195
 11
9.0789937909
 21
20.5530242195
  0
LINE
  5
23C
100
AcDbEntity
  8
0
100
AcDbLine
 62
7
  6
CONTINUOUS
 10
13.9066803378
 20
11.6920242195
 11
13.9066803378
 21
5.6030242195
  0
LINE
  5
23D
100
AcDbEntity
  8
0
100
AcDbLine
 62
7
  6
CONTINUOUS
 10
14.1334405068
 20
4.4030242195
 11
14.1334405068
 21
5.6030242195
  0
LINE
  5
23E
100
AcDbEntity
  8
0
100
AcDbLine
 62
7
  6
CONTINUOUS
 10
14.1543864171
 20
5.6030242195
 11
14.1543864171
 21
4.4030242195
  0
LINE
  5
23F
100
AcDbEntity
  8
0
100
AcDbLine
 62
7
  6
CONTINUOUS
 10
14.6414955984
 20
5.9040266733
 11
14.6414955984
 21
5.6030242195
  0
LINE
  5
240
100
AcDbEntity
  8
0
100
AcDbLine
 62
7
  6
CONTINUOUS
 10
10.4529202541
 20
20.6430242199
 11
10.6212727311
 21
20.6430242199
  0
LINE
  5
241
100
AcDbEntity
  8
0
100
AcDbLine
 62
7
  6
CONTINUOUS
 10
29.2867156261
 20
20.6430242199
 11
29.4550680626
 21
20.6430242199
  0
LINE
  5
242
100
AcDbEntity
  8
0
100
AcDbLine
 62
7
  6
CONTINUOUS
 10
9.5335476844
 20
22.2683215293
 11
11.7746073226
 21
22.2683215293
  0
LINE
  5
243
100
AcDbEntity
  8
0
100
AcDbLine
 62
7
  6
CONTINUOUS
 10
28.1333802607
 20
22.2683215293
 11
30.3744398973
 21
22.2683215293
  0
LINE
  5
244
100
AcDbEntity
  8
0
100
AcDbLine
 62
7
  6
CONTINUOUS
 10
23.4539940648
 20
8.8040242195
 11
25.2664919834
 21
5.9040275496
  0
LINE
  5
245
100
AcDbEntity
  8
0
100
AcDbLine
 62
7
  6
CONTINUOUS
 10
15.6539937909
 20
5.6030242195
 11
15.6539937909
 21
5.9030242195
  0
LINE
  5
246
100
AcDbEntity
  8
0
100
AcDbLine
 62
7
  6
CONTINUOUS
 10
16.2470375086
 20
8.4728937297
 11
16.2470375086
 21
5.9030242195
  0
LINE
  5
247
100
AcDbEntity
  8
0
100
AcDbLine
 62
7
  6
CONTINUOUS
 10
30.4109662201
 20
22.4673737435
 11
28.0922350253
 21
22.4673737435
  0
LINE
  5
248
100
AcDbEntity
  8
0
100
AcDbLine
 62
7
  6
CONTINUOUS
 10
11.8157525565
 20
22.4673737435
 11
9.4970213617
 21
22.4673737435
  0
LINE
  5
249
100
AcDbEntity
  8
0
100
AcDbLine
 62
7
  6
CONTINUOUS
 10
32.5539937909
 20
23.2520242195
 11
7.3539937909
 21
23.2520242195
  0
LINE
  5
24A
100
AcDbEntity
  8
0
100
AcDbLine
 62
7
  6
CONTINUOUS
 10
9.7105332213
 20
48.9059873841
 11
9.7028058011
 21
48.9317127909
  0
LINE
  5
24B
100
AcDbEntity
  8
0
100
AcDbLine
 62
7
  6
CONTINUOUS
 10
16.7650808013
 20
8.8040242195
 11
16.7650808013
 21
5.9030242195
  0
LINE
  5
24C
100
AcDbEntity
  8
0
100
AcDbLine
 62
7
  6
CONTINUOUS
 10
16.9107319686
 20
8.8040242195
 11
16.9107319686
 21
5.9030242195
  0
LINE
  5
24D
100
AcDbEntity
  8
0
100
AcDbLine
 62
7
  6
CONTINUOUS
 10
17.2281177849
 20
11.6920242195
 11
17.2281177849
 21
20.2920242195
  0
LINE
  5
24E
100
AcDbEntity
  8
0
100
AcDbLine
 62
7
  6
CONTINUOUS
 10
34.1571087736
 20
24.5020244243
 11
5.7508788095
 21
24.5020244243
  0
LINE
  5
24F
100
AcDbEntity
  8
0
100
AcDbLine
 62
7
  6
CONTINUOUS
 10
34.2039917392
 20
25.7020242195
 11
34.1652569334
 21
25.7020242195
  0
LINE
  5
250
100
AcDbEntity
  8
0
100
AcDbLine
 62
7
  6
CONTINUOUS
 10
5.7427306484
 20
25.7020242195
 11
5.7039958426
 21
25.7020242195
  0
LINE
  5
251
100
AcDbEntity
  8
0
100
AcDbLine
 62
7
  6
CONTINUOUS
 10
19.0683106955
 20
36.6620242195
 11
19.0771404926
 21
37.1191323256
  0
LINE
  5
252
100
AcDbEntity
  8
0
100
AcDbLine
 62
7
  6
CONTINUOUS
 10
20.8308470892
 20
37.1191323256
 11
20.8396768863
 21
36.6620242195
  0
LINE
  5
253
100
AcDbEntity
  8
0
100
AcDbLine
 62
7
  6
CONTINUOUS
 10
22.6798697969
 20
20.2920242195
 11
22.6798697969
 21
11.6920242195
  0
LINE
  5
254
100
AcDbEntity
  8
0
100
AcDbLine
 62
7
  6
CONTINUOUS
 10
22.9972556132
 20
8.8040242195
 11
22.9972556132
 21
5.9030242195
  0
LINE
  5
255
100
AcDbEntity
  8
0
100
AcDbLine
 62
7
  6
CONTINUOUS
 10
23.1429067805
 20
5.9030242195
 11
23.1429067805
 21
8.8040242195
  0
LINE
  5
256
100
AcDbEntity
  8
0
100
AcDbLine
 62
7
  6
CONTINUOUS
 10
23.6609498403
 20
8.4728949786
 11
23.6609498403
 21
5.9030242195
  0
LINE
  5
257
100
AcDbEntity
  8
0
100
AcDbLine
 62
7
  6
CONTINUOUS
 10
30.2051819188
 20
48.931712919
 11
30.1974559513
 21
48.9059039412
  0
LINE
  5
258
100
AcDbEntity
  8
0
100
AcDbLine
 62
7
  6
CONTINUOUS
 10
24.2539937909
 20
5.9030242195
 11
24.2539937909
 21
5.6030242195
  0
LINE
  5
259
100
AcDbEntity
  8
0
100
AcDbLine
 62
7
  6
CONTINUOUS
 10
25.2664919834
 20
5.6030242195
 11
25.2664919834
 21
5.9040275496
  0
LINE
  5
25A
100
AcDbEntity
  8
0
100
AcDbLine
 62
7
  6
CONTINUOUS
 10
25.7536011647
 20
4.4030242195
 11
25.7536011647
 21
5.6030242195
  0
LINE
  5
25B
100
AcDbEntity
  8
0
100
AcDbLine
 62
7
  6
CONTINUOUS
 10
25.774547075
 20
5.6030242195
 11
25.774547075
 21
4.4030242195
  0
LINE
  5
25C
100
AcDbEntity
  8
0
100
AcDbLine
 62
7
  6
CONTINUOUS
 10
26.001307244
 20
5.6030242195
 11
26.001307244
 21
11.6920242195
  0
LINE
  5
25D
100
AcDbEntity
  8
0
100
AcDbLine
 62
7
  6
CONTINUOUS
 10
14.6414955984
 20
5.9040266733
 11
16.4539940648
 21
8.8040242195
  0
LINE
  5
25E
100
AcDbEntity
  8
0
100
AcDbLine
 62
7
  6
CONTINUOUS
 10
5.7039937872
 20
34.3881000427
 11
34.2039937946
 21
34.3881000427
  0
LINE
  5
25F
100
AcDbEntity
  8
0
100
AcDbLine
 62
7
  6
CONTINUOUS
 10
34.1039939682
 20
34.7520242195
 11
5.8039936136
 21
34.7520242195
  0
LINE
  5
260
100
AcDbEntity
  8
0
100
AcDbLine
 62
7
  6
CONTINUOUS
 10
27.9546188084
 20
11.6920242195
 11
27.9546188084
 21
19.8920242195
  0
LINE
  5
261
100
AcDbEntity
  8
0
100
AcDbLine
 62
7
  6
CONTINUOUS
 10
28.0921632821
 20
23.2520242195
 11
28.092199149
 21
22.4673737435
  0
LINE
  5
262
100
AcDbEntity
  8
0
100
AcDbLine
 62
7
  6
CONTINUOUS
 10
28.4038457913
 20
19.8920242195
 11
28.4038458606
 21
5.6030242195
  0
LINE
  5
263
100
AcDbEntity
  8
0
100
AcDbLine
 62
7
  6
CONTINUOUS
 10
28.6539937909
 20
9.0030242195
 11
28.6539937909
 21
11.6920242195
  0
LINE
  5
264
100
AcDbEntity
  8
0
100
AcDbLine
 62
7
  6
CONTINUOUS
 10
28.6844383454
 20
9.0030242195
 11
28.6844383454
 21
5.6030242195
  0
LINE
  5
265
100
AcDbEntity
  8
0
100
AcDbLine
 62
7
  6
CONTINUOUS
 10
28.7227082029
 20
19.8920242195
 11
28.7227082029
 21
11.6920242195
  0
LINE
  5
266
100
AcDbEntity
  8
0
100
AcDbLine
 62
7
  6
CONTINUOUS
 10
34.2039937983
 20
35.5520237918
 11
5.7039937834
 21
35.5520237918
  0
LINE
  5
267
100
AcDbEntity
  8
0
100
AcDbLine
 62
7
  6
CONTINUOUS
 10
34.1472651197
 20
36.6620242195
 11
34.021352816
 21
36.6620242195
  0
LINE
  5
268
100
AcDbEntity
  8
0
100
AcDbLine
 62
7
  6
CONTINUOUS
 10
31.3750951309
 20
36.6620242195
 11
30.6166757114
 21
36.6620242195
  0
LINE
  5
269
100
AcDbEntity
  8
0
100
AcDbLine
 62
7
  6
CONTINUOUS
 10
29.363879672
 20
36.6620242195
 11
28.4272871002
 21
36.6620242195
  0
LINE
  5
26A
100
AcDbEntity
  8
0
100
AcDbLine
 62
7
  6
CONTINUOUS
 10
22.0386120364
 20
36.6620242195
 11
20.8395696792
 21
36.6620242195
  0
LINE
  5
26B
100
AcDbEntity
  8
0
100
AcDbLine
 62
7
  6
CONTINUOUS
 10
19.0684179026
 20
36.6620242195
 11
17.8693755454
 21
36.6620242195
  0
LINE
  5
26C
100
AcDbEntity
  8
0
100
AcDbLine
 62
7
  6
CONTINUOUS
 10
11.4807004816
 20
36.6620242195
 11
10.5441079098
 21
36.6620242195
  0
LINE
  5
26D
100
AcDbEntity
  8
0
100
AcDbLine
 62
7
  6
CONTINUOUS
 10
9.2913118704
 20
36.6620242195
 11
8.5328924509
 21
36.6620242195
  0
LINE
  5
26E
100
AcDbEntity
  8
0
100
AcDbLine
 62
7
  6
CONTINUOUS
 10
5.8866347666
 20
36.6620242195
 11
5.760722461
 21
36.6620242195
  0
LINE
  5
26F
100
AcDbEntity
  8
0
100
AcDbLine
 62
7
  6
CONTINUOUS
 10
30.4109662201
 20
22.4673737435
 11
30.4110762021
 21
22.456851447
  0
LINE
  5
270
100
AcDbEntity
  8
0
100
AcDbLine
 62
7
  6
CONTINUOUS
 10
30.2686386971
 20
9.0030242195
 11
30.2686386971
 21
7.9947898406
  0
LINE
  5
271
100
AcDbEntity
  8
0
100
AcDbLine
 62
7
  6
CONTINUOUS
 10
30.2805005197
 20
9.0030242195
 11
30.2805005197
 21
8.1030510243
  0
LINE
  5
272
100
AcDbEntity
  8
0
100
AcDbLine
 62
7
  6
CONTINUOUS
 10
30.4539937909
 20
20.3030242195
 11
30.4539937909
 21
19.8920242195
  0
LINE
  5
273
100
AcDbEntity
  8
0
100
AcDbLine
 62
7
  6
CONTINUOUS
 10
30.4782511956
 20
11.6920242195
 11
30.4782511956
 21
19.8920242195
  0
LINE
  5
274
100
AcDbEntity
  8
0
100
AcDbLine
 62
7
  6
CONTINUOUS
 10
30.8289937909
 20
23.2520242195
 11
30.8289937909
 21
20.5530242195
  0
LINE
  5
275
100
AcDbEntity
  8
0
100
AcDbLine
 62
7
  6
CONTINUOUS
 10
30.4109662201
 20
22.4673737435
 11
30.4110941357
 21
23.2520242195
  0
LINE
  5
276
100
AcDbEntity
  8
0
100
AcDbLine
 62
7
  6
CONTINUOUS
 10
32.9818988711
 20
34.7520242195
 11
34.2039937909
 21
34.3881000427
  0
LINE
  5
277
100
AcDbEntity
  8
0
100
AcDbLine
 62
7
  6
CONTINUOUS
 10
32.5539937909
 20
23.2520242195
 11
32.5539937909
 21
24.5020242195
  0
LINE
  5
278
100
AcDbEntity
  8
0
100
AcDbLine
 62
7
  6
CONTINUOUS
 10
30.4110762021
 20
22.456851447
 11
30.3744398973
 21
22.2683215293
  0
LINE
  5
279
100
AcDbEntity
  8
0
100
AcDbLine
 62
7
  6
CONTINUOUS
 10
29.9254543158
 20
21.2306604048
 11
30.3744398973
 21
22.2683215293
  0
LINE
  5
27A
100
AcDbEntity
  8
0
100
AcDbLine
 62
7
  6
CONTINUOUS
 10
34.2039937983
 20
35.5520237918
 11
33.8658957641
 21
48.4634739096
  0
LINE
  5
27B
100
AcDbEntity
  8
0
100
AcDbLine
 62
7
  6
CONTINUOUS
 10
34.1039939682
 20
34.7520242195
 11
34.1039939682
 21
35.5520237918
  0
LINE
  5
27C
100
AcDbEntity
  8
0
100
AcDbLine
 62
7
  6
CONTINUOUS
 10
34.2039937946
 20
25.7020242195
 11
34.2039937946
 21
34.3881000415
  0
LINE
  5
27D
100
AcDbEntity
  8
0
100
AcDbLine
 62
7
  6
CONTINUOUS
 10
6.6118920875
 20
48.965712469
 11
6.6073176411
 21
48.9670803551
  0
LINE
  5
27E
100
AcDbEntity
  8
0
100
AcDbLine
 62
7
  6
CONTINUOUS
 10
6.0420918177
 20
48.4634739096
 11
6.0603018611
 21
48.4634739096
  0
LINE
  5
27F
100
AcDbEntity
  8
0
100
AcDbLine
 62
7
  6
CONTINUOUS
 10
6.2159672975
 20
48.4634739096
 11
8.689315577
 21
48.4634739096
  0
LINE
  5
280
100
AcDbEntity
  8
0
100
AcDbLine
 62
7
  6
CONTINUOUS
 10
9.6265095035
 20
48.4634739096
 11
10.6328305155
 21
48.4634739096
  0
LINE
  5
281
100
AcDbEntity
  8
0
100
AcDbLine
 62
7
  6
CONTINUOUS
 10
11.7901686306
 20
48.4634739096
 11
17.7613595692
 21
48.4634739096
  0
LINE
  5
282
100
AcDbEntity
  8
0
100
AcDbLine
 62
7
  6
CONTINUOUS
 10
19.2424173793
 20
48.4634739096
 11
20.6655702025
 21
48.4634739096
  0
LINE
  5
283
100
AcDbEntity
  8
0
100
AcDbLine
 62
7
  6
CONTINUOUS
 10
22.1466280126
 20
48.4634739096
 11
28.1178189512
 21
48.4634739096
  0
LINE
  5
284
100
AcDbEntity
  8
0
100
AcDbLine
 62
7
  6
CONTINUOUS
 10
29.2751570663
 20
48.4634739096
 11
30.2814780783
 21
48.4634739096
  0
LINE
  5
285
100
AcDbEntity
  8
0
100
AcDbLine
 62
7
  6
CONTINUOUS
 10
31.2186720048
 20
48.4634739096
 11
33.6920202751
 21
48.4634739096
  0
LINE
  5
286
100
AcDbEntity
  8
0
100
AcDbLine
 62
7
  6
CONTINUOUS
 10
33.8476857236
 20
48.4634739096
 11
33.8658957641
 21
48.4634739096
  0
LINE
  5
287
100
AcDbEntity
  8
0
100
AcDbLine
 62
7
  6
CONTINUOUS
 10
33.5015424146
 20
48.9316819026
 11
33.4656331927
 21
48.9316819026
  0
LINE
  5
288
100
AcDbEntity
  8
0
100
AcDbLine
 62
7
  6
CONTINUOUS
 10
33.3753174923
 20
48.9316819026
 11
30.7489381587
 21
48.9316819026
  0
LINE
  5
289
100
AcDbEntity
  8
0
100
AcDbLine
 62
7
  6
CONTINUOUS
 10
30.2051863107
 20
48.9316819026
 11
28.8111455172
 21
48.9316819026
  0
LINE
  5
28A
100
AcDbEntity
  8
0
100
AcDbLine
 62
7
  6
CONTINUOUS
 10
28.1396678974
 20
48.9316819026
 11
21.799026814
 21
48.9316819026
  0
LINE
  5
28B
100
AcDbEntity
  8
0
100
AcDbLine
 62
7
  6
CONTINUOUS
 10
20.9397300763
 20
48.9316819026
 11
18.9682583355
 21
48.9316819026
  0
LINE
  5
28C
100
AcDbEntity
  8
0
100
AcDbLine
 62
7
  6
CONTINUOUS
 10
18.1089615922
 20
48.9316819026
 11
11.7683203457
 21
48.9316819026
  0
LINE
  5
28D
100
AcDbEntity
  8
0
100
AcDbLine
 62
7
  6
CONTINUOUS
 10
11.0968426861
 20
48.9316819026
 11
9.7028018138
 21
48.9316819026
  0
LINE
  5
28E
100
AcDbEntity
  8
0
100
AcDbLine
 62
7
  6
CONTINUOUS
 10
9.1590499193
 20
48.9316819026
 11
6.5326779561
 21
48.9316819026
  0
LINE
  5
28F
100
AcDbEntity
  8
0
100
AcDbLine
 62
7
  6
CONTINUOUS
 10
6.442350247
 20
48.9316819026
 11
6.4064451672
 21
48.9316819026
  0
LINE
  5
290
100
AcDbEntity
  8
0
100
AcDbLine
 62
7
  6
CONTINUOUS
 10
18.2569376859
 20
50.7579767708
 11
18.1862268357
 21
50.7555748407
  0
LINE
  5
291
100
AcDbEntity
  8
0
100
AcDbLine
 62
7
  6
CONTINUOUS
 10
18.2726822209
 20
50.7584394518
 11
18.1862268682
 21
50.7555729758
  0
LINE
  5
292
100
AcDbEntity
  8
0
100
AcDbLine
 62
7
  6
CONTINUOUS
 10
21.2080891261
 20
50.7692691231
 11
21.2569995584
 21
50.7695781266
  0
LINE
  5
293
100
AcDbEntity
  8
0
100
AcDbLine
 62
7
  6
CONTINUOUS
 10
19.9711290144
 20
50.7860274473
 11
19.9368585674
 21
50.7860274473
  0
LINE
  5
294
100
AcDbEntity
  8
0
100
AcDbLine
 62
7
  6
CONTINUOUS
 10
19.1054656535
 20
50.7721335222
 11
21.2080891261
 21
50.7692691231
  0
LINE
  5
295
100
AcDbEntity
  8
0
100
AcDbLine
 62
7
  6
CONTINUOUS
 10
21.2570010057
 20
50.7695781018
 11
21.2558765941
 21
50.7696342168
  0
ARC
  5
296
100
AcDbEntity
  8
0
100
AcDbCircle
 62
7
  6
CONTINUOUS
 10
2308.3157126685
 20
12.0352534601
 40
2299.9147719387
100
AcDbArc
 50
179.09249016
 51
179.3864828946
  0
ARC
  5
297
100
AcDbEntity
  8
0
100
AcDbCircle
 62
7
  6
CONTINUOUS
 10
-2268.4015284985
 20
12.0353297895
 40
2299.9085748851
100
AcDbArc
 50
0.6135168569
 51
0.907511
  0
ARC
  5
298
100
AcDbEntity
  8
0
100
AcDbCircle
 62
7
  6
CONTINUOUS
 10
-2098.0944556436
 20
102.2537943722
 40
2108.4067075689
100
AcDbArc
 50
358.2172612362
 51
358.538058929
  0
ARC
  5
299
100
AcDbEntity
  8
0
100
AcDbCircle
 62
7
  6
CONTINUOUS
 10
2137.9983081802
 20
102.2536734807
 40
2108.4025707616
100
AcDbArc
 50
181.4619413264
 51
181.7827389759
  0
ARC
  5
29A
100
AcDbEntity
  8
0
100
AcDbCircle
 62
7
  6
CONTINUOUS
 10
-1823.1646062506
 20
90.5600070686
 40
1835.4373052314
100
AcDbArc
 50
358.3172559327
 51
358.6857414613
  0
ARC
  5
29B
100
AcDbEntity
  8
0
100
AcDbCircle
 62
7
  6
CONTINUOUS
 10
1843.6457171932
 20
28.7213834808
 40
1833.1189471304
100
AcDbArc
 50
179.3829723629
 51
179.751807345
  0
ARC
  5
29C
100
AcDbEntity
  8
0
100
AcDbCircle
 62
7
  6
CONTINUOUS
 10
-1803.7343694799
 20
28.72140472
 40
1833.1155869355
100
AcDbArc
 50
0.2481924461
 51
0.6170288776
  0
ARC
  5
29D
100
AcDbEntity
  8
0
100
AcDbCircle
 62
7
  6
CONTINUOUS
 10
1759.8015397833
 20
87.8465913261
 40
1732.1309343739
100
AcDbArc
 50
181.3028783431
 51
181.6933400025
  0
ARC
  5
29E
100
AcDbEntity
  8
0
100
AcDbCircle
 62
7
  6
CONTINUOUS
 10
-1386.9760180416
 20
63.2118874625
 40
1406.2954315393
100
AcDbArc
 50
358.9368585605
 51
359.3990514814
  0
ARC
  5
29F
100
AcDbEntity
  8
0
100
AcDbCircle
 62
7
  6
CONTINUOUS
 10
-1374.3128654895
 20
55.2835404038
 40
1396.4758502441
100
AcDbArc
 50
359.2359580951
 51
359.7201266438
  0
ARC
  5
2A0
100
AcDbEntity
  8
0
100
AcDbCircle
 62
7
  6
CONTINUOUS
 10
1354.5682150362
 20
62.1720683941
 40
1333.9725208075
100
AcDbArc
 50
180.5888678568
 51
181.0761181029
  0
ARC
  5
2A1
100
AcDbEntity
  8
0
100
AcDbCircle
 62
7
  6
CONTINUOUS
 10
1339.4744243268
 20
54.6138717555
 40
1321.7268254379
100
AcDbArc
 50
180.2666725555
 51
180.7782217893
  0
ARC
  5
2A2
100
AcDbEntity
  8
0
100
AcDbCircle
 62
7
  6
CONTINUOUS
 10
19.9720108311
 20
0.5022972118
 40
50.2837302355
100
AcDbArc
 50
88.9528350438
 51
90.0
  0
ARC
  5
2A3
100
AcDbEntity
  8
0
100
AcDbCircle
 62
7
  6
CONTINUOUS
 10
19.9359767507
 20
0.5022972118
 40
50.2837302355
100
AcDbArc
 50
91.8955893698
 51
91.913536396
  0
ARC
  5
2A4
100
AcDbEntity
  8
0
100
AcDbCircle
 62
7
  6
CONTINUOUS
 10
19.9359767507
 20
0.5022972118
 40
50.2837302355
100
AcDbArc
 50
90.0
 51
91.0223871886
  0
ARC
  5
2A5
100
AcDbEntity
  8
0
100
AcDbCircle
 62
7
  6
CONTINUOUS
 10
19.9359767507
 20
0.5022972118
 40
50.2837302355
100
AcDbArc
 50
91.9941545312
 51
105.6085651565
  0
ARC
  5
2A6
100
AcDbEntity
  8
0
100
AcDbCircle
 62
7
  6
CONTINUOUS
 10
19.9720108311
 20
0.5022972118
 40
50.2837302355
100
AcDbArc
 50
74.3914348435
 51
88.536940596
  0
ARC
  5
2A7
100
AcDbEntity
  8
0
100
AcDbCircle
 62
7
  6
CONTINUOUS
 10
19.0489473448
 20
26.0554138925
 40
24.7152191842
100
AcDbArc
 50
91.5475638035
 51
91.7998639183
  0
ARC
  5
2A8
100
AcDbEntity
  8
0
100
AcDbCircle
 62
7
  6
CONTINUOUS
 10
21.355750817
 20
-3.5118764208
 40
10.1948156234
100
AcDbArc
 50
63.3894969528
 51
67.4430857783
  0
ARC
  5
2A9
100
AcDbEntity
  8
0
100
AcDbCircle
 62
7
  6
CONTINUOUS
 10
18.4668638114
 20
-3.3252655487
 40
9.989734169
100
AcDbArc
 50
112.5152878096
 51
116.6521294593
  0
ARC
  5
2AA
100
AcDbEntity
  8
0
100
AcDbCircle
 62
7
  6
CONTINUOUS
 10
18.4635638239
 20
36.6616462444
 40
0.6045701848
100
AcDbArc
 50
295.3008208928
 51
0.0363593001
  0
ARC
  5
2AB
100
AcDbEntity
  8
0
100
AcDbCircle
 62
7
  6
CONTINUOUS
 10
21.4443287199
 20
36.661518527
 40
0.6044153907
100
AcDbArc
 50
179.9515263011
 51
244.6490933173
  0
ARC
  5
2AC
100
AcDbEntity
  8
0
100
AcDbCircle
 62
7
  6
CONTINUOUS
 10
6.5419209184
 20
48.4503849339
 40
0.5000004512
100
AcDbArc
 50
105.7208800756
 51
178.4999438615
  0
ARC
  5
2AD
100
AcDbEntity
  8
0
100
AcDbCircle
 62
7
  6
CONTINUOUS
 10
33.3660666634
 20
48.4503849339
 40
0.5000004512
100
AcDbArc
 50
1.5000561385
 51
74.2791199244
  0
ARC
  5
2AE
100
AcDbEntity
  8
0
100
AcDbCircle
 62
7
  6
CONTINUOUS
 10
33.354313423
 20
48.4494254708
 40
0.4937319291
100
AcDbArc
 50
1.4809724006
 51
6.9377278422
  0
ARC
  5
2AF
100
AcDbEntity
  8
0
100
AcDbCircle
 62
7
  6
CONTINUOUS
 10
6.5536598871
 20
48.4494532689
 40
0.4937168891
100
AcDbArc
 50
173.1033069077
 51
178.5195181233
  0
ARC
  5
2B0
100
AcDbEntity
  8
0
100
AcDbCircle
 62
7
  6
CONTINUOUS
 10
11.3624808577
 20
22.4573332526
 40
0.4533953861
100
AcDbArc
 50
335.3431268016
 51
359.9391140007
  0
ARC
  5
2B1
100
AcDbEntity
  8
0
100
AcDbCircle
 62
7
  6
CONTINUOUS
 10
28.5455065483
 20
22.4573332206
 40
0.4533952104
100
AcDbArc
 50
180.0608819841
 51
204.6569089853
  0
ARC
  5
2B2
100
AcDbEntity
  8
0
100
AcDbCircle
 62
7
  6
CONTINUOUS
 10
9.3289937909
 20
20.5530242195
 40
0.25
100
AcDbArc
 50
180.0
 51
270.0
  0
ARC
  5
2B3
100
AcDbEntity
  8
0
100
AcDbCircle
 62
7
  6
CONTINUOUS
 10
30.5789937909
 20
20.5530242195
 40
0.25
100
AcDbArc
 50
270.0
 51
360.0
  0
SPLINE
  5
2B4
100
AcDbEntity
  8
0
100
AcDbSpline
 62
7
  6
CONTINUOUS
 70
0
 71
3
 72
20
 73
16
 74
0
 42
0.0000001
 43
0.0000001
 44
0.0000000001
 40
0.0
 40
0.0
 40
0.0
 40
0.0
 40
0.0115129845
 40
0.0196043665
 40
0.0296149541
 40
0.0557823585
 40
0.0903524844
 40
0.1332068704
 40
0.1840381928
 40
0.2424181953
 40
0.3078184482
 40
0.4572048136
 40
0.6266580254
 40
0.8098543589
 40
1.0
 40
1.0
 40
1.0
 40
1.0
 10
5.795477542
 20
36.0574767552
 30
0.0
 10
5.7978492468
 20
36.0575694338
 30
0.0
 10
5.8016216568
 20
36.0599743922
 30
0.0
 10
5.805511162
 20
36.064594468
 30
0.0
 10
5.8104692544
 20
36.0723208506
 30
0.0
 10
5.816458956
 20
36.0856572813
 30
0.0
 10
5.8234335241
 20
36.1058599922
 30
0.0
 10
5.8305039833
 20
36.1313510257
 30
0.0
 10
5.8375933562
 20
36.1618953992
 30
0.0
 10
5.8445769627
 20
36.1972148595
 30
0.0
 10
5.8540321781
 20
36.2527365587
 30
0.0
 10
5.8646330925
 20
36.3312628091
 30
0.0
 10
5.874912623
 20
36.434266907
 30
0.0
 10
5.882621215
 20
36.5459206502
 30
0.0
 10
5.8856262256
 20
36.6228423921
 30
0.0
 10
5.8866347666
 20
36.6620298074
 30
0.0
  0
SPLINE
  5
2B5
100
AcDbEntity
  8
0
100
AcDbSpline
 62
7
  6
CONTINUOUS
 70
0
 71
3
 72
16
 73
12
 74
0
 42
0.0000001
 43
0.0000001
 44
0.0000000001
 40
0.0
 40
0.0
 40
0.0
 40
0.0
 40
0.095794774
 40
0.1984407032
 40
0.310637632
 40
0.4332086603
 40
0.5654811063
 40
0.7057193124
 40
0.8514797836
 40
0.925590073
 40
1.0
 40
1.0
 40
1.0
 40
1.0
 10
8.9023591425
 20
36.05779335
 30
0.0
 10
8.9272311876
 20
36.0590805222
 30
0.0
 10
8.9785730183
 20
36.0699436979
 30
0.0
 10
9.0506628294
 20
36.1081559497
 30
0.0
 10
9.1171008284
 20
36.1664600722
 30
0.0
 10
9.1756046458
 20
36.2424856571
 30
0.0
 10
9.2241479244
 20
36.3334724285
 30
0.0
 10
9.2609520928
 20
36.4361747331
 30
0.0
 10
9.280409674
 20
36.5280372649
 30
0.0
 10
9.2893108596
 20
36.604075475
 30
0.0
 10
9.2909466724
 20
36.6426876927
 30
0.0
 10
9.2913118704
 20
36.6620298075
 30
0.0
  0
SPLINE
  5
2B6
100
AcDbEntity
  8
0
100
AcDbSpline
 62
7
  6
CONTINUOUS
 70
0
 71
3
 72
16
 73
12
 74
0
 42
0.0000001
 43
0.0000001
 44
0.0000000001
 40
0.0
 40
0.0
 40
0.0
 40
0.0
 40
0.1088609435
 40
0.2216072304
 40
0.3395718034
 40
0.4632070006
 40
0.5921902796
 40
0.7255874158
 40
0.8620283281
 40
0.930942512
 40
1.0
 40
1.0
 40
1.0
 40
1.0
 10
11.0176026337
 20
36.0582022671
 30
0.0
 10
11.0477137121
 20
36.0601051964
 30
0.0
 10
11.1087481372
 20
36.0716438706
 30
0.0
 10
11.1953765375
 20
36.1102802668
 30
0.0
 10
11.2751416007
 20
36.168743842
 30
0.0
 10
11.3451114039
 20
36.2447324318
 30
0.0
 10
11.4027933596
 20
36.3354555666
 30
0.0
 10
11.4461448763
 20
36.4376543363
 30
0.0
 10
11.4687721082
 20
36.5291765732
 30
0.0
 10
11.478781814
 20
36.6046403847
 30
0.0
 10
11.4804193797
 20
36.6428923749
 30
0.0
 10
11.4807004816
 20
36.6620298075
 30
0.0
  0
SPLINE
  5
2B7
100
AcDbEntity
  8
0
100
AcDbSpline
 62
7
  6
CONTINUOUS
 70
0
 71
3
 72
12
 73
8
 74
0
 42
0.0000001
 43
0.0000001
 44
0.0000000001
 40
0.0
 40
0.0
 40
0.0
 40
0.0
 40
0.0930199237
 40
0.1981235318
 40
0.4398193451
 40
0.7123394839
 40
1.0
 40
1.0
 40
1.0
 40
1.0
 10
28.0910998723
 20
48.8200858181
 30
0.0
 10
28.0913099979
 20
48.8089549108
 30
0.0
 10
28.0925975333
 20
48.7852647325
 30
0.0
 10
28.0973188464
 20
48.7328362549
 30
0.0
 10
28.1055538001
 20
48.659170364
 30
0.0
 10
28.1142223721
 20
48.5635778467
 30
0.0
 10
28.1174519901
 20
48.4965801723
 30
0.0
 10
28.1182463768
 20
48.4621613051
 30
0.0
  0
SPLINE
  5
2B8
100
AcDbEntity
  8
0
100
AcDbSpline
 62
7
  6
CONTINUOUS
 70
0
 71
3
 72
14
 73
10
 74
0
 42
0.0000001
 43
0.0000001
 44
0.0000000001
 40
0.0
 40
0.0
 40
0.0
 40
0.0
 40
0.0586186892
 40
0.1394383641
 40
0.2433863778
 40
0.3686218004
 40
0.5113401186
 40
0.6672324031
 40
1.0
 40
1.0
 40
1.0
 40
1.0
 10
30.1974743235
 20
48.905805317
 30
0.0
 10
30.1976276612
 20
48.8969561352
 30
0.0
 10
30.2013063826
 20
48.876058133
 30
0.0
 10
30.2111184882
 20
48.8406884002
 30
0.0
 10
30.2247044772
 20
48.7958784174
 30
0.0
 10
30.2402818978
 20
48.7419323481
 30
0.0
 10
30.2556228464
 20
48.6797740926
 30
0.0
 10
30.2736520447
 20
48.5861359387
 30
0.0
 10
30.2805899557
 20
48.5123872941
 30
0.0
 10
30.2818868871
 20
48.4621613051
 30
0.0
  0
SPLINE
  5
2B9
100
AcDbEntity
  8
0
100
AcDbSpline
 62
7
  6
CONTINUOUS
 70
0
 71
3
 72
16
 73
12
 74
0
 42
0.0000001
 43
0.0000001
 44
0.0000000001
 40
0.0
 40
0.0
 40
0.0
 40
0.0
 40
0.0099978297
 40
0.0258642653
 40
0.078557284
 40
0.1604281202
 40
0.2715484023
 40
0.411689649
 40
0.5803585169
 40
0.7767460709
 40
1.0
 40
1.0
 40
1.0
 40
1.0
 10
33.2961024401
 20
48.9657197834
 30
0.0
 10
33.2961076855
 20
48.9654311985
 30
0.0
 10
33.2964944878
 20
48.9647295903
 30
0.0
 10
33.298150685
 20
48.9632005372
 30
0.0
 10
33.3019073999
 20
48.9609297677
 30
0.0
 10
33.3082310357
 20
48.9577558304
 30
0.0
 10
33.3170322692
 20
48.9538513703
 30
0.0
 10
33.3282424702
 20
48.9492424565
 30
0.0
 10
33.341836697
 20
48.9439539893
 30
0.0
 10
33.3577464802
 20
48.9380091817
 30
0.0
 10
33.3691378733
 20
48.933884499
 30
0.0
 10
33.3752062852
 20
48.9317129981
 30
0.0
  0
SPLINE
  5
2BA
100
AcDbEntity
  8
0
100
AcDbSpline
 62
7
  6
CONTINUOUS
 70
0
 71
3
 72
13
 73
9
 74
0
 42
0.0000001
 43
0.0000001
 44
0.0000000001
 40
0.0
 40
0.0
 40
0.0
 40
0.0
 40
0.1249928864
 40
0.2499884838
 40
0.3749827157
 40
0.4999778319
 40
0.7499803214
 40
1.0
 40
1.0
 40
1.0
 40
1.0
 10
19.123143323
 20
50.7716062164
 30
0.0
 10
19.0922384642
 20
50.771670487
 30
0.0
 10
19.0304278864
 20
50.7712816411
 30
0.0
 10
18.9377163599
 20
50.7704328831
 30
0.0
 10
18.8450012984
 20
50.7699114657
 30
0.0
 10
18.7213812744
 20
50.7687817598
 30
0.0
 10
18.566864149
 20
50.7661427301
 30
0.0
 10
18.4432640721
 20
50.7632871555
 30
0.0
 10
18.3814683708
 20
50.7616181972
 30
0.0
  0
SPLINE
  5
2BB
100
AcDbEntity
  8
0
100
AcDbSpline
 62
7
  6
CONTINUOUS
 70
0
 71
3
 72
10
 73
6
 74
0
 42
0.0000001
 43
0.0000001
 44
0.0000000001
 40
0.0
 40
0.0
 40
0.0
 40
0.0
 40
0.2499916647
 40
0.624991444
 40
1.0
 40
1.0
 40
1.0
 40
1.0
 10
5.8867356231
 20
36.6620242195
 30
0.0
 10
5.9147945257
 20
37.6453240694
 30
0.0
 10
5.9847085587
 20
40.1036287866
 30
0.0
 10
6.0940037597
 20
44.0370424459
 30
0.0
 10
6.1753405209
 20
46.9871529233
 30
0.0
 10
6.215698728
 20
48.4622339498
 30
0.0
  0
SPLINE
  5
2BC
100
AcDbEntity
  8
0
100
AcDbSpline
 62
7
  6
CONTINUOUS
 70
0
 71
3
 72
11
 73
7
 74
0
 42
0.0000001
 43
0.0000001
 44
0.0000000001
 40
0.0
 40
0.0
 40
0.0
 40
0.0
 40
0.3032333925
 40
0.5882626598
 40
0.8276813293
 40
1.0
 40
1.0
 40
1.0
 40
1.0
 10
6.215698728
 20
48.4622339498
 30
0.0
 10
6.2173517329
 20
48.5226493994
 30
0.0
 10
6.2402280463
 20
48.6402959006
 30
0.0
 10
6.3236005796
 20
48.7858096017
 30
0.0
 10
6.4267019841
 20
48.8817684895
 30
0.0
 10
6.5003679383
 20
48.9200348317
 30
0.0
 10
6.5326779561
 20
48.9316819026
 30
0.0
  0
SPLINE
  5
2BD
100
AcDbEntity
  8
0
100
AcDbSpline
 62
7
  6
CONTINUOUS
 70
0
 71
3
 72
16
 73
12
 74
0
 42
0.0000001
 43
0.0000001
 44
0.0000000001
 40
0.0
 40
0.0
 40
0.0
 40
0.0
 40
0.2232557564
 40
0.419643204
 40
0.588311829
 40
0.7284542966
 40
0.8395764859
 40
0.9214487758
 40
0.9741412221
 40
0.9900057058
 40
1.0
 40
1.0
 40
1.0
 40
1.0
 10
6.5326779561
 20
48.9316819026
 30
0.0
 10
6.5387540796
 20
48.9338557903
 30
0.0
 10
6.550160069
 20
48.9379845337
 30
0.0
 10
6.5660906026
 20
48.9439342379
 30
0.0
 10
6.579702769
 20
48.9492266729
 30
0.0
 10
6.5909277667
 20
48.9538394442
 30
0.0
 10
6.5997405641
 20
48.9577477037
 30
0.0
 10
6.6060724577
 20
48.9609249499
 30
0.0
 10
6.6098340928
 20
48.9631981053
 30
0.0
 10
6.6114924854
 20
48.9647285756
 30
0.0
 10
6.6118798895
 20
48.9654308396
 30
0.0
 10
6.6118851393
 20
48.9657196811
 30
0.0
  0
SPLINE
  5
2BE
100
AcDbEntity
  8
0
100
AcDbSpline
 62
7
  6
CONTINUOUS
 70
0
 71
3
 72
15
 73
11
 74
0
 42
0.0000001
 43
0.0000001
 44
0.0000000001
 40
0.0
 40
0.0
 40
0.0
 40
0.0
 40
0.1683741342
 40
0.3329201699
 40
0.4887821739
 40
0.6314493948
 40
0.7566195294
 40
0.860546207
 40
0.9413679454
 40
1.0
 40
1.0
 40
1.0
 40
1.0
 10
9.6261013502
 20
48.462186052
 30
0.0
 10
9.6267576592
 20
48.487602802
 30
0.0
 10
9.629831904
 20
48.5378265905
 30
0.0
 10
9.6391310768
 20
48.6110974667
 30
0.0
 10
9.6523736584
 20
48.6797999215
 30
0.0
 10
9.6677112958
 20
48.7419401937
 30
0.0
 10
9.6832906033
 20
48.7958727531
 30
0.0
 10
9.696876843
 20
48.8406757902
 30
0.0
 10
9.706676888
 20
48.8760525994
 30
0.0
 10
9.7103619925
 20
48.8969545425
 30
0.0
 10
9.7105162667
 20
48.9058068921
 30
0.0
  0
SPLINE
  5
2BF
100
AcDbEntity
  8
0
100
AcDbSpline
 62
7
  6
CONTINUOUS
 70
0
 71
3
 72
12
 73
8
 74
0
 42
0.0000001
 43
0.0000001
 44
0.0000000001
 40
0.0
 40
0.0
 40
0.0
 40
0.0
 40
0.2876971552
 40
0.5602523277
 40
0.8019217005
 40
0.9069933706
 40
1.0
 40
1.0
 40
1.0
 40
1.0
 10
11.7897417848
 20
48.462186052
 30
0.0
 10
11.7905361679
 20
48.4966047806
 30
0.0
 10
11.7937726546
 20
48.56360183
 30
0.0
 10
11.80243215
 20
48.6591878673
 30
0.0
 10
11.810671816
 20
48.7328407064
 30
0.0
 10
11.8153906237
 20
48.7852538739
 30
0.0
 10
11.8166772516
 20
48.8089355379
 30
0.0
 10
11.8168874936
 20
48.820063389
 30
0.0
  0
SPLINE
  5
2C0
100
AcDbEntity
  8
0
100
AcDbSpline
 62
7
  6
CONTINUOUS
 70
0
 71
3
 72
15
 73
11
 74
0
 42
0.0000001
 43
0.0000001
 44
0.0000000001
 40
0.0
 40
0.0
 40
0.0
 40
0.0
 40
0.1379285294
 40
0.2744394209
 40
0.4078881837
 40
0.5369009416
 40
0.6605318993
 40
0.7784667922
 40
0.8911748143
 40
1.0
 40
1.0
 40
1.0
 40
1.0
 10
28.4272871002
 20
36.6620298075
 30
0.0
 10
28.427848277
 20
36.6238248528
 30
0.0
 10
28.4343384574
 20
36.5477238242
 30
0.0
 10
28.4619297327
 20
36.4376821725
 30
0.0
 10
28.5051649692
 20
36.3354575437
 30
0.0
 10
28.5628607339
 20
36.24477006
 30
0.0
 10
28.6327789911
 20
36.1688081732
 30
0.0
 10
28.7124766324
 20
36.1103665568
 30
0.0
 10
28.7990171096
 20
36.0717203448
 30
0.0
 10
28.8599924829
 20
36.0601478073
 30
0.0
 10
28.8900776919
 20
36.0582210565
 30
0.0
  0
SPLINE
  5
2C1
100
AcDbEntity
  8
0
100
AcDbSpline
 62
7
  6
CONTINUOUS
 70
0
 71
3
 72
14
 73
10
 74
0
 42
0.0000001
 43
0.0000001
 44
0.0000000001
 40
0.0
 40
0.0
 40
0.0
 40
0.0
 40
0.1486179711
 40
0.2945522876
 40
0.5665863127
 40
0.6892352035
 40
0.8014811986
 40
0.9041666614
 40
1.0
 40
1.0
 40
1.0
 40
1.0
 10
30.6166757114
 20
36.6620298075
 30
0.0
 10
30.617404354
 20
36.6234384456
 30
0.0
 10
30.6233470767
 20
36.5468853754
 30
0.0
 10
30.6542630958
 20
36.4028171806
 30
0.0
 10
30.7102061612
 20
36.2713337137
 30
0.0
 10
30.7908689621
 20
36.166481496
 30
0.0
 10
30.8572732856
 20
36.1081973658
 30
0.0
 10
30.9293022843
 20
36.0699909958
 30
0.0
 10
30.9806032311
 20
36.0591046087
 30
0.0
 10
31.0054584031
 20
36.0578015382
 30
0.0
  0
SPLINE
  5
2C2
100
AcDbEntity
  8
0
100
AcDbSpline
 62
7
  6
CONTINUOUS
 70
0
 71
3
 72
20
 73
16
 74
0
 42
0.0000001
 43
0.0000001
 44
0.0000000001
 40
0.0
 40
0.0
 40
0.0
 40
0.0
 40
0.1902131697
 40
0.3734485321
 40
0.5429306217
 40
0.6923004456
 40
0.7576790336
 40
0.8160306684
 40
0.8668323693
 40
0.9096637819
 40
0.9442150894
 40
0.9703784565
 40
0.9803881548
 40
0.9884817816
 40
1.0
 40
1.0
 40
1.0
 40
1.0
 10
34.021352816
 20
36.6620298075
 30
0.0
 10
34.0223616887
 20
36.6228295054
 30
0.0
 10
34.0253543167
 20
36.5458871703
 30
0.0
 10
34.033086536
 20
36.4342099572
 30
0.0
 10
34.0433598459
 20
36.3311974617
 30
0.0
 10
34.0539652279
 20
36.2526757643
 30
0.0
 10
34.063418929
 20
36.197169253
 30
0.0
 10
34.0704004645
 20
36.1618670763
 30
0.0
 10
34.0774868235
 20
36.1313400107
 30
0.0
 10
34.0845527711
 20
36.1058637237
 30
0.0
 10
34.091524328
 20
36.085670586
 30
0.0
 10
34.0975093478
 20
36.0723380546
 30
0.0
 10
34.1024647311
 20
36.0646108172
 30
0.0
 10
34.1063526903
 20
36.0599882813
 30
0.0
 10
34.1101204992
 20
36.0575752254
 30
0.0
 10
34.1124930121
 20
36.057477337
 30
0.0
  0
SPLINE
  5
2C3
100
AcDbEntity
  8
0
100
AcDbSpline
 62
7
  6
CONTINUOUS
 70
0
 71
3
 72
11
 73
7
 74
0
 42
0.0000001
 43
0.0000001
 44
0.0000000001
 40
0.0
 40
0.0
 40
0.0
 40
0.0
 40
0.1722700726
 40
0.4116798864
 40
0.6967633691
 40
1.0
 40
1.0
 40
1.0
 40
1.0
 10
33.3752062852
 20
48.9317129981
 30
0.0
 10
33.4075165757
 20
48.9200639071
 30
0.0
 10
33.4812199456
 20
48.881846045
 30
0.0
 10
33.5843746896
 20
48.7858670842
 30
0.0
 10
33.66776702
 20
48.6402915888
 30
0.0
 10
33.6906374324
 20
48.5225959063
 30
0.0
 10
33.6922909669
 20
48.4621611111
 30
0.0
  0
SPLINE
  5
2C4
100
AcDbEntity
  8
0
100
AcDbSpline
 62
7
  6
CONTINUOUS
 70
0
 71
3
 72
10
 73
6
 74
0
 42
0.0000001
 43
0.0000001
 44
0.0000000001
 40
0.0
 40
0.0
 40
0.0
 40
0.0
 40
0.2500064459
 40
0.6250096825
 40
1.0
 40
1.0
 40
1.0
 40
1.0
 10
33.6922909669
 20
48.4621611111
 30
0.0
 10
33.7191963588
 20
47.4787769127
 30
0.0
 10
33.7868888473
 20
45.0203535127
 30
0.0
 10
33.8955939556
 20
41.0869478654
 30
0.0
 10
33.979163547
 20
38.1369759828
 30
0.0
 10
34.0212519577
 20
36.6620242195
 30
0.0
  0
SPLINE
  5
2C5
100
AcDbEntity
  8
0
100
AcDbSpline
 62
7
  6
CONTINUOUS
 70
0
 71
3
 72
11
 73
7
 74
0
 42
0.0000001
 43
0.0000001
 44
0.0000000001
 40
0.0
 40
0.0
 40
0.0
 40
0.0
 40
0.1710939552
 40
0.3908060414
 40
0.6662826215
 40
1.0
 40
1.0
 40
1.0
 40
1.0
 10
9.7028058011
 20
48.9317127909
 30
0.0
 10
9.6989513353
 20
48.935998109
 30
0.0
 10
9.6880287924
 20
48.9438204361
 30
0.0
 10
9.6671539297
 20
48.9522838044
 30
0.0
 10
9.6399602173
 20
48.9589496322
 30
0.0
 10
9.6196209489
 20
48.9618526237
 30
0.0
 10
9.6084463721
 20
48.9630834314
 30
0.0
  0
SPLINE
  5
2C6
100
AcDbEntity
  8
0
100
AcDbSpline
 62
7
  6
CONTINUOUS
 70
0
 71
3
 72
9
 73
5
 74
0
 42
0.0000001
 43
0.0000001
 44
0.0000000001
 40
0.0
 40
0.0
 40
0.0
 40
0.0
 40
0.2250926691
 40
1.0
 40
1.0
 40
1.0
 40
1.0
 10
9.6084463721
 20
48.9630834314
 30
0.0
 10
9.6021800764
 20
48.9637736235
 30
0.0
 10
9.574283672
 20
48.9663162405
 30
0.0
 10
9.5462476102
 20
48.9670803545
 30
0.0
 10
9.5245447089
 20
48.9670803545
 30
0.0
  0
SPLINE
  5
2C7
100
AcDbEntity
  8
0
100
AcDbSpline
 62
7
  6
CONTINUOUS
 70
0
 71
3
 72
17
 73
13
 74
0
 42
0.0000001
 43
0.0000001
 44
0.0000000001
 40
0.0
 40
0.0
 40
0.0
 40
0.0
 40
0.1416372094
 40
0.2115886996
 40
0.2805569282
 40
0.4144753875
 40
0.4792062366
 40
0.5422756475
 40
0.6632791289
 40
0.7784444021
 40
0.8897502963
 40
1.0
 40
1.0
 40
1.0
 40
1.0
 10
10.5443092227
 20
36.6620298075
 30
0.0
 10
10.5435718771
 20
36.6214712997
 30
0.0
 10
10.5466985006
 20
36.5606388251
 30
0.0
 10
10.5607002799
 20
36.481440187
 30
0.0
 10
10.5803209498
 20
36.4057427355
 30
0.0
 10
10.6086103286
 20
36.3340170749
 30
0.0
 10
10.6454877015
 20
36.2686455271
 30
0.0
 10
10.686322243
 20
36.2101403697
 30
0.0
 10
10.7458313548
 20
36.1474916393
 30
0.0
 10
10.8297351359
 20
36.0922096411
 30
0.0
 10
10.9219098349
 20
36.0604881291
 30
0.0
 10
10.9860897413
 20
36.0562107475
 30
0.0
 10
11.0176026337
 20
36.0582022671
 30
0.0
  0
SPLINE
  5
2C8
100
AcDbEntity
  8
0
100
AcDbSpline
 62
7
  6
CONTINUOUS
 70
0
 71
3
 72
9
 73
5
 74
0
 42
0.0000001
 43
0.0000001
 44
0.0000000001
 40
0.0
 40
0.0
 40
0.0
 40
0.0
 40
0.4703253731
 40
1.0
 40
1.0
 40
1.0
 40
1.0
 10
11.5083924493
 20
48.9670803545
 30
0.0
 10
11.4436206122
 20
48.9670803545
 30
0.0
 10
11.3059040072
 20
48.9596861173
 30
0.0
 10
11.169140707
 20
48.9427779712
 30
0.0
 10
11.0970395763
 20
48.9317129166
 30
0.0
  0
SPLINE
  5
2C9
100
AcDbEntity
  8
0
100
AcDbSpline
 62
7
  6
CONTINUOUS
 70
0
 71
3
 72
15
 73
11
 74
0
 42
0.0000001
 43
0.0000001
 44
0.0000000001
 40
0.0
 40
0.0
 40
0.0
 40
0.0
 40
0.1257395785
 40
0.2519839397
 40
0.3773869278
 40
0.5015496279
 40
0.6251171148
 40
0.7490281296
 40
0.8741371676
 40
1.0
 40
1.0
 40
1.0
 40
1.0
 10
11.0970395763
 20
48.9317129166
 30
0.0
 10
11.0669674138
 20
48.9270628258
 30
0.0
 10
11.0070269962
 20
48.9152474651
 30
0.0
 10
10.9198539487
 20
48.8871130336
 30
0.0
 10
10.8382184586
 20
48.8459837737
 30
0.0
 10
10.7662777976
 20
48.7903856892
 30
0.0
 10
10.7076714102
 20
48.7212507369
 30
0.0
 10
10.6650881195
 20
48.6410086267
 30
0.0
 10
10.6393389288
 20
48.5534474157
 30
0.0
 10
10.6332820393
 20
48.4926190291
 30
0.0
 10
10.6329630248
 20
48.4621613087
 30
0.0
  0
SPLINE
  5
2CA
100
AcDbEntity
  8
0
100
AcDbSpline
 62
7
  6
CONTINUOUS
 70
0
 71
3
 72
11
 73
7
 74
0
 42
0.0000001
 43
0.0000001
 44
0.0000000001
 40
0.0
 40
0.0
 40
0.0
 40
0.0
 40
0.1815075697
 40
0.409831405
 40
0.6838839423
 40
1.0
 40
1.0
 40
1.0
 40
1.0
 10
11.7682833836
 20
48.931712791
 30
0.0
 10
11.7537178655
 20
48.9382310358
 30
0.0
 10
11.7191078237
 20
48.9490102761
 30
0.0
 10
11.6598407189
 20
48.9595141227
 30
0.0
 10
11.5880831919
 20
48.9658448586
 30
0.0
 10
11.5361842502
 20
48.9670803545
 30
0.0
 10
11.5083924493
 20
48.9670803545
 30
0.0
  0
SPLINE
  5
2CB
100
AcDbEntity
  8
0
100
AcDbSpline
 62
7
  6
CONTINUOUS
 70
0
 71
3
 72
18
 73
14
 74
0
 42
0.0000001
 43
0.0000001
 44
0.0000000001
 40
0.0
 40
0.0
 40
0.0
 40
0.0
 40
0.0628337249
 40
0.1256231131
 40
0.1883559553
 40
0.2510109022
 40
0.3758661073
 40
0.5005054087
 40
0.5629166687
 40
0.6253328003
 40
0.7500049737
 40
0.8748825294
 40
1.0
 40
1.0
 40
1.0
 40
1.0
 10
17.8696810818
 20
36.6620298075
 30
0.0
 10
17.8695556452
 20
36.6367582536
 30
0.0
 10
17.8721509743
 20
36.5861509823
 30
0.0
 10
17.8857833978
 20
36.5114214378
 30
0.0
 10
17.9087815619
 20
36.4390997952
 30
0.0
 10
17.9508961809
 20
36.347449558
 30
0.0
 10
18.0246354422
 20
36.2440780501
 30
0.0
 10
18.1218479854
 20
36.1625414851
 30
0.0
 10
18.2097466681
 20
36.1136632244
 30
0.0
 10
18.3031168565
 20
36.0762678959
 30
0.0
 10
18.4277842813
 20
36.0522570729
 30
0.0
 10
18.579680694
 20
36.0618967399
 30
0.0
 10
18.6764539052
 20
36.0935413995
 30
0.0
 10
18.7219504758
 20
36.1150453257
 30
0.0
  0
SPLINE
  5
2CC
100
AcDbEntity
  8
0
100
AcDbSpline
 62
7
  6
CONTINUOUS
 70
0
 71
3
 72
9
 73
5
 74
0
 42
0.0000001
 43
0.0000001
 44
0.0000000001
 40
0.0
 40
0.0
 40
0.0
 40
0.0
 40
0.5113668912
 40
1.0
 40
1.0
 40
1.0
 40
1.0
 10
18.5512016008
 20
48.9670803551
 30
0.0
 10
18.4755433081
 20
48.9670803551
 30
0.0
 10
18.3275419981
 20
48.961192557
 30
0.0
 10
18.1804211733
 20
48.9436860004
 30
0.0
 10
18.1091247528
 20
48.9317129981
 30
0.0
  0
SPLINE
  5
2CD
100
AcDbEntity
  8
0
100
AcDbSpline
 62
7
  6
CONTINUOUS
 70
0
 71
3
 72
16
 73
12
 74
0
 42
0.0000001
 43
0.0000001
 44
0.0000000001
 40
0.0
 40
0.0
 40
0.0
 40
0.0
 40
0.1248211861
 40
0.2438357361
 40
0.3589161923
 40
0.4164034914
 40
0.474694565
 40
0.5954973688
 40
0.7240419312
 40
0.8599357789
 40
1.0
 40
1.0
 40
1.0
 40
1.0
 10
18.1091247528
 20
48.9317129981
 30
0.0
 10
18.0824655826
 20
48.9272019956
 30
0.0
 10
18.0307268177
 20
48.9158450649
 30
0.0
 10
17.9578191186
 20
48.8876768314
 30
0.0
 10
17.9045284023
 20
48.852615281
 30
0.0
 10
17.8684355164
 20
48.8178311769
 30
0.0
 10
17.8361789618
 20
48.7778569639
 30
0.0
 10
17.8038044503
 20
48.7189547048
 30
0.0
 10
17.7784398253
 20
48.6390531115
 30
0.0
 10
17.7642772577
 20
48.5523499358
 30
0.0
 10
17.7615331808
 20
48.4925006875
 30
0.0
 10
17.7616933549
 20
48.4621611111
 30
0.0
  0
SPLINE
  5
2CE
100
AcDbEntity
  8
0
100
AcDbSpline
 62
7
  6
CONTINUOUS
 70
0
 71
3
 72
15
 73
11
 74
0
 42
0.0000001
 43
0.0000001
 44
0.0000000001
 40
0.0
 40
0.0
 40
0.0
 40
0.0
 40
0.1507116286
 40
0.2958316933
 40
0.430553318
 40
0.5529463392
 40
0.6648938164
 40
0.7723706389
 40
0.882597265
 40
1.0
 40
1.0
 40
1.0
 40
1.0
 10
19.2420348635
 20
48.4621859559
 30
0.0
 10
19.2423638372
 20
48.4924988628
 30
0.0
 10
19.2410626566
 20
48.5520471259
 30
0.0
 10
19.2323749101
 20
48.6383242354
 30
0.0
 10
19.2156001611
 20
48.7177079352
 30
0.0
 10
19.188579898
 20
48.7873425718
 30
0.0
 10
19.1493777413
 20
48.844780919
 30
0.0
 10
19.0976043419
 20
48.8875755162
 30
0.0
 10
19.0359027615
 20
48.9160647224
 30
0.0
 10
18.9913123593
 20
48.9272565659
 30
0.0
 10
18.9681218228
 20
48.931712872
 30
0.0
  0
SPLINE
  5
2CF
100
AcDbEntity
  8
0
100
AcDbSpline
 62
7
  6
CONTINUOUS
 70
0
 71
3
 72
9
 73
5
 74
0
 42
0.0000001
 43
0.0000001
 44
0.0000000001
 40
0.0
 40
0.0
 40
0.0
 40
0.0
 40
0.473482951
 40
1.0
 40
1.0
 40
1.0
 40
1.0
 10
18.9681218228
 20
48.931712872
 30
0.0
 10
18.903184619
 20
48.9440969567
 30
0.0
 10
18.7643872886
 20
48.9616886258
 30
0.0
 10
18.6247137377
 20
48.9670803551
 30
0.0
 10
18.5512016008
 20
48.9670803551
 30
0.0
  0
SPLINE
  5
2D0
100
AcDbEntity
  8
0
100
AcDbSpline
 62
7
  6
CONTINUOUS
 70
0
 71
3
 72
17
 73
13
 74
0
 42
0.0000001
 43
0.0000001
 44
0.0000000001
 40
0.0
 40
0.0
 40
0.0
 40
0.0
 40
0.2828312799
 40
0.4201736112
 40
0.553524066
 40
0.681193415
 40
0.7421368562
 40
0.800593909
 40
0.8560603032
 40
0.9079597525
 40
0.9559699984
 40
1.0
 40
1.0
 40
1.0
 40
1.0
 10
28.1334509203
 20
22.2681841361
 30
0.0
 10
28.2175979374
 20
22.0964427121
 30
0.0
 10
28.3454300193
 20
21.8426215109
 30
0.0
 10
28.5253664278
 20
21.5143669396
 30
0.0
 10
28.6626688507
 20
21.2825523914
 30
0.0
 10
28.7829281463
 20
21.1008597189
 30
0.0
 10
28.8835385183
 20
20.9674122484
 30
0.0
 10
28.9597145207
 20
20.8768817794
 30
0.0
 10
29.0377773014
 20
20.7962254741
 30
0.0
 10
29.1179793475
 20
20.7279939911
 30
0.0
 10
29.2000253907
 20
20.6750345403
 30
0.0
 10
29.2580063086
 20
20.6509102508
 30
0.0
 10
29.2867156261
 20
20.6430242199
 30
0.0
  0
SPLINE
  5
2D1
100
AcDbEntity
  8
0
100
AcDbSpline
 62
7
  6
CONTINUOUS
 70
0
 71
3
 72
14
 73
10
 74
0
 42
0.0000001
 43
0.0000001
 44
0.0000000001
 40
0.0
 40
0.0
 40
0.0
 40
0.0
 40
0.101760306
 40
0.2099068613
 40
0.3254680876
 40
0.448562419
 40
0.5784731887
 40
0.7142265973
 40
1.0
 40
1.0
 40
1.0
 40
1.0
 10
29.4550680626
 20
20.6430242199
 30
0.0
 10
29.4802670279
 20
20.650327534
 30
0.0
 10
29.5303693435
 20
20.6722686696
 30
0.0
 10
29.5991330885
 20
20.7210591303
 30
0.0
 10
29.6632780054
 20
20.783761903
 30
0.0
 10
29.7229605275
 20
20.857909462
 30
0.0
 10
29.7787688007
 20
20.9412837912
 30
0.0
 10
29.8497124843
 20
21.0645780537
 30
0.0
 10
29.8961980441
 20
21.1630234871
 30
0.0
 10
29.9254647047
 20
21.2306398959
 30
0.0
  0
SPLINE
  5
2D2
100
AcDbEntity
  8
0
100
AcDbSpline
 62
7
  6
CONTINUOUS
 70
0
 71
3
 72
9
 73
5
 74
0
 42
0.0000001
 43
0.0000001
 44
0.0000000001
 40
0.0
 40
0.0
 40
0.0
 40
0.0
 40
0.526517022
 40
1.0
 40
1.0
 40
1.0
 40
1.0
 10
21.356785981
 20
48.9670803551
 30
0.0
 10
21.2832739918
 20
48.9670803551
 30
0.0
 10
21.1436007397
 20
48.9616882538
 30
0.0
 10
21.004803637
 20
48.9440970267
 30
0.0
 10
20.9398665504
 20
48.9317129982
 30
0.0
  0
SPLINE
  5
2D3
100
AcDbEntity
  8
0
100
AcDbSpline
 62
7
  6
CONTINUOUS
 70
0
 71
3
 72
16
 73
12
 74
0
 42
0.0000001
 43
0.0000001
 44
0.0000000001
 40
0.0
 40
0.0
 40
0.0
 40
0.0
 40
0.1173830089
 40
0.2275915293
 40
0.335031341
 40
0.3900778073
 40
0.447184788
 40
0.5695746025
 40
0.7042742947
 40
0.8493389676
 40
1.0
 40
1.0
 40
1.0
 40
1.0
 10
20.9398665504
 20
48.9317129982
 30
0.0
 10
20.9166731541
 20
48.9272561551
 30
0.0
 10
20.8720809672
 20
48.9160507548
 30
0.0
 10
20.8103637313
 20
48.8875938012
 30
0.0
 10
20.767535169
 20
48.8521291947
 30
0.0
 10
20.7398992072
 20
48.8175107622
 30
0.0
 10
20.7154394505
 20
48.7770154034
 30
0.0
 10
20.6923549662
 20
48.7176756321
 30
0.0
 10
20.6756123737
 20
48.6382973083
 30
0.0
 10
20.6669244139
 20
48.5520158002
 30
0.0
 10
20.6656240147
 20
48.4924726681
 30
0.0
 10
20.6659529742
 20
48.4621611111
 30
0.0
  0
SPLINE
  5
2D4
100
AcDbEntity
  8
0
100
AcDbSpline
 62
7
  6
CONTINUOUS
 70
0
 71
3
 72
16
 73
12
 74
0
 42
0.0000001
 43
0.0000001
 44
0.0000000001
 40
0.0
 40
0.0
 40
0.0
 40
0.0
 40
0.1400787
 40
0.2759935527
 40
0.4045315125
 40
0.5253141545
 40
0.5836019343
 40
0.641093165
 40
0.7561824929
 40
0.8751881452
 40
1.0
 40
1.0
 40
1.0
 40
1.0
 10
22.1462943368
 20
48.4621859559
 30
0.0
 10
22.1464545178
 20
48.492526911
 30
0.0
 10
22.143709613
 20
48.5523805695
 30
0.0
 10
22.1295383333
 20
48.6390835697
 30
0.0
 10
22.1041692164
 20
48.7189775894
 30
0.0
 10
22.0717866103
 20
48.777864244
 30
0.0
 10
22.0395253024
 20
48.8178248069
 30
0.0
 10
22.0034353682
 20
48.8526103644
 30
0.0
 10
21.9501496372
 20
48.8876734834
 30
0.0
 10
21.8772533942
 20
48.9158544317
 30
0.0
 10
21.8255193583
 20
48.9272024573
 30
0.0
 10
21.7988637271
 20
48.9317128721
 30
0.0
  0
SPLINE
  5
2D5
100
AcDbEntity
  8
0
100
AcDbSpline
 62
7
  6
CONTINUOUS
 70
0
 71
3
 72
9
 73
5
 74
0
 42
0.0000001
 43
0.0000001
 44
0.0000000001
 40
0.0
 40
0.0
 40
0.0
 40
0.0
 40
0.4886331071
 40
1.0
 40
1.0
 40
1.0
 40
1.0
 10
21.7988637271
 20
48.9317128721
 30
0.0
 10
21.7275671632
 20
48.9436859271
 30
0.0
 10
21.5804460728
 20
48.9611929266
 30
0.0
 10
21.4324444313
 20
48.9670803551
 30
0.0
 10
21.356785981
 20
48.9670803551
 30
0.0
  0
SPLINE
  5
2D6
100
AcDbEntity
  8
0
100
AcDbSpline
 62
7
  6
CONTINUOUS
 70
0
 71
3
 72
11
 73
7
 74
0
 42
0.0000001
 43
0.0000001
 44
0.0000000001
 40
0.0
 40
0.0
 40
0.0
 40
0.0
 40
0.3161160682
 40
0.5901686436
 40
0.8184925831
 40
1.0
 40
1.0
 40
1.0
 40
1.0
 10
28.3995951325
 20
48.9670803545
 30
0.0
 10
28.3718033763
 20
48.9670803545
 30
0.0
 10
28.3199045046
 20
48.965845422
 30
0.0
 10
28.2481470833
 20
48.9595140432
 30
0.0
 10
28.1888802857
 20
48.9490095054
 30
0.0
 10
28.1542700349
 20
48.9382311194
 30
0.0
 10
28.1397045404
 20
48.931712919
 30
0.0
  0
SPLINE
  5
2D7
100
AcDbEntity
  8
0
100
AcDbSpline
 62
7
  6
CONTINUOUS
 70
0
 71
3
 72
13
 73
9
 74
0
 42
0.0000001
 43
0.0000001
 44
0.0000000001
 40
0.0
 40
0.0
 40
0.0
 40
0.0
 40
0.2108130026
 40
0.3143528078
 40
0.4232404015
 40
0.5427535355
 40
0.6770163708
 40
1.0
 40
1.0
 40
1.0
 40
1.0
 10
28.1397045404
 20
48.931712919
 30
0.0
 10
28.1313737583
 20
48.9279562636
 30
0.0
 10
28.1195278571
 20
48.9204929104
 30
0.0
 10
28.1076313678
 20
48.9063747564
 30
0.0
 10
28.1006980337
 20
48.8936606752
 30
0.0
 10
28.0957562896
 20
48.8786652164
 30
0.0
 10
28.0912805565
 20
48.8540119204
 30
0.0
 10
28.0908356102
 20
48.8340844761
 30
0.0
 10
28.0910998723
 20
48.8200858181
 30
0.0
  0
SPLINE
  5
2D8
100
AcDbEntity
  8
0
100
AcDbSpline
 62
7
  6
CONTINUOUS
 70
0
 71
3
 72
15
 73
11
 74
0
 42
0.0000001
 43
0.0000001
 44
0.0000000001
 40
0.0
 40
0.0
 40
0.0
 40
0.0
 40
0.125875391
 40
0.2510047227
 40
0.374914531
 40
0.4984676165
 40
0.62263292
 40
0.74803827
 40
0.8742732337
 40
1.0
 40
1.0
 40
1.0
 40
1.0
 10
29.275024262
 20
48.4621860483
 30
0.0
 10
29.2747052318
 20
48.4926452325
 30
0.0
 10
29.2686410532
 20
48.553478004
 30
0.0
 10
29.2428861191
 20
48.6410403783
 30
0.0
 10
29.2002938773
 20
48.7212750101
 30
0.0
 10
29.1416726766
 20
48.7903870586
 30
0.0
 10
29.0697337283
 20
48.8459729263
 30
0.0
 10
28.9881110813
 20
48.8871130357
 30
0.0
 10
28.9009501403
 20
48.9152570611
 30
0.0
 10
28.8410165079
 20
48.927063409
 30
0.0
 10
28.8109489658
 20
48.9317127933
 30
0.0
  0
SPLINE
  5
2D9
100
AcDbEntity
  8
0
100
AcDbSpline
 62
7
  6
CONTINUOUS
 70
0
 71
3
 72
9
 73
5
 74
0
 42
0.0000001
 43
0.0000001
 44
0.0000000001
 40
0.0
 40
0.0
 40
0.0
 40
0.0
 40
0.5296746898
 40
1.0
 40
1.0
 40
1.0
 40
1.0
 10
28.8109489658
 20
48.9317127933
 30
0.0
 10
28.7388476579
 20
48.9427778931
 30
0.0
 10
28.6020840696
 20
48.9596864506
 30
0.0
 10
28.4643671149
 20
48.9670803545
 30
0.0
 10
28.3995951325
 20
48.9670803545
 30
0.0
  0
LINE
  5
2DA
100
AcDbEntity
  8
0
100
AcDbLine
 62
7
  6
CONTINUOUS
 10
28.092199149
 20
22.4673737435
 11
28.0921115939
 21
22.456851447
  0
SPLINE
  5
2DB
100
AcDbEntity
  8
0
100
AcDbSpline
 62
7
  6
CONTINUOUS
 70
0
 71
3
 72
9
 73
5
 74
0
 42
0.0000001
 43
0.0000001
 44
0.0000000001
 40
0.0
 40
0.0
 40
0.0
 40
0.0
 40
0.2745345007
 40
1.0
 40
1.0
 40
1.0
 40
1.0
 10
30.3834428729
 20
48.9670803545
 30
0.0
 10
30.3757527593
 20
48.9670803545
 30
0.0
 10
30.3477457854
 20
48.9667852573
 30
0.0
 10
30.3197242316
 20
48.9653075167
 30
0.0
 10
30.2995251179
 20
48.9630819519
 30
0.0
  0
SPLINE
  5
2DC
100
AcDbEntity
  8
0
100
AcDbSpline
 62
7
  6
CONTINUOUS
 70
0
 71
3
 72
11
 73
7
 74
0
 42
0.0000001
 43
0.0000001
 44
0.0000000001
 40
0.0
 40
0.0
 40
0.0
 40
0.0
 40
0.3337119184
 40
0.6091872037
 40
0.828900974
 40
1.0
 40
1.0
 40
1.0
 40
1.0
 10
30.2995251179
 20
48.9630819519
 30
0.0
 10
30.2883525921
 20
48.9618509483
 30
0.0
 10
30.2680169922
 20
48.9589474478
 30
0.0
 10
30.2408282829
 20
48.9522812093
 30
0.0
 10
30.2199568497
 20
48.9438187978
 30
0.0
 10
30.2090358928
 20
48.9359976449
 30
0.0
 10
30.2051819188
 20
48.931712919
 30
0.0
  0
SPLINE
  5
2DD
100
AcDbEntity
  8
0
100
AcDbSpline
 62
7
  6
CONTINUOUS
 70
0
 71
3
 72
14
 73
10
 74
0
 42
0.0000001
 43
0.0000001
 44
0.0000000001
 40
0.0
 40
0.0
 40
0.0
 40
0.0
 40
0.1259438364
 40
0.2518339176
 40
0.3774407708
 40
0.5032841794
 40
0.6293847438
 40
0.7552194339
 40
1.0
 40
1.0
 40
1.0
 40
1.0
 10
31.2186269625
 20
48.4621860483
 30
0.0
 10
31.2181508198
 20
48.4926810087
 30
0.0
 10
31.2113131723
 20
48.5537364115
 30
0.0
 10
31.1833152977
 20
48.641370834
 30
0.0
 10
31.1379128714
 20
48.7214588884
 30
0.0
 10
31.0767461229
 20
48.7902843071
 30
0.0
 10
31.0032221848
 20
48.8456640418
 30
0.0
 10
30.8953173764
 20
48.899945283
 30
0.0
 10
30.8072505269
 20
48.9221843831
 30
0.0
 10
30.7487450734
 20
48.9317127933
 30
0.0
  0
SPLINE
  5
2DE
100
AcDbEntity
  8
0
100
AcDbSpline
 62
7
  6
CONTINUOUS
 70
0
 71
3
 72
10
 73
6
 74
0
 42
0.0000001
 43
0.0000001
 44
0.0000000001
 40
0.0
 40
0.0
 40
0.0
 40
0.0
 40
0.5488298346
 40
0.7889948703
 40
1.0
 40
1.0
 40
1.0
 40
1.0
 10
30.7487450734
 20
48.9317127933
 30
0.0
 10
30.6824072348
 20
48.9424354455
 30
0.0
 10
30.5866014477
 20
48.9555254665
 30
0.0
 10
30.4645227882
 20
48.9652380615
 30
0.0
 10
30.4092783852
 20
48.9670803545
 30
0.0
 10
30.3834428729
 20
48.9670803545
 30
0.0
  0
SPLINE
  5
2DF
100
AcDbEntity
  8
0
100
AcDbSpline
 62
7
  6
CONTINUOUS
 70
0
 71
3
 72
17
 73
13
 74
0
 42
0.0000001
 43
0.0000001
 44
0.0000000001
 40
0.0
 40
0.0
 40
0.0
 40
0.0
 40
0.1103036857
 40
0.2216594418
 40
0.3368694485
 40
0.4578950766
 40
0.5209624302
 40
0.5856827855
 40
0.7195619024
 40
0.8583117546
 40
0.9289439628
 40
1.0
 40
1.0
 40
1.0
 40
1.0
 10
28.8900776919
 20
36.0582210565
 30
0.0
 10
28.9216155456
 20
36.0562012737
 30
0.0
 10
28.9858531126
 20
36.0604346278
 30
0.0
 10
29.0781186518
 20
36.0921369273
 30
0.0
 10
29.1620970689
 20
36.1474352181
 30
0.0
 10
29.2216459182
 20
36.2101156476
 30
0.0
 10
29.2625009921
 20
36.2686400228
 30
0.0
 10
29.2993743142
 20
36.3340324388
 30
0.0
 10
29.3350889187
 20
36.4244162226
 30
0.0
 10
29.3556939773
 20
36.5210040491
 30
0.0
 10
29.363625144
 20
36.601032765
 30
0.0
 10
29.3640483996
 20
36.6416753211
 30
0.0
 10
29.3636783591
 20
36.6620298075
 30
0.0
  0
SPLINE
  5
2E0
100
AcDbEntity
  8
0
100
AcDbSpline
 62
7
  6
CONTINUOUS
 70
0
 71
3
 72
16
 73
12
 74
0
 42
0.0000001
 43
0.0000001
 44
0.0000000001
 40
0.0
 40
0.0
 40
0.0
 40
0.0
 40
0.0968256134
 40
0.1969793712
 40
0.3054124489
 40
0.4249173658
 40
0.5560243655
 40
0.6974372719
 40
0.8465447941
 40
0.9229664824
 40
1.0
 40
1.0
 40
1.0
 40
1.0
 10
31.0054584031
 20
36.0578015382
 30
0.0
 10
31.0307457946
 20
36.056475808
 30
0.0
 10
31.0830229139
 20
36.0621388628
 30
0.0
 10
31.1566795798
 20
36.0959718892
 30
0.0
 10
31.2224135526
 20
36.1525614984
 30
0.0
 10
31.2782192627
 20
36.2288859351
 30
0.0
 10
31.3226832511
 20
36.3217967001
 30
0.0
 10
31.3546270464
 20
36.427721884
 30
0.0
 10
31.3697973372
 20
36.5227505624
 30
0.0
 10
31.3753623386
 20
36.6017251832
 30
0.0
 10
31.3753876309
 20
36.6418885204
 30
0.0
 10
31.3749504017
 20
36.6620298075
 30
0.0
  0
SPLINE
  5
2E1
100
AcDbEntity
  8
0
100
AcDbSpline
 62
7
  6
CONTINUOUS
 70
0
 71
3
 72
19
 73
15
 74
0
 42
0.0000001
 43
0.0000001
 44
0.0000000001
 40
0.0
 40
0.0
 40
0.0
 40
0.0
 40
0.0263614268
 40
0.0376956257
 40
0.0511531511
 40
0.0845196229
 40
0.1264228082
 40
0.1765841955
 40
0.2345864336
 40
0.2999029618
 40
0.4499755445
 40
0.621130697
 40
0.8068288728
 40
1.0
 40
1.0
 40
1.0
 40
1.0
 10
34.1124930121
 20
36.057477337
 30
0.0
 10
34.1178631878
 20
36.057255767
 30
0.0
 10
34.1232865033
 20
36.0661367942
 30
0.0
 10
34.1269017889
 20
36.0753953728
 30
0.0
 10
34.130475239
 20
36.0868678064
 30
0.0
 10
34.1342709296
 20
36.1044867402
 30
0.0
 10
34.1381546773
 20
36.1298099402
 30
0.0
 10
34.1414847092
 20
36.1602189886
 30
0.0
 10
34.1442905386
 20
36.1954856012
 30
0.0
 10
34.1474553801
 20
36.2511384358
 30
0.0
 10
34.1498422006
 20
36.3299264649
 30
0.0
 10
34.1507325544
 20
36.4332821147
 30
0.0
 10
34.1499207671
 20
36.5454260498
 30
0.0
 10
34.1483320165
 20
36.6226582979
 30
0.0
 10
34.1473002495
 20
36.6620298075
 30
0.0
  0
SPLINE
  5
2E2
100
AcDbEntity
  8
0
100
AcDbSpline
 62
7
  6
CONTINUOUS
 70
0
 71
3
 72
11
 73
7
 74
0
 42
0.0000001
 43
0.0000001
 44
0.0000000001
 40
0.0
 40
0.0
 40
0.0
 40
0.0
 40
0.2499868477
 40
0.4999842774
 40
0.749989272
 40
1.0
 40
1.0
 40
1.0
 40
1.0
 10
34.1472651197
 20
36.6620242195
 30
0.0
 10
34.1226667095
 20
37.6453281042
 30
0.0
 10
34.0730169283
 20
39.6119661663
 30
0.0
 10
33.9985144954
 20
42.5619731075
 30
0.0
 10
33.9236007532
 20
45.5120636666
 30
0.0
 10
33.8731183187
 20
47.4788042849
 30
0.0
 10
33.8478804274
 20
48.4621859559
 30
0.0
  0
SPLINE
  5
2E3
100
AcDbEntity
  8
0
100
AcDbSpline
 62
7
  6
CONTINUOUS
 70
0
 71
3
 72
13
 73
9
 74
0
 42
0.0000001
 43
0.0000001
 44
0.0000000001
 40
0.0
 40
0.0
 40
0.0
 40
0.0
 40
0.1422285411
 40
0.2832786555
 40
0.4217512717
 40
0.5558438919
 40
0.7999396167
 40
1.0
 40
1.0
 40
1.0
 40
1.0
 10
33.8444302565
 20
48.5090636066
 30
0.0
 10
33.8409828731
 20
48.5374265921
 30
0.0
 10
33.8292555591
 20
48.5934612699
 30
0.0
 10
33.7975015432
 20
48.6724505348
 30
0.0
 10
33.7535757585
 20
48.7434739321
 30
0.0
 10
33.6848194976
 20
48.8217465735
 30
0.0
 10
33.588859172
 20
48.8904257306
 30
0.0
 10
33.5044463046
 20
48.9218301079
 30
0.0
 10
33.4654910309
 20
48.931712872
 30
0.0
  0
SPLINE
  5
2E4
100
AcDbEntity
  8
0
100
AcDbSpline
 62
7
  6
CONTINUOUS
 70
0
 71
3
 72
9
 73
5
 74
0
 42
0.0000001
 43
0.0000001
 44
0.0000000001
 40
0.0
 40
0.0
 40
0.0
 40
0.0
 40
0.590428975
 40
1.0
 40
1.0
 40
1.0
 40
1.0
 10
33.4654910309
 20
48.931712872
 30
0.0
 10
33.4389254909
 20
48.9384018044
 30
0.0
 10
33.3938616926
 20
48.9494361339
 30
0.0
 10
33.3485683117
 20
48.9595796697
 30
0.0
 10
33.3298908586
 20
48.9630834827
 30
0.0
  0
SPLINE
  5
2E5
100
AcDbEntity
  8
0
100
AcDbSpline
 62
7
  6
CONTINUOUS
 70
0
 71
3
 72
9
 73
5
 74
0
 42
0.0000001
 43
0.0000001
 44
0.0000000001
 40
0.0
 40
0.0
 40
0.0
 40
0.0
 40
0.6165360576
 40
1.0
 40
1.0
 40
1.0
 40
1.0
 10
33.3298908586
 20
48.9630834827
 30
0.0
 10
33.323929478
 20
48.964201813
 30
0.0
 10
33.3142447178
 20
48.9658549099
 30
0.0
 10
33.3044423899
 20
48.9670803551
 30
0.0
 10
33.3006699407
 20
48.9670803551
 30
0.0
  0
SPLINE
  5
2E6
100
AcDbEntity
  8
0
100
AcDbSpline
 62
7
  6
CONTINUOUS
 70
0
 71
3
 72
14
 73
10
 74
0
 42
0.0000001
 43
0.0000001
 44
0.0000000001
 40
0.0
 40
0.0
 40
0.0
 40
0.0
 40
0.2500293013
 40
0.3750339743
 40
0.5000340192
 40
0.6250285929
 40
0.750019004
 40
0.8750104368
 40
1.0
 40
1.0
 40
1.0
 40
1.0
 10
18.2569374902
 20
50.7579884758
 30
0.0
 10
18.3276302788
 20
50.7603527726
 30
0.0
 10
18.4336825848
 20
50.763444623
 30
0.0
 10
18.5751037513
 20
50.7666681486
 30
0.0
 10
18.6811700258
 20
50.7687152436
 30
0.0
 10
18.7872409249
 20
50.7702886139
 30
0.0
 10
18.8933178918
 20
50.7710842997
 30
0.0
 10
18.999390399
 20
50.7720745563
 30
0.0
 10
19.0701065935
 20
50.7728724792
 30
0.0
 10
19.1054656535
 20
50.7728724792
 30
0.0
  0
SPLINE
  5
2E7
100
AcDbEntity
  8
0
100
AcDbSpline
 62
7
  6
CONTINUOUS
 70
0
 71
3
 72
14
 73
10
 74
0
 42
0.0000001
 43
0.0000001
 44
0.0000000001
 40
0.0
 40
0.0
 40
0.0
 40
0.0
 40
0.2857720682
 40
0.4215244756
 40
0.5514365657
 40
0.6745290102
 40
0.7900913826
 40
0.8982399493
 40
1.0
 40
1.0
 40
1.0
 40
1.0
 10
9.9825233484
 20
21.2306410084
 30
0.0
 10
10.0117900862
 20
21.1630248877
 30
0.0
 10
10.0582742096
 20
21.0645792139
 30
0.0
 10
10.1292185535
 20
20.9412854423
 30
0.0
 10
10.1850242425
 20
20.8579097075
 30
0.0
 10
10.244707756
 20
20.7837623494
 30
0.0
 10
10.3088551116
 20
20.7210615099
 30
0.0
 10
10.3776188328
 20
20.6722698612
 30
0.0
 10
10.427721298
 20
20.6503274704
 30
0.0
 10
10.4529202541
 20
20.6430242199
 30
0.0
  0
SPLINE
  5
2E8
100
AcDbEntity
  8
0
100
AcDbSpline
 62
7
  6
CONTINUOUS
 70
0
 71
3
 72
13
 73
9
 74
0
 42
0.0000001
 43
0.0000001
 44
0.0000000001
 40
0.0
 40
0.0
 40
0.0
 40
0.0
 40
0.323002075
 40
0.4572910628
 40
0.5768312105
 40
0.6857157393
 40
0.7892309472
 40
1.0
 40
1.0
 40
1.0
 40
1.0
 10
11.8168874936
 20
48.820063389
 30
0.0
 10
11.817152035
 20
48.8340652355
 30
0.0
 10
11.8167050639
 20
48.8539982077
 30
0.0
 10
11.8122259025
 20
48.8786580962
 30
0.0
 10
11.8072884639
 20
48.8936598007
 30
0.0
 10
11.8003589268
 20
48.9063790445
 30
0.0
 10
11.7884612998
 20
48.9204969993
 30
0.0
 10
11.7766138453
 20
48.9279562602
 30
0.0
 10
11.7682833836
 20
48.931712791
 30
0.0
  0
SPLINE
  5
2E9
100
AcDbEntity
  8
0
100
AcDbSpline
 62
7
  6
CONTINUOUS
 70
0
 71
3
 72
17
 73
13
 74
0
 42
0.0000001
 43
0.0000001
 44
0.0000000001
 40
0.0
 40
0.0
 40
0.0
 40
0.0
 40
0.0440298176
 40
0.0920388153
 40
0.1439377442
 40
0.1994044555
 40
0.2578606561
 40
0.3188045078
 40
0.4464738455
 40
0.5798247968
 40
0.7171678097
 40
1.0
 40
1.0
 40
1.0
 40
1.0
 10
10.6212727311
 20
20.6430242199
 30
0.0
 10
10.6499819105
 20
20.6509102749
 30
0.0
 10
10.7079623264
 20
20.6750329882
 30
0.0
 10
10.7900077819
 20
20.7279912692
 30
0.0
 10
10.8702070682
 20
20.7962244944
 30
0.0
 10
10.9482692672
 20
20.8768801672
 30
0.0
 10
11.0244472974
 20
20.9674088448
 30
0.0
 10
11.1250569502
 20
21.1008564977
 30
0.0
 10
11.2453179085
 20
21.2825487175
 30
0.0
 10
11.382620333
 20
21.5143642155
 30
0.0
 10
11.5625566861
 20
21.8426203699
 30
0.0
 10
11.6903894799
 20
22.0964423901
 30
0.0
 10
11.7745367636
 20
22.2681843521
 30
0.0
  0
SPLINE
  5
2EA
100
AcDbEntity
  8
0
100
AcDbSpline
 62
7
  6
CONTINUOUS
 70
0
 71
3
 72
21
 73
17
 74
0
 42
0.0000001
 43
0.0000001
 44
0.0000000001
 40
0.0
 40
0.0
 40
0.0
 40
0.0
 40
0.19298068
 40
0.3784673522
 40
0.5494210119
 40
0.6992737627
 40
0.7644798581
 40
0.8223754584
 40
0.8724393292
 40
0.9142638174
 40
0.9475674007
 40
0.9723030085
 40
0.9815821698
 40
0.9889939286
 40
0.9948961127
 40
1.0
 40
1.0
 40
1.0
 40
1.0
 10
5.7606873319
 20
36.6620298074
 30
0.0
 10
5.759655219
 20
36.6226450962
 30
0.0
 10
5.7580602978
 20
36.5453928247
 30
0.0
 10
5.7572576909
 20
36.4332237776
 30
0.0
 10
5.7581458029
 20
36.3298603856
 30
0.0
 10
5.7605343686
 20
36.2510774086
 30
0.0
 10
5.7637011373
 20
36.1954389579
 30
0.0
 10
5.7665028625
 20
36.1601926286
 30
0.0
 10
5.7698428257
 20
36.1297923472
 30
0.0
 10
5.7736938614
 20
36.1045083529
 30
0.0
 10
5.7780502479
 20
36.0845867019
 30
0.0
 10
5.7823245939
 20
36.0714523285
 30
0.0
 10
5.7862776904
 20
36.0639468911
 30
0.0
 10
5.7890965792
 20
36.0602585795
 30
0.0
 10
5.792144371
 20
36.0579307036
 30
0.0
 10
5.7944363456
 20
36.0574360686
 30
0.0
 10
5.795477542
 20
36.0574767552
 30
0.0
  0
SPLINE
  5
2EB
100
AcDbEntity
  8
0
100
AcDbSpline
 62
7
  6
CONTINUOUS
 70
0
 71
3
 72
11
 73
7
 74
0
 42
0.0000001
 43
0.0000001
 44
0.0000000001
 40
0.0
 40
0.0
 40
0.0
 40
0.0
 40
0.1316160092
 40
0.3433841784
 40
0.633747177
 40
1.0
 40
1.0
 40
1.0
 40
1.0
 10
6.6073176411
 20
48.9670803551
 30
0.0
 10
6.6035312021
 20
48.9670803551
 30
0.0
 10
6.5936887688
 20
48.9658496938
 30
0.0
 10
6.5757368269
 20
48.9627660437
 30
0.0
 10
6.5512625873
 20
48.9576914312
 30
0.0
 10
6.5328358315
 20
48.9535442053
 30
0.0
 10
6.5225701083
 20
48.9511701235
 30
0.0
  0
SPLINE
  5
2EC
100
AcDbEntity
  8
0
100
AcDbSpline
 62
7
  6
CONTINUOUS
 70
0
 71
3
 72
9
 73
5
 74
0
 42
0.0000001
 43
0.0000001
 44
0.0000000001
 40
0.0
 40
0.0
 40
0.0
 40
0.0
 40
0.2226398497
 40
1.0
 40
1.0
 40
1.0
 40
1.0
 10
6.5225701083
 20
48.9511701235
 30
0.0
 10
6.5166010561
 20
48.9497897027
 30
0.0
 10
6.4898117179
 20
48.9434986195
 30
0.0
 10
6.4630940707
 20
48.9369053224
 30
0.0
 10
6.442350247
 20
48.9316819026
 30
0.0
  0
SPLINE
  5
2ED
100
AcDbEntity
  8
0
100
AcDbSpline
 62
7
  6
CONTINUOUS
 70
0
 71
3
 72
13
 73
9
 74
0
 42
0.0000001
 43
0.0000001
 44
0.0000000001
 40
0.0
 40
0.0
 40
0.0
 40
0.0
 40
0.2001194531
 40
0.4442258949
 40
0.5783306564
 40
0.7167991866
 40
0.8578186047
 40
1.0
 40
1.0
 40
1.0
 40
1.0
 10
6.442350247
 20
48.9316819026
 30
0.0
 10
6.4033715379
 20
48.9217924938
 30
0.0
 10
6.318937824
 20
48.8903219504
 30
0.0
 10
6.2229428418
 20
48.8215978056
 30
0.0
 10
6.1542273425
 20
48.7432382774
 30
0.0
 10
6.1103390549
 20
48.6721677035
 30
0.0
 10
6.078636634
 20
48.5931471322
 30
0.0
 10
6.0669426041
 20
48.5371033906
 30
0.0
 10
6.0635153981
 20
48.508738566
 30
0.0
  0
SPLINE
  5
2EE
100
AcDbEntity
  8
0
100
AcDbSpline
 62
7
  6
CONTINUOUS
 70
0
 71
3
 72
11
 73
7
 74
0
 42
0.0000001
 43
0.0000001
 44
0.0000000001
 40
0.0
 40
0.0
 40
0.0
 40
0.0
 40
0.250010728
 40
0.5000157226
 40
0.7500131524
 40
1.0
 40
1.0
 40
1.0
 40
1.0
 10
6.0601078084
 20
48.4622091399
 30
0.0
 10
6.0348698668
 20
47.4788255367
 30
0.0
 10
5.9843872804
 20
45.5120810551
 30
0.0
 10
5.9094733571
 20
42.5619847003
 30
0.0
 10
5.8349707993
 20
39.6119719624
 30
0.0
 10
5.7853209196
 20
37.6453300361
 30
0.0
 10
5.760722461
 20
36.6620242195
 30
0.0
  0
LINE
  5
2EF
100
AcDbEntity
  8
0
100
AcDbLine
 62
7
  6
CONTINUOUS
 10
11.8158759878
 20
22.456851447
 11
11.8157884328
 21
22.4673737435
  0
SPLINE
  5
2F0
100
AcDbEntity
  8
0
100
AcDbSpline
 62
7
  6
CONTINUOUS
 70
0
 71
3
 72
15
 73
11
 74
0
 42
0.0000001
 43
0.0000001
 44
0.0000000001
 40
0.0
 40
0.0
 40
0.0
 40
0.0
 40
0.1534566595
 40
0.3026292264
 40
0.4440906608
 40
0.5752140962
 40
0.6947012318
 40
0.8030981587
 40
0.9032146168
 40
1.0
 40
1.0
 40
1.0
 40
1.0
 10
8.5330371801
 20
36.6620298075
 30
0.0
 10
8.532166438
 20
36.6219184262
 30
0.0
 10
8.5347932314
 20
36.5426141786
 30
0.0
 10
8.553436135
 20
36.4276989523
 30
0.0
 10
8.5853012505
 20
36.3217541115
 30
0.0
 10
8.6297866354
 20
36.2288677818
 30
0.0
 10
8.6855661598
 20
36.1525735452
 30
0.0
 10
8.7512573222
 20
36.0960102528
 30
0.0
 10
8.8248522487
 20
36.0621774467
 30
0.0
 10
8.8770886817
 20
36.0564855591
 30
0.0
 10
8.9023591425
 20
36.05779335
 30
0.0
  0
SPLINE
  5
2F1
100
AcDbEntity
  8
0
100
AcDbSpline
 62
7
  6
CONTINUOUS
 70
0
 71
3
 72
10
 73
6
 74
0
 42
0.0000001
 43
0.0000001
 44
0.0000000001
 40
0.0
 40
0.0
 40
0.0
 40
0.0
 40
0.211005316
 40
0.4511702849
 40
1.0
 40
1.0
 40
1.0
 40
1.0
 10
9.5245447089
 20
48.9670803545
 30
0.0
 10
9.4987092382
 20
48.9670803545
 30
0.0
 10
9.4434649323
 20
48.9652386846
 30
0.0
 10
9.3213866742
 20
48.9555247151
 30
0.0
 10
9.2255810809
 20
48.9424355254
 30
0.0
 10
9.1592434198
 20
48.9317129166
 30
0.0
  0
SPLINE
  5
2F2
100
AcDbEntity
  8
0
100
AcDbSpline
 62
7
  6
CONTINUOUS
 70
0
 71
3
 72
14
 73
10
 74
0
 42
0.0000001
 43
0.0000001
 44
0.0000000001
 40
0.0
 40
0.0
 40
0.0
 40
0.0
 40
0.2448030918
 40
0.3706366811
 40
0.4967349404
 40
0.6225924325
 40
0.7481994049
 40
0.874069007
 40
1.0
 40
1.0
 40
1.0
 40
1.0
 10
9.1592434198
 20
48.9317129166
 30
0.0
 10
9.1007295327
 20
48.9221831468
 30
0.0
 10
9.0126552559
 20
48.8999402853
 30
0.0
 10
8.9047295475
 20
48.8456755896
 30
0.0
 10
8.8312036141
 20
48.7902829805
 30
0.0
 10
8.7700506686
 20
48.7214349326
 30
0.0
 10
8.7246586408
 20
48.6413386037
 30
0.0
 10
8.6966650518
 20
48.5537059947
 30
0.0
 10
8.6898363132
 20
48.4926547475
 30
0.0
 10
8.6893601945
 20
48.4621613087
 30
0.0
  0
SPLINE
  5
2F3
100
AcDbEntity
  8
0
100
AcDbSpline
 62
7
  6
CONTINUOUS
 70
0
 71
3
 72
20
 73
16
 74
0
 42
0.0000001
 43
0.0000001
 44
0.0000000001
 40
0.0
 40
0.0
 40
0.0
 40
0.0
 40
0.1251518682
 40
0.2500654758
 40
0.3747729084
 40
0.4372073824
 40
0.4996313302
 40
0.6242656772
 40
0.7490720994
 40
0.81169361
 40
0.8743817396
 40
0.9057639633
 40
0.9371650183
 40
0.9685744642
 40
1.0
 40
1.0
 40
1.0
 40
1.0
 10
21.1855314705
 20
36.1152853593
 30
0.0
 10
21.2310438274
 20
36.0937199583
 30
0.0
 10
21.3278720251
 20
36.0619692062
 30
0.0
 10
21.479888222
 20
36.0522278075
 30
0.0
 10
21.6046701282
 20
36.0762048665
 30
0.0
 10
21.6981258068
 20
36.113604234
 30
0.0
 10
21.7860863483
 20
36.1625021808
 30
0.0
 10
21.8833537097
 20
36.244058718
 30
0.0
 10
21.9570829499
 20
36.3474741197
 30
0.0
 10
21.9992412539
 20
36.4391019372
 30
0.0
 10
22.018341849
 20
36.4993941799
 30
0.0
 10
22.0289586813
 20
36.5487810142
 30
0.0
 10
22.0347560201
 20
36.586266383
 30
0.0
 10
22.0379483426
 20
36.6240858588
 30
0.0
 10
22.0383692689
 20
36.6493838302
 30
0.0
 10
22.0383065
 20
36.6620298075
 30
0.0
  0
ELLIPSE
  5
2F4
100
AcDbEntity
  8
0
100
AcDbEllipse
 62
7
  6
CONTINUOUS
 10
14.6561232499
 20
-9.3356263812
 30
0.0
 11
0.0
 21
28.7445147379
 31
0.0
 40
0.0174550649
 41
1.0242914156
 42
1.0724686148
  0
ELLIPSE
  5
2F5
100
AcDbEntity
  8
0
100
AcDbEllipse
 62
7
  6
CONTINUOUS
 10
19.9539937909
 20
37.7020242195
 30
0.0
 11
0.0
 21
162.8571428998
 31
0.0
 40
0.0875
 41
-4.6386379301
 42
-4.6312473392
  0
ELLIPSE
  5
2F6
100
AcDbEntity
  8
0
100
AcDbEllipse
 62
7
  6
CONTINUOUS
 10
19.9539937909
 20
37.7020242195
 30
0.0
 11
0.0
 21
162.8571428998
 31
0.0
 40
0.0875
 41
-1.651937968
 42
-1.6445473771
  0
ELLIPSE
  5
2F7
100
AcDbEntity
  8
0
100
AcDbEllipse
 62
7
  6
CONTINUOUS
 10
25.2518551789
 20
-9.335855955
 30
0.0
 11
0.0
 21
28.7450394449
 31
0.0
 40
0.0174550649
 41
-1.072469455
 42
-1.0242931714
  0
ELLIPSE
  5
2F8
100
AcDbEntity
  8
0
100
AcDbEllipse
 62
7
  6
CONTINUOUS
 10
19.9539937909
 20
223.3048784162
 30
0.0
 11
0.0
 21
509.8806585133
 31
0.0
 40
0.0174550649
 41
-2.0145358115
 42
-2.0119315574
  0
ELLIPSE
  5
2F9
100
AcDbEntity
  8
0
100
AcDbEllipse
 62
7
  6
CONTINUOUS
 10
19.9539937909
 20
223.3048784162
 30
0.0
 11
0.0
 21
509.8806585133
 31
0.0
 40
0.0174550649
 41
-4.2712537498
 42
-4.2686494957
  0
ELLIPSE
  5
2FA
100
AcDbEntity
  8
0
100
AcDbEllipse
 62
7
  6
CONTINUOUS
 10
10.1275351997
 20
8.1029991646
 30
0.0
 11
0.5000250562
 21
-0.0
 31
0.0
 40
1.0
 41
-3.1415926536
 42
-2.7814790576
  0
ELLIPSE
  5
2FB
100
AcDbEntity
  8
0
100
AcDbEllipse
 62
7
  6
CONTINUOUS
 10
19.9514400636
 20
11.8016152521
 30
0.0
 11
10.9971135921
 21
-0.0
 31
0.0
 40
1.0
 41
-2.7815134241
 42
-2.5427871874
  0
ELLIPSE
  5
2FC
100
AcDbEntity
  8
0
100
AcDbEllipse
 62
7
  6
CONTINUOUS
 10
19.9514400636
 20
11.8016152521
 30
0.0
 11
10.9971135921
 21
0.0
 31
0.0
 40
1.0
 41
-0.5988054662
 42
-0.3534812045
  0
ELLIPSE
  5
2FD
100
AcDbEntity
  8
0
100
AcDbEllipse
 62
7
  6
CONTINUOUS
 10
29.7805273231
 20
8.1030510243
 30
0.0
 11
0.4999731966
 21
0.0
 31
0.0
 40
1.0
 41
-0.2182628097
 42
0.0
  0
ELLIPSE
  5
2FE
100
AcDbEntity
  8
0
100
AcDbEllipse
 62
7
  6
CONTINUOUS
 10
19.4713904979
 20
203.528552981
 30
0.0
 11
-0.0
 21
414.2700652642
 31
0.0
 40
0.0174550649
 41
-4.2142752569
 42
-4.2109749532
  0
ELLIPSE
  5
2FF
100
AcDbEntity
  8
0
100
AcDbEllipse
 62
7
  6
CONTINUOUS
 10
20.4365970839
 20
203.5285529809
 30
0.0
 11
-0.0
 21
414.2700652641
 31
0.0
 40
0.0174550649
 41
-2.072210354
 42
-2.0689100503
  0
ENDSEC
  0
SECTION
  2
OBJECTS
  0
DICTIONARY
  5
C
100
AcDbDictionary
280
0
281
1
  3
ACAD_GROUP
350
D
  3
ACAD_MLINESTYLE
350
17
  3
ACAD_LAYOUT
350
1A
  3
ACAD_PLOTSETTINGS
350
19
  3
ACAD_PLOTSTYLENAME
350
E
  0
DICTIONARY
  5
D
102
{ACAD_REACTORS
330
C
102
}
100
AcDbDictionary
280
0
281
1
  0
ACDBDICTIONARYWDFLT
  5
E
102
{ACAD_REACTORS
330
C
102
}
100
AcDbDictionary
281
1
  3
Normal
350
F
100
AcDbDictionaryWithDefault
340
F
  0
DICTIONARY
  5
17
102
{ACAD_REACTORS
330
C
102
}
100
AcDbDictionary
280
0
281
1
  3
Standard
350
18
  0
DICTIONARY
  5
19
102
{ACAD_REACTORS
330
C
102
}
100
AcDbDictionary
281
1
  0
DICTIONARY
  5
1A
102
{ACAD_REACTORS
330
C
102
}
100
AcDbDictionary
281
1
  3
Model
350
300
  3
Layout1
350
301
  0
ACDBPLACEHOLDER
  5
F
102
{ACAD_REACTORS
330
E
102
}
  0
MLINESTYLE
  5
18
102
{ACAD_REACTORS
330
17
102
}
100
AcDbMlineStyle
  2
STANDARD
 70
0
  3

 62
256
 51
90.0
 52
90.0
 71
2
 49
0.5
 62
256
  6
BYLAYER
 49
-0.5
 62
256
  6
BYLAYER
  0
LAYOUT
  5
300
102
{ACAD_REACTORS
330
1A
102
}
100
AcDbPlotSettings
  1

  2
none_device
  4

  6

 40
0.0
 41
0.0
 42
0.0
 43
0.0
 44
210.0
 45
297.0
 46
0.0
 47
0.0
 48
0.0
 49
0.0
140
0.0
141
0.0
142
1.0
143
1.0
 70
1024
 72
1
 73
0
 74
0
  7

 75
0
147
1.0
148
0.0
149
0.0
100
AcDbLayout
  1
Model
 70
0
 71
0
 10
0.0
 20
0.0
 11
210.0
 21
297.0
 12
0.0
 22
0.0
 32
0.0
 14
0.0
 24
0.0
 34
0.0
 15
0.0
 25
0.0
 35
0.0
146
0.0
 13
0.0
 23
0.0
 33
0.0
 16
1.0
 26
0.0
 36
0.0
 17
0.0
 27
1.0
 37
0.0
 76
0
330
210
345
0
346
0
  0
LAYOUT
  5
301
102
{ACAD_REACTORS
330
1A
102
}
100
AcDbPlotSettings
  1

  2
none_device
  4

  6

 40
0.0
 41
0.0
 42
0.0
 43
0.0
 44
210.0
 45
297.0
 46
0.0
 47
0.0
 48
0.0
 49
0.0
140
0.0
141
0.0
142
1.0
143
1.0
 70
0
 72
1
 73
0
 74
0
  7

 75
0
147
1.0
148
0.0
149
0.0
100
AcDbLayout
  1
Layout1
 70
0
 71
1
 10
0.0
 20
0.0
 11
210.0
 21
297.0
 12
0.0
 22
0.0
 32
0.0
 14
0.0
 24
0.0
 34
0.0
 15
0.0
 25
0.0
 35
0.0
146
0.0
 13
0.0
 23
0.0
 33
0.0
 16
1.0
 26
0.0
 36
0.0
 17
0.0
 27
1.0
 37
0.0
 76
0
330
211
345
0
346
0
  0
ENDSEC
  0
EOF
