999
DXF file: C:\Users\sesa63760\Dev\_Creo\CAD\MCADID0004821_3D-CAD\drw0001_3.dxf
999
Pro/ENGINEER 2019471 by Parametric Technology Corporation
  0
SECTION
  2
HEADER
  9
$ACADVER
  1
AC1024
  9
$DWGCODEPAGE
  3
ANSI_1252
  9
$EXTMAX
 10
79.6363338293
 20
112.6285292729
 30
0.0
  9
$EXTMIN
 10
0.0
 20
0.0
 30
0.0
  9
$LIMMIN
 10
0.0
 20
0.0
  9
$LIMMAX
 10
79.6363338293
 20
112.6285292729
  9
$VIEWCTR
 10
39.8181669147
 20
56.3142646365
  9
$VIEWSIZE
 40
112.6285292729
  9
$CLAYER
  8
0
  9
$LTSCALE
 40
7.3417115378
  9
$CELTYPE
  6
BYLAYER
  9
$DIMSCALE
 40
1.0
  9
$DIMASZ
 40
0.9480515932
  9
$DIMEXO
 40
1.0
  9
$DIMDLI
 40
5.0724552443
  9
$DIMEXE
 40
1.0
  9
$DIMCEN
 40
1.2013709789
  9
$DIMLFAC
 40
1.0
  9
$DIMBLK
  1
_FILLED
  9
$DIMALT
 70
0
  9
$DIMALTF
 40
0.0393700787
  9
$DIMTXT
 40
1.3272722305
  9
$DIMTOL
 70
1
  9
$DIMLIM
 70
0
  9
$DIMTFAC
 40
1.0
  9
$DIMTP
 40
0.01
  9
$DIMTM
 40
0.01
  9
$DIMGAP
 40
0.625
  9
$DIMDSEP
 70
46
  9
$AUNITS
 70
0
  9
$PDMODE
 70
3
  9
$PDSIZE
 40
0.3125
  9
$HANDSEED
  5
3FA
  9
$TILEMODE
 70
1
  9
$MEASUREMENT
 70
1
  9
$INSUNITS
 70
4
  0
ENDSEC
  0
SECTION
  2
CLASSES
  0
CLASS
  1
ACDBDICTIONARYWDFLT
  2
AcDbDictionaryWithDefault
  3
AutoCAD 2000
 90
0
 91
1
280
0
281
0
  0
CLASS
  1
ACDBPLACEHOLDER
  2
AcDbPlaceHolder
  3
AutoCAD 2000
 90
0
 91
1
280
0
281
0
  0
CLASS
  1
LAYOUT
  2
AcDbLayout
  3
AutoCAD 2000
 90
0
 91
0
280
0
281
0
  0
ENDSEC
  0
SECTION
  2
TABLES
  0
TABLE
  2
VPORT
  5
8
100
AcDbSymbolTable
 70
2
  0
VPORT
  5
1F4
100
AcDbSymbolTableRecord
100
AcDbViewportTableRecord
  2
*ACTIVE
 70
0
 10
0.0
 20
0.0
 11
1.0
 21
1.0
 12
39.8181669147
 22
56.3142646365
 13
0.0
 23
0.0
 14
1.0
 24
1.0
 15
0.0
 25
0.0
 16
0.0
 26
0.0
 36
1.0
 17
0.0
 27
0.0
 37
0.0
 40
112.6285292729
 41
0.7070707071
 42
50.0
 43
0.0
 44
0.0
 50
0.0
 51
0.0
 71
0
 72
100
 73
1
 74
1
 75
0
 76
0
 77
0
 78
0
  0
ENDTAB
  0
TABLE
  2
LTYPE
  5
5
100
AcDbSymbolTable
 70
6
  0
LTYPE
  5
14
100
AcDbSymbolTableRecord
100
AcDbLinetypeTableRecord
  2
BYBLOCK
 70
0
  3

 72
65
 73
0
 40
0.0
  0
LTYPE
  5
15
100
AcDbSymbolTableRecord
100
AcDbLinetypeTableRecord
  2
BYLAYER
 70
0
  3

 72
65
 73
0
 40
0.0
  0
LTYPE
  5
16
100
AcDbSymbolTableRecord
100
AcDbLinetypeTableRecord
  2
CONTINUOUS
 70
64
  3
Solid line
 72
65
 73
0
 40
0.0
  0
LTYPE
  5
1F5
100
AcDbSymbolTableRecord
100
AcDbLinetypeTableRecord
  2
CENTER
 70
64
  3
____ _ ____ _ ____ _ ____ _ ____ _ ____ _ ____
 72
65
 73
4
 40
0.6
 49
0.375
 74
0
 49
-0.075
 74
0
 49
0.075
 74
0
 49
-0.075
 74
0
  0
LTYPE
  5
1F6
100
AcDbSymbolTableRecord
100
AcDbLinetypeTableRecord
  2
HIDDEN
 70
64
  3
- - - - - - - - - - - - - - - - - - - -
 72
65
 73
2
 40
0.2
 49
0.1
 74
0
 49
-0.1
 74
0
  0
LTYPE
  5
1F7
100
AcDbSymbolTableRecord
100
AcDbLinetypeTableRecord
  2
PHANTOM
 70
64
  3
_____ _ _ _____ _ _ _____ _ _ _____
 72
65
 73
6
 40
0.8
 49
0.45
 74
0
 49
-0.05
 74
0
 49
0.1
 74
0
 49
-0.05
 74
0
 49
0.1
 74
0
 49
-0.05
 74
0
  0
LTYPE
  5
1F8
100
AcDbSymbolTableRecord
100
AcDbLinetypeTableRecord
  2
DOT
 70
64
  3
. . . . . . . . . . . . . . . . . . . .
 72
65
 73
2
 40
0.2
 49
0.1
 74
0
 49
-0.1
 74
0
  0
LTYPE
  5
1F9
100
AcDbSymbolTableRecord
100
AcDbLinetypeTableRecord
  2
DASHED
 70
64
  3
- - - - - - - - - - - - - - - - - - - -
 72
65
 73
2
 40
0.2
 49
0.1
 74
0
 49
-0.1
 74
0
  0
ENDTAB
  0
TABLE
  2
LAYER
  5
2
100
AcDbSymbolTable
 70
36
  0
LAYER
  5
10
100
AcDbSymbolTableRecord
100
AcDbLayerTableRecord
  2
0
 70
0
 62
7
  6
CONTINUOUS
370
-3
390
F
  0
LAYER
  5
1FA
100
AcDbSymbolTableRecord
100
AcDbLayerTableRecord
  2
DEFAULT_1
 70
0
 62
7
  6
CENTER
370
-3
390
F
  0
LAYER
  5
1FB
100
AcDbSymbolTableRecord
100
AcDbLayerTableRecord
  2
DEFAULT_2
 70
0
 62
7
  6
HIDDEN
370
-3
390
F
  0
LAYER
  5
1FC
100
AcDbSymbolTableRecord
100
AcDbLayerTableRecord
  2
DEFAULT_3
 70
0
 62
7
  6
PHANTOM
370
-3
390
F
  0
LAYER
  5
1FD
100
AcDbSymbolTableRecord
100
AcDbLayerTableRecord
  2
00_COMPONENTS
 70
0
 62
7
  6
CONTINUOUS
370
-3
390
F
  0
LAYER
  5
1FE
100
AcDbSymbolTableRecord
100
AcDbLayerTableRecord
  2
01_1_DEFAULT_DATUMS
 70
0
 62
7
  6
CONTINUOUS
370
-3
390
F
  0
LAYER
  5
1FF
100
AcDbSymbolTableRecord
100
AcDbLayerTableRecord
  2
01_PLANES
 70
0
 62
7
  6
CONTINUOUS
370
-3
390
F
  0
LAYER
  5
200
100
AcDbSymbolTableRecord
100
AcDbLayerTableRecord
  2
02_COORD_SYS
 70
0
 62
7
  6
CONTINUOUS
370
-3
390
F
  0
LAYER
  5
201
100
AcDbSymbolTableRecord
100
AcDbLayerTableRecord
  2
03_AXES
 70
0
 62
7
  6
CONTINUOUS
370
-3
390
F
  0
LAYER
  5
202
100
AcDbSymbolTableRecord
100
AcDbLayerTableRecord
  2
04_POINTS
 70
0
 62
7
  6
CONTINUOUS
370
-3
390
F
  0
LAYER
  5
203
100
AcDbSymbolTableRecord
100
AcDbLayerTableRecord
  2
05_CURVES
 70
0
 62
7
  6
CONTINUOUS
370
-3
390
F
  0
LAYER
  5
204
100
AcDbSymbolTableRecord
100
AcDbLayerTableRecord
  2
06_SURFS
 70
0
 62
7
  6
CONTINUOUS
370
-3
390
F
  0
LAYER
  5
205
100
AcDbSymbolTableRecord
100
AcDbLayerTableRecord
  2
07_COSMETICS
 70
0
 62
7
  6
CONTINUOUS
370
-3
390
F
  0
LAYER
  5
206
100
AcDbSymbolTableRecord
100
AcDbLayerTableRecord
  2
10_NOTES
 70
0
 62
7
  6
CONTINUOUS
370
-3
390
F
  0
LAYER
  5
207
100
AcDbSymbolTableRecord
100
AcDbLayerTableRecord
  2
11_NOTES_PUB
 70
0
 62
7
  6
CONTINUOUS
370
-3
390
F
  0
LAYER
  5
208
100
AcDbSymbolTableRecord
100
AcDbLayerTableRecord
  2
13_REF_GTOL
 70
0
 62
7
  6
CONTINUOUS
370
-3
390
F
  0
LAYER
  5
209
100
AcDbSymbolTableRecord
100
AcDbLayerTableRecord
  2
16_MISC
 70
0
 62
7
  6
CONTINUOUS
370
-3
390
F
  0
LAYER
  5
20A
100
AcDbSymbolTableRecord
100
AcDbLayerTableRecord
  2
17_NO_PRINT
 70
0
 62
7
  6
CONTINUOUS
370
-3
390
F
  0
LAYER
  5
20B
100
AcDbSymbolTableRecord
100
AcDbLayerTableRecord
  2
18_DATUM_CAMS_JOINTS
 70
0
 62
7
  6
CONTINUOUS
370
-3
390
F
  0
LAYER
  5
20C
100
AcDbSymbolTableRecord
100
AcDbLayerTableRecord
  2
19_DATUM_FUNCTIONAL
 70
0
 62
7
  6
CONTINUOUS
370
-3
390
F
  0
LAYER
  5
20D
100
AcDbSymbolTableRecord
100
AcDbLayerTableRecord
  2
20_DATUM_KINEMATIC_SCHEME
 70
0
 62
7
  6
CONTINUOUS
370
-3
390
F
  0
ENDTAB
  0
TABLE
  2
STYLE
  5
3
100
AcDbSymbolTable
 70
1
  0
STYLE
  5
11
100
AcDbSymbolTableRecord
100
AcDbTextStyleTableRecord
  2
STANDARD
 70
0
 40
0.0
 41
1.0
 50
0.0
 71
0
 42
0.2
  3
ARIAL.TTF
  4

  0
STYLE
  5
20E
100
AcDbSymbolTableRecord
100
AcDbTextStyleTableRecord
  2
TEXTSTYLE_1
 70
0
 40
0.0
 41
0.8
 50
0.0
 71
0
 42
0.2
  3
gdt
  4

  0
ENDTAB
  0
TABLE
  2
VIEW
  5
6
100
AcDbSymbolTable
 70
0
  0
ENDTAB
  0
TABLE
  2
UCS
  5
7
100
AcDbSymbolTable
 70
0
  0
ENDTAB
  0
TABLE
  2
APPID
  5
9
100
AcDbSymbolTable
 70
1
  0
APPID
  5
20F
100
AcDbSymbolTableRecord
100
AcDbRegAppTableRecord
  2
ACAD
 70
0
  0
ENDTAB
  0
TABLE
  2
BLOCK_RECORD
  5
1
100
AcDbSymbolTable
 70
0
  0
BLOCK_RECORD
  5
210
100
AcDbSymbolTableRecord
100
AcDbBlockTableRecord
  2
*Model_Space
  0
BLOCK_RECORD
  5
211
100
AcDbSymbolTableRecord
100
AcDbBlockTableRecord
  2
*Paper_Space
  0
BLOCK_RECORD
  5
212
100
AcDbSymbolTableRecord
100
AcDbBlockTableRecord
  2
_FILLED
  0
ENDTAB
  0
TABLE
  2
DIMSTYLE
  5
A
100
AcDbSymbolTable
 70
1
100
AcDbDimStyleTable
 71
0
  0
DIMSTYLE
105
213
100
AcDbSymbolTableRecord
100
AcDbDimStyleTableRecord
  2
STANDARD
 70
0
  3

  4

 40
1.0
 41
0.9480515932
 42
1.0
 43
0.38
 44
1.0
 45
0.0
 46
0.0
 47
0.01
 48
0.01
140
1.3272722305
141
0.09
142
0.0
143
25.4
144
1.0
145
0.0
146
1.0
147
0.625
 71
1
 72
0
 73
0
 74
0
 75
0
 76
0
 77
1
 78
8
 79
2
170
0
171
1
172
0
173
0
174
0
175
0
176
0
177
0
178
0
270
2
179
2
271
2
272
2
273
2
274
2
275
0
280
0
281
0
282
0
283
1
284
8
285
0
286
0
287
3
288
0
340
11
278
46
341
212
342
212
343
212
344
212
  0
ENDTAB
  0
ENDSEC
  0
SECTION
  2
BLOCKS
  0
BLOCK
  5
20
100
AcDbEntity
  8
0
100
AcDbBlockBegin
  2
*Model_Space
 70
0
 10
0.0
 20
0.0
 30
0.0
  3
*Model_Space
  1

  0
ENDBLK
  5
21
100
AcDbEntity
  8
0
100
AcDbBlockEnd
  0
BLOCK
  5
1C
100
AcDbEntity
  8
0
100
AcDbBlockBegin
  2
*Paper_Space
 70
0
 10
0.0
 20
0.0
 30
0.0
  3
*Paper_Space
  1

  0
ENDBLK
  5
1D
100
AcDbEntity
  8
0
100
AcDbBlockEnd
  0
BLOCK
  5
214
100
AcDbEntity
  8
0
100
AcDbBlockBegin
  2
_FILLED
 70
64
 10
0.0
 20
0.0
  3
_FILLED
  1

  0
SOLID
  5
215
100
AcDbEntity
  8
0
  6
BYBLOCK
 62
0
100
AcDbTrace
 10
0.0
 20
0.0
 11
-1.0
 21
0.25
 12
-1.0
 22
-0.25
 13
-1.0
 23
-0.25
  0
ENDBLK
  5
216
100
AcDbEntity
  8
0
  6
BYBLOCK
 62
0
100
AcDbBlockEnd
  0
ENDSEC
  0
SECTION
  2
ENTITIES
  0
LINE
  5
217
100
AcDbEntity
  8
0
100
AcDbLine
 62
7
  6
BYLAYER
 10
9.4208710705
 20
71.6989909995
 11
9.4208710705
 21
78.9988008662
  0
LINE
  5
218
100
AcDbEntity
  8
0
100
AcDbLine
 62
7
  6
BYLAYER
 10
70.8643622351
 20
33.532597931
 11
70.6674006845
 21
33.4978682955
  0
LINE
  5
219
100
AcDbEntity
  8
0
100
AcDbLine
 62
7
  6
BYLAYER
 10
70.5830970955
 20
33.9759777067
 11
70.7800586461
 21
34.0107073422
  0
LINE
  5
21A
100
AcDbEntity
  8
0
100
AcDbLine
 62
7
  6
BYLAYER
 10
65.4208710705
 20
30.8488959328
 11
49.4208710705
 21
30.8488959328
  0
LINE
  5
21B
100
AcDbEntity
  8
0
100
AcDbLine
 62
7
  6
BYLAYER
 10
65.4208710705
 20
31.7738959328
 11
49.4208710705
 21
31.7738959328
  0
LINE
  5
21C
100
AcDbEntity
  8
0
100
AcDbLine
 62
7
  6
BYLAYER
 10
63.9208710705
 20
32.3991841824
 11
63.7208710705
 21
32.3991841824
  0
LINE
  5
21D
100
AcDbEntity
  8
0
100
AcDbLine
 62
7
  6
BYLAYER
 10
26.6835517499
 20
80.6714944785
 11
26.8955097117
 21
81.1536988416
  0
LINE
  5
21E
100
AcDbEntity
  8
0
100
AcDbLine
 62
7
  6
BYLAYER
 10
70.1832869135
 20
38.0574925252
 11
69.8862064929
 21
38.0157405949
  0
LINE
  5
21F
100
AcDbEntity
  8
0
100
AcDbLine
 62
7
  6
BYLAYER
 10
69.8453196981
 20
38.3066652565
 11
70.1424001187
 21
38.3484171868
  0
LINE
  5
220
100
AcDbEntity
  8
0
100
AcDbLine
 62
7
  6
BYLAYER
 10
69.445915409
 20
37.5894968807
 11
66.7660407995
 21
37.2604496535
  0
LINE
  5
221
100
AcDbEntity
  8
0
100
AcDbLine
 62
7
  6
BYLAYER
 10
69.3971676716
 20
37.9865153414
 11
66.7172930622
 21
37.6574681142
  0
LINE
  5
222
100
AcDbEntity
  8
0
100
AcDbLine
 62
7
  6
BYLAYER
 10
66.7051061278
 20
37.7567227294
 11
69.3850241848
 21
38.0857753312
  0
LINE
  5
223
100
AcDbEntity
  8
0
100
AcDbLine
 62
7
  6
BYLAYER
 10
63.7208710705
 20
32.9434749831
 11
63.9208710705
 21
32.9434749831
  0
LINE
  5
224
100
AcDbEntity
  8
0
100
AcDbLine
 62
7
  6
BYLAYER
 10
66.7958710597
 20
34.2738959328
 11
48.0458710813
 21
34.2738959328
  0
LINE
  5
225
100
AcDbEntity
  8
0
100
AcDbLine
 62
7
  6
BYLAYER
 10
19.9208710705
 20
70.6239755777
 11
19.9208710705
 21
80.073816288
  0
LINE
  5
226
100
AcDbEntity
  8
0
100
AcDbLine
 62
7
  6
BYLAYER
 10
71.7208719554
 20
42.5805045059
 11
71.4260147518
 21
42.5251942038
  0
LINE
  5
227
100
AcDbEntity
  8
0
100
AcDbLine
 62
7
  6
BYLAYER
 10
66.7958710705
 20
35.4238959328
 11
66.6708710705
 21
35.4238959328
  0
LINE
  5
228
100
AcDbEntity
  8
0
100
AcDbLine
 62
7
  6
BYLAYER
 10
48.1708710705
 20
35.4238959328
 11
48.0458710705
 21
35.4238959328
  0
LINE
  5
229
100
AcDbEntity
  8
0
100
AcDbLine
 62
7
  6
BYLAYER
 10
66.6708710705
 20
35.4738959328
 11
48.1708710705
 21
35.4738959328
  0
LINE
  5
22A
100
AcDbEntity
  8
0
100
AcDbLine
 62
7
  6
BYLAYER
 10
66.7958710705
 20
35.7738959328
 11
66.6708710705
 21
35.7738959328
  0
LINE
  5
22B
100
AcDbEntity
  8
0
100
AcDbLine
 62
7
  6
BYLAYER
 10
48.1708710705
 20
35.7738959328
 11
48.0458710705
 21
35.7738959328
  0
LINE
  5
22C
100
AcDbEntity
  8
0
100
AcDbLine
 62
7
  6
BYLAYER
 10
66.6708710705
 20
36.2738959328
 11
57.9208710705
 21
36.2738959328
  0
LINE
  5
22D
100
AcDbEntity
  8
0
100
AcDbLine
 62
7
  6
BYLAYER
 10
56.9208710705
 20
36.2738959328
 11
48.1708710705
 21
36.2738959328
  0
LINE
  5
22E
100
AcDbEntity
  8
0
100
AcDbLine
 62
7
  6
BYLAYER
 10
53.4963555846
 20
36.4938959328
 11
57.0208710807
 21
36.493895924
  0
LINE
  5
22F
100
AcDbEntity
  8
0
100
AcDbLine
 62
7
  6
BYLAYER
 10
57.8208715055
 20
36.4938961722
 11
61.3453864974
 21
36.4938959328
  0
LINE
  5
230
100
AcDbEntity
  8
0
100
AcDbLine
 62
7
  6
BYLAYER
 10
53.4980654896
 20
36.5238959328
 11
53.3800322453
 21
36.5238959328
  0
LINE
  5
231
100
AcDbEntity
  8
0
100
AcDbLine
 62
7
  6
BYLAYER
 10
48.045871073
 20
36.5238959328
 11
53.371313956
 21
36.5238959328
  0
LINE
  5
232
100
AcDbEntity
  8
0
100
AcDbLine
 62
7
  6
BYLAYER
 10
61.3436766443
 20
36.5238959328
 11
66.795871068
 21
36.5238959328
  0
LINE
  5
233
100
AcDbEntity
  8
0
100
AcDbLine
 62
7
  6
BYLAYER
 10
61.4617097015
 20
36.5715416464
 11
57.8649160019
 21
36.5715416464
  0
LINE
  5
234
100
AcDbEntity
  8
0
100
AcDbLine
 62
7
  6
BYLAYER
 10
56.9768261391
 20
36.5715416464
 11
53.3800324395
 21
36.5715416464
  0
LINE
  5
235
100
AcDbEntity
  8
0
100
AcDbLine
 62
7
  6
BYLAYER
 10
57.020871112
 20
37.267101056
 11
57.8208715658
 21
37.2671009921
  0
LINE
  5
236
100
AcDbEntity
  8
0
100
AcDbLine
 62
7
  6
BYLAYER
 10
57.8208715242
 20
37.3171009175
 11
57.0208709855
 21
37.3171009037
  0
LINE
  5
237
100
AcDbEntity
  8
0
100
AcDbLine
 62
7
  6
BYLAYER
 10
57.0208710478
 20
37.6761869534
 11
57.8208712696
 21
37.6761869534
  0
LINE
  5
238
100
AcDbEntity
  8
0
100
AcDbLine
 62
7
  6
BYLAYER
 10
57.8208710705
 20
37.9383315335
 11
57.0208710705
 21
37.9383315335
  0
LINE
  5
239
100
AcDbEntity
  8
0
100
AcDbLine
 62
7
  6
BYLAYER
 10
25.7680884412
 20
80.0738959328
 11
25.7680884412
 21
70.6238959328
  0
LINE
  5
23A
100
AcDbEntity
  8
0
100
AcDbLine
 62
7
  6
BYLAYER
 10
26.6835517499
 20
70.0262973872
 11
26.6835517499
 21
80.6714944785
  0
LINE
  5
23B
100
AcDbEntity
  8
0
100
AcDbLine
 62
7
  6
BYLAYER
 10
26.8955097117
 20
81.1536988416
 11
26.8955097117
 21
69.5440930241
  0
LINE
  5
23C
100
AcDbEntity
  8
0
100
AcDbLine
 62
7
  6
BYLAYER
 10
43.1208703801
 20
40.9672863232
 11
43.4157275703
 21
41.0225966964
  0
LINE
  5
23D
100
AcDbEntity
  8
0
100
AcDbLine
 62
7
  6
BYLAYER
 10
42.9896168946
 20
41.7738964363
 11
43.34587528
 21
41.7738958534
  0
LINE
  5
23E
100
AcDbEntity
  8
0
100
AcDbLine
 62
7
  6
BYLAYER
 10
71.8521229264
 20
41.7738955303
 11
71.4958695092
 21
41.773895681
  0
LINE
  5
23F
100
AcDbEntity
  8
0
100
AcDbLine
 62
7
  6
BYLAYER
 10
71.4125169424
 20
41.5155094464
 11
70.2278480829
 21
41.577593922
  0
LINE
  5
240
100
AcDbEntity
  8
0
100
AcDbLine
 62
7
  6
BYLAYER
 10
63.4242549816
 20
41.9367236442
 11
64.6088463733
 21
41.8746430356
  0
LINE
  5
241
100
AcDbEntity
  8
0
100
AcDbLine
 62
7
  6
BYLAYER
 10
71.417498231
 20
41.6110649988
 11
70.2328999902
 21
41.6731479895
  0
LINE
  5
242
100
AcDbEntity
  8
0
100
AcDbLine
 62
7
  6
BYLAYER
 10
63.4292252653
 20
42.0322835756
 11
64.6138940261
 21
41.970197622
  0
LINE
  5
243
100
AcDbEntity
  8
0
100
AcDbLine
 62
7
  6
BYLAYER
 10
43.1208710702
 20
42.5805092215
 11
43.4157282131
 21
42.525198596
  0
LINE
  5
244
100
AcDbEntity
  8
0
100
AcDbLine
 62
7
  6
BYLAYER
 10
28.7264363291
 20
68.3488959328
 11
28.7264363291
 21
82.3488959328
  0
LINE
  5
245
100
AcDbEntity
  8
0
100
AcDbLine
 62
7
  6
BYLAYER
 10
64.7066271468
 20
38.2097579128
 11
64.4168493989
 21
38.2874036263
  0
LINE
  5
246
100
AcDbEntity
  8
0
100
AcDbLine
 62
7
  6
BYLAYER
 10
64.4825198912
 20
38.5324892402
 11
64.7722976391
 21
38.4548435266
  0
LINE
  5
247
100
AcDbEntity
  8
0
100
AcDbLine
 62
7
  6
BYLAYER
 10
65.407217802
 20
48.4294991068
 11
69.7461839431
 21
48.4294991068
  0
LINE
  5
248
100
AcDbEntity
  8
0
100
AcDbLine
 62
7
  6
BYLAYER
 10
71.7208710709
 20
40.9672826447
 11
71.426013928
 21
41.0225932702
  0
LINE
  5
249
100
AcDbEntity
  8
0
100
AcDbLine
 62
7
  6
BYLAYER
 10
67.2554221004
 20
49.9506831054
 11
66.9325804482
 21
49.9506831054
  0
LINE
  5
24A
100
AcDbEntity
  8
0
100
AcDbLine
 62
7
  6
BYLAYER
 10
26.6835517499
 20
70.0262973872
 11
26.8955097117
 21
69.5440930241
  0
LINE
  5
24B
100
AcDbEntity
  8
0
100
AcDbLine
 62
7
  6
BYLAYER
 10
42.2208710705
 20
77.2096654483
 11
42.5208710705
 21
78.5096654483
  0
LINE
  5
24C
100
AcDbEntity
  8
0
100
AcDbLine
 62
7
  6
BYLAYER
 10
68.3841669331
 20
51.825160239
 11
66.7475025545
 21
51.825160239
  0
LINE
  5
24D
100
AcDbEntity
  8
0
100
AcDbLine
 62
7
  6
BYLAYER
 10
66.7475025545
 20
52.3405487062
 11
66.9814656893
 21
52.3405487062
  0
LINE
  5
24E
100
AcDbEntity
  8
0
100
AcDbLine
 62
7
  6
BYLAYER
 10
67.3402947096
 20
52.343287859
 11
68.3841669331
 21
52.343287859
  0
LINE
  5
24F
100
AcDbEntity
  8
0
100
AcDbLine
 62
7
  6
BYLAYER
 10
68.3841669331
 20
52.9543492587
 11
67.3724653604
 21
52.9543492587
  0
LINE
  5
250
100
AcDbEntity
  8
0
100
AcDbLine
 62
7
  6
BYLAYER
 10
67.3368810507
 20
53.4694169241
 11
68.3841669331
 21
53.4694169241
  0
LINE
  5
251
100
AcDbEntity
  8
0
100
AcDbLine
 62
7
  6
BYLAYER
 10
68.3841669331
 20
53.7469515079
 11
65.9357015584
 21
53.7469515079
  0
LINE
  5
252
100
AcDbEntity
  8
0
100
AcDbLine
 62
7
  6
BYLAYER
 10
39.9208710705
 20
82.3488066171
 11
39.9208710705
 21
68.3489852486
  0
LINE
  5
253
100
AcDbEntity
  8
0
100
AcDbLine
 62
7
  6
BYLAYER
 10
65.9357015584
 20
54.2616983717
 11
66.8289944075
 21
54.2616983717
  0
LINE
  5
254
100
AcDbEntity
  8
0
100
AcDbLine
 62
7
  6
BYLAYER
 10
67.1661405245
 20
54.2616983717
 11
67.919382875
 21
54.2616983717
  0
LINE
  5
255
100
AcDbEntity
  8
0
100
AcDbLine
 62
7
  6
BYLAYER
 10
68.2421011419
 20
54.2616983717
 11
68.3841669331
 21
54.2616983717
  0
LINE
  5
256
100
AcDbEntity
  8
0
100
AcDbLine
 62
7
  6
BYLAYER
 10
68.3859354552
 20
55.6970967102
 11
66.7475025545
 21
55.6970967102
  0
LINE
  5
257
100
AcDbEntity
  8
0
100
AcDbLine
 62
7
  6
BYLAYER
 10
66.7475025545
 20
56.2111197137
 11
68.3859354552
 21
56.2111197137
  0
LINE
  5
258
100
AcDbEntity
  8
0
100
AcDbLine
 62
7
  6
BYLAYER
 10
67.787961119
 20
56.504241969
 11
66.7475025545
 21
56.504241969
  0
LINE
  5
259
100
AcDbEntity
  8
0
100
AcDbLine
 62
7
  6
BYLAYER
 10
57.0208710964
 20
37.267101206
 11
56.9949897255
 21
37.2929830147
  0
LINE
  5
25A
100
AcDbEntity
  8
0
100
AcDbLine
 62
7
  6
BYLAYER
 10
41.5208710705
 20
79.0096654483
 11
41.5208710705
 21
77.1524622358
  0
LINE
  5
25B
100
AcDbEntity
  8
0
100
AcDbLine
 62
7
  6
BYLAYER
 10
41.5208710705
 20
76.0096654483
 11
41.5208710705
 21
76.2204343207
  0
LINE
  5
25C
100
AcDbEntity
  8
0
100
AcDbLine
 62
7
  6
BYLAYER
 10
41.7208710705
 20
76.3449914839
 11
41.7208710705
 21
79.2096654483
  0
LINE
  5
25D
100
AcDbEntity
  8
0
100
AcDbLine
 62
7
  6
BYLAYER
 10
42.2208710705
 20
77.2096654483
 11
42.2208710705
 21
76.0096654483
  0
LINE
  5
25E
100
AcDbEntity
  8
0
100
AcDbLine
 62
7
  6
BYLAYER
 10
42.4208710705
 20
76.7738858352
 11
42.4208710705
 21
33.9780138562
  0
LINE
  5
25F
100
AcDbEntity
  8
0
100
AcDbLine
 62
7
  6
BYLAYER
 10
43.1208710266
 20
33.7256174139
 11
43.120870588
 21
40.9672847617
  0
LINE
  5
260
100
AcDbEntity
  8
0
100
AcDbLine
 62
7
  6
BYLAYER
 10
43.1208713598
 20
42.5805106243
 11
43.120878452
 21
77.7089312527
  0
LINE
  5
261
100
AcDbEntity
  8
0
100
AcDbLine
 62
7
  6
BYLAYER
 10
66.7475025545
 20
57.0190710896
 11
67.7457140052
 21
57.0190710896
  0
LINE
  5
262
100
AcDbEntity
  8
0
100
AcDbLine
 62
7
  6
BYLAYER
 10
68.3841669331
 20
57.6338258215
 11
68.1501708956
 21
57.6338258215
  0
LINE
  5
263
100
AcDbEntity
  8
0
100
AcDbLine
 62
7
  6
BYLAYER
 10
67.8019859105
 20
57.6338258215
 11
66.7475025545
 21
57.6338258215
  0
LINE
  5
264
100
AcDbEntity
  8
0
100
AcDbLine
 62
7
  6
BYLAYER
 10
66.7475025545
 20
58.1483341405
 11
68.3841669331
 21
58.1483341405
  0
LINE
  5
265
100
AcDbEntity
  8
0
100
AcDbLine
 62
7
  6
BYLAYER
 10
67.1521239586
 20
58.2144439641
 11
66.8644635577
 21
58.2144439641
  0
LINE
  5
266
100
AcDbEntity
  8
0
100
AcDbLine
 62
7
  6
BYLAYER
 10
67.919382875
 20
58.4952770472
 11
67.1735271888
 21
58.4952770472
  0
LINE
  5
267
100
AcDbEntity
  8
0
100
AcDbLine
 62
7
  6
BYLAYER
 10
67.1454118004
 20
59.0099416542
 11
67.5390683675
 21
59.0099416542
  0
LINE
  5
268
100
AcDbEntity
  8
0
100
AcDbLine
 62
7
  6
BYLAYER
 10
67.7984899948
 20
59.8978960343
 11
68.2175227976
 21
59.8978960343
  0
LINE
  5
269
100
AcDbEntity
  8
0
100
AcDbLine
 62
7
  6
BYLAYER
 10
67.1950949327
 20
60.0962337309
 11
66.8255807486
 21
60.0962337309
  0
LINE
  5
26A
100
AcDbEntity
  8
0
100
AcDbLine
 62
7
  6
BYLAYER
 10
68.3098231996
 20
60.1215359354
 11
67.9260127764
 21
60.1215359354
  0
LINE
  5
26B
100
AcDbEntity
  8
0
100
AcDbLine
 62
7
  6
BYLAYER
 10
67.2554221004
 20
61.7444222931
 11
66.9325804482
 21
61.7444222931
  0
LINE
  5
26C
100
AcDbEntity
  8
0
100
AcDbLine
 62
7
  6
BYLAYER
 10
47.4208710141
 20
81.4738800855
 11
47.4208710141
 21
81.7738959328
  0
LINE
  5
26D
100
AcDbEntity
  8
0
100
AcDbLine
 62
7
  6
BYLAYER
 10
48.0458710813
 20
34.078537192
 11
48.045871073
 21
36.7192426455
  0
LINE
  5
26E
100
AcDbEntity
  8
0
100
AcDbLine
 62
7
  6
BYLAYER
 10
48.1708710705
 20
34.2738959328
 11
48.1708710705
 21
36.2738959328
  0
LINE
  5
26F
100
AcDbEntity
  8
0
100
AcDbLine
 62
7
  6
BYLAYER
 10
49.4208710705
 20
31.7738959328
 11
49.4208710705
 21
32.2906530525
  0
LINE
  5
270
100
AcDbEntity
  8
0
100
AcDbLine
 62
7
  6
BYLAYER
 10
43.0528837488
 20
33.4334227337
 11
43.1208710705
 21
33.7256174018
  0
LINE
  5
271
100
AcDbEntity
  8
0
100
AcDbLine
 62
7
  6
BYLAYER
 10
67.7984899948
 20
63.6325540624
 11
66.7475025545
 21
63.6325540624
  0
LINE
  5
272
100
AcDbEntity
  8
0
100
AcDbLine
 62
7
  6
BYLAYER
 10
66.7475025545
 20
64.1473009261
 11
67.7063870092
 21
64.1473009261
  0
LINE
  5
273
100
AcDbEntity
  8
0
100
AcDbLine
 62
7
  6
BYLAYER
 10
67.7947884369
 20
64.8542738032
 11
66.7475025545
 21
64.8542738032
  0
LINE
  5
274
100
AcDbEntity
  8
0
100
AcDbLine
 62
7
  6
BYLAYER
 10
53.4503510046
 20
39.7553074261
 11
53.8608039359
 21
38.0714720908
  0
LINE
  5
275
100
AcDbEntity
  8
0
100
AcDbLine
 62
7
  6
BYLAYER
 10
49.4208710705
 20
30.8488959328
 11
49.4370120877
 21
31.7736141903
  0
LINE
  5
276
100
AcDbEntity
  8
0
100
AcDbLine
 62
7
  6
BYLAYER
 10
66.7475025545
 20
65.3689466359
 11
67.7165950832
 21
65.3689466359
  0
LINE
  5
277
100
AcDbEntity
  8
0
100
AcDbLine
 62
7
  6
BYLAYER
 10
68.3841669331
 20
66.0755987112
 11
68.1749055279
 21
66.0755987112
  0
LINE
  5
278
100
AcDbEntity
  8
0
100
AcDbLine
 62
7
  6
BYLAYER
 10
67.844636083
 20
66.0755987112
 11
66.7475025545
 21
66.0755987112
  0
LINE
  5
279
100
AcDbEntity
  8
0
100
AcDbLine
 62
7
  6
BYLAYER
 10
66.7475025545
 20
66.5904278319
 11
68.3841669331
 21
66.5904278319
  0
LINE
  5
27A
100
AcDbEntity
  8
0
100
AcDbLine
 62
7
  6
BYLAYER
 10
67.2554221004
 20
66.8228938921
 11
66.9325804482
 21
66.8228938921
  0
LINE
  5
27B
100
AcDbEntity
  8
0
100
AcDbLine
 62
7
  6
BYLAYER
 10
53.4963558854
 20
36.4938956429
 11
53.4963579573
 21
36.2738959328
  0
LINE
  5
27C
100
AcDbEntity
  8
0
100
AcDbLine
 62
7
  6
BYLAYER
 10
53.9206336478
 20
79.9078655723
 11
53.9206336478
 21
79.0797464317
  0
LINE
  5
27D
100
AcDbEntity
  8
0
100
AcDbLine
 62
7
  6
BYLAYER
 10
54.4208710915
 20
36.2738959328
 11
54.4208710705
 21
39.5626073274
  0
LINE
  5
27E
100
AcDbEntity
  8
0
100
AcDbLine
 62
7
  6
BYLAYER
 10
54.6992208815
 20
78.8488959328
 11
54.6992208815
 21
79.9738959328
  0
LINE
  5
27F
100
AcDbEntity
  8
0
100
AcDbLine
 62
7
  6
BYLAYER
 10
59.3603461966
 20
78.6230140283
 11
59.4049831634
 21
78.7896014565
  0
LINE
  5
280
100
AcDbEntity
  8
0
100
AcDbLine
 62
7
  6
BYLAYER
 10
39.9208710705
 20
68.3488959328
 11
28.7264363291
 21
68.3488959328
  0
LINE
  5
281
100
AcDbEntity
  8
0
100
AcDbLine
 62
7
  6
BYLAYER
 10
69.1694647748
 20
68.713197242
 11
66.7475025545
 21
68.713197242
  0
LINE
  5
282
100
AcDbEntity
  8
0
100
AcDbLine
 62
7
  6
BYLAYER
 10
66.7475025545
 20
69.2277878178
 11
69.1694647748
 21
69.2277878178
  0
LINE
  5
283
100
AcDbEntity
  8
0
100
AcDbLine
 62
7
  6
BYLAYER
 10
67.2554221004
 20
69.4603361349
 11
66.9325804482
 21
69.4603361349
  0
LINE
  5
284
100
AcDbEntity
  8
0
100
AcDbLine
 62
7
  6
BYLAYER
 10
39.9208710705
 20
70.3488959328
 11
42.4208710705
 21
70.3488959328
  0
LINE
  5
285
100
AcDbEntity
  8
0
100
AcDbLine
 62
7
  6
BYLAYER
 10
70.1424001187
 20
38.3484171868
 11
69.9557801756
 21
38.5833065157
  0
LINE
  5
286
100
AcDbEntity
  8
0
100
AcDbLine
 62
7
  6
BYLAYER
 10
56.6306094548
 20
78.8488959328
 11
56.6306094548
 21
79.9738959328
  0
LINE
  5
287
100
AcDbEntity
  8
0
100
AcDbLine
 62
7
  6
BYLAYER
 10
56.9208710705
 20
37.5793068529
 11
56.9208710705
 21
36.9065967629
  0
LINE
  5
288
100
AcDbEntity
  8
0
100
AcDbLine
 62
7
  6
BYLAYER
 10
56.9208710705
 20
35.4738959328
 11
56.9208710705
 21
36.2738959328
  0
LINE
  5
289
100
AcDbEntity
  8
0
100
AcDbLine
 62
7
  6
BYLAYER
 10
57.0208710807
 20
36.493895924
 11
57.020871112
 21
37.267101056
  0
LINE
  5
28A
100
AcDbEntity
  8
0
100
AcDbLine
 62
7
  6
BYLAYER
 10
57.0208709855
 20
37.3171009037
 11
57.0208710705
 21
38.0216825688
  0
LINE
  5
28B
100
AcDbEntity
  8
0
100
AcDbLine
 62
7
  6
BYLAYER
 10
57.4104065959
 20
79.688256147
 11
57.4104065959
 21
78.8488959328
  0
LINE
  5
28C
100
AcDbEntity
  8
0
100
AcDbLine
 62
7
  6
BYLAYER
 10
57.4208710578
 20
34.2738959328
 11
57.4208710577
 21
33.4317788209
  0
LINE
  5
28D
100
AcDbEntity
  8
0
100
AcDbLine
 62
7
  6
BYLAYER
 10
25.7680884412
 20
70.6238959328
 11
19.9208710705
 21
70.6238959328
  0
LINE
  5
28E
100
AcDbEntity
  8
0
100
AcDbLine
 62
7
  6
BYLAYER
 10
69.1694647748
 20
70.6526243778
 11
68.7254834719
 21
70.6526243778
  0
LINE
  5
28F
100
AcDbEntity
  8
0
100
AcDbLine
 62
7
  6
BYLAYER
 10
68.7254834719
 20
71.5298935941
 11
66.7475025545
 21
71.5298935941
  0
LINE
  5
290
100
AcDbEntity
  8
0
100
AcDbLine
 62
7
  6
BYLAYER
 10
9.4208710705
 20
71.6988959328
 11
19.9208710705
 21
71.6988959328
  0
LINE
  5
291
100
AcDbEntity
  8
0
100
AcDbLine
 62
7
  6
BYLAYER
 10
66.7475025545
 20
72.1330418857
 11
68.7254834719
 21
72.1330418857
  0
LINE
  5
292
100
AcDbEntity
  8
0
100
AcDbLine
 62
7
  6
BYLAYER
 10
68.7254834719
 20
73.0104756157
 11
69.1694647748
 21
73.0104756157
  0
LINE
  5
293
100
AcDbEntity
  8
0
100
AcDbLine
 62
7
  6
BYLAYER
 10
69.7378064152
 20
37.7134235948
 11
69.8864867582
 21
37.4528585249
  0
LINE
  5
294
100
AcDbEntity
  8
0
100
AcDbLine
 62
7
  6
BYLAYER
 10
67.3319548973
 20
32.7912471633
 11
67.6427901807
 21
32.0219028397
  0
LINE
  5
295
100
AcDbEntity
  8
0
100
AcDbLine
 62
7
  6
BYLAYER
 10
61.3813003656
 20
36.8716333735
 11
61.4617103062
 21
36.5715393895
  0
LINE
  5
296
100
AcDbEntity
  8
0
100
AcDbLine
 62
7
  6
BYLAYER
 10
57.7754850757
 20
79.7611835032
 11
57.7754850788
 21
79.1489036728
  0
LINE
  5
297
100
AcDbEntity
  8
0
100
AcDbLine
 62
7
  6
BYLAYER
 10
57.8208710705
 20
38.0216825688
 11
57.8208715242
 21
37.3171009175
  0
LINE
  5
298
100
AcDbEntity
  8
0
100
AcDbLine
 62
7
  6
BYLAYER
 10
57.8208715658
 20
37.2671009921
 11
57.8208715055
 21
36.4938961722
  0
LINE
  5
299
100
AcDbEntity
  8
0
100
AcDbLine
 62
7
  6
BYLAYER
 10
57.9208710705
 20
35.4738959328
 11
57.9208710705
 21
36.2738959328
  0
LINE
  5
29A
100
AcDbEntity
  8
0
100
AcDbLine
 62
7
  6
BYLAYER
 10
57.9208710705
 20
36.9065967629
 11
57.9208710705
 21
37.5793068529
  0
LINE
  5
29B
100
AcDbEntity
  8
0
100
AcDbLine
 62
7
  6
BYLAYER
 10
53.3800321143
 20
36.5715404327
 11
53.4604417631
 21
36.8716333275
  0
LINE
  5
29C
100
AcDbEntity
  8
0
100
AcDbLine
 62
7
  6
BYLAYER
 10
69.7461839431
 20
73.9190600117
 11
65.407217802
 21
73.9190600117
  0
LINE
  5
29D
100
AcDbEntity
  8
0
100
AcDbLine
 62
7
  6
BYLAYER
 10
42.4208710705
 20
75.1488959328
 11
39.9208710705
 21
75.1488959328
  0
LINE
  5
29E
100
AcDbEntity
  8
0
100
AcDbLine
 62
7
  6
BYLAYER
 10
39.9208710705
 20
75.6488959328
 11
42.4208710705
 21
75.6488959328
  0
LINE
  5
29F
100
AcDbEntity
  8
0
100
AcDbLine
 62
7
  6
BYLAYER
 10
64.0994653197
 20
33.1423261683
 11
64.0780595689
 21
33.3411773534
  0
LINE
  5
2A0
100
AcDbEntity
  8
0
100
AcDbLine
 62
7
  6
BYLAYER
 10
63.7408099288
 20
32.0996794217
 11
63.7208732204
 21
32.3991845728
  0
LINE
  5
2A1
100
AcDbEntity
  8
0
100
AcDbLine
 62
7
  6
BYLAYER
 10
61.0550567602
 20
79.2543453025
 11
61.0537796918
 21
79.4114632022
  0
LINE
  5
2A2
100
AcDbEntity
  8
0
100
AcDbLine
 62
7
  6
BYLAYER
 10
60.4208710705
 20
39.5626073274
 11
60.4208710917
 21
36.2738959328
  0
LINE
  5
2A3
100
AcDbEntity
  8
0
100
AcDbLine
 62
7
  6
BYLAYER
 10
61.34538376
 20
36.2738959328
 11
61.3453861373
 21
36.4938973252
  0
LINE
  5
2A4
100
AcDbEntity
  8
0
100
AcDbLine
 62
7
  6
BYLAYER
 10
39.9208710705
 20
76.0096665847
 11
42.4208710705
 21
76.0096654483
  0
LINE
  5
2A5
100
AcDbEntity
  8
0
100
AcDbLine
 62
7
  6
BYLAYER
 10
67.3553527385
 20
76.0711128575
 11
67.7192027774
 21
76.0711128575
  0
LINE
  5
2A6
100
AcDbEntity
  8
0
100
AcDbLine
 62
7
  6
BYLAYER
 10
42.2208710705
 20
76.1596654483
 11
41.5208710705
 21
76.1596654483
  0
LINE
  5
2A7
100
AcDbEntity
  8
0
100
AcDbLine
 62
7
  6
BYLAYER
 10
39.9208710705
 20
76.2204313406
 11
41.5208710705
 21
76.2204343207
  0
LINE
  5
2A8
100
AcDbEntity
  8
0
100
AcDbLine
 62
7
  6
BYLAYER
 10
39.9208710705
 20
76.3449914839
 11
41.7208710705
 21
76.3449914839
  0
LINE
  5
2A9
100
AcDbEntity
  8
0
100
AcDbLine
 62
7
  6
BYLAYER
 10
42.425832415
 20
76.9096654483
 11
42.2208710705
 21
76.9096654483
  0
LINE
  5
2AA
100
AcDbEntity
  8
0
100
AcDbLine
 62
7
  6
BYLAYER
 10
67.0366154911
 20
76.9372198205
 11
67.3551863969
 21
76.9372198205
  0
LINE
  5
2AB
100
AcDbEntity
  8
0
100
AcDbLine
 62
7
  6
BYLAYER
 10
67.7188487684
 20
76.9372198205
 11
68.0254397797
 21
76.9372198205
  0
LINE
  5
2AC
100
AcDbEntity
  8
0
100
AcDbLine
 62
7
  6
BYLAYER
 10
68.40083214
 20
76.9372198205
 11
68.8895118399
 21
76.9372198205
  0
LINE
  5
2AD
100
AcDbEntity
  8
0
100
AcDbLine
 62
7
  6
BYLAYER
 10
68.8895118399
 20
77.2449179881
 11
68.4008321692
 21
77.2449179881
  0
LINE
  5
2AE
100
AcDbEntity
  8
0
100
AcDbLine
 62
7
  6
BYLAYER
 10
68.0252556559
 20
77.2449179881
 11
67.718684407
 21
77.2449179881
  0
LINE
  5
2AF
100
AcDbEntity
  8
0
100
AcDbLine
 62
7
  6
BYLAYER
 10
67.3551091668
 20
77.2449179881
 11
67.036528419
 21
77.2449179881
  0
LINE
  5
2B0
100
AcDbEntity
  8
0
100
AcDbLine
 62
7
  6
BYLAYER
 10
67.036528419
 20
78.1448818671
 11
67.3551091668
 21
78.1448818671
  0
LINE
  5
2B1
100
AcDbEntity
  8
0
100
AcDbLine
 62
7
  6
BYLAYER
 10
67.718684407
 20
78.1448818671
 11
68.0252556559
 21
78.1448818671
  0
LINE
  5
2B2
100
AcDbEntity
  8
0
100
AcDbLine
 62
7
  6
BYLAYER
 10
54.2208706703
 20
78.1738959328
 11
60.7708710705
 21
78.1738959328
  0
LINE
  5
2B3
100
AcDbEntity
  8
0
100
AcDbLine
 62
7
  6
BYLAYER
 10
68.0252556559
 20
78.5095346719
 11
67.036528419
 21
78.5095346719
  0
LINE
  5
2B4
100
AcDbEntity
  8
0
100
AcDbLine
 62
7
  6
BYLAYER
 10
61.4639143277
 20
78.5096654483
 11
53.5295306285
 21
78.5096654483
  0
LINE
  5
2B5
100
AcDbEntity
  8
0
100
AcDbLine
 62
7
  6
BYLAYER
 10
42.5208710705
 20
78.5096654483
 11
42.7371225717
 21
78.5096654483
  0
LINE
  5
2B6
100
AcDbEntity
  8
0
100
AcDbLine
 62
7
  6
BYLAYER
 10
59.2637051216
 20
78.5488959328
 11
55.5780370194
 21
78.5488959328
  0
LINE
  5
2B7
100
AcDbEntity
  8
0
100
AcDbLine
 62
7
  6
BYLAYER
 10
59.3603461966
 20
78.6230140283
 11
55.4813959444
 21
78.6230140283
  0
LINE
  5
2B8
100
AcDbEntity
  8
0
100
AcDbLine
 62
7
  6
BYLAYER
 10
65.8881819206
 20
76.9377791669
 11
66.6722374076
 21
76.9372198206
  0
LINE
  5
2B9
100
AcDbEntity
  8
0
100
AcDbLine
 62
7
  6
BYLAYER
 10
66.6722374343
 20
77.2449179882
 11
65.8881818947
 21
77.2454197548
  0
LINE
  5
2BA
100
AcDbEntity
  8
0
100
AcDbLine
 62
7
  6
BYLAYER
 10
55.4813959444
 20
78.6230140283
 11
55.4367589776
 21
78.7896014565
  0
LINE
  5
2BB
100
AcDbEntity
  8
0
100
AcDbLine
 62
7
  6
BYLAYER
 10
65.4208710705
 20
30.8488959328
 11
65.4047300533
 21
31.7736141903
  0
LINE
  5
2BC
100
AcDbEntity
  8
0
100
AcDbLine
 62
7
  6
BYLAYER
 10
63.7208711822
 20
32.9434796306
 11
63.7208714201
 21
32.3991844529
  0
LINE
  5
2BD
100
AcDbEntity
  8
0
100
AcDbLine
 62
7
  6
BYLAYER
 10
63.9208710705
 20
32.2986830446
 11
63.9208710705
 21
32.9434749831
  0
LINE
  5
2BE
100
AcDbEntity
  8
0
100
AcDbLine
 62
7
  6
BYLAYER
 10
65.407217802
 20
73.9190600117
 11
65.407217802
 21
48.4294991068
  0
LINE
  5
2BF
100
AcDbEntity
  8
0
100
AcDbLine
 62
7
  6
BYLAYER
 10
65.4208710705
 20
31.7738959328
 11
65.4208710705
 21
32.2906530525
  0
LINE
  5
2C0
100
AcDbEntity
  8
0
100
AcDbLine
 62
7
  6
BYLAYER
 10
61.3913942735
 20
39.7553037611
 11
60.9809372049
 21
38.0714746023
  0
LINE
  5
2C1
100
AcDbEntity
  8
0
100
AcDbLine
 62
7
  6
BYLAYER
 10
71.1296265337
 20
43.2723304052
 11
70.0298113211
 21
42.8279762157
  0
LINE
  5
2C2
100
AcDbEntity
  8
0
100
AcDbLine
 62
7
  6
BYLAYER
 10
63.7121356522
 20
40.2754695592
 11
64.81193082
 21
40.71981565
  0
LINE
  5
2C3
100
AcDbEntity
  8
0
100
AcDbLine
 62
7
  6
BYLAYER
 10
63.663090045
 20
40.4030998999
 11
64.7786255415
 21
40.8063252438
  0
LINE
  5
2C4
100
AcDbEntity
  8
0
100
AcDbLine
 62
7
  6
BYLAYER
 10
64.7493699911
 20
40.8903030145
 11
63.6331118611
 21
40.4882520593
  0
LINE
  5
2C5
100
AcDbEntity
  8
0
100
AcDbLine
 62
7
  6
BYLAYER
 10
70.0656238365
 20
42.734591945
 11
71.1821470467
 21
43.1352548221
  0
LINE
  5
2C6
100
AcDbEntity
  8
0
100
AcDbLine
 62
7
  6
BYLAYER
 10
70.0946102844
 20
42.6506930028
 11
71.2117981197
 21
43.0501686732
  0
LINE
  5
2C7
100
AcDbEntity
  8
0
100
AcDbLine
 62
7
  6
BYLAYER
 10
55.4367589776
 20
78.7896014565
 11
59.4049831634
 21
78.7896014565
  0
LINE
  5
2C8
100
AcDbEntity
  8
0
100
AcDbLine
 62
7
  6
BYLAYER
 10
53.3735829597
 20
78.8488959328
 11
61.616798455
 21
78.8488959328
  0
LINE
  5
2C9
100
AcDbEntity
  8
0
100
AcDbLine
 62
7
  6
BYLAYER
 10
9.4208710705
 20
78.9988959328
 11
19.9208710705
 21
78.9988959328
  0
LINE
  5
2CA
100
AcDbEntity
  8
0
100
AcDbLine
 62
7
  6
BYLAYER
 10
41.5208710705
 20
79.0096654483
 11
42.9557282956
 21
79.0096654483
  0
LINE
  5
2CB
100
AcDbEntity
  8
0
100
AcDbLine
 62
7
  6
BYLAYER
 10
43.0622589061
 20
79.2096654483
 11
41.7208710705
 21
79.2096654483
  0
LINE
  5
2CC
100
AcDbEntity
  8
0
100
AcDbLine
 62
7
  6
BYLAYER
 10
57.6990890281
 20
79.7611835032
 11
61.2992760525
 21
79.7611835032
  0
LINE
  5
2CD
100
AcDbEntity
  8
0
100
AcDbLine
 62
7
  6
BYLAYER
 10
60.7708702923
 20
79.9738959328
 11
57.6444778368
 21
79.9738959328
  0
LINE
  5
2CE
100
AcDbEntity
  8
0
100
AcDbLine
 62
7
  6
BYLAYER
 10
57.1972642973
 20
79.9738959328
 11
54.2208721757
 21
79.9738959328
  0
LINE
  5
2CF
100
AcDbEntity
  8
0
100
AcDbLine
 62
7
  6
BYLAYER
 10
25.7680884412
 20
80.0738959328
 11
19.9208710705
 21
80.0738959328
  0
LINE
  5
2D0
100
AcDbEntity
  8
0
100
AcDbLine
 62
7
  6
BYLAYER
 10
72.3445710117
 20
80.9596654483
 11
72.4208710705
 21
80.9596654483
  0
LINE
  5
2D1
100
AcDbEntity
  8
0
100
AcDbLine
 62
7
  6
BYLAYER
 10
39.9208710705
 20
81.3096654483
 11
45.34783269
 21
81.3096654483
  0
LINE
  5
2D2
100
AcDbEntity
  8
0
100
AcDbLine
 62
7
  6
BYLAYER
 10
70.3032904045
 20
34.3325748946
 11
70.3447129747
 21
34.1369114829
  0
LINE
  5
2D3
100
AcDbEntity
  8
0
100
AcDbLine
 62
7
  6
BYLAYER
 10
70.8643622221
 20
33.5325979284
 11
70.9243387233
 21
33.2386268486
  0
LINE
  5
2D4
100
AcDbEntity
  8
0
100
AcDbLine
 62
7
  6
BYLAYER
 10
67.2992737487
 20
32.9176157883
 11
66.7051061278
 21
37.7567227294
  0
LINE
  5
2D5
100
AcDbEntity
  8
0
100
AcDbLine
 62
7
  6
BYLAYER
 10
67.7193671386
 20
76.071113043
 11
67.7186844071
 21
76.9372196325
  0
LINE
  5
2D6
100
AcDbEntity
  8
0
100
AcDbLine
 62
7
  6
BYLAYER
 10
68.025255656
 20
76.9372196837
 11
68.0260206768
 21
75.4158810846
  0
LINE
  5
2D7
100
AcDbEntity
  8
0
100
AcDbLine
 62
7
  6
BYLAYER
 10
67.3551091668
 20
76.9372197789
 11
67.3554299685
 21
76.0711129032
  0
LINE
  5
2D8
100
AcDbEntity
  8
0
100
AcDbLine
 62
7
  6
BYLAYER
 10
67.0368903358
 20
75.4936162835
 11
67.0365284191
 21
76.9372197883
  0
LINE
  5
2D9
100
AcDbEntity
  8
0
100
AcDbLine
 62
7
  6
BYLAYER
 10
65.888181781
 20
77.2452989591
 11
65.888181781
 21
76.9376445095
  0
LINE
  5
2DA
100
AcDbEntity
  8
0
100
AcDbLine
 62
7
  6
BYLAYER
 10
65.9357015584
 20
53.7469515079
 11
65.9357015584
 21
54.2616983717
  0
LINE
  5
2DB
100
AcDbEntity
  8
0
100
AcDbLine
 62
7
  6
BYLAYER
 10
66.6708710705
 20
34.2738959328
 11
66.6708710705
 21
36.2738959328
  0
LINE
  5
2DC
100
AcDbEntity
  8
0
100
AcDbLine
 62
7
  6
BYLAYER
 10
66.6722375444
 20
78.4867248477
 11
66.6722375444
 21
77.2450387838
  0
LINE
  5
2DD
100
AcDbEntity
  8
0
100
AcDbLine
 62
7
  6
BYLAYER
 10
66.6722375444
 20
76.937354478
 11
66.6722375444
 21
75.6953882844
  0
LINE
  5
2DE
100
AcDbEntity
  8
0
100
AcDbLine
 62
7
  6
BYLAYER
 10
66.7475025545
 20
51.825160239
 11
66.7475025545
 21
52.3405487062
  0
LINE
  5
2DF
100
AcDbEntity
  8
0
100
AcDbLine
 62
7
  6
BYLAYER
 10
66.7475025545
 20
55.6970967102
 11
66.7475025545
 21
56.2111197137
  0
LINE
  5
2E0
100
AcDbEntity
  8
0
100
AcDbLine
 62
7
  6
BYLAYER
 10
66.7475025545
 20
56.504241969
 11
66.7475025545
 21
57.0190710896
  0
LINE
  5
2E1
100
AcDbEntity
  8
0
100
AcDbLine
 62
7
  6
BYLAYER
 10
66.7475025545
 20
57.6338258215
 11
66.7475025545
 21
58.1483341405
  0
LINE
  5
2E2
100
AcDbEntity
  8
0
100
AcDbLine
 62
7
  6
BYLAYER
 10
66.7475025545
 20
63.6325540624
 11
66.7475025545
 21
64.1473009261
  0
LINE
  5
2E3
100
AcDbEntity
  8
0
100
AcDbLine
 62
7
  6
BYLAYER
 10
66.7475025545
 20
64.8542738032
 11
66.7475025545
 21
65.3689466359
  0
LINE
  5
2E4
100
AcDbEntity
  8
0
100
AcDbLine
 62
7
  6
BYLAYER
 10
66.7475025545
 20
66.0755987112
 11
66.7475025545
 21
66.5904278319
  0
LINE
  5
2E5
100
AcDbEntity
  8
0
100
AcDbLine
 62
7
  6
BYLAYER
 10
66.7475025545
 20
68.713197242
 11
66.7475025545
 21
69.2277878178
  0
LINE
  5
2E6
100
AcDbEntity
  8
0
100
AcDbLine
 62
7
  6
BYLAYER
 10
66.7475025545
 20
71.5298935941
 11
66.7475025545
 21
72.1330418857
  0
LINE
  5
2E7
100
AcDbEntity
  8
0
100
AcDbLine
 62
7
  6
BYLAYER
 10
66.795871068
 20
36.7192425849
 11
66.7958710598
 21
34.0785371928
  0
LINE
  5
2E8
100
AcDbEntity
  8
0
100
AcDbLine
 62
7
  6
BYLAYER
 10
67.036528419
 20
77.2449179881
 11
67.036528419
 21
78.1448818671
  0
LINE
  5
2E9
100
AcDbEntity
  8
0
100
AcDbLine
 62
7
  6
BYLAYER
 10
67.036528419
 20
78.5095346719
 11
67.036528419
 21
78.6918980899
  0
LINE
  5
2EA
100
AcDbEntity
  8
0
100
AcDbLine
 62
7
  6
BYLAYER
 10
67.3551091668
 20
78.1448818671
 11
67.3551091668
 21
77.2449179881
  0
LINE
  5
2EB
100
AcDbEntity
  8
0
100
AcDbLine
 62
7
  6
BYLAYER
 10
67.4823934036
 20
49.9229707755
 11
67.4823934036
 21
51.0985855566
  0
LINE
  5
2EC
100
AcDbEntity
  8
0
100
AcDbLine
 62
7
  6
BYLAYER
 10
67.4823934036
 20
61.7167099631
 11
67.4823934036
 21
62.8920039425
  0
LINE
  5
2ED
100
AcDbEntity
  8
0
100
AcDbLine
 62
7
  6
BYLAYER
 10
67.4823934036
 20
66.7944577019
 11
67.4823934036
 21
67.969916195
  0
LINE
  5
2EE
100
AcDbEntity
  8
0
100
AcDbLine
 62
7
  6
BYLAYER
 10
67.4823934036
 20
69.4319822015
 11
67.4823934036
 21
70.6071116673
  0
LINE
  5
2EF
100
AcDbEntity
  8
0
100
AcDbLine
 62
7
  6
BYLAYER
 10
67.718684407
 20
77.2449179881
 11
67.718684407
 21
78.1448818671
  0
LINE
  5
2F0
100
AcDbEntity
  8
0
100
AcDbLine
 62
7
  6
BYLAYER
 10
67.7523768093
 20
70.5965910172
 11
67.7523768093
 21
69.8864018977
  0
LINE
  5
2F1
100
AcDbEntity
  8
0
100
AcDbLine
 62
7
  6
BYLAYER
 10
67.7523768093
 20
67.9589102296
 11
67.7523768093
 21
67.2491241686
  0
LINE
  5
2F2
100
AcDbEntity
  8
0
100
AcDbLine
 62
7
  6
BYLAYER
 10
67.7523768093
 20
62.8815573236
 11
67.7523768093
 21
62.1709651455
  0
LINE
  5
2F3
100
AcDbEntity
  8
0
100
AcDbLine
 62
7
  6
BYLAYER
 10
67.7523768093
 20
51.0883034514
 11
67.7523768093
 21
50.3775549853
  0
LINE
  5
2F4
100
AcDbEntity
  8
0
100
AcDbLine
 62
7
  6
BYLAYER
 10
68.0252556559
 20
78.7602206225
 11
68.0252556559
 21
78.5095346719
  0
LINE
  5
2F5
100
AcDbEntity
  8
0
100
AcDbLine
 62
7
  6
BYLAYER
 10
68.0252556559
 20
78.1448818671
 11
68.0252556559
 21
77.2449179881
  0
LINE
  5
2F6
100
AcDbEntity
  8
0
100
AcDbLine
 62
7
  6
BYLAYER
 10
68.3841669331
 20
66.5904278319
 11
68.3841669331
 21
66.0755987112
  0
LINE
  5
2F7
100
AcDbEntity
  8
0
100
AcDbLine
 62
7
  6
BYLAYER
 10
68.3841669331
 20
58.1483341405
 11
68.3841669331
 21
57.6338258215
  0
LINE
  5
2F8
100
AcDbEntity
  8
0
100
AcDbLine
 62
7
  6
BYLAYER
 10
68.3841669331
 20
54.2616983717
 11
68.3841669331
 21
53.7469515079
  0
LINE
  5
2F9
100
AcDbEntity
  8
0
100
AcDbLine
 62
7
  6
BYLAYER
 10
68.3841669331
 20
53.4694169241
 11
68.3841669331
 21
52.9543492587
  0
LINE
  5
2FA
100
AcDbEntity
  8
0
100
AcDbLine
 62
7
  6
BYLAYER
 10
68.3841669331
 20
52.343287859
 11
68.3841669331
 21
51.825160239
  0
LINE
  5
2FB
100
AcDbEntity
  8
0
100
AcDbLine
 62
7
  6
BYLAYER
 10
68.3859354552
 20
56.2111197137
 11
68.3859354552
 21
55.6970967102
  0
LINE
  5
2FC
100
AcDbEntity
  8
0
100
AcDbLine
 62
7
  6
BYLAYER
 10
68.4008321692
 20
75.5473263365
 11
68.4008321692
 21
76.9372198205
  0
LINE
  5
2FD
100
AcDbEntity
  8
0
100
AcDbLine
 62
7
  6
BYLAYER
 10
68.4008321692
 20
77.2449179881
 11
68.4008321692
 21
78.6233616894
  0
LINE
  5
2FE
100
AcDbEntity
  8
0
100
AcDbLine
 62
7
  6
BYLAYER
 10
64.4168493989
 20
38.2874036263
 11
64.4825223847
 21
38.5324869603
  0
LINE
  5
2FF
100
AcDbEntity
  8
0
100
AcDbLine
 62
7
  6
BYLAYER
 10
57.8467530706
 20
37.2929828551
 11
57.8208715357
 21
37.2671009627
  0
LINE
  5
300
100
AcDbEntity
  8
0
100
AcDbLine
 62
7
  6
BYLAYER
 10
47.4208935633
 20
81.4738683967
 11
71.2208962567
 21
81.4738917743
  0
LINE
  5
301
100
AcDbEntity
  8
0
100
AcDbLine
 62
7
  6
BYLAYER
 10
71.62087107
 20
81.7596654483
 11
71.4023223809
 21
81.7596654483
  0
LINE
  5
302
100
AcDbEntity
  8
0
100
AcDbLine
 62
7
  6
BYLAYER
 10
71.220871095
 20
81.7738959328
 11
47.4208710258
 21
81.7738959328
  0
LINE
  5
303
100
AcDbEntity
  8
0
100
AcDbLine
 62
7
  6
BYLAYER
 10
54.857820315
 20
81.8488959328
 11
59.983921826
 21
81.8488959328
  0
LINE
  5
304
100
AcDbEntity
  8
0
100
AcDbLine
 62
7
  6
BYLAYER
 10
39.9208710705
 20
82.3488959328
 11
28.7264363291
 21
82.3488959328
  0
LINE
  5
305
100
AcDbEntity
  8
0
100
AcDbLine
 62
7
  6
BYLAYER
 10
71.7208702174
 20
33.7256172033
 11
71.7888575351
 21
33.4334225342
  0
LINE
  5
306
100
AcDbEntity
  8
0
100
AcDbLine
 62
7
  6
BYLAYER
 10
70.5830970955
 20
33.9759777067
 11
70.6847795413
 21
33.3993079008
  0
LINE
  5
307
100
AcDbEntity
  8
0
100
AcDbLine
 62
7
  6
BYLAYER
 10
70.7800586462
 20
34.0107073421
 11
70.8643622351
 21
33.532597931
  0
LINE
  5
308
100
AcDbEntity
  8
0
100
AcDbLine
 62
7
  6
BYLAYER
 10
69.8453196981
 20
38.3066652565
 11
69.8862064929
 21
38.0157405949
  0
LINE
  5
309
100
AcDbEntity
  8
0
100
AcDbLine
 62
7
  6
BYLAYER
 10
70.1423998342
 20
38.348416959
 11
70.1832869135
 21
38.0574925252
  0
LINE
  5
30A
100
AcDbEntity
  8
0
100
AcDbLine
 62
7
  6
BYLAYER
 10
69.971066154
 20
33.312487286
 11
69.3856053029
 21
38.0806832779
  0
LINE
  5
30B
100
AcDbEntity
  8
0
100
AcDbLine
 62
7
  6
BYLAYER
 10
68.8851357759
 20
78.2765010394
 11
68.8895118399
 21
77.2449179881
  0
LINE
  5
30C
100
AcDbEntity
  8
0
100
AcDbLine
 62
7
  6
BYLAYER
 10
68.7254834719
 20
70.6526243778
 11
68.7254834719
 21
71.5298935941
  0
LINE
  5
30D
100
AcDbEntity
  8
0
100
AcDbLine
 62
7
  6
BYLAYER
 10
68.7254834719
 20
72.1330418857
 11
68.7254834719
 21
73.0104756157
  0
LINE
  5
30E
100
AcDbEntity
  8
0
100
AcDbLine
 62
7
  6
BYLAYER
 10
69.1694647748
 20
73.0104756157
 11
69.1694647748
 21
70.6526243778
  0
LINE
  5
30F
100
AcDbEntity
  8
0
100
AcDbLine
 62
7
  6
BYLAYER
 10
69.1694647748
 20
69.2277878178
 11
69.1694647748
 21
68.713197242
  0
LINE
  5
310
100
AcDbEntity
  8
0
100
AcDbLine
 62
7
  6
BYLAYER
 10
69.2650554505
 20
76.5041869032
 11
69.2650554505
 21
77.6663855934
  0
LINE
  5
311
100
AcDbEntity
  8
0
100
AcDbLine
 62
7
  6
BYLAYER
 10
69.7461839431
 20
48.4294991068
 11
69.7461839431
 21
73.9190600117
  0
LINE
  5
312
100
AcDbEntity
  8
0
100
AcDbLine
 62
7
  6
BYLAYER
 10
68.8895118399
 20
76.9372198205
 11
68.8879078315
 21
75.906994007
  0
LINE
  5
313
100
AcDbEntity
  8
0
100
AcDbLine
 62
7
  6
BYLAYER
 10
64.7066271468
 20
38.2097579128
 11
64.7722976391
 21
38.4548435266
  0
LINE
  5
314
100
AcDbEntity
  8
0
100
AcDbLine
 62
7
  6
BYLAYER
 10
64.6840099615
 20
38.7547542882
 11
64.4825198912
 21
38.5324892402
  0
LINE
  5
315
100
AcDbEntity
  8
0
100
AcDbLine
 62
7
  6
BYLAYER
 10
71.2208710822
 20
81.4738800855
 11
71.2208710822
 21
81.7738959328
  0
LINE
  5
316
100
AcDbEntity
  8
0
100
AcDbLine
 62
7
  6
BYLAYER
 10
71.6208710705
 20
81.7596654483
 11
71.6208710705
 21
81.7022385479
  0
LINE
  5
317
100
AcDbEntity
  8
0
100
AcDbLine
 62
7
  6
BYLAYER
 10
71.7208712992
 20
81.253884829
 11
71.7208716958
 21
42.5805063718
  0
LINE
  5
318
100
AcDbEntity
  8
0
100
AcDbLine
 62
7
  6
BYLAYER
 10
71.7208710119
 20
40.9672821482
 11
71.7208705383
 21
33.7256172787
  0
LINE
  5
319
100
AcDbEntity
  8
0
100
AcDbLine
 62
7
  6
BYLAYER
 10
72.4208710705
 20
33.9780138613
 11
72.4208710705
 21
80.9596654478
  0
LINE
  5
31A
100
AcDbEntity
  8
0
100
AcDbLine
 62
7
  6
BYLAYER
 10
64.6639066763
 20
37.6326675729
 11
64.8301557855
 21
37.8823898861
  0
LINE
  5
31B
100
AcDbEntity
  8
0
100
AcDbLine
 62
7
  6
BYLAYER
 10
72.3963551845
 20
80.81521957
 11
72.4208710705
 21
80.5738959362
  0
LINE
  5
31C
100
AcDbEntity
  8
0
100
AcDbLine
 62
7
  6
BYLAYER
 10
67.4918222513
 20
32.3955615771
 11
69.9184900256
 21
33.7406854893
  0
LINE
  5
31D
100
AcDbEntity
  8
0
100
AcDbLine
 62
7
  6
BYLAYER
 10
67.6427901807
 20
32.0219028397
 11
69.971066154
 21
33.312487286
  0
ARC
  5
31E
100
AcDbEntity
  8
0
100
AcDbCircle
 62
7
  6
BYLAYER
 10
34.6838793717
 20
36.325079011
 40
18.767754218
100
AcDbArc
 50
1.6672731558
 51
2.8215947659
  0
ARC
  5
31F
100
AcDbEntity
  8
0
100
AcDbCircle
 62
7
  6
BYLAYER
 10
35.3834906489
 20
36.3461993383
 40
18.0678246403
100
AcDbArc
 50
1.4864201722
 51
1.6648758102
  0
ARC
  5
320
100
AcDbEntity
  8
0
100
AcDbCircle
 62
7
  6
BYLAYER
 10
47.4208710705
 20
76.7596654483
 40
5.0
100
AcDbArc
 50
108.0925241249
 51
117.0074514522
  0
ARC
  5
321
100
AcDbEntity
  8
0
100
AcDbCircle
 62
7
  6
BYLAYER
 10
47.4208710705
 20
76.7596654483
 40
5.0
100
AcDbArc
 50
135.5638308008
 51
145.5813765436
  0
ARC
  5
322
100
AcDbEntity
  8
0
100
AcDbCircle
 62
7
  6
BYLAYER
 10
47.4208710705
 20
76.7738959328
 40
5.0
100
AcDbArc
 50
90.0000003741
 51
180.0000920501
  0
ARC
  5
323
100
AcDbEntity
  8
0
100
AcDbCircle
 62
7
  6
BYLAYER
 10
47.6214859046
 20
77.1514846519
 40
4.5349649032
100
AcDbArc
 50
154.720959534
 51
172.9392877818
  0
ARC
  5
324
100
AcDbEntity
  8
0
100
AcDbCircle
 62
7
  6
BYLAYER
 10
47.4208710705
 20
41.7738959328
 40
4.375
100
AcDbArc
 50
190.6243030591
 51
169.3756497644
  0
CIRCLE
  5
325
100
AcDbEntity
  8
0
100
AcDbCircle
 62
7
  6
BYLAYER
 10
47.4208710705
 20
41.7738959328
 40
4.075
  0
CIRCLE
  5
326
100
AcDbEntity
  8
0
100
AcDbCircle
 62
7
  6
BYLAYER
 10
47.4208710705
 20
41.7738959328
 40
2.125
  0
ARC
  5
327
100
AcDbEntity
  8
0
100
AcDbCircle
 62
7
  6
BYLAYER
 10
28.7264363291
 20
80.3488959328
 40
2.0
100
AcDbArc
 50
90.0
 51
156.271608924
  0
ARC
  5
328
100
AcDbEntity
  8
0
100
AcDbCircle
 62
7
  6
BYLAYER
 10
28.7264363291
 20
70.3488959328
 40
2.0
100
AcDbArc
 50
203.728391076
 51
270.0
  0
ARC
  5
329
100
AcDbEntity
  8
0
100
AcDbCircle
 62
7
  6
BYLAYER
 10
25.7680884412
 20
69.6238959328
 40
1.0
100
AcDbArc
 50
23.728391076
 51
90.0
  0
ARC
  5
32A
100
AcDbEntity
  8
0
100
AcDbCircle
 62
7
  6
BYLAYER
 10
25.7680884412
 20
81.0738959328
 40
1.0
100
AcDbArc
 50
270.0
 51
336.271608924
  0
ARC
  5
32B
100
AcDbEntity
  8
0
100
AcDbCircle
 62
7
  6
BYLAYER
 10
42.9208710705
 20
33.9780138626
 40
0.5
100
AcDbArc
 50
180.0000013745
 51
256.6720221061
  0
ARC
  5
32C
100
AcDbEntity
  8
0
100
AcDbCircle
 62
7
  6
BYLAYER
 10
41.7208710705
 20
79.0096654483
 40
0.2
100
AcDbArc
 50
90.0
 51
180.0
  0
ARC
  5
32D
100
AcDbEntity
  8
0
100
AcDbCircle
 62
7
  6
BYLAYER
 10
46.9387267776
 20
220.0718415238
 40
187.9868965927
100
AcDbArc
 50
277.5753024509
 51
277.7077448698
  0
ARC
  5
32E
100
AcDbEntity
  8
0
100
AcDbCircle
 62
7
  6
BYLAYER
 10
57.4597349661
 20
-31.3311006741
 40
68.6984016408
100
AcDbArc
 50
93.3637415234
 51
97.8761243053
  0
ARC
  5
32F
100
AcDbEntity
  8
0
100
AcDbCircle
 62
7
  6
BYLAYER
 10
57.3988889634
 20
-31.159798915
 40
68.5264020965
100
AcDbArc
 50
82.1182308849
 51
86.6419444918
  0
ARC
  5
330
100
AcDbEntity
  8
0
100
AcDbCircle
 62
7
  6
BYLAYER
 10
55.1845815361
 20
39.5990203854
 40
7.7872321139
100
AcDbArc
 50
275.1223946346
 51
275.4642964595
  0
ARC
  5
331
100
AcDbEntity
  8
0
100
AcDbCircle
 62
7
  6
BYLAYER
 10
59.6168974698
 20
39.1607307772
 40
7.3470511198
100
AcDbArc
 50
264.5289756919
 51
265.6861190319
  0
ARC
  5
332
100
AcDbEntity
  8
0
100
AcDbCircle
 62
7
  6
BYLAYER
 10
55.244642033
 20
38.9166348181
 40
7.1022094964
100
AcDbArc
 50
274.3026266441
 51
275.1313107302
  0
ARC
  5
333
100
AcDbEntity
  8
0
100
AcDbCircle
 62
7
  6
BYLAYER
 10
56.0783926701
 20
37.5610255536
 40
1.8428441531
100
AcDbArc
 50
2.251993058
 51
2.81247586
  0
ARC
  5
334
100
AcDbEntity
  8
0
100
AcDbCircle
 62
7
  6
BYLAYER
 10
54.2208710705
 20
79.0738959328
 40
0.9
100
AcDbArc
 50
89.9997603954
 51
269.9999490471
  0
ARC
  5
335
100
AcDbEntity
  8
0
100
AcDbCircle
 62
7
  6
BYLAYER
 10
60.7708710705
 20
79.0738959328
 40
0.9
100
AcDbArc
 50
270.0
 51
90.0000409966
  0
ARC
  5
336
100
AcDbEntity
  8
0
100
AcDbCircle
 62
7
  6
BYLAYER
 10
60.6208710705
 20
79.0738959328
 40
0.9
100
AcDbArc
 50
322.8087885379
 51
341.7280086182
  0
ARC
  5
337
100
AcDbEntity
  8
0
100
AcDbCircle
 62
7
  6
BYLAYER
 10
64.9964048947
 20
38.1321121992
 40
0.6
100
AcDbArc
 50
165.0000000031
 51
236.3468683701
  0
ARC
  5
338
100
AcDbEntity
  8
0
100
AcDbCircle
 62
7
  6
BYLAYER
 10
57.3475535134
 20
36.9405790142
 40
0.4984879201
100
AcDbArc
 50
130.9459564941
 51
135.0130430695
  0
ARC
  5
339
100
AcDbEntity
  8
0
100
AcDbCircle
 62
7
  6
BYLAYER
 10
57.498902653
 20
36.9456508323
 40
0.4915679368
100
AcDbArc
 50
44.9573304327
 51
49.0816233467
  0
ARC
  5
33A
100
AcDbEntity
  8
0
100
AcDbCircle
 62
7
  6
BYLAYER
 10
57.4217231097
 20
80.1249710451
 40
0.4437594187
100
AcDbArc
 50
199.9038873486
 51
212.4411018749
  0
ARC
  5
33B
100
AcDbEntity
  8
0
100
AcDbCircle
 62
7
  6
BYLAYER
 10
57.4200229695
 20
80.1249691911
 40
0.4437555243
100
AcDbArc
 50
327.5588106335
 51
340.0961391447
  0
ARC
  5
33C
100
AcDbEntity
  8
0
100
AcDbCircle
 62
7
  6
BYLAYER
 10
57.4208713216
 20
80.1243569859
 40
0.4427214409
100
AcDbArc
 50
212.433167837
 51
327.566780515
  0
ARC
  5
33D
100
AcDbEntity
  8
0
100
AcDbCircle
 62
7
  6
BYLAYER
 10
61.4203186883
 20
79.1607911995
 40
0.4259905692
100
AcDbArc
 50
162.0946585462
 51
168.0078670657
  0
ARC
  5
33E
100
AcDbEntity
  8
0
100
AcDbCircle
 62
7
  6
BYLAYER
 10
64.1208710705
 20
32.9434749831
 40
0.4
100
AcDbArc
 50
96.1440644
 51
179.9993342902
  0
ARC
  5
33F
100
AcDbEntity
  8
0
100
AcDbCircle
 62
7
  6
BYLAYER
 10
66.4231716885
 20
37.5912417584
 40
0.3
100
AcDbArc
 50
11.7243535243
 51
76.5837898706
  0
ARC
  5
340
100
AcDbEntity
  8
0
100
AcDbCircle
 62
7
  6
BYLAYER
 10
64.9964048947
 20
38.1321121992
 40
0.3
100
AcDbArc
 50
165.0000000005
 51
236.3468683673
  0
ARC
  5
341
100
AcDbEntity
  8
0
100
AcDbCircle
 62
7
  6
BYLAYER
 10
64.4825198912
 20
38.5324892402
 40
0.3
100
AcDbArc
 50
345.0
 51
47.8071492744
  0
ARC
  5
342
100
AcDbEntity
  8
0
100
AcDbCircle
 62
7
  6
BYLAYER
 10
61.1719319536
 20
36.4938959328
 40
0.3
100
AcDbArc
 50
5.7391770388
 51
14.9997949311
  0
ARC
  5
343
100
AcDbEntity
  8
0
100
AcDbCircle
 62
7
  6
BYLAYER
 10
53.6698101874
 20
36.4938959328
 40
0.3
100
AcDbArc
 50
165.0001916597
 51
174.2607691838
  0
ARC
  5
344
100
AcDbEntity
  8
0
100
AcDbCircle
 62
7
  6
BYLAYER
 10
57.4208710706
 20
80.1738746152
 40
0.2999860901
100
AcDbArc
 50
221.8070400143
 51
318.192957424
  0
ARC
  5
345
100
AcDbEntity
  8
0
100
AcDbCircle
 62
7
  6
BYLAYER
 10
53.7607292357
 20
36.4938787082
 40
0.2643733508
100
AcDbArc
 50
173.4805185014
 51
179.9963298653
  0
ARC
  5
346
100
AcDbEntity
  8
0
100
AcDbCircle
 62
7
  6
BYLAYER
 10
61.0810276204
 20
36.4938804887
 40
0.2643585174
100
AcDbArc
 50
0.0036490684
 51
6.5194605028
  0
ARC
  5
347
100
AcDbEntity
  8
0
100
AcDbCircle
 62
7
  6
BYLAYER
 10
63.7208710705
 20
32.2986830446
 40
0.2
100
AcDbArc
 50
275.7209338185
 51
360.0
  0
ARC
  5
348
100
AcDbEntity
  8
0
100
AcDbCircle
 62
7
  6
BYLAYER
 10
64.1208710705
 20
32.9434749831
 40
0.2
100
AcDbArc
 50
96.1440643912
 51
180.0
  0
ARC
  5
349
100
AcDbEntity
  8
0
100
AcDbCircle
 62
7
  6
BYLAYER
 10
59.263753614
 20
78.6488959328
 40
0.1
100
AcDbArc
 50
270.0
 51
345.0
  0
ARC
  5
34A
100
AcDbEntity
  8
0
100
AcDbCircle
 62
7
  6
BYLAYER
 10
55.577988527
 20
78.6488959328
 40
0.1
100
AcDbArc
 50
195.0
 51
270.0
  0
ARC
  5
34B
100
AcDbEntity
  8
0
100
AcDbCircle
 62
7
  6
BYLAYER
 10
59.4822572295
 20
78.7688959328
 40
0.08
100
AcDbArc
 50
90.0
 51
165.0
  0
ARC
  5
34C
100
AcDbEntity
  8
0
100
AcDbCircle
 62
7
  6
BYLAYER
 10
55.3594849115
 20
78.7688959328
 40
0.08
100
AcDbArc
 50
15.0
 51
90.0
  0
ARC
  5
34D
100
AcDbEntity
  8
0
100
AcDbCircle
 62
7
  6
BYLAYER
 10
67.7955468246
 20
32.97855046
 40
0.5
100
AcDbArc
 50
187.0000000005
 51
202.0000000001
  0
ARC
  5
34E
100
AcDbEntity
  8
0
100
AcDbCircle
 62
7
  6
BYLAYER
 10
67.4208710705
 20
41.7738959328
 40
4.975
100
AcDbArc
 50
236.3468683676
 51
262.9594861856
  0
ARC
  5
34F
100
AcDbEntity
  8
0
100
AcDbCircle
 62
7
  6
BYLAYER
 10
67.4208710705
 20
41.7738959328
 40
4.975
100
AcDbArc
 50
294.5982252999
 51
299.7093982181
  0
ARC
  5
350
100
AcDbEntity
  8
0
100
AcDbCircle
 62
7
  6
BYLAYER
 10
67.4208710705
 20
41.7738959328
 40
4.675
100
AcDbArc
 50
236.3468683673
 51
262.072113502
  0
ARC
  5
351
100
AcDbEntity
  8
0
100
AcDbCircle
 62
7
  6
BYLAYER
 10
67.4208710705
 20
41.7738959328
 40
4.675
100
AcDbArc
 50
295.8199583148
 51
299.7093982176
  0
ARC
  5
352
100
AcDbEntity
  8
0
100
AcDbCircle
 62
7
  6
BYLAYER
 10
67.4208710705
 20
41.7738959328
 40
4.375
100
AcDbArc
 50
308.4669951518
 51
349.3756619943
  0
ARC
  5
353
100
AcDbEntity
  8
0
100
AcDbCircle
 62
7
  6
BYLAYER
 10
67.4208710705
 20
41.7738959328
 40
4.375
100
AcDbArc
 50
10.6242932903
 51
227.8075818142
  0
ARC
  5
354
100
AcDbEntity
  8
0
100
AcDbCircle
 62
7
  6
BYLAYER
 10
67.4208710705
 20
41.7738959328
 40
4.075
100
AcDbArc
 50
308.4669929447
 51
227.8075661535
  0
ARC
  5
355
100
AcDbEntity
  8
0
100
AcDbCircle
 62
7
  6
BYLAYER
 10
67.4208710705
 20
41.7738959328
 40
4.0
100
AcDbArc
 50
202.0
 51
256.5837898711
  0
ARC
  5
356
100
AcDbEntity
  8
0
100
AcDbCircle
 62
7
  6
BYLAYER
 10
67.4208710705
 20
41.7738959328
 40
4.0
100
AcDbArc
 50
301.7465245873
 51
19.8972226731
  0
ARC
  5
357
100
AcDbEntity
  8
0
100
AcDbCircle
 62
7
  6
BYLAYER
 10
67.4208710705
 20
41.7738959328
 40
4.0
100
AcDbArc
 50
22.0
 51
200.0413646107
  0
ARC
  5
358
100
AcDbEntity
  8
0
100
AcDbCircle
 62
7
  6
BYLAYER
 10
67.4208710705
 20
41.7738959328
 40
2.8138327018
100
AcDbArc
 50
355.9995126301
 51
22.0
  0
ARC
  5
359
100
AcDbEntity
  8
0
100
AcDbCircle
 62
7
  6
BYLAYER
 10
67.4208710705
 20
41.7738959328
 40
2.8138327018
100
AcDbArc
 50
175.9995301265
 51
202.0
  0
CIRCLE
  5
35A
100
AcDbEntity
  8
0
100
AcDbCircle
 62
7
  6
BYLAYER
 10
67.4208710705
 20
41.7738959328
 40
2.25
  0
CIRCLE
  5
35B
100
AcDbEntity
  8
0
100
AcDbCircle
 62
7
  6
BYLAYER
 10
67.4208710705
 20
41.7738959328
 40
2.125
  0
ARC
  5
35C
100
AcDbEntity
  8
0
100
AcDbCircle
 62
7
  6
BYLAYER
 10
69.5891260722
 20
37.9739886646
 40
0.6
100
AcDbArc
 50
299.7093982225
 51
8.0000000075
  0
ARC
  5
35D
100
AcDbEntity
  8
0
100
AcDbCircle
 62
7
  6
BYLAYER
 10
69.5891260722
 20
37.9739886646
 40
0.3
100
AcDbArc
 50
299.7093982183
 51
8.0
  0
ARC
  5
35E
100
AcDbEntity
  8
0
100
AcDbCircle
 62
7
  6
BYLAYER
 10
71.9208710705
 20
33.9780138626
 40
0.5
100
AcDbArc
 50
283.3279779161
 51
359.9999998557
  0
ARC
  5
35F
100
AcDbEntity
  8
0
100
AcDbCircle
 62
7
  6
BYLAYER
 10
70.3861355449
 20
33.9412480712
 40
0.4
100
AcDbArc
 50
9.9999999796
 51
101.9532113803
  0
ARC
  5
360
100
AcDbEntity
  8
0
100
AcDbCircle
 62
7
  6
BYLAYER
 10
70.8817410455
 20
33.4340377993
 40
0.2
100
AcDbArc
 50
190.0
 51
282.2974928158
  0
ARC
  5
361
100
AcDbEntity
  8
0
100
AcDbCircle
 62
7
  6
BYLAYER
 10
70.3861355449
 20
33.9412480712
 40
0.2
100
AcDbArc
 50
9.9999999946
 51
101.9532113748
  0
ARC
  5
362
100
AcDbEntity
  8
0
100
AcDbCircle
 62
7
  6
BYLAYER
 10
69.6833691434
 20
38.1172441214
 40
0.3
100
AcDbArc
 50
121.7465245825
 51
187.0000057543
  0
ARC
  5
363
100
AcDbEntity
  8
0
100
AcDbCircle
 62
7
  6
BYLAYER
 10
70.1424001187
 20
38.3484171868
 40
0.3
100
AcDbArc
 50
128.4670947442
 51
188.0
  0
ARC
  5
364
100
AcDbEntity
  8
0
100
AcDbCircle
 62
7
  6
BYLAYER
 10
67.5900588344
 20
77.2601265644
 40
1.8950011945
100
AcDbArc
 50
283.2946579137
 51
295.3310984556
  0
ARC
  5
365
100
AcDbEntity
  8
0
100
AcDbCircle
 62
7
  6
BYLAYER
 10
71.3099458636
 20
79.8883168614
 40
1.3316412972
100
AcDbArc
 50
40.757214569
 51
42.5390083848
  0
ARC
  5
366
100
AcDbEntity
  8
0
100
AcDbCircle
 62
7
  6
BYLAYER
 10
71.2208710705
 20
80.5738959328
 40
1.2
100
AcDbArc
 50
11.6014686855
 51
89.9999988188
  0
ARC
  5
367
100
AcDbEntity
  8
0
100
AcDbCircle
 62
7
  6
BYLAYER
 10
71.6208710705
 20
80.9596654483
 40
0.8
100
AcDbArc
 50
0.0
 51
90.0
  0
ARC
  5
368
100
AcDbEntity
  8
0
100
AcDbCircle
 62
7
  6
BYLAYER
 10
80.3515767521
 20
36.3168143659
 40
18.9616402393
100
AcDbArc
 50
177.1823323226
 51
178.2489652932
  0
ARC
  5
369
100
AcDbEntity
  8
0
100
AcDbCircle
 62
7
  6
BYLAYER
 10
67.6849838765
 20
218.4434762138
 40
186.3439901153
100
AcDbArc
 50
262.2915323747
 51
262.4251472335
  0
ARC
  5
36A
100
AcDbEntity
  8
0
100
AcDbCircle
 62
7
  6
BYLAYER
 10
57.4208710705
 20
95.1838959328
 40
63.4
100
AcDbArc
 50
256.6720382814
 51
268.0383176703
  0
ARC
  5
36B
100
AcDbEntity
  8
0
100
AcDbCircle
 62
7
  6
BYLAYER
 10
57.4208710705
 20
95.1838959328
 40
63.4
100
AcDbArc
 50
271.9616823297
 51
279.0704871672
  0
ARC
  5
36C
100
AcDbEntity
  8
0
100
AcDbCircle
 62
7
  6
BYLAYER
 10
57.4208710705
 20
95.1838959328
 40
63.4
100
AcDbArc
 50
280.7399494645
 51
283.3279617188
  0
ARC
  5
36D
100
AcDbEntity
  8
0
100
AcDbCircle
 62
7
  6
BYLAYER
 10
57.4208710705
 20
95.1838959328
 40
63.1
100
AcDbArc
 50
282.3011837976
 51
283.0984169693
  0
ARC
  5
36E
100
AcDbEntity
  8
0
100
AcDbCircle
 62
7
  6
BYLAYER
 10
57.4208710705
 20
95.1838959328
 40
63.1
100
AcDbArc
 50
256.9015824934
 51
275.7300449699
  0
ARC
  5
36F
100
AcDbEntity
  8
0
100
AcDbCircle
 62
7
  6
BYLAYER
 10
57.4208710705
 20
95.1838959328
 40
62.4
100
AcDbArc
 50
276.1440643888
 51
279.0358403934
  0
ARC
  5
370
100
AcDbEntity
  8
0
100
AcDbCircle
 62
7
  6
BYLAYER
 10
57.4208710705
 20
95.1838959328
 40
62.4
100
AcDbArc
 50
281.5193624405
 51
281.9532113748
  0
ARC
  5
371
100
AcDbEntity
  8
0
100
AcDbCircle
 62
7
  6
BYLAYER
 10
57.4208710705
 20
95.1838959328
 40
62.2
100
AcDbArc
 50
276.1440643888
 51
279.0423880883
  0
ARC
  5
372
100
AcDbEntity
  8
0
100
AcDbCircle
 62
7
  6
BYLAYER
 10
57.4208710705
 20
95.1838959328
 40
62.2
100
AcDbArc
 50
281.5338026792
 51
281.9532113747
  0
ARC
  5
373
100
AcDbEntity
  8
0
100
AcDbCircle
 62
7
  6
BYLAYER
 10
58.5949544247
 20
104.4606559233
 40
25.169580509
100
AcDbArc
 50
275.6061513594
 51
276.7361550584
  0
ARC
  5
374
100
AcDbEntity
  8
0
100
AcDbCircle
 62
7
  6
BYLAYER
 10
58.6969659731
 20
103.4194067977
 40
24.2798421833
100
AcDbArc
 50
275.5734448564
 51
276.9016756218
  0
ARC
  5
375
100
AcDbEntity
  8
0
100
AcDbCircle
 62
7
  6
BYLAYER
 10
59.7751349977
 20
102.8169932839
 40
23.6002054196
100
AcDbArc
 50
273.474511969
 51
274.4755248084
  0
ARC
  5
376
100
AcDbEntity
  8
0
100
AcDbCircle
 62
7
  6
BYLAYER
 10
60.279602277
 20
94.7078361465
 40
15.4753661706
100
AcDbArc
 50
272.9108929729
 51
273.4296267832
  0
SPLINE
  5
377
100
AcDbEntity
  8
0
100
AcDbSpline
 62
7
  6
BYLAYER
 70
0
 71
3
 72
9
 73
5
 74
0
 42
0.0000001
 43
0.0000001
 44
0.0000000001
 40
0.0
 40
0.0
 40
0.0
 40
0.0
 40
0.5000641562
 40
1.0
 40
1.0
 40
1.0
 40
1.0
 10
54.857820315
 20
81.8488959328
 30
0.0
 10
54.8219553096
 20
81.8488959328
 30
0.0
 10
54.7496692269
 20
81.8363336674
 30
0.0
 10
54.6861450287
 20
81.7995011488
 30
0.0
 10
54.6587794932
 20
81.7763329366
 30
0.0
  0
SPLINE
  5
378
100
AcDbEntity
  8
0
100
AcDbSpline
 62
7
  6
BYLAYER
 70
0
 71
3
 72
9
 73
5
 74
0
 42
0.0000001
 43
0.0000001
 44
0.0000000001
 40
0.0
 40
0.0
 40
0.0
 40
0.0
 40
0.5001154026
 40
1.0
 40
1.0
 40
1.0
 40
1.0
 10
59.983921826
 20
81.8488959328
 30
0.0
 10
60.0198094736
 20
81.8488959328
 30
0.0
 10
60.0921405983
 20
81.836336673
 30
0.0
 10
60.155675139
 20
81.7994372039
 30
0.0
 10
60.1830407725
 20
81.7762454627
 30
0.0
  0
SPLINE
  5
379
100
AcDbEntity
  8
0
100
AcDbSpline
 62
7
  6
BYLAYER
 70
0
 71
3
 72
14
 73
10
 74
0
 42
0.0000001
 43
0.0000001
 44
0.0000000001
 40
0.0
 40
0.0
 40
0.0
 40
0.0
 40
0.1077903601
 40
0.2185026031
 40
0.334778097
 40
0.4580440288
 40
0.7220581406
 40
0.8607071834
 40
1.0
 40
1.0
 40
1.0
 40
1.0
 10
61.3309238158
 20
78.8488959401
 30
0.0
 10
61.3115157067
 20
78.848900784
 30
0.0
 10
61.271953069
 20
78.8543862572
 30
0.0
 10
61.2161815858
 20
78.8790464635
 30
0.0
 10
61.1663638595
 20
78.9187171473
 30
0.0
 10
61.1091610379
 20
78.9897931055
 30
0.0
 10
61.0733590491
 20
79.080210186
 30
0.0
 10
61.0608123321
 20
79.177219271
 30
0.0
 10
61.062524901
 20
79.2275342218
 30
0.0
 10
61.0654855117
 20
79.2524391255
 30
0.0
  0
LINE
  5
37A
100
AcDbEntity
  8
0
100
AcDbLine
 62
7
  6
BYLAYER
 10
61.0654849178
 20
79.2524375237
 11
61.0036240289
 21
79.2492996214
  0
SPLINE
  5
37B
100
AcDbEntity
  8
0
100
AcDbSpline
 62
7
  6
BYLAYER
 70
0
 71
3
 72
9
 73
5
 74
0
 42
0.0000001
 43
0.0000001
 44
0.0000000001
 40
0.0
 40
0.0
 40
0.0
 40
0.0
 40
0.2314470085
 40
1.0
 40
1.0
 40
1.0
 40
1.0
 10
56.6378414726
 20
78.8513278431
 30
0.0
 10
56.6384573226
 20
78.8509197256
 30
0.0
 10
56.6412745228
 20
78.8493865704
 30
0.0
 10
56.6445647843
 20
78.8488897857
 30
0.0
 10
56.6470180809
 20
78.8488959328
 30
0.0
  0
SPLINE
  5
37C
100
AcDbEntity
  8
0
100
AcDbSpline
 62
7
  6
BYLAYER
 70
0
 71
3
 72
20
 73
16
 74
0
 42
0.0000001
 43
0.0000001
 44
0.0000000001
 40
0.0
 40
0.0
 40
0.0
 40
0.0
 40
0.008304334
 40
0.0190452102
 40
0.0480177507
 40
0.0863440918
 40
0.1330789294
 40
0.1869376021
 40
0.2464814915
 40
0.3107118809
 40
0.378840075
 40
0.5241655899
 40
0.6780750468
 40
0.8374958499
 40
1.0
 40
1.0
 40
1.0
 40
1.0
 10
57.411664175
 20
78.8488959328
 30
0.0
 10
57.4129733074
 20
78.8488937628
 30
0.0
 10
57.415964192
 20
78.8494691676
 30
0.0
 10
57.4230354776
 20
78.8521928676
 30
0.0
 10
57.4337555944
 20
78.8583331223
 30
0.0
 10
57.4487094706
 20
78.8683008949
 30
0.0
 10
57.4661765144
 20
78.881536538
 30
0.0
 10
57.4857818843
 20
78.8974385262
 30
0.0
 10
57.5073150714
 20
78.9153422534
 30
0.0
 10
57.5304217896
 20
78.9348689213
 30
0.0
 10
57.5636600192
 20
78.9633566399
 30
0.0
 10
57.607253165
 20
79.0014829854
 30
0.0
 10
57.6616096155
 20
79.0491622264
 30
0.0
 10
57.7179063386
 20
79.0987365391
 30
0.0
 10
57.756141444
 20
79.1321077943
 30
0.0
 10
57.7754850788
 20
79.1489036728
 30
0.0
  0
LINE
  5
37D
100
AcDbEntity
  8
0
100
AcDbLine
 62
7
  6
BYLAYER
 10
61.0149606546
 20
79.2917600105
 11
61.0537796918
 21
79.4114632022
  0
SPLINE
  5
37E
100
AcDbEntity
  8
0
100
AcDbSpline
 62
7
  6
BYLAYER
 70
0
 71
3
 72
12
 73
8
 74
0
 42
0.0000001
 43
0.0000001
 44
0.0000000001
 40
0.0
 40
0.0
 40
0.0
 40
0.0
 40
0.2801037753
 40
0.5465907657
 40
0.7895892674
 40
0.8993927362
 40
1.0
 40
1.0
 40
1.0
 40
1.0
 10
57.7754849851
 20
79.1488982398
 30
0.0
 10
58.0782716599
 20
79.1534378198
 30
0.0
 10
58.66908227
 20
79.1657786813
 30
0.0
 10
59.5222317564
 20
79.1950404498
 30
0.0
 10
60.1909349431
 20
79.2290318628
 30
0.0
 10
60.67996917
 20
79.2627200614
 30
0.0
 10
60.9066682833
 20
79.2816503138
 30
0.0
 10
61.0149648842
 20
79.2917518263
 30
0.0
  0
SPLINE
  5
37F
100
AcDbEntity
  8
0
100
AcDbSpline
 62
7
  6
BYLAYER
 70
0
 71
3
 72
10
 73
6
 74
0
 42
0.0000001
 43
0.0000001
 44
0.0000000001
 40
0.0
 40
0.0
 40
0.0
 40
0.0
 40
0.2497863241
 40
0.4997611257
 40
1.0
 40
1.0
 40
1.0
 40
1.0
 10
61.1412745805
 20
79.7611849767
 30
0.0
 10
61.1336610348
 20
79.7321500525
 30
0.0
 10
61.1187929863
 20
79.6739629129
 30
0.0
 10
61.0896152981
 20
79.5573900145
 30
0.0
 10
61.0681763917
 20
79.4698235543
 30
0.0
 10
61.0537644088
 20
79.4114635919
 30
0.0
  0
SPLINE
  5
380
100
AcDbEntity
  8
0
100
AcDbSpline
 62
7
  6
BYLAYER
 70
0
 71
3
 72
23
 73
19
 74
0
 42
0.0000001
 43
0.0000001
 44
0.0000000001
 40
0.0
 40
0.0
 40
0.0
 40
0.0
 40
0.0558457227
 40
0.1077691624
 40
0.1579902916
 40
0.2102970798
 40
0.2684580303
 40
0.334296473
 40
0.407280274
 40
0.4852314177
 40
0.5651475391
 40
0.6437673596
 40
0.7179965367
 40
0.7854263325
 40
0.8451104471
 40
0.8983629842
 40
0.948670808
 40
1.0
 40
1.0
 40
1.0
 40
1.0
 10
54.6992208815
 20
79.1459760981
 30
0.0
 10
54.6992208815
 20
79.1274495352
 30
0.0
 10
54.6970015802
 20
79.0915987542
 30
0.0
 10
54.683570076
 20
79.04045353
 30
0.0
 10
54.6573627016
 20
78.9955396424
 30
0.0
 10
54.6172319836
 20
78.959291456
 30
0.0
 10
54.5646787708
 20
78.9325243258
 30
0.0
 10
54.5017415863
 20
78.9140601519
 30
0.0
 10
54.4306353406
 20
78.9025198491
 30
0.0
 10
54.3541947044
 20
78.8968089803
 30
0.0
 10
54.2756880677
 20
78.896285961
 30
0.0
 10
54.1985419936
 20
78.900887573
 30
0.0
 10
54.1260799365
 20
78.9111428082
 30
0.0
 10
54.0612489189
 20
78.9280686194
 30
0.0
 10
54.0063845576
 20
78.9529911748
 30
0.0
 10
53.9635074234
 20
78.9872579066
 30
0.0
 10
53.9344129165
 20
79.030544999
 30
0.0
 10
53.9241010498
 20
79.0630720337
 30
0.0
 10
53.9206337788
 20
79.0797435201
 30
0.0
  0
SPLINE
  5
381
100
AcDbEntity
  8
0
100
AcDbSpline
 62
7
  6
BYLAYER
 70
0
 71
3
 72
14
 73
10
 74
0
 42
0.0000001
 43
0.0000001
 44
0.0000000001
 40
0.0
 40
0.0
 40
0.0
 40
0.0
 40
0.0993757039
 40
0.2099321719
 40
0.3293598988
 40
0.4556032096
 40
0.5870071593
 40
0.7222164241
 40
1.0
 40
1.0
 40
1.0
 40
1.0
 10
53.9206337788
 20
79.0797435201
 30
0.0
 10
53.9159183314
 20
79.1024160557
 30
0.0
 10
53.9016866895
 20
79.1494110824
 30
0.0
 10
53.872275167
 20
79.2203572217
 30
0.0
 10
53.8356084054
 20
79.2948819197
 30
0.0
 10
53.7935165573
 20
79.3720315934
 30
0.0
 10
53.747362922
 20
79.4511043951
 30
0.0
 10
53.681337414
 20
79.5594365255
 30
0.0
 10
53.6294665877
 20
79.6405134049
 30
0.0
 10
53.5943072174
 20
79.6948650873
 30
0.0
  0
SPLINE
  5
382
100
AcDbEntity
  8
0
100
AcDbSpline
 62
7
  6
BYLAYER
 70
0
 71
3
 72
18
 73
14
 74
0
 42
0.0000001
 43
0.0000001
 44
0.0000000001
 40
0.0
 40
0.0
 40
0.0
 40
0.0
 40
0.0079530158
 40
0.0135566464
 40
0.0202519807
 40
0.0363263561
 40
0.0552431624
 40
0.1015830022
 40
0.1664310536
 40
0.2623282076
 40
0.4133845595
 40
0.6505277507
 40
1.0
 40
1.0
 40
1.0
 40
1.0
 10
57.7978861524
 20
78.8488959392
 30
0.0
 10
57.7970833348
 20
78.8488937687
 30
0.0
 10
57.7958554792
 20
78.8499268404
 30
0.0
 10
57.7948162792
 20
78.8516325159
 30
0.0
 10
57.7935875875
 20
78.8542458601
 30
0.0
 10
57.7922802332
 20
78.8582449153
 30
0.0
 10
57.7902441064
 20
78.8662049979
 30
0.0
 10
57.787889349
 20
78.8791371333
 30
0.0
 10
57.7852704557
 20
78.8998812427
 30
0.0
 10
57.7822702812
 20
78.9312170106
 30
0.0
 10
57.7791115438
 20
78.979989321
 30
0.0
 10
57.7762329294
 20
79.0544051877
 30
0.0
 10
57.775484841
 20
79.1136260863
 30
0.0
 10
57.7754849406
 20
79.1489037095
 30
0.0
  0
SPLINE
  5
383
100
AcDbEntity
  8
0
100
AcDbSpline
 62
7
  6
BYLAYER
 70
0
 71
3
 72
20
 73
16
 74
0
 42
0.0000001
 43
0.0000001
 44
0.0000000001
 40
0.0
 40
0.0
 40
0.0
 40
0.0
 40
0.2460975878
 40
0.3702030832
 40
0.4949379113
 40
0.6202596175
 40
0.7461273313
 40
0.8092743805
 40
0.8725601372
 40
0.9042777146
 40
0.9360502458
 40
0.9519822755
 40
0.9679504286
 40
0.9839632675
 40
1.0
 40
1.0
 40
1.0
 40
1.0
 10
41.5208710705
 20
77.1524622358
 30
0.0
 10
41.5208710705
 20
77.0821810301
 30
0.0
 10
41.5265306603
 20
76.9764009572
 30
0.0
 10
41.5428670638
 20
76.8359869128
 30
0.0
 10
41.5595900097
 20
76.730410011
 30
0.0
 10
41.5810823383
 20
76.6251962513
 30
0.0
 10
41.6038138141
 20
76.53825962
 30
0.0
 10
41.6266442379
 20
76.469898492
 30
0.0
 10
41.6437935506
 20
76.4280293711
 30
0.0
 10
41.6605661741
 20
76.3959172689
 30
0.0
 10
41.6730021308
 20
76.3768554065
 30
0.0
 10
41.6848724531
 20
76.3630369377
 30
0.0
 10
41.6951162489
 20
76.3538800602
 30
0.0
 10
41.7070780084
 20
76.3468940312
 30
0.0
 10
41.7162912576
 20
76.3449914839
 30
0.0
 10
41.7208710705
 20
76.3449914839
 30
0.0
  0
SPLINE
  5
384
100
AcDbEntity
  8
0
100
AcDbSpline
 62
7
  6
BYLAYER
 70
0
 71
3
 72
23
 73
19
 74
0
 42
0.0000001
 43
0.0000001
 44
0.0000000001
 40
0.0
 40
0.0
 40
0.0
 40
0.0
 40
0.0629207943
 40
0.1198131179
 40
0.1773952062
 40
0.2405702097
 40
0.3058517087
 40
0.3688703235
 40
0.4341158706
 40
0.5056023242
 40
0.5731664771
 40
0.6359940124
 40
0.6988719967
 40
0.7635788479
 40
0.8237311457
 40
0.8799560802
 40
0.9373011735
 40
1.0
 40
1.0
 40
1.0
 40
1.0
 10
67.5824012717
 20
74.7320866348
 30
0.0
 10
67.4309686049
 20
74.7335768544
 30
0.0
 10
67.1415277863
 20
74.7570392084
 30
0.0
 10
66.7298051002
 20
74.8810417619
 30
0.0
 10
66.3517554869
 20
75.0874345072
 30
0.0
 10
66.0105217001
 20
75.3819296473
 30
0.0
 10
65.7197482245
 20
75.7427612065
 30
0.0
 10
65.5008709191
 20
76.1574766829
 30
0.0
 10
65.367569029
 20
76.6229763082
 30
0.0
 10
65.3287930312
 20
77.1159249624
 30
0.0
 10
65.370539356
 20
77.6025100577
 30
0.0
 10
65.5011978997
 20
78.0523565693
 30
0.0
 10
65.7184448359
 20
78.4595309002
 30
0.0
 10
66.0061984943
 20
78.81107975
 30
0.0
 10
66.3379597538
 20
79.0978479706
 30
0.0
 10
66.7076609634
 20
79.2997584727
 30
0.0
 10
67.1170379792
 20
79.4225979294
 30
0.0
 10
67.4073826928
 20
79.4438829334
 30
0.0
 10
67.5582878829
 20
79.4434685673
 30
0.0
  0
SPLINE
  5
385
100
AcDbEntity
  8
0
100
AcDbSpline
 62
7
  6
BYLAYER
 70
0
 71
3
 72
23
 73
19
 74
0
 42
0.0000001
 43
0.0000001
 44
0.0000000001
 40
0.0
 40
0.0
 40
0.0
 40
0.0
 40
0.0635043635
 40
0.1228494229
 40
0.1823288486
 40
0.2445682961
 40
0.3073953801
 40
0.3692993151
 40
0.4340281252
 40
0.5042897742
 40
0.5727798082
 40
0.6351537785
 40
0.6970626349
 40
0.7618615063
 40
0.8226785759
 40
0.879390589
 40
0.9370406104
 40
1.0
 40
1.0
 40
1.0
 40
1.0
 10
67.5582878829
 20
79.4434685673
 30
0.0
 10
67.7114404626
 20
79.4420094579
 30
0.0
 10
68.0085596898
 20
79.4157511658
 30
0.0
 10
68.4328226951
 20
79.2887321336
 30
0.0
 10
68.8182436256
 20
79.076840013
 30
0.0
 10
69.1599560793
 20
78.7873026736
 30
0.0
 10
69.4448625606
 20
78.4342726164
 30
0.0
 10
69.658342073
 20
78.026601218
 30
0.0
 10
69.7856875525
 20
77.5656834985
 30
0.0
 10
69.8254632309
 20
77.0740184707
 30
0.0
 10
69.7818431548
 20
76.5881237147
 30
0.0
 10
69.6489667045
 20
76.1392902396
 30
0.0
 10
69.431776677
 20
75.7347141778
 30
0.0
 10
69.1426969713
 20
75.3837912264
 30
0.0
 10
68.8093426137
 20
75.0931956374
 30
0.0
 10
68.437717842
 20
74.8857801959
 30
0.0
 10
68.0262729358
 20
74.7579999016
 30
0.0
 10
67.734241152
 20
74.7333534302
 30
0.0
 10
67.5824012717
 20
74.7320866348
 30
0.0
  0
SPLINE
  5
386
100
AcDbEntity
  8
0
100
AcDbSpline
 62
7
  6
BYLAYER
 70
0
 71
3
 72
17
 73
13
 74
0
 42
0.0000001
 43
0.0000001
 44
0.0000000001
 40
0.0
 40
0.0
 40
0.0
 40
0.0
 40
0.1299373605
 40
0.2516228299
 40
0.3551169993
 40
0.4493200993
 40
0.5316523465
 40
0.6075188113
 40
0.6877492692
 40
0.7748588895
 40
0.8821663199
 40
1.0
 40
1.0
 40
1.0
 40
1.0
 10
68.6754854067
 20
55.8722374704
 30
0.0
 10
68.6956414385
 20
55.8386765225
 30
0.0
 10
68.7413749165
 20
55.7771110402
 30
0.0
 10
68.8263670347
 20
55.7102476087
 30
0.0
 10
68.9146054144
 20
55.6695798207
 30
0.0
 10
68.999176697
 20
55.6561188634
 30
0.0
 10
69.0757974051
 20
55.6690022614
 30
0.0
 10
69.1383975557
 20
55.7079018069
 30
0.0
 10
69.1814835627
 20
55.7697984519
 30
0.0
 10
69.1983600907
 20
55.8527726218
 30
0.0
 10
69.184869383
 20
55.9474047871
 30
0.0
 10
69.1573481793
 20
56.010220906
 30
0.0
 10
69.1397782807
 20
56.041070145
 30
0.0
  0
SPLINE
  5
387
100
AcDbEntity
  8
0
100
AcDbSpline
 62
7
  6
BYLAYER
 70
0
 71
3
 72
17
 73
13
 74
0
 42
0.0000001
 43
0.0000001
 44
0.0000000001
 40
0.0
 40
0.0
 40
0.0
 40
0.0
 40
0.1319053177
 40
0.2487968033
 40
0.3574873485
 40
0.4472171195
 40
0.5274979665
 40
0.604042697
 40
0.684629092
 40
0.7749853554
 40
0.8797479122
 40
1.0
 40
1.0
 40
1.0
 40
1.0
 10
69.1397782807
 20
56.041070145
 30
0.0
 10
69.1186265773
 20
56.0740837237
 30
0.0
 10
69.0734717783
 20
56.1337059949
 30
0.0
 10
68.988220208
 20
56.1988490869
 30
0.0
 10
68.90227335
 20
56.2384695253
 30
0.0
 10
68.8193969226
 20
56.2520946164
 30
0.0
 10
68.7455115464
 20
56.2404784127
 30
0.0
 10
68.6832536203
 20
56.2035217118
 30
0.0
 10
68.6388736809
 20
56.1421856041
 30
0.0
 10
68.6207215293
 20
56.0603329485
 30
0.0
 10
68.6311570548
 20
55.9656697024
 30
0.0
 10
68.6582588633
 20
55.9035569587
 30
0.0
 10
68.6754854067
 20
55.8722374704
 30
0.0
  0
SPLINE
  5
388
100
AcDbEntity
  8
0
100
AcDbSpline
 62
7
  6
BYLAYER
 70
0
 71
3
 72
17
 73
13
 74
0
 42
0.0000001
 43
0.0000001
 44
0.0000000001
 40
0.0
 40
0.0
 40
0.0
 40
0.0
 40
0.1219466844
 40
0.2255412182
 40
0.3183022268
 40
0.4077323963
 40
0.5055384954
 40
0.6067504294
 40
0.6983541707
 40
0.7899244963
 40
0.8868357187
 40
1.0
 40
1.0
 40
1.0
 40
1.0
 10
67.7523768093
 20
51.0883034514
 30
0.0
 10
67.7975653684
 20
51.0834005281
 30
0.0
 10
67.8810622962
 20
51.0673023711
 30
0.0
 10
67.9878498896
 20
51.0111592014
 30
0.0
 10
68.0618838888
 20
50.9316328127
 30
0.0
 10
68.1038307244
 20
50.8340753098
 30
0.0
 10
68.1152755731
 20
50.7259486129
 30
0.0
 10
68.0998692897
 20
50.6171601804
 30
0.0
 10
68.0508789349
 20
50.5208656082
 30
0.0
 10
67.9741876706
 20
50.4473856686
 30
0.0
 10
67.8720224089
 20
50.3969064358
 30
0.0
 10
67.7943042176
 20
50.3821665393
 30
0.0
 10
67.7523768093
 20
50.3775549853
 30
0.0
  0
SPLINE
  5
389
100
AcDbEntity
  8
0
100
AcDbSpline
 62
7
  6
BYLAYER
 70
0
 71
3
 72
16
 73
12
 74
0
 42
0.0000001
 43
0.0000001
 44
0.0000000001
 40
0.0
 40
0.0
 40
0.0
 40
0.0
 40
0.1577796135
 40
0.292869434
 40
0.4170204042
 40
0.5304248811
 40
0.6299253003
 40
0.7186525067
 40
0.8044004543
 40
0.8950057908
 40
1.0
 40
1.0
 40
1.0
 40
1.0
 10
67.2554221004
 20
49.9506831054
 30
0.0
 10
67.2098134559
 20
50.0122472021
 30
0.0
 10
67.1316719267
 20
50.1314600989
 30
0.0
 10
67.046898607
 20
50.3172255606
 30
0.0
 10
67.0172875528
 20
50.4975403118
 30
0.0
 10
67.0218954313
 20
50.6620055538
 30
0.0
 10
67.0559528612
 20
50.8058248726
 30
0.0
 10
67.1197052153
 20
50.9245869024
 30
0.0
 10
67.2126969904
 20
51.0164667318
 30
0.0
 10
67.336595125
 20
51.0791062994
 30
0.0
 10
67.4315602198
 20
51.0946513753
 30
0.0
 10
67.4823934036
 20
51.0985855566
 30
0.0
  0
SPLINE
  5
38A
100
AcDbEntity
  8
0
100
AcDbSpline
 62
7
  6
BYLAYER
 70
0
 71
3
 72
20
 73
16
 74
0
 42
0.0000001
 43
0.0000001
 44
0.0000000001
 40
0.0
 40
0.0
 40
0.0
 40
0.0
 40
0.0902622801
 40
0.1729082745
 40
0.2466960952
 40
0.3213197253
 40
0.3982036477
 40
0.4818889029
 40
0.5710759128
 40
0.65426422
 40
0.7313010853
 40
0.8073912542
 40
0.8847536084
 40
0.9675690392
 40
1.0
 40
1.0
 40
1.0
 40
1.0
 10
67.4823934036
 20
49.9229707755
 30
0.0
 10
67.5630772302
 20
49.919896578
 30
0.0
 10
67.7188711813
 20
49.9273068468
 30
0.0
 10
67.9330794963
 20
49.9888497991
 30
0.0
 10
68.1133564245
 20
50.0943081452
 30
0.0
 10
68.2566818364
 20
50.2393725574
 30
0.0
 10
68.3613589848
 20
50.4246677127
 30
0.0
 10
68.4175346278
 20
50.643443458
 30
0.0
 10
68.4193691009
 20
50.8746107345
 30
0.0
 10
68.370370249
 20
51.0944396617
 30
0.0
 10
68.273268547
 20
51.2847950775
 30
0.0
 10
68.1341446143
 20
51.4401607922
 30
0.0
 10
67.9546100893
 20
51.5563429855
 30
0.0
 10
67.7886344539
 20
51.6093408007
 30
0.0
 10
67.6862633105
 20
51.6240226305
 30
0.0
 10
67.6573247551
 20
51.6268437495
 30
0.0
  0
SPLINE
  5
38B
100
AcDbEntity
  8
0
100
AcDbSpline
 62
7
  6
BYLAYER
 70
0
 71
3
 72
11
 73
7
 74
0
 42
0.0000001
 43
0.0000001
 44
0.0000000001
 40
0.0
 40
0.0
 40
0.0
 40
0.0
 40
0.2050833166
 40
0.4412962918
 40
0.7062136547
 40
1.0
 40
1.0
 40
1.0
 40
1.0
 10
66.7154141605
 20
50.6830486695
 30
0.0
 10
66.7132902821
 20
50.6299706641
 30
0.0
 10
66.7192751349
 20
50.515430863
 30
0.0
 10
66.7472253898
 20
50.3342538454
 30
0.0
 10
66.8134314836
 20
50.1377067034
 30
0.0
 10
66.8888463045
 20
50.0129564098
 30
0.0
 10
66.9325804482
 20
49.9506831054
 30
0.0
  0
SPLINE
  5
38C
100
AcDbEntity
  8
0
100
AcDbSpline
 62
7
  6
BYLAYER
 70
0
 71
3
 72
16
 73
12
 74
0
 42
0.0000001
 43
0.0000001
 44
0.0000000001
 40
0.0
 40
0.0
 40
0.0
 40
0.0
 40
0.1352080927
 40
0.2646797612
 40
0.3826447143
 40
0.4911841965
 40
0.5895449808
 40
0.6792038627
 40
0.7698929338
 40
0.8760680445
 40
1.0
 40
1.0
 40
1.0
 40
1.0
 10
67.3402947096
 20
52.343287859
 30
0.0
 10
67.3005130435
 20
52.3574237522
 30
0.0
 10
67.2253184571
 20
52.3944667305
 30
0.0
 10
67.1364510774
 20
52.476697981
 30
0.0
 10
67.0781958098
 20
52.5733471888
 30
0.0
 10
67.0553478795
 20
52.6739156379
 30
0.0
 10
67.0628634089
 20
52.7676737545
 30
0.0
 10
67.0987844552
 20
52.8491703502
 30
0.0
 10
67.1661522547
 20
52.9116913591
 30
0.0
 10
67.2614956922
 20
52.9481058214
 30
0.0
 10
67.3337678651
 20
52.9544274444
 30
0.0
 10
67.3724653604
 20
52.9543492587
 30
0.0
  0
SPLINE
  5
38D
100
AcDbEntity
  8
0
100
AcDbSpline
 62
7
  6
BYLAYER
 70
0
 71
3
 72
16
 73
12
 74
0
 42
0.0000001
 43
0.0000001
 44
0.0000000001
 40
0.0
 40
0.0
 40
0.0
 40
0.0
 40
0.1188782823
 40
0.2220019947
 40
0.3171742681
 40
0.4149955589
 40
0.5249228523
 40
0.6447659422
 40
0.7538290821
 40
0.8678916788
 40
1.0
 40
1.0
 40
1.0
 40
1.0
 10
67.3368810507
 20
53.4694169241
 30
0.0
 10
67.2741218288
 20
53.4688018683
 30
0.0
 10
67.1562204566
 20
53.458269147
 30
0.0
 10
66.9971428669
 20
53.3994410401
 30
0.0
 10
66.8701885487
 20
53.3043709485
 30
0.0
 10
66.7754475121
 20
53.1724743578
 30
0.0
 10
66.7198321106
 20
53.0061889108
 30
0.0
 10
66.7090943854
 20
52.8258109826
 30
0.0
 10
66.7430121303
 20
52.6454317797
 30
0.0
 10
66.8364606258
 20
52.4793726692
 30
0.0
 10
66.9285933572
 20
52.3860368616
 30
0.0
 10
66.9814656893
 20
52.3405487062
 30
0.0
  0
SPLINE
  5
38E
100
AcDbEntity
  8
0
100
AcDbSpline
 62
7
  6
BYLAYER
 70
0
 71
3
 72
10
 73
6
 74
0
 42
0.0000001
 43
0.0000001
 44
0.0000000001
 40
0.0
 40
0.0
 40
0.0
 40
0.0
 40
0.3255868454
 40
0.6397744656
 40
1.0
 40
1.0
 40
1.0
 40
1.0
 10
68.0505578604
 20
54.5810112054
 30
0.0
 10
68.0508173073
 20
54.5427626072
 30
0.0
 10
68.0427396791
 20
54.4666547125
 30
0.0
 10
67.9929713846
 20
54.3587732392
 30
0.0
 10
67.9465132317
 20
54.2941764111
 30
0.0
 10
67.919382875
 20
54.2616983717
 30
0.0
  0
SPLINE
  5
38F
100
AcDbEntity
  8
0
100
AcDbSpline
 62
7
  6
BYLAYER
 70
0
 71
3
 72
21
 73
17
 74
0
 42
0.0000001
 43
0.0000001
 44
0.0000000001
 40
0.0
 40
0.0
 40
0.0
 40
0.0
 40
0.0822216179
 40
0.1553836617
 40
0.2288018463
 40
0.2946739663
 40
0.3567498599
 40
0.4243583552
 40
0.4986996285
 40
0.5831961008
 40
0.6697396524
 40
0.7471573587
 40
0.815174001
 40
0.8751155541
 40
0.9352310257
 40
1.0
 40
1.0
 40
1.0
 40
1.0
 10
67.1661405245
 20
54.2616983717
 30
0.0
 10
67.1376617751
 20
54.300277508
 30
0.0
 10
67.0899649525
 20
54.3786765211
 30
0.0
 10
67.0558220311
 20
54.5095680291
 30
0.0
 10
67.05968181
 20
54.6350942458
 30
0.0
 10
67.0965595035
 20
54.7485427059
 30
0.0
 10
67.1664256509
 20
54.841265626
 30
0.0
 10
67.2657571071
 20
54.9099805474
 30
0.0
 10
67.3918916255
 20
54.9535067931
 30
0.0
 10
67.5350679943
 20
54.9686110813
 30
0.0
 10
67.6803620083
 20
54.961461427
 30
0.0
 10
67.8130471871
 20
54.9301070598
 30
0.0
 10
67.9204001392
 20
54.8732046801
 30
0.0
 10
67.9976104757
 20
54.7924227486
 30
0.0
 10
68.0422572188
 20
54.6921972413
 30
0.0
 10
68.0505778686
 20
54.6187846993
 30
0.0
 10
68.0505578604
 20
54.5810112054
 30
0.0
  0
SPLINE
  5
390
100
AcDbEntity
  8
0
100
AcDbSpline
 62
7
  6
BYLAYER
 70
0
 71
3
 72
16
 73
12
 74
0
 42
0.0000001
 43
0.0000001
 44
0.0000000001
 40
0.0
 40
0.0
 40
0.0
 40
0.0
 40
0.1047462872
 40
0.2034344766
 40
0.3098880845
 40
0.4161755272
 40
0.5200745032
 40
0.6273661892
 40
0.7430826102
 40
0.8670649713
 40
1.0
 40
1.0
 40
1.0
 40
1.0
 10
68.2421011419
 20
54.2616983717
 30
0.0
 10
68.2820143398
 20
54.3084046229
 30
0.0
 10
68.3506830058
 20
54.4077415881
 30
0.0
 10
68.4106990676
 20
54.5816632429
 30
0.0
 10
68.4220823518
 20
54.7658941623
 30
0.0
 10
68.3909974904
 20
54.9508552578
 30
0.0
 10
68.3122982231
 20
55.1219983448
 30
0.0
 10
68.1892467422
 20
55.2717927034
 30
0.0
 10
68.0216982455
 20
55.3914007722
 30
0.0
 10
67.8151590009
 20
55.4699488568
 30
0.0
 10
67.6637001151
 20
55.4860624287
 30
0.0
 10
67.5857326738
 20
55.4867988688
 30
0.0
  0
SPLINE
  5
391
100
AcDbEntity
  8
0
100
AcDbSpline
 62
7
  6
BYLAYER
 70
0
 71
3
 72
13
 73
9
 74
0
 42
0.0000001
 43
0.0000001
 44
0.0000000001
 40
0.0
 40
0.0
 40
0.0
 40
0.0
 40
0.1930098779
 40
0.3615111903
 40
0.5141612685
 40
0.664366664
 40
0.8243702981
 40
1.0
 40
1.0
 40
1.0
 40
1.0
 10
67.5857326738
 20
55.4867988688
 30
0.0
 10
67.5002231134
 20
55.4856790157
 30
0.0
 10
67.3392033424
 20
55.471209192
 30
0.0
 10
67.1222872959
 20
55.3937560259
 30
0.0
 10
66.9482726729
 20
55.2737938212
 30
0.0
 10
66.8167855124
 20
55.1128144447
 30
0.0
 10
66.7324793806
 20
54.9114411583
 30
0.0
 10
66.7162034296
 20
54.7617185437
 30
0.0
 10
66.7154141605
 20
54.6839062886
 30
0.0
  0
SPLINE
  5
392
100
AcDbEntity
  8
0
100
AcDbSpline
 62
7
  6
BYLAYER
 70
0
 71
3
 72
10
 73
6
 74
0
 42
0.0000001
 43
0.0000001
 44
0.0000000001
 40
0.0
 40
0.0
 40
0.0
 40
0.0
 40
0.3531906795
 40
0.6935115704
 40
1.0
 40
1.0
 40
1.0
 40
1.0
 10
66.7154141605
 20
54.6839062886
 30
0.0
 10
66.716038471
 20
54.6319013241
 30
0.0
 10
66.7251559777
 20
54.5295542721
 30
0.0
 10
66.7648276507
 20
54.3870771571
 30
0.0
 10
66.8053612617
 20
54.3001475299
 30
0.0
 10
66.8289944075
 20
54.2616983717
 30
0.0
  0
SPLINE
  5
393
100
AcDbEntity
  8
0
100
AcDbSpline
 62
7
  6
BYLAYER
 70
0
 71
3
 72
17
 73
13
 74
0
 42
0.0000001
 43
0.0000001
 44
0.0000000001
 40
0.0
 40
0.0
 40
0.0
 40
0.0
 40
0.1274386995
 40
0.2399558365
 40
0.3350597218
 40
0.4274894243
 40
0.5221215539
 40
0.6120967444
 40
0.6940936535
 40
0.7822792701
 40
0.8825470464
 40
1.0
 40
1.0
 40
1.0
 40
1.0
 10
67.8019859105
 20
57.6338258215
 30
0.0
 10
67.8351971713
 20
57.6119234073
 30
0.0
 10
67.8960544538
 20
57.5680710346
 30
0.0
 10
67.975095673
 20
57.4992382276
 30
0.0
 10
68.0348977134
 20
57.4261026882
 30
0.0
 10
68.0691856026
 20
57.3432154656
 30
0.0
 10
68.0747597068
 20
57.2557099825
 30
0.0
 10
68.0581252884
 20
57.1727729781
 30
0.0
 10
68.0133275904
 20
57.1026027726
 30
0.0
 10
67.9428562629
 20
57.0528643344
 30
0.0
 10
67.8506354474
 20
57.0241549664
 30
0.0
 10
67.7823799099
 20
57.0190710896
 30
0.0
 10
67.7457140052
 20
57.0190710896
 30
0.0
  0
SPLINE
  5
394
100
AcDbEntity
  8
0
100
AcDbSpline
 62
7
  6
BYLAYER
 70
0
 71
3
 72
13
 73
9
 74
0
 42
0.0000001
 43
0.0000001
 44
0.0000000001
 40
0.0
 40
0.0
 40
0.0
 40
0.0
 40
0.1892197584
 40
0.3480349839
 40
0.4954074327
 40
0.6468788821
 40
0.8132683274
 40
1.0
 40
1.0
 40
1.0
 40
1.0
 10
67.787961119
 20
56.504241969
 30
0.0
 10
67.8494826766
 20
56.5050201938
 30
0.0
 10
67.9632693017
 20
56.5140277879
 30
0.0
 10
68.1173537893
 20
56.5668478347
 30
0.0
 10
68.2417190103
 20
56.6521396325
 30
0.0
 10
68.3375453011
 20
56.7718727764
 30
0.0
 10
68.4015255327
 20
56.9253268104
 30
0.0
 10
68.4145448522
 20
57.0407908938
 30
0.0
 10
68.4159345254
 20
57.101492445
 30
0.0
  0
SPLINE
  5
395
100
AcDbEntity
  8
0
100
AcDbSpline
 62
7
  6
BYLAYER
 70
0
 71
3
 72
11
 73
7
 74
0
 42
0.0000001
 43
0.0000001
 44
0.0000000001
 40
0.0
 40
0.0
 40
0.0
 40
0.0
 40
0.2427567108
 40
0.4716314409
 40
0.7198460609
 40
1.0
 40
1.0
 40
1.0
 40
1.0
 10
68.4159345254
 20
57.101492445
 30
0.0
 10
68.4160738605
 20
57.1512683602
 30
0.0
 10
68.407142264
 20
57.2484941713
 30
0.0
 10
68.3580990172
 20
57.3893365756
 30
0.0
 10
68.2708875679
 20
57.5194773807
 30
0.0
 10
68.1936598653
 20
57.5962951731
 30
0.0
 10
68.1501708956
 20
57.6338258215
 30
0.0
  0
SPLINE
  5
396
100
AcDbEntity
  8
0
100
AcDbSpline
 62
7
  6
BYLAYER
 70
0
 71
3
 72
11
 73
7
 74
0
 42
0.0000001
 43
0.0000001
 44
0.0000000001
 40
0.0
 40
0.0
 40
0.0
 40
0.0
 40
0.2427248705
 40
0.489885289
 40
0.7417650673
 40
1.0
 40
1.0
 40
1.0
 40
1.0
 10
67.0209407476
 20
59.2935056645
 30
0.0
 10
67.0211262565
 20
59.3150593457
 30
0.0
 10
67.0296808184
 20
59.3591075479
 30
0.0
 10
67.0684561583
 20
59.4145219659
 30
0.0
 10
67.1263441398
 20
59.4520279532
 30
0.0
 10
67.1721660162
 20
59.4600654693
 30
0.0
 10
67.1950949327
 20
59.4604294733
 30
0.0
  0
SPLINE
  5
397
100
AcDbEntity
  8
0
100
AcDbSpline
 62
7
  6
BYLAYER
 70
0
 71
3
 72
14
 73
10
 74
0
 42
0.0000001
 43
0.0000001
 44
0.0000000001
 40
0.0
 40
0.0
 40
0.0
 40
0.0
 40
0.119867133
 40
0.2314130105
 40
0.3538297585
 40
0.496171553
 40
0.6456863021
 40
0.8104434514
 40
1.0
 40
1.0
 40
1.0
 40
1.0
 10
67.1950949327
 20
59.4604294733
 30
0.0
 10
67.2192237479
 20
59.4602708687
 30
0.0
 10
67.2664776149
 20
59.4541279038
 30
0.0
 10
67.3298615706
 20
59.4184287419
 30
0.0
 10
67.3814872346
 20
59.3618639214
 30
0.0
 10
67.4247366692
 20
59.2902508284
 30
0.0
 10
67.4637999366
 20
59.2069599865
 30
0.0
 10
67.5015163371
 20
59.1127865086
 30
0.0
 10
67.5262709179
 20
59.0458895032
 30
0.0
 10
67.5390683675
 20
59.0099416542
 30
0.0
  0
SPLINE
  5
398
100
AcDbEntity
  8
0
100
AcDbSpline
 62
7
  6
BYLAYER
 70
0
 71
3
 72
10
 73
6
 74
0
 42
0.0000001
 43
0.0000001
 44
0.0000000001
 40
0.0
 40
0.0
 40
0.0
 40
0.0
 40
0.3737285392
 40
0.7059621497
 40
1.0
 40
1.0
 40
1.0
 40
1.0
 10
67.1454118004
 20
59.0099416542
 30
0.0
 10
67.1191017236
 20
59.039215763
 30
0.0
 10
67.0735142432
 20
59.0988473232
 30
0.0
 10
67.0314725513
 20
59.1964319007
 30
0.0
 10
67.0207552435
 20
59.2625391711
 30
0.0
 10
67.0209407476
 20
59.2935056645
 30
0.0
  0
SPLINE
  5
399
100
AcDbEntity
  8
0
100
AcDbSpline
 62
7
  6
BYLAYER
 70
0
 71
3
 72
15
 73
11
 74
0
 42
0.0000001
 43
0.0000001
 44
0.0000000001
 40
0.0
 40
0.0
 40
0.0
 40
0.0
 40
0.1667330094
 40
0.3170534561
 40
0.4449362705
 40
0.5439227414
 40
0.6473276371
 40
0.7460867553
 40
0.8684820898
 40
1.0
 40
1.0
 40
1.0
 40
1.0
 10
67.1521239586
 20
58.2144439641
 30
0.0
 10
67.1398162629
 20
58.231637598
 30
0.0
 10
67.1172110956
 20
58.2649239387
 30
0.0
 10
67.0879671517
 20
58.313176044
 30
0.0
 10
67.0669765475
 20
58.3564209861
 30
0.0
 10
67.0576485117
 20
58.3977093444
 30
0.0
 10
67.060490351
 20
58.4364665084
 30
0.0
 10
67.0810654375
 20
58.4747308098
 30
0.0
 10
67.1247298235
 20
58.4927631841
 30
0.0
 10
67.1568692677
 20
58.4961121374
 30
0.0
 10
67.1735271888
 20
58.4952770472
 30
0.0
  0
SPLINE
  5
39A
100
AcDbEntity
  8
0
100
AcDbSpline
 62
7
  6
BYLAYER
 70
0
 71
3
 72
14
 73
10
 74
0
 42
0.0000001
 43
0.0000001
 44
0.0000000001
 40
0.0
 40
0.0
 40
0.0
 40
0.0
 40
0.1364388677
 40
0.2547836165
 40
0.3757002934
 40
0.5059933302
 40
0.6512709854
 40
0.8160310765
 40
1.0
 40
1.0
 40
1.0
 40
1.0
 10
67.919382875
 20
58.4952770472
 30
0.0
 10
67.9633148629
 20
58.4956617802
 30
0.0
 10
68.0458618075
 20
58.5029284551
 30
0.0
 10
68.1607756712
 20
58.5454535458
 30
0.0
 10
68.2567504817
 20
58.6189956773
 30
0.0
 10
68.3310775178
 20
58.7248767774
 30
0.0
 10
68.3819632555
 20
58.8583659488
 30
0.0
 10
68.4105689279
 20
59.0154621512
 30
0.0
 10
68.4161172301
 20
59.127909375
 30
0.0
 10
68.4159345254
 20
59.1871475682
 30
0.0
  0
SPLINE
  5
39B
100
AcDbEntity
  8
0
100
AcDbSpline
 62
7
  6
BYLAYER
 70
0
 71
3
 72
10
 73
6
 74
0
 42
0.0000001
 43
0.0000001
 44
0.0000000001
 40
0.0
 40
0.0
 40
0.0
 40
0.0
 40
0.34129735
 40
0.6676839083
 40
1.0
 40
1.0
 40
1.0
 40
1.0
 10
68.4159345254
 20
59.1871475682
 30
0.0
 10
68.4156725767
 20
59.2720789824
 30
0.0
 10
68.4017743237
 20
59.4387075022
 30
0.0
 10
68.33442831
 20
59.6797352813
 30
0.0
 10
68.2606837705
 20
59.8273559991
 30
0.0
 10
68.2175227976
 20
59.8978960343
 30
0.0
  0
SPLINE
  5
39C
100
AcDbEntity
  8
0
100
AcDbSpline
 62
7
  6
BYLAYER
 70
0
 71
3
 72
18
 73
14
 74
0
 42
0.0000001
 43
0.0000001
 44
0.0000000001
 40
0.0
 40
0.0
 40
0.0
 40
0.0
 40
0.1413343424
 40
0.2672738969
 40
0.3795727341
 40
0.4809443501
 40
0.5719390844
 40
0.6543643196
 40
0.7275677207
 40
0.792266036
 40
0.8547435792
 40
0.9228026229
 40
1.0
 40
1.0
 40
1.0
 40
1.0
 10
67.7984899948
 20
59.8978960343
 30
0.0
 10
67.8358370953
 20
59.859649367
 30
0.0
 10
67.9028437559
 20
59.7833050242
 30
0.0
 10
67.9775129855
 20
59.6599768487
 30
0.0
 10
68.0287009592
 20
59.5417851828
 30
0.0
 10
68.0598069216
 20
59.4304230039
 30
0.0
 10
68.0731081637
 20
59.326983292
 30
0.0
 10
68.0712072821
 20
59.2333296013
 30
0.0
 10
68.0536177497
 20
59.1511180314
 30
0.0
 10
68.0170331474
 20
59.0831607929
 30
0.0
 10
67.9592894056
 20
59.0341692498
 30
0.0
 10
67.8831622026
 20
59.0091267189
 30
0.0
 10
67.8276067518
 20
59.0077618997
 30
0.0
 10
67.7984899948
 20
59.0099416542
 30
0.0
  0
SPLINE
  5
39D
100
AcDbEntity
  8
0
100
AcDbSpline
 62
7
  6
BYLAYER
 70
0
 71
3
 72
15
 73
11
 74
0
 42
0.0000001
 43
0.0000001
 44
0.0000000001
 40
0.0
 40
0.0
 40
0.0
 40
0.0
 40
0.1750724867
 40
0.3188169522
 40
0.4587553264
 40
0.5788865413
 40
0.6860119334
 40
0.7879664972
 40
0.8853864675
 40
1.0
 40
1.0
 40
1.0
 40
1.0
 10
67.7984899948
 20
59.0099416542
 30
0.0
 10
67.776499885
 20
59.0817184233
 30
0.0
 10
67.7358242334
 20
59.2122345071
 30
0.0
 10
67.6758847218
 20
59.3995960497
 30
0.0
 10
67.6176956507
 20
59.5627519101
 30
0.0
 10
67.5540314271
 20
59.7070173907
 30
0.0
 10
67.4796766001
 20
59.827849273
 30
0.0
 10
67.3833917423
 20
59.9207264113
 30
0.0
 10
67.2572678804
 20
59.974989186
 30
0.0
 10
67.1654793433
 20
59.9829577524
 30
0.0
 10
67.1163340068
 20
59.9830483168
 30
0.0
  0
SPLINE
  5
39E
100
AcDbEntity
  8
0
100
AcDbSpline
 62
7
  6
BYLAYER
 70
0
 71
3
 72
12
 73
8
 74
0
 42
0.0000001
 43
0.0000001
 44
0.0000000001
 40
0.0
 40
0.0
 40
0.0
 40
0.0
 40
0.1665654333
 40
0.352552756
 40
0.5580124375
 40
0.7775690728
 40
1.0
 40
1.0
 40
1.0
 40
1.0
 10
67.1163340068
 20
59.9830483168
 30
0.0
 10
67.0790627372
 20
59.9835608377
 30
0.0
 10
66.9996778368
 20
59.9687503608
 30
0.0
 10
66.8885343912
 20
59.9077903543
 30
0.0
 10
66.7933248298
 20
59.8064770382
 30
0.0
 10
66.7295715551
 20
59.6738381627
 30
0.0
 10
66.7155934738
 20
59.5742262856
 30
0.0
 10
66.7154141605
 20
59.5244499731
 30
0.0
  0
SPLINE
  5
39F
100
AcDbEntity
  8
0
100
AcDbSpline
 62
7
  6
BYLAYER
 70
0
 71
3
 72
10
 73
6
 74
0
 42
0.0000001
 43
0.0000001
 44
0.0000000001
 40
0.0
 40
0.0
 40
0.0
 40
0.0
 40
0.3131017879
 40
0.6356804717
 40
1.0
 40
1.0
 40
1.0
 40
1.0
 10
66.7154141605
 20
59.5244499731
 30
0.0
 10
66.7148870877
 20
59.4640294877
 30
0.0
 10
66.7279208537
 20
59.3407112818
 30
0.0
 10
66.7924859468
 20
59.1573629269
 30
0.0
 10
66.8605454318
 20
59.0427167032
 30
0.0
 10
66.9004097975
 20
58.9848039634
 30
0.0
  0
SPLINE
  5
3A0
100
AcDbEntity
  8
0
100
AcDbSpline
 62
7
  6
BYLAYER
 70
0
 71
3
 72
12
 73
8
 74
0
 42
0.0000001
 43
0.0000001
 44
0.0000000001
 40
0.0
 40
0.0
 40
0.0
 40
0.0
 40
0.2028696049
 40
0.3842099182
 40
0.566699919
 40
0.7716255797
 40
1.0
 40
1.0
 40
1.0
 40
1.0
 10
66.9004097975
 20
58.9848039634
 30
0.0
 10
66.8758688495
 20
58.9785231419
 30
0.0
 10
66.8302955233
 20
58.9617270465
 30
0.0
 10
66.7729966282
 20
58.9178134184
 30
0.0
 10
66.735980064
 20
58.8553929947
 30
0.0
 10
66.7183334683
 20
58.7798740982
 30
0.0
 10
66.714995663
 20
58.7256571614
 30
0.0
 10
66.7154141606
 20
58.6971435624
 30
0.0
  0
SPLINE
  5
3A1
100
AcDbEntity
  8
0
100
AcDbSpline
 62
7
  6
BYLAYER
 70
0
 71
3
 72
10
 73
6
 74
0
 42
0.0000001
 43
0.0000001
 44
0.0000000001
 40
0.0
 40
0.0
 40
0.0
 40
0.0
 40
0.2928402647
 40
0.6261099949
 40
1.0
 40
1.0
 40
1.0
 40
1.0
 10
66.7154141606
 20
58.6971435624
 30
0.0
 10
66.7164342787
 20
58.647416824
 30
0.0
 10
66.7309548185
 20
58.5413260352
 30
0.0
 10
66.7805300393
 20
58.3782450373
 30
0.0
 10
66.8335361794
 20
58.2699068462
 30
0.0
 10
66.8644635577
 20
58.2144439641
 30
0.0
  0
SPLINE
  5
3A2
100
AcDbEntity
  8
0
100
AcDbSpline
 62
7
  6
BYLAYER
 70
0
 71
3
 72
20
 73
16
 74
0
 42
0.0000001
 43
0.0000001
 44
0.0000000001
 40
0.0
 40
0.0
 40
0.0
 40
0.0
 40
0.1098284554
 40
0.1998146062
 40
0.2810393542
 40
0.3524120606
 40
0.4183317052
 40
0.4850541414
 40
0.5582122816
 40
0.6366696587
 40
0.7065720823
 40
0.7711360614
 40
0.8387062323
 40
0.9126454188
 40
1.0
 40
1.0
 40
1.0
 40
1.0
 10
67.1950949327
 20
60.0962337309
 30
0.0
 10
67.1676164591
 20
60.165274839
 30
0.0
 10
67.1229354894
 20
60.2929181992
 30
0.0
 10
67.0778125744
 20
60.4787183632
 30
0.0
 10
67.0799017772
 20
60.64476168
 30
0.0
 10
67.1200095374
 20
60.7890099952
 30
0.0
 10
67.1963178937
 20
60.9067897661
 30
0.0
 10
67.3074966936
 20
60.9947702353
 30
0.0
 10
67.4490765037
 20
61.0448278536
 30
0.0
 10
67.6004034135
 20
61.0533210266
 30
0.0
 10
67.7436210611
 20
61.0257835215
 30
0.0
 10
67.8656942883
 20
60.9591644492
 30
0.0
 10
67.9613736478
 20
60.8542251183
 30
0.0
 10
68.0242364852
 20
60.709790756
 30
0.0
 10
68.0352713291
 20
60.5997852963
 30
0.0
 10
68.0363438781
 20
60.5406921235
 30
0.0
  0
SPLINE
  5
3A3
100
AcDbEntity
  8
0
100
AcDbSpline
 62
7
  6
BYLAYER
 70
0
 71
3
 72
10
 73
6
 74
0
 42
0.0000001
 43
0.0000001
 44
0.0000000001
 40
0.0
 40
0.0
 40
0.0
 40
0.0
 40
0.3034737441
 40
0.6386471162
 40
1.0
 40
1.0
 40
1.0
 40
1.0
 10
68.0363438781
 20
60.5406921235
 30
0.0
 10
68.0363430179
 20
60.4964889817
 30
0.0
 10
68.0268828703
 20
60.4034269938
 30
0.0
 10
67.9908369366
 20
60.261769392
 30
0.0
 10
67.9499876852
 20
60.1683921574
 30
0.0
 10
67.9260127764
 20
60.1215359354
 30
0.0
  0
SPLINE
  5
3A4
100
AcDbEntity
  8
0
100
AcDbSpline
 62
7
  6
BYLAYER
 70
0
 71
3
 72
10
 73
6
 74
0
 42
0.0000001
 43
0.0000001
 44
0.0000000001
 40
0.0
 40
0.0
 40
0.0
 40
0.0
 40
0.3612898791
 40
0.6951463778
 40
1.0
 40
1.0
 40
1.0
 40
1.0
 10
68.3098231996
 20
60.1215359354
 30
0.0
 10
68.3326185793
 20
60.1854040682
 30
0.0
 10
68.3712708843
 20
60.3103298988
 30
0.0
 10
68.4061740914
 20
60.4950972427
 30
0.0
 10
68.4155770913
 20
60.614967914
 30
0.0
 10
68.4159345254
 20
60.6721879106
 30
0.0
  0
SPLINE
  5
3A5
100
AcDbEntity
  8
0
100
AcDbSpline
 62
7
  6
BYLAYER
 70
0
 71
3
 72
20
 73
16
 74
0
 42
0.0000001
 43
0.0000001
 44
0.0000000001
 40
0.0
 40
0.0
 40
0.0
 40
0.0
 40
0.0870168846
 40
0.1657910482
 40
0.2384853827
 40
0.3088297765
 40
0.3794949519
 40
0.4537901468
 40
0.5331116092
 40
0.6056364217
 40
0.6727655183
 40
0.7407692779
 40
0.8158145656
 40
0.9011594176
 40
1.0
 40
1.0
 40
1.0
 40
1.0
 10
68.4159345254
 20
60.6721879106
 30
0.0
 10
68.4150017832
 20
60.7544898723
 30
0.0
 10
68.4004863435
 20
60.9119996412
 30
0.0
 10
68.3270923262
 20
61.1275142506
 30
0.0
 10
68.2142097953
 20
61.3067071412
 30
0.0
 10
68.0663744628
 20
61.4476663257
 30
0.0
 10
67.8864321818
 20
61.5477154432
 30
0.0
 10
67.6787026406
 20
61.600743278
 30
0.0
 10
67.4628877506
 20
61.6025757705
 30
0.0
 10
67.2585413506
 20
61.5587203441
 30
0.0
 10
67.0809557974
 20
61.4698420091
 30
0.0
 10
66.9304125444
 20
61.3365283823
 30
0.0
 10
66.8107810173
 20
61.153700604
 30
0.0
 10
66.7313198541
 20
60.919048836
 30
0.0
 10
66.7165842217
 20
60.7439886928
 30
0.0
 10
66.7154141605
 20
60.6505050071
 30
0.0
  0
SPLINE
  5
3A6
100
AcDbEntity
  8
0
100
AcDbSpline
 62
7
  6
BYLAYER
 70
0
 71
3
 72
10
 73
6
 74
0
 42
0.0000001
 43
0.0000001
 44
0.0000000001
 40
0.0
 40
0.0
 40
0.0
 40
0.0
 40
0.3081786875
 40
0.6398140499
 40
1.0
 40
1.0
 40
1.0
 40
1.0
 10
66.7154141605
 20
60.6505050071
 30
0.0
 10
66.7152240486
 20
60.592186596
 30
0.0
 10
66.724054278
 20
60.4709459592
 30
0.0
 10
66.762619388
 20
60.2852888789
 30
0.0
 10
66.8022262713
 20
60.1602681678
 30
0.0
 10
66.8255807486
 20
60.0962337309
 30
0.0
  0
SPLINE
  5
3A7
100
AcDbEntity
  8
0
100
AcDbSpline
 62
7
  6
BYLAYER
 70
0
 71
3
 72
17
 73
13
 74
0
 42
0.0000001
 43
0.0000001
 44
0.0000000001
 40
0.0
 40
0.0
 40
0.0
 40
0.0
 40
0.1217740389
 40
0.2252159256
 40
0.3179092427
 40
0.407339889
 40
0.5052017874
 40
0.6066404355
 40
0.6984168654
 40
0.7900276634
 40
0.8868905257
 40
1.0
 40
1.0
 40
1.0
 40
1.0
 10
67.7523768093
 20
62.8815573236
 30
0.0
 10
67.7975192881
 20
62.8767524357
 30
0.0
 10
67.8809452566
 20
62.8608370378
 30
0.0
 10
67.9877048217
 20
62.804901235
 30
0.0
 10
68.0617712599
 20
62.7254855329
 30
0.0
 10
68.1037803087
 20
62.6279357163
 30
0.0
 10
68.1152840529
 20
62.5196889242
 30
0.0
 10
68.0999071518
 20
62.4107040248
 30
0.0
 10
68.050900829
 20
62.3142088606
 30
0.0
 10
67.974192088
 20
62.2406250215
 30
0.0
 10
67.8720196552
 20
62.1901437811
 30
0.0
 10
67.7942984125
 20
62.1755106361
 30
0.0
 10
67.7523768093
 20
62.1709651455
 30
0.0
  0
SPLINE
  5
3A8
100
AcDbEntity
  8
0
100
AcDbSpline
 62
7
  6
BYLAYER
 70
0
 71
3
 72
16
 73
12
 74
0
 42
0.0000001
 43
0.0000001
 44
0.0000000001
 40
0.0
 40
0.0
 40
0.0
 40
0.0
 40
0.1578874718
 40
0.2930770758
 40
0.4172311004
 40
0.5305903693
 40
0.6300498934
 40
0.7187422745
 40
0.8044610924
 40
0.8950357876
 40
1.0
 40
1.0
 40
1.0
 40
1.0
 10
67.2554221004
 20
61.7444222931
 30
0.0
 10
67.2097835294
 20
61.8060205016
 30
0.0
 10
67.1315958537
 20
61.9253101536
 30
0.0
 10
67.0468551164
 20
62.111188877
 30
0.0
 10
67.0173164026
 20
62.2915187557
 30
0.0
 10
67.0218679941
 20
62.4559293893
 30
0.0
 10
67.0559575391
 20
62.5996728075
 30
0.0
 10
67.1197415398
 20
62.7183458297
 30
0.0
 10
67.2127441698
 20
62.8101310525
 30
0.0
 10
67.3366313124
 20
62.8726713375
 30
0.0
 10
67.4315756737
 20
62.8881207875
 30
0.0
 10
67.4823934036
 20
62.8920039425
 30
0.0
  0
SPLINE
  5
3A9
100
AcDbEntity
  8
0
100
AcDbSpline
 62
7
  6
BYLAYER
 70
0
 71
3
 72
20
 73
16
 74
0
 42
0.0000001
 43
0.0000001
 44
0.0000000001
 40
0.0
 40
0.0
 40
0.0
 40
0.0
 40
0.0902694461
 40
0.1729066865
 40
0.2466738603
 40
0.3212768638
 40
0.3981523323
 40
0.4818672831
 40
0.5710700742
 40
0.6542442102
 40
0.7312953131
 40
0.80740958
 40
0.8847878175
 40
0.9675967995
 40
1.0
 40
1.0
 40
1.0
 40
1.0
 10
67.4823934036
 20
61.7167099631
 30
0.0
 10
67.5630834982
 20
61.7136250712
 30
0.0
 10
67.7188770458
 20
61.7210062353
 30
0.0
 10
67.9330802085
 20
61.782496467
 30
0.0
 10
68.1133411206
 20
61.8878950018
 30
0.0
 10
68.2566570503
 20
62.0329086066
 30
0.0
 10
68.3613429825
 20
62.2182023105
 30
0.0
 10
68.417521091
 20
62.4370118463
 30
0.0
 10
68.4193823137
 20
62.6682081248
 30
0.0
 10
68.3703653203
 20
62.8880507483
 30
0.0
 10
68.273233949
 20
63.0784160284
 30
0.0
 10
68.1340689691
 20
63.2338106793
 30
0.0
 10
67.9545076783
 20
63.3500074308
 30
0.0
 10
67.7885480978
 20
63.4030033184
 30
0.0
 10
67.68620707
 20
63.4176809348
 30
0.0
 10
67.6572932276
 20
63.420500261
 30
0.0
  0
SPLINE
  5
3AA
100
AcDbEntity
  8
0
100
AcDbSpline
 62
7
  6
BYLAYER
 70
0
 71
3
 72
11
 73
7
 74
0
 42
0.0000001
 43
0.0000001
 44
0.0000000001
 40
0.0
 40
0.0
 40
0.0
 40
0.0
 40
0.2050005378
 40
0.4412115517
 40
0.7062035157
 40
1.0
 40
1.0
 40
1.0
 40
1.0
 10
66.7154141605
 20
62.4764588298
 30
0.0
 10
66.7132956316
 20
62.4234222459
 30
0.0
 10
66.7192836803
 20
62.3089484812
 30
0.0
 10
66.7472029332
 20
62.1278428565
 30
0.0
 10
66.8133407099
 20
61.931327243
 30
0.0
 10
66.8888136517
 20
61.8066405403
 30
0.0
 10
66.9325804482
 20
61.7444222931
 30
0.0
  0
SPLINE
  5
3AB
100
AcDbEntity
  8
0
100
AcDbSpline
 62
7
  6
BYLAYER
 70
0
 71
3
 72
15
 73
11
 74
0
 42
0.0000001
 43
0.0000001
 44
0.0000000001
 40
0.0
 40
0.0
 40
0.0
 40
0.0
 40
0.1526178475
 40
0.2905456561
 40
0.4054062172
 40
0.5154667909
 40
0.6205355284
 40
0.7294365488
 40
0.8570730513
 40
1.0
 40
1.0
 40
1.0
 40
1.0
 10
67.8446360829
 20
66.0755987112
 30
0.0
 10
67.8839673972
 20
66.043199607
 30
0.0
 10
67.9540519983
 20
65.975327835
 30
0.0
 10
68.0315203194
 20
65.8627024036
 30
0.0
 10
68.0710471481
 20
65.7464415033
 30
0.0
 10
68.0746479223
 20
65.6347146321
 30
0.0
 10
68.0450447579
 20
65.5285378565
 30
0.0
 10
67.9727083576
 20
65.435779137
 30
0.0
 10
67.8555170758
 20
65.3784190136
 30
0.0
 10
67.764314129
 20
65.3684438059
 30
0.0
 10
67.7165950832
 20
65.3689466359
 30
0.0
  0
SPLINE
  5
3AC
100
AcDbEntity
  8
0
100
AcDbSpline
 62
7
  6
BYLAYER
 70
0
 71
3
 72
11
 73
7
 74
0
 42
0.0000001
 43
0.0000001
 44
0.0000000001
 40
0.0
 40
0.0
 40
0.0
 40
0.0
 40
0.2979666472
 40
0.5605728839
 40
0.7897986987
 40
1.0
 40
1.0
 40
1.0
 40
1.0
 10
67.7947884369
 20
64.8542738032
 30
0.0
 10
67.8374070918
 20
64.8268470235
 30
0.0
 10
67.9141304672
 20
64.7693836116
 30
0.0
 10
68.0047366032
 20
64.6685859165
 30
0.0
 10
68.0594592312
 20
64.560738675
 30
0.0
 10
68.0719107052
 20
64.4854947296
 30
0.0
 10
68.0716073862
 20
64.4497428816
 30
0.0
  0
SPLINE
  5
3AD
100
AcDbEntity
  8
0
100
AcDbSpline
 62
7
  6
BYLAYER
 70
0
 71
3
 72
13
 73
9
 74
0
 42
0.0000001
 43
0.0000001
 44
0.0000000001
 40
0.0
 40
0.0
 40
0.0
 40
0.0
 40
0.1632465106
 40
0.3100900347
 40
0.4558482805
 40
0.6155156288
 40
0.7968183629
 40
1.0
 40
1.0
 40
1.0
 40
1.0
 10
68.0716073862
 20
64.4497428816
 30
0.0
 10
68.0714338854
 20
64.4205740406
 30
0.0
 10
68.065735287
 20
64.3647814534
 30
0.0
 10
68.0344269124
 20
64.2882611724
 30
0.0
 10
67.9811869942
 20
64.2256458137
 30
0.0
 10
67.9059189833
 20
64.1795334287
 30
0.0
 10
67.8116252853
 20
64.1524104675
 30
0.0
 10
67.742692038
 20
64.1472396998
 30
0.0
 10
67.7063870092
 20
64.1473009261
 30
0.0
  0
SPLINE
  5
3AE
100
AcDbEntity
  8
0
100
AcDbSpline
 62
7
  6
BYLAYER
 70
0
 71
3
 72
17
 73
13
 74
0
 42
0.0000001
 43
0.0000001
 44
0.0000000001
 40
0.0
 40
0.0
 40
0.0
 40
0.0
 40
0.0956134687
 40
0.1835693653
 40
0.2682459624
 40
0.3568667911
 40
0.4532016255
 40
0.5598847353
 40
0.6618969581
 40
0.7615281322
 40
0.8721748259
 40
1.0
 40
1.0
 40
1.0
 40
1.0
 10
67.7984899948
 20
63.6325540624
 30
0.0
 10
67.8544055889
 20
63.6330086226
 30
0.0
 10
67.962349467
 20
63.6440048503
 30
0.0
 10
68.1107665943
 20
63.7001670166
 30
0.0
 10
68.2358474493
 20
63.7911287621
 30
0.0
 10
68.3341855292
 20
63.9169819664
 30
0.0
 10
68.3996973987
 20
64.0767578631
 30
0.0
 10
68.4222885871
 20
64.2554040743
 30
0.0
 10
68.4065815152
 20
64.4367137641
 30
0.0
 10
68.3415903058
 20
64.6099445153
 30
0.0
 10
68.2252173379
 20
64.7718016649
 30
0.0
 10
68.1248541652
 20
64.8694345711
 30
0.0
 10
68.068070342
 20
64.9180557583
 30
0.0
  0
SPLINE
  5
3AF
100
AcDbEntity
  8
0
100
AcDbSpline
 62
7
  6
BYLAYER
 70
0
 71
3
 72
13
 73
9
 74
0
 42
0.0000001
 43
0.0000001
 44
0.0000000001
 40
0.0
 40
0.0
 40
0.0
 40
0.0
 40
0.1568079966
 40
0.304639756
 40
0.4576240023
 40
0.6268171858
 40
0.8141699237
 40
1.0
 40
1.0
 40
1.0
 40
1.0
 10
68.068070342
 20
64.9180557583
 30
0.0
 10
68.1165046455
 20
64.9411602899
 30
0.0
 10
68.2063654895
 20
64.9962680686
 30
0.0
 10
68.3154658298
 20
65.11143966
 30
0.0
 10
68.3875419001
 20
65.2579767629
 30
0.0
 10
68.4189574512
 20
65.4309978552
 30
0.0
 10
68.416885979
 20
65.617993985
 30
0.0
 10
68.3833497297
 20
65.742849471
 30
0.0
 10
68.3599834217
 20
65.8019960045
 30
0.0
  0
SPLINE
  5
3B0
100
AcDbEntity
  8
0
100
AcDbSpline
 62
7
  6
BYLAYER
 70
0
 71
3
 72
10
 73
6
 74
0
 42
0.0000001
 43
0.0000001
 44
0.0000000001
 40
0.0
 40
0.0
 40
0.0
 40
0.0
 40
0.3130784845
 40
0.646157445
 40
1.0
 40
1.0
 40
1.0
 40
1.0
 10
68.3599834217
 20
65.8019960045
 30
0.0
 10
68.3455256843
 20
65.8334219163
 30
0.0
 10
68.3117242538
 20
65.896494349
 30
0.0
 10
68.2499728549
 20
65.9883239147
 30
0.0
 10
68.2012090035
 20
66.04667406
 30
0.0
 10
68.1749055279
 20
66.0755987113
 30
0.0
  0
SPLINE
  5
3B1
100
AcDbEntity
  8
0
100
AcDbSpline
 62
7
  6
BYLAYER
 70
0
 71
3
 72
17
 73
13
 74
0
 42
0.0000001
 43
0.0000001
 44
0.0000000001
 40
0.0
 40
0.0
 40
0.0
 40
0.0
 40
0.1218032327
 40
0.2252513439
 40
0.3179148102
 40
0.4073108007
 40
0.5051494227
 40
0.6065363247
 40
0.698267153
 40
0.7898821386
 40
0.8868065944
 40
1.0
 40
1.0
 40
1.0
 40
1.0
 10
67.7523768093
 20
67.9589102296
 30
0.0
 10
67.7975133107
 20
67.9541435478
 30
0.0
 10
67.8809253643
 20
67.938304597
 30
0.0
 10
67.9876990956
 20
67.8825081198
 30
0.0
 10
68.0617747687
 20
67.8031907437
 30
0.0
 10
68.1037716616
 20
67.7057211593
 30
0.0
 10
68.1152776199
 20
67.5975684099
 30
0.0
 10
68.0999515083
 20
67.4886722526
 30
0.0
 10
68.0509701558
 20
67.3922528955
 30
0.0
 10
67.9742471324
 20
67.3187382271
 30
0.0
 10
67.8720433472
 20
67.2683195615
 30
0.0
 10
67.7943094667
 20
67.2536781743
 30
0.0
 10
67.7523768093
 20
67.2491241686
 30
0.0
  0
SPLINE
  5
3B2
100
AcDbEntity
  8
0
100
AcDbSpline
 62
7
  6
BYLAYER
 70
0
 71
3
 72
16
 73
12
 74
0
 42
0.0000001
 43
0.0000001
 44
0.0000000001
 40
0.0
 40
0.0
 40
0.0
 40
0.0
 40
0.1575591885
 40
0.2924549095
 40
0.4165619597
 40
0.5300427629
 40
0.6296038697
 40
0.7183812824
 40
0.8042121552
 40
0.8949020909
 40
1.0
 40
1.0
 40
1.0
 40
1.0
 10
67.2554221004
 20
66.8228938921
 30
0.0
 10
67.2098027899
 20
66.8842661706
 30
0.0
 10
67.131643829
 20
67.0031391224
 30
0.0
 10
67.0468835166
 20
67.1885633539
 30
0.0
 10
67.0173517663
 20
67.3687095003
 30
0.0
 10
67.0218094924
 20
67.5331321462
 30
0.0
 10
67.0558375256
 20
67.6769802004
 30
0.0
 10
67.1195970029
 20
67.7957647965
 30
0.0
 10
67.2126054303
 20
67.8876793405
 30
0.0
 10
67.33653721
 20
67.9503812157
 30
0.0
 10
67.4315384245
 20
67.9659624165
 30
0.0
 10
67.4823934036
 20
67.9699161951
 30
0.0
  0
SPLINE
  5
3B3
100
AcDbEntity
  8
0
100
AcDbSpline
 62
7
  6
BYLAYER
 70
0
 71
3
 72
20
 73
16
 74
0
 42
0.0000001
 43
0.0000001
 44
0.0000000001
 40
0.0
 40
0.0
 40
0.0
 40
0.0
 40
0.0902654434
 40
0.1729234389
 40
0.2467245505
 40
0.3213574975
 40
0.3982442811
 40
0.4819127825
 40
0.5710735228
 40
0.6542561353
 40
0.7312988432
 40
0.8073959419
 40
0.8847635061
 40
0.9675785373
 40
1.0
 40
1.0
 40
1.0
 40
1.0
 10
67.4823934036
 20
66.794457702
 30
0.0
 10
67.5630803164
 20
66.7913937413
 30
0.0
 10
67.7188867533
 20
66.7988294013
 30
0.0
 10
67.9331095862
 20
66.8604133101
 30
0.0
 10
68.1133972098
 20
66.9659139713
 30
0.0
 10
68.2567221688
 20
67.1110094919
 30
0.0
 10
68.3613854152
 20
67.2963066
 30
0.0
 10
68.4175440246
 20
67.5150489361
 30
0.0
 10
68.419359615
 20
67.7461726831
 30
0.0
 10
68.3703423864
 20
67.9659731271
 30
0.0
 10
68.2732185633
 20
68.1563240503
 30
0.0
 10
68.1340688594
 20
68.3116878225
 30
0.0
 10
67.9545165705
 20
68.4278609057
 30
0.0
 10
67.7885413372
 20
68.4808454391
 30
0.0
 10
67.686178171
 20
68.4955184377
 30
0.0
 10
67.6572479649
 20
68.4983369012
 30
0.0
  0
SPLINE
  5
3B4
100
AcDbEntity
  8
0
100
AcDbSpline
 62
7
  6
BYLAYER
 70
0
 71
3
 72
11
 73
7
 74
0
 42
0.0000001
 43
0.0000001
 44
0.0000000001
 40
0.0
 40
0.0
 40
0.0
 40
0.0
 40
0.2053810963
 40
0.4418502509
 40
0.7071340642
 40
1.0
 40
1.0
 40
1.0
 40
1.0
 10
66.7154141605
 20
67.5543710823
 30
0.0
 10
66.7132825477
 20
67.5012691943
 30
0.0
 10
66.7192572999
 20
67.3867000314
 30
0.0
 10
66.7471817847
 20
67.2054584244
 30
0.0
 10
66.8134413642
 20
67.0092164742
 30
0.0
 10
66.8888649337
 20
66.8847963637
 30
0.0
 10
66.9325804482
 20
66.8228938921
 30
0.0
  0
SPLINE
  5
3B5
100
AcDbEntity
  8
0
100
AcDbSpline
 62
7
  6
BYLAYER
 70
0
 71
3
 72
17
 73
13
 74
0
 42
0.0000001
 43
0.0000001
 44
0.0000000001
 40
0.0
 40
0.0
 40
0.0
 40
0.0
 40
0.1216186481
 40
0.2249242896
 40
0.3175734904
 40
0.4070528638
 40
0.5049979302
 40
0.6064263717
 40
0.6982541657
 40
0.7899165071
 40
0.8868280217
 40
1.0
 40
1.0
 40
1.0
 40
1.0
 10
67.7523768093
 20
70.5965910172
 30
0.0
 10
67.797466596
 20
70.5918794376
 30
0.0
 10
67.8808087977
 20
70.5761398749
 30
0.0
 10
67.9875289281
 20
70.5204167107
 30
0.0
 10
68.0616332962
 20
70.4411101506
 30
0.0
 10
68.1037034838
 20
70.3435600126
 30
0.0
 10
68.1152926928
 20
70.2352879312
 30
0.0
 10
68.0999819961
 20
70.1262546228
 30
0.0
 10
68.0510032724
 20
70.0297156165
 30
0.0
 10
67.9742966902
 20
69.956061641
 30
0.0
 10
67.8720867392
 20
69.9055282702
 30
0.0
 10
67.7943202641
 20
69.8909251959
 30
0.0
 10
67.7523768093
 20
69.8864018977
 30
0.0
  0
SPLINE
  5
3B6
100
AcDbEntity
  8
0
100
AcDbSpline
 62
7
  6
BYLAYER
 70
0
 71
3
 72
16
 73
12
 74
0
 42
0.0000001
 43
0.0000001
 44
0.0000000001
 40
0.0
 40
0.0
 40
0.0
 40
0.0
 40
0.1567415543
 40
0.2932483065
 40
0.4153383961
 40
0.5248187669
 40
0.6236328207
 40
0.7110970086
 40
0.8006500057
 40
0.8941771347
 40
1.0
 40
1.0
 40
1.0
 40
1.0
 10
67.2554221004
 20
69.4603361349
 30
0.0
 10
67.2099959587
 20
69.5213591966
 30
0.0
 10
67.1319139536
 20
69.6407430476
 30
0.0
 10
67.0471431892
 20
69.8254762828
 30
0.0
 10
67.0175421463
 20
70.0034834135
 30
0.0
 10
67.022076066
 20
70.164465494
 30
0.0
 10
67.0525646799
 20
70.3059595694
 30
0.0
 10
67.1141300492
 20
70.4267924383
 30
0.0
 10
67.2076198463
 20
70.5221447285
 30
0.0
 10
67.3343869013
 20
70.5873776596
 30
0.0
 10
67.4311601231
 20
70.6034889509
 30
0.0
 10
67.4823934036
 20
70.6071116673
 30
0.0
  0
SPLINE
  5
3B7
100
AcDbEntity
  8
0
100
AcDbSpline
 62
7
  6
BYLAYER
 70
0
 71
3
 72
21
 73
17
 74
0
 42
0.0000001
 43
0.0000001
 44
0.0000000001
 40
0.0
 40
0.0
 40
0.0
 40
0.0
 40
0.0864287432
 40
0.1571128091
 40
0.2298490107
 40
0.2992576912
 40
0.3710538201
 40
0.4493856968
 40
0.5299951452
 40
0.6080347933
 40
0.6792433042
 40
0.7503327231
 40
0.8226462108
 40
0.9002615041
 40
0.9829116869
 40
1.0
 40
1.0
 40
1.0
 40
1.0
 10
67.4823934036
 20
69.4319822015
 30
0.0
 10
67.5648944046
 20
69.4304533926
 30
0.0
 10
67.716040178
 20
69.4358559833
 30
0.0
 10
67.9287936107
 20
69.4971022747
 30
0.0
 10
68.1073087421
 20
69.5987540509
 30
0.0
 10
68.2539019109
 20
69.7444030467
 30
0.0
 10
68.3593338097
 20
69.9284756695
 30
0.0
 10
68.415320656
 20
70.1439686998
 30
0.0
 10
68.4204314695
 20
70.3720917898
 30
0.0
 10
68.3749277934
 20
70.5888781646
 30
0.0
 10
68.2827509067
 20
70.7804099464
 30
0.0
 10
68.1471908352
 20
70.9372559535
 30
0.0
 10
67.9707319248
 20
71.0572633887
 30
0.0
 10
67.7582525667
 20
71.1302761624
 30
0.0
 10
67.5878779634
 20
71.1435689344
 30
0.0
 10
67.4924874928
 20
71.1379320162
 30
0.0
 10
67.4761821824
 20
71.1365601549
 30
0.0
  0
SPLINE
  5
3B8
100
AcDbEntity
  8
0
100
AcDbSpline
 62
7
  6
BYLAYER
 70
0
 71
3
 72
11
 73
7
 74
0
 42
0.0000001
 43
0.0000001
 44
0.0000000001
 40
0.0
 40
0.0
 40
0.0
 40
0.0
 40
0.2051736787
 40
0.4415094567
 40
0.7066517078
 40
1.0
 40
1.0
 40
1.0
 40
1.0
 10
66.7154141605
 20
70.1918133251
 30
0.0
 10
66.7132899909
 20
70.1387665312
 30
0.0
 10
66.7192727524
 20
70.0242894118
 30
0.0
 10
66.7471938153
 20
69.8431832764
 30
0.0
 10
66.8133853396
 20
69.6468703453
 30
0.0
 10
66.888837541
 20
69.5223691063
 30
0.0
 10
66.9325804482
 20
69.4603361349
 30
0.0
  0
SPLINE
  5
3B9
100
AcDbEntity
  8
0
100
AcDbSpline
 62
7
  6
BYLAYER
 70
0
 71
3
 72
10
 73
6
 74
0
 42
0.0000001
 43
0.0000001
 44
0.0000000001
 40
0.0
 40
0.0
 40
0.0
 40
0.0
 40
0.3550318484
 40
0.6880657738
 40
1.0
 40
1.0
 40
1.0
 40
1.0
 10
66.6722375415
 20
78.4867248475
 30
0.0
 10
66.7120128372
 20
78.5163980924
 30
0.0
 10
66.7912959878
 20
78.5710690752
 30
0.0
 10
66.9130696079
 20
78.6400510705
 30
0.0
 10
66.9956981163
 20
78.6766049047
 30
0.0
 10
67.036528419
 20
78.6918980899
 30
0.0
  0
SPLINE
  5
3BA
100
AcDbEntity
  8
0
100
AcDbSpline
 62
7
  6
BYLAYER
 70
0
 71
3
 72
10
 73
6
 74
0
 42
0.0000001
 43
0.0000001
 44
0.0000000001
 40
0.0
 40
0.0
 40
0.0
 40
0.0
 40
0.3119418224
 40
0.6449448045
 40
1.0
 40
1.0
 40
1.0
 40
1.0
 10
68.0252556559
 20
78.7602206226
 30
0.0
 10
68.0661010338
 20
78.7519523516
 30
0.0
 10
68.1496387197
 20
78.7300584051
 30
0.0
 10
68.2749594951
 20
78.6833305216
 30
0.0
 10
68.3584847653
 20
78.6447308499
 30
0.0
 10
68.4008321693
 20
78.6233616894
 30
0.0
  0
SPLINE
  5
3BB
100
AcDbEntity
  8
0
100
AcDbSpline
 62
7
  6
BYLAYER
 70
0
 71
3
 72
10
 73
6
 74
0
 42
0.0000001
 43
0.0000001
 44
0.0000000001
 40
0.0
 40
0.0
 40
0.0
 40
0.0
 40
0.3616621024
 40
0.6941259833
 40
1.0
 40
1.0
 40
1.0
 40
1.0
 10
68.8851357759
 20
78.2765010394
 30
0.0
 10
68.941778688
 20
78.2104407572
 30
0.0
 10
69.0452523708
 20
78.0789240881
 30
0.0
 10
69.1730608504
 20
77.8745351001
 30
0.0
 10
69.2387025216
 20
77.7351019222
 30
0.0
 10
69.2650554505
 20
77.6663855934
 30
0.0
  0
SPLINE
  5
3BC
100
AcDbEntity
  8
0
100
AcDbSpline
 62
7
  6
BYLAYER
 70
0
 71
3
 72
10
 73
6
 74
0
 42
0.0000001
 43
0.0000001
 44
0.0000000001
 40
0.0
 40
0.0
 40
0.0
 40
0.0
 40
0.3619109776
 40
0.6947787854
 40
1.0
 40
1.0
 40
1.0
 40
1.0
 10
69.2650554505
 20
76.5041869032
 30
0.0
 10
69.2301103735
 20
76.4261094807
 30
0.0
 10
69.1569973418
 20
76.2787738109
 30
0.0
 10
69.0316792703
 20
76.0779035681
 30
0.0
 10
68.9369973954
 20
75.9598584273
 30
0.0
 10
68.8879078315
 20
75.906994007
 30
0.0
  0
SPLINE
  5
3BD
100
AcDbEntity
  8
0
100
AcDbSpline
 62
7
  6
BYLAYER
 70
0
 71
3
 72
10
 73
6
 74
0
 42
0.0000001
 43
0.0000001
 44
0.0000000001
 40
0.0
 40
0.0
 40
0.0
 40
0.0
 40
0.3504438633
 40
0.6810251366
 40
1.0
 40
1.0
 40
1.0
 40
1.0
 10
67.0367951548
 20
75.4935988712
 30
0.0
 10
66.9911063078
 20
75.51086723
 30
0.0
 10
66.9036396147
 20
75.5481977286
 30
0.0
 10
66.7816555318
 20
75.6160760257
 30
0.0
 10
66.7072229203
 20
75.6679571438
 30
0.0
 10
66.6722375408
 20
75.6953882846
 30
0.0
  0
SPLINE
  5
3BE
100
AcDbEntity
  8
0
100
AcDbSpline
 62
7
  6
BYLAYER
 70
0
 71
3
 72
22
 73
18
 74
0
 42
0.0000001
 43
0.0000001
 44
0.0000000001
 40
0.0
 40
0.0
 40
0.0
 40
0.0
 40
0.0677973303
 40
0.1309908568
 40
0.1960195063
 40
0.2646268953
 40
0.3306272285
 40
0.3951841939
 40
0.4639783794
 40
0.5376904167
 40
0.6044991993
 40
0.6698465038
 40
0.7388393279
 40
0.8076048284
 40
0.8712341452
 40
0.9333720382
 40
1.0
 40
1.0
 40
1.0
 40
1.0
 10
67.6030784218
 20
79.1732179438
 30
0.0
 10
67.457052416
 20
79.1730148741
 30
0.0
 10
67.1737323387
 20
79.1492590552
 30
0.0
 10
66.7673860975
 20
79.0227669735
 30
0.0
 10
66.3975497473
 20
78.808848828
 30
0.0
 10
66.0754713961
 20
78.5194155301
 30
0.0
 10
65.8186144122
 20
78.1720435804
 30
0.0
 10
65.6417059771
 20
77.7769495717
 30
0.0
 10
65.5534016757
 20
77.3364451024
 30
0.0
 10
65.5520275358
 20
76.8827568529
 30
0.0
 10
65.6371694852
 20
76.444452531
 30
0.0
 10
65.8114977037
 20
76.0440039902
 30
0.0
 10
66.0701422063
 20
75.6872295602
 30
0.0
 10
66.3911301424
 20
75.3912410801
 30
0.0
 10
66.7526315111
 20
75.1733589984
 30
0.0
 10
67.1491651414
 20
75.0414617996
 30
0.0
 10
67.4276942518
 20
75.0157722906
 30
0.0
 10
67.5711978899
 20
75.0147211427
 30
0.0
  0
SPLINE
  5
3BF
100
AcDbEntity
  8
0
100
AcDbSpline
 62
7
  6
BYLAYER
 70
0
 71
3
 72
22
 73
18
 74
0
 42
0.0000001
 43
0.0000001
 44
0.0000000001
 40
0.0
 40
0.0
 40
0.0
 40
0.0
 40
0.0662682222
 40
0.1278494248
 40
0.1923755364
 40
0.263796435
 40
0.3323856616
 40
0.3984781926
 40
0.4680737399
 40
0.5416060682
 40
0.6084328991
 40
0.6745345972
 40
0.7443489246
 40
0.8117240428
 40
0.8733396506
 40
0.9342344898
 40
1.0
 40
1.0
 40
1.0
 40
1.0
 10
67.5711978899
 20
75.0147211427
 30
0.0
 10
67.7120310549
 20
75.0157199736
 30
0.0
 10
67.9848968586
 20
75.0403936085
 30
0.0
 10
68.3765776606
 20
75.1688869788
 30
0.0
 10
68.7394189014
 20
75.3866499215
 30
0.0
 10
69.0585049286
 20
75.6861775709
 30
0.0
 10
69.318265151
 20
76.0424026541
 30
0.0
 10
69.4937821667
 20
76.4434495412
 30
0.0
 10
69.5788900249
 20
76.8831205422
 30
0.0
 10
69.577187099
 20
77.3322655339
 30
0.0
 10
69.4880752886
 20
77.7650050917
 30
0.0
 10
69.3102586219
 20
78.1615848785
 30
0.0
 10
69.0491990166
 20
78.5092093616
 30
0.0
 10
68.7417151073
 20
78.8023849101
 30
0.0
 10
68.395074701
 20
79.0152555338
 30
0.0
 10
68.0131258977
 20
79.1454722778
 30
0.0
 10
67.7428360178
 20
79.171486819
 30
0.0
 10
67.6030784218
 20
79.1732179438
 30
0.0
  0
SPLINE
  5
3C0
100
AcDbEntity
  8
0
100
AcDbSpline
 62
7
  6
BYLAYER
 70
0
 71
3
 72
14
 73
10
 74
0
 42
0.0000001
 43
0.0000001
 44
0.0000000001
 40
0.0
 40
0.0
 40
0.0
 40
0.0
 40
0.100306851
 40
0.2428507985
 40
0.3735407938
 40
0.5037548725
 40
0.6472852095
 40
0.8098362695
 40
1.0
 40
1.0
 40
1.0
 40
1.0
 10
67.6573247551
 20
51.6268437495
 30
0.0
 10
67.6064923928
 20
51.6317992194
 30
0.0
 10
67.482446427
 20
51.634007565
 30
0.0
 10
67.2934610798
 20
51.6028107925
 30
0.0
 10
67.1042934773
 20
51.5178517275
 30
0.0
 10
66.9441342148
 20
51.3851542434
 30
0.0
 10
66.8170837613
 20
51.200206985
 30
0.0
 10
66.7322854864
 20
50.9597902448
 30
0.0
 10
66.7168073038
 20
50.7796471717
 30
0.0
 10
66.7154141605
 20
50.6830486695
 30
0.0
  0
SPLINE
  5
3C1
100
AcDbEntity
  8
0
100
AcDbSpline
 62
7
  6
BYLAYER
 70
0
 71
3
 72
14
 73
10
 74
0
 42
0.0000001
 43
0.0000001
 44
0.0000000001
 40
0.0
 40
0.0
 40
0.0
 40
0.0
 40
0.1003128399
 40
0.2428176089
 40
0.3734823982
 40
0.5036890477
 40
0.6472322083
 40
0.8098072528
 40
1.0
 40
1.0
 40
1.0
 40
1.0
 10
67.6572932276
 20
63.420500261
 30
0.0
 10
67.6064521165
 20
63.4254576677
 30
0.0
 10
67.4824083005
 20
63.4276629006
 30
0.0
 10
67.2934334918
 20
63.3964504698
 30
0.0
 10
67.1042868376
 20
63.3114767845
 30
0.0
 10
66.9441329983
 20
63.1787514777
 30
0.0
 10
66.8170816068
 20
62.9937557511
 30
0.0
 10
66.7322847312
 20
62.7532731413
 30
0.0
 10
66.7168066646
 20
62.5730830645
 30
0.0
 10
66.7154141605
 20
62.4764588298
 30
0.0
  0
SPLINE
  5
3C2
100
AcDbEntity
  8
0
100
AcDbSpline
 62
7
  6
BYLAYER
 70
0
 71
3
 72
14
 73
10
 74
0
 42
0.0000001
 43
0.0000001
 44
0.0000000001
 40
0.0
 40
0.0
 40
0.0
 40
0.0
 40
0.1003207953
 40
0.2428571225
 40
0.3735272634
 40
0.5037258611
 40
0.647255378
 40
0.8098215841
 40
1.0
 40
1.0
 40
1.0
 40
1.0
 10
67.6572479649
 20
68.4983369012
 30
0.0
 10
67.6064052593
 20
68.503290143
 30
0.0
 10
67.4823483631
 20
68.5054883252
 30
0.0
 10
67.2933616965
 20
68.4742736325
 30
0.0
 10
67.1042113299
 20
68.3893000224
 30
0.0
 10
66.9440730995
 20
68.2565864361
 30
0.0
 10
66.8170443007
 20
68.0716082302
 30
0.0
 10
66.7322759714
 20
67.8311506836
 30
0.0
 10
66.7168039214
 20
67.6509827402
 30
0.0
 10
66.7154141605
 20
67.5543710823
 30
0.0
  0
SPLINE
  5
3C3
100
AcDbEntity
  8
0
100
AcDbSpline
 62
7
  6
BYLAYER
 70
0
 71
3
 72
13
 73
9
 74
0
 42
0.0000001
 43
0.0000001
 44
0.0000000001
 40
0.0
 40
0.0
 40
0.0
 40
0.0
 40
0.1245074306
 40
0.2728943236
 40
0.4229243593
 40
0.5912263965
 40
0.7812270636
 40
1.0
 40
1.0
 40
1.0
 40
1.0
 10
67.4761821824
 20
71.1365601549
 30
0.0
 10
67.420470774
 20
71.1318728275
 30
0.0
 10
67.2993366021
 20
71.1112085352
 30
0.0
 10
67.1225244036
 20
71.0376001949
 30
0.0
 10
66.9558061857
 20
70.9073251094
 30
0.0
 10
66.8215260762
 20
70.7197325633
 30
0.0
 10
66.7329484496
 20
70.4737536483
 30
0.0
 10
66.7165277034
 20
70.2897533225
 30
0.0
 10
66.7154141605
 20
70.1918133251
 30
0.0
  0
SPLINE
  5
3C4
100
AcDbEntity
  8
0
100
AcDbSpline
 62
7
  6
BYLAYER
 70
0
 71
3
 72
9
 73
5
 74
0
 42
0.0000001
 43
0.0000001
 44
0.0000000001
 40
0.0
 40
0.0
 40
0.0
 40
0.0
 40
0.5022090595
 40
1.0
 40
1.0
 40
1.0
 40
1.0
 10
57.4208710705
 20
32.0838959328
 30
0.0
 10
57.6697912093
 20
32.0356927552
 30
0.0
 10
58.1659626076
 20
31.9425194466
 30
0.0
 10
58.6662356285
 20
31.8710293928
 30
0.0
 10
58.9164123703
 20
31.8471488379
 30
0.0
  0
SPLINE
  5
3C5
100
AcDbEntity
  8
0
100
AcDbSpline
 62
7
  6
BYLAYER
 70
0
 71
3
 72
9
 73
5
 74
0
 42
0.0000001
 43
0.0000001
 44
0.0000000001
 40
0.0
 40
0.0
 40
0.0
 40
0.0
 40
0.2517414223
 40
1.0
 40
1.0
 40
1.0
 40
1.0
 10
59.0642499977
 20
31.8344942994
 30
0.0
 10
59.1083634227
 20
31.8311809096
 30
0.0
 10
59.2837073069
 20
31.8197675747
 30
0.0
 10
59.4597125729
 20
31.8165509144
 30
0.0
 10
59.5911245119
 20
31.821051931
 30
0.0
  0
SPLINE
  5
3C6
100
AcDbEntity
  8
0
100
AcDbSpline
 62
7
  6
BYLAYER
 70
0
 71
3
 72
14
 73
10
 74
0
 42
0.0000001
 43
0.0000001
 44
0.0000000001
 40
0.0
 40
0.0
 40
0.0
 40
0.0
 40
0.2933163634
 40
0.4380524032
 40
0.5746137536
 40
0.6991597618
 40
0.8105940192
 40
0.9097203484
 40
1.0
 40
1.0
 40
1.0
 40
1.0
 10
72.151554695
 20
33.7834005695
 30
0.0
 10
72.1564053839
 20
33.7504531982
 30
0.0
 10
72.1587584484
 20
33.7002077326
 30
0.0
 10
72.1495499329
 20
33.6354686125
 30
0.0
 10
72.1366302565
 20
33.5910210467
 30
0.0
 10
72.1176463198
 20
33.5529432652
 30
0.0
 10
72.0939042002
 20
33.5227765019
 30
0.0
 10
72.0664079642
 20
33.5018625765
 30
0.0
 10
72.046107483
 20
33.4938435342
 30
0.0
 10
72.0361333922
 20
33.4914806189
 30
0.0
  0
SPLINE
  5
3C7
100
AcDbEntity
  8
0
100
AcDbSpline
 62
7
  6
BYLAYER
 70
0
 71
3
 72
9
 73
5
 74
0
 42
0.0000001
 43
0.0000001
 44
0.0000000001
 40
0.0
 40
0.0
 40
0.0
 40
0.0
 40
0.2470754957
 40
1.0
 40
1.0
 40
1.0
 40
1.0
 10
57.8649160019
 20
36.5715416464
 30
0.0
 10
57.8613918933
 20
36.565089205
 30
0.0
 10
57.8469617955
 20
36.539064871
 30
0.0
 10
57.832073656
 20
36.5132988657
 30
0.0
 10
57.8208714635
 20
36.4938960992
 30
0.0
  0
SPLINE
  5
3C8
100
AcDbEntity
  8
0
100
AcDbSpline
 62
7
  6
BYLAYER
 70
0
 71
3
 72
20
 73
16
 74
0
 42
0.0000001
 43
0.0000001
 44
0.0000000001
 40
0.0
 40
0.0
 40
0.0
 40
0.0
 40
0.180445245
 40
0.3647764605
 40
0.5423385172
 40
0.7009894771
 40
0.7694941251
 40
0.8295878324
 40
0.8807107741
 40
0.9223244335
 40
0.9541349479
 40
0.9767315425
 40
0.9849071751
 40
0.9912595133
 40
1.0
 40
1.0
 40
1.0
 40
1.0
 10
43.120875822
 20
77.70891891
 30
0.0
 10
43.0847397666
 20
77.7133859312
 30
0.0
 10
43.0117637479
 20
77.7230263803
 30
0.0
 10
42.9035248043
 20
77.7392138946
 30
0.0
 10
42.799986099
 20
77.7569383789
 30
0.0
 10
42.7198330501
 20
77.7726655313
 30
0.0
 10
42.6633042247
 20
77.7854953212
 30
0.0
 10
42.6281305452
 20
77.794344318
 30
0.0
 10
42.5984552375
 20
77.8027498195
 30
0.0
 10
42.5745496682
 20
77.8105486359
 30
0.0
 10
42.556545143
 20
77.8177368534
 30
0.0
 10
42.5452679886
 20
77.8235153854
 30
0.0
 10
42.5392472989
 20
77.8280575356
 30
0.0
 10
42.5359715639
 20
77.8313478978
 30
0.0
 10
42.534671355
 20
77.8345819505
 30
0.0
 10
42.5350460479
 20
77.8363053871
 30
0.0
  0
SPLINE
  5
3C9
100
AcDbEntity
  8
0
100
AcDbSpline
 62
7
  6
BYLAYER
 70
0
 71
3
 72
12
 73
8
 74
0
 42
0.0000001
 43
0.0000001
 44
0.0000000001
 40
0.0
 40
0.0
 40
0.0
 40
0.0
 40
0.1216907171
 40
0.213625833
 40
0.3295885196
 40
0.6297297496
 40
1.0
 40
1.0
 40
1.0
 40
1.0
 10
57.9208710705
 20
37.2671010136
 30
0.0
 10
57.9208710705
 20
37.2704175487
 30
0.0
 10
57.9164785885
 20
37.2756386655
 30
0.0
 10
57.9088684966
 20
37.280033975
 30
0.0
 10
57.895943723
 20
37.2853470233
 30
0.0
 10
57.8750013372
 20
37.2901214333
 30
0.0
 10
57.8568184447
 20
37.2922603323
 30
0.0
 10
57.8467530706
 20
37.2929828551
 30
0.0
  0
SPLINE
  5
3CA
100
AcDbEntity
  8
0
100
AcDbSpline
 62
7
  6
BYLAYER
 70
0
 71
3
 72
9
 73
5
 74
0
 42
0.0000001
 43
0.0000001
 44
0.0000000001
 40
0.0
 40
0.0
 40
0.0
 40
0.0
 40
0.2391192154
 40
1.0
 40
1.0
 40
1.0
 40
1.0
 10
57.8649636877
 20
37.9358945472
 30
0.0
 10
57.861466539
 20
37.9363031841
 30
0.0
 10
57.8468127908
 20
37.9377622591
 30
0.0
 10
57.8320747588
 20
37.9383315336
 30
0.0
 10
57.8208710705
 20
37.9383315336
 30
0.0
  0
SPLINE
  5
3CB
100
AcDbEntity
  8
0
100
AcDbSpline
 62
7
  6
BYLAYER
 70
0
 71
3
 72
11
 73
7
 74
0
 42
0.0000001
 43
0.0000001
 44
0.0000000001
 40
0.0
 40
0.0
 40
0.0
 40
0.0
 40
0.3089144654
 40
0.5900980674
 40
0.8214606009
 40
1.0
 40
1.0
 40
1.0
 40
1.0
 10
57.8208713969
 20
37.6761869534
 30
0.0
 10
57.8325336405
 20
37.6761869439
 30
0.0
 10
57.8548623422
 20
37.6742613335
 30
0.0
 10
57.8849535002
 20
37.6658385627
 30
0.0
 10
57.9079416975
 20
37.6529079447
 30
0.0
 10
57.9179171483
 20
37.6399073341
 30
0.0
 10
57.9198135393
 20
37.6334393302
 30
0.0
  0
SPLINE
  5
3CC
100
AcDbEntity
  8
0
100
AcDbSpline
 62
7
  6
BYLAYER
 70
0
 71
3
 72
9
 73
5
 74
0
 42
0.0000001
 43
0.0000001
 44
0.0000000001
 40
0.0
 40
0.0
 40
0.0
 40
0.0
 40
0.5002097476
 40
1.0
 40
1.0
 40
1.0
 40
1.0
 10
57.8649636877
 20
37.9358945472
 30
0.0
 10
57.8759483164
 20
37.8888430017
 30
0.0
 10
57.899866013
 20
37.7952886068
 30
0.0
 10
57.9155196034
 20
37.6995963248
 30
0.0
 10
57.9190158411
 20
37.6514468455
 30
0.0
  0
SPLINE
  5
3CD
100
AcDbEntity
  8
0
100
AcDbSpline
 62
7
  6
BYLAYER
 70
0
 71
3
 72
15
 73
11
 74
0
 42
0.0000001
 43
0.0000001
 44
0.0000000001
 40
0.0
 40
0.0
 40
0.0
 40
0.0
 40
0.1265814049
 40
0.2528723853
 40
0.3787073375
 40
0.5039577774
 40
0.6286096406
 40
0.7527549109
 40
0.8765147798
 40
1.0
 40
1.0
 40
1.0
 40
1.0
 10
57.9190170748
 20
37.6514488548
 30
0.0
 10
58.0565716222
 20
37.6701117541
 30
0.0
 10
58.3295714116
 20
37.7227006393
 30
0.0
 10
58.7260127807
 20
37.8502138623
 30
0.0
 10
59.0996118945
 20
38.0318753106
 30
0.0
 10
59.4393181646
 20
38.2680102329
 30
0.0
 10
59.7384000552
 20
38.5507054015
 30
0.0
 10
59.9979562262
 20
38.8673398322
 30
0.0
 10
60.2241339095
 20
39.2066221511
 30
0.0
 10
60.3575548193
 20
39.4429015604
 30
0.0
 10
60.4208710705
 20
39.5626073274
 30
0.0
  0
SPLINE
  5
3CE
100
AcDbEntity
  8
0
100
AcDbSpline
 62
7
  6
BYLAYER
 70
0
 71
3
 72
32
 73
28
 74
0
 42
0.0000001
 43
0.0000001
 44
0.0000000001
 40
0.0
 40
0.0
 40
0.0
 40
0.0
 40
0.1251895984
 40
0.2503833407
 40
0.3755761899
 40
0.4381722423
 40
0.500768657
 40
0.5633664494
 40
0.6259672854
 40
0.6885738614
 40
0.7198808027
 40
0.7511911904
 40
0.7825062073
 40
0.8138274691
 40
0.8451571641
 40
0.8608267305
 40
0.8764998063
 40
0.8921766667
 40
0.9078565135
 40
0.9235340869
 40
0.9391733671
 40
0.9544762176
 40
0.9620519067
 40
0.9696070351
 40
0.9771783071
 40
0.9847717558
 40
1.0
 40
1.0
 40
1.0
 40
1.0
 10
53.8608039358
 20
38.0714720908
 30
0.0
 10
53.879315066
 20
38.1404925816
 30
0.0
 10
53.9165162665
 20
38.2784880878
 30
0.0
 10
53.972836942
 20
38.4853413917
 30
0.0
 10
54.0203076686
 20
38.6575739099
 30
0.0
 10
54.0587737446
 20
38.7952233482
 30
0.0
 10
54.0879446778
 20
38.8983709253
 30
0.0
 10
54.1175435172
 20
39.0013996089
 30
0.0
 10
54.1477362454
 20
39.1042621028
 30
0.0
 10
54.1736079485
 20
39.1897762586
 30
0.0
 10
54.1949677766
 20
39.2579901546
 30
0.0
 10
54.2114183585
 20
39.3090226792
 30
0.0
 10
54.2284334879
 20
39.3598792158
 30
0.0
 10
54.2462229053
 20
39.4104826182
 30
0.0
 10
54.2619678691
 20
39.452331507
 30
0.0
 10
54.275432283
 20
39.4854779065
 30
0.0
 10
54.2861020276
 20
39.510107335
 30
0.0
 10
54.2975541954
 20
39.53439896
 30
0.0
 10
54.3100748651
 20
39.5581431091
 30
0.0
 10
54.3244201227
 20
39.5809427424
 30
0.0
 10
54.341081657
 20
39.6014728276
 30
0.0
 10
54.3612801142
 20
39.6140705356
 30
0.0
 10
54.3792036809
 20
39.6114828687
 30
0.0
 10
54.3903765886
 20
39.6045244869
 30
0.0
 10
54.3996335252
 20
39.5953674648
 30
0.0
 10
54.4102253088
 20
39.5815866095
 30
0.0
 10
54.4168068516
 20
39.5702911437
 30
0.0
 10
54.4208710705
 20
39.5626073274
 30
0.0
  0
SPLINE
  5
3CF
100
AcDbEntity
  8
0
100
AcDbSpline
 62
7
  6
BYLAYER
 70
0
 71
3
 72
15
 73
11
 74
0
 42
0.0000001
 43
0.0000001
 44
0.0000000001
 40
0.0
 40
0.0
 40
0.0
 40
0.0
 40
0.1234857405
 40
0.2472469267
 40
0.3713945624
 40
0.4960493536
 40
0.6213007721
 40
0.7471344603
 40
0.8734229264
 40
1.0
 40
1.0
 40
1.0
 40
1.0
 10
54.4208710705
 20
39.5626073274
 30
0.0
 10
54.4841875876
 20
39.4429010578
 30
0.0
 10
54.6176093473
 20
39.2066198219
 30
0.0
 10
54.8437899371
 20
38.8673338474
 30
0.0
 10
55.1033521451
 20
38.550694968
 30
0.0
 10
55.402440661
 20
38.2679965969
 30
0.0
 10
55.7421523811
 20
38.0318643522
 30
0.0
 10
56.1157494136
 20
37.8502063856
 30
0.0
 10
56.5121820645
 20
37.7226945912
 30
0.0
 10
56.7851752253
 20
37.6701111301
 30
0.0
 10
56.9227250638
 20
37.6514488696
 30
0.0
  0
SPLINE
  5
3D0
100
AcDbEntity
  8
0
100
AcDbSpline
 62
7
  6
BYLAYER
 70
0
 71
3
 72
9
 73
5
 74
0
 42
0.0000001
 43
0.0000001
 44
0.0000000001
 40
0.0
 40
0.0
 40
0.0
 40
0.0
 40
0.4997901307
 40
1.0
 40
1.0
 40
1.0
 40
1.0
 10
56.9227263006
 20
37.6514468601
 30
0.0
 10
56.926222538
 20
37.6995963276
 30
0.0
 10
56.9418759176
 20
37.7952886456
 30
0.0
 10
56.965793835
 20
37.8888429937
 30
0.0
 10
56.9767784721
 20
37.9358945494
 30
0.0
  0
SPLINE
  5
3D1
100
AcDbEntity
  8
0
100
AcDbSpline
 62
7
  6
BYLAYER
 70
0
 71
3
 72
14
 73
10
 74
0
 42
0.0000001
 43
0.0000001
 44
0.0000000001
 40
0.0
 40
0.0
 40
0.0
 40
0.0
 40
0.4990903215
 40
0.6240198514
 40
0.749024654
 40
0.8116017939
 40
0.8743227
 40
0.9371425089
 40
1.0
 40
1.0
 40
1.0
 40
1.0
 10
56.9767784722
 20
37.9358945494
 30
0.0
 10
56.9806078368
 20
37.9522972362
 30
0.0
 10
56.9859865469
 20
37.9727565784
 30
0.0
 10
56.9954126193
 20
37.9962245069
 30
0.0
 10
57.0001746909
 20
38.0056680001
 30
0.0
 10
57.0048833062
 20
38.0127008048
 30
0.0
 10
57.0090928687
 20
38.0174824866
 30
0.0
 10
57.0143285604
 20
38.0212793596
 30
0.0
 10
57.0187723678
 20
38.0219918695
 30
0.0
 10
57.0208710705
 20
38.0216825688
 30
0.0
  0
SPLINE
  5
3D2
100
AcDbEntity
  8
0
100
AcDbSpline
 62
7
  6
BYLAYER
 70
0
 71
3
 72
9
 73
5
 74
0
 42
0.0000001
 43
0.0000001
 44
0.0000000001
 40
0.0
 40
0.0
 40
0.0
 40
0.0
 40
0.5000000741
 40
1.0
 40
1.0
 40
1.0
 40
1.0
 10
57.0208710705
 20
38.0216825688
 30
0.0
 10
57.1531420477
 20
38.0021888557
 30
0.0
 10
57.4208710908
 20
37.9818298867
 30
0.0
 10
57.6886001325
 20
38.0021888615
 30
0.0
 10
57.8208710705
 20
38.0216825688
 30
0.0
  0
SPLINE
  5
3D3
100
AcDbEntity
  8
0
100
AcDbSpline
 62
7
  6
BYLAYER
 70
0
 71
3
 72
14
 73
10
 74
0
 42
0.0000001
 43
0.0000001
 44
0.0000000001
 40
0.0
 40
0.0
 40
0.0
 40
0.0
 40
0.0628591311
 40
0.1256782584
 40
0.1883987806
 40
0.2509759396
 40
0.3759805942
 40
0.5009100304
 40
1.0
 40
1.0
 40
1.0
 40
1.0
 10
57.8208710705
 20
38.0216825688
 30
0.0
 10
57.8229698274
 20
38.0219918775
 30
0.0
 10
57.8274136331
 20
38.0212791725
 30
0.0
 10
57.8326494196
 20
38.0174824549
 30
0.0
 10
57.8368588531
 20
38.0127006834
 30
0.0
 10
57.8415675296
 20
38.0056679587
 30
0.0
 10
57.8463295341
 20
37.9962244297
 30
0.0
 10
57.8557556242
 20
37.9727565486
 30
0.0
 10
57.8611343288
 20
37.9522972184
 30
0.0
 10
57.8649636877
 20
37.9358945472
 30
0.0
  0
SPLINE
  5
3D4
100
AcDbEntity
  8
0
100
AcDbSpline
 62
7
  6
BYLAYER
 70
0
 71
3
 72
13
 73
9
 74
0
 42
0.0000001
 43
0.0000001
 44
0.0000000001
 40
0.0
 40
0.0
 40
0.0
 40
0.0
 40
0.1010982788
 40
0.2159597331
 40
0.3403126988
 40
0.469886067
 40
0.7344583122
 40
1.0
 40
1.0
 40
1.0
 40
1.0
 10
53.4604424342
 20
36.871635832
 30
0.0
 10
53.4714802008
 20
36.9128299701
 30
0.0
 10
53.5005435235
 20
36.999306181
 30
0.0
 10
53.5520723886
 20
37.133268045
 30
0.0
 10
53.6082199891
 20
37.2783627524
 30
0.0
 10
53.6835772839
 20
37.4837069101
 30
0.0
 10
53.7706061955
 20
37.7481343089
 30
0.0
 10
53.8317830487
 20
37.9632806989
 30
0.0
 10
53.8608039358
 20
38.0714720908
 30
0.0
  0
SPLINE
  5
3D5
100
AcDbEntity
  8
0
100
AcDbSpline
 62
7
  6
BYLAYER
 70
0
 71
3
 72
17
 73
13
 74
0
 42
0.0000001
 43
0.0000001
 44
0.0000000001
 40
0.0
 40
0.0
 40
0.0
 40
0.0
 40
0.0258887548
 40
0.0600003417
 40
0.1022442152
 40
0.1515792964
 40
0.2671643683
 40
0.3990649438
 40
0.5416544918
 40
0.6910718803
 40
0.844573655
 40
1.0
 40
1.0
 40
1.0
 40
1.0
 10
42.4208710705
 20
76.7738857264
 30
0.0
 10
42.4208711671
 20
76.7840192238
 30
0.0
 10
42.4261577467
 20
76.8073478743
 30
0.0
 10
42.4421707059
 20
76.8440352196
 30
0.0
 10
42.4661557519
 20
76.8870801316
 30
0.0
 10
42.5099012617
 20
76.955376025
 30
0.0
 10
42.5780989875
 20
77.049527967
 30
0.0
 10
42.6716494511
 20
77.1701967371
 30
0.0
 10
42.7758532321
 20
77.299336897
 30
0.0
 10
42.8870048075
 20
77.4337068844
 30
0.0
 10
43.002572728
 20
77.5709370216
 30
0.0
 10
43.0812165848
 20
77.6627928924
 30
0.0
 10
43.1208710705
 20
77.7089312527
 30
0.0
  0
SPLINE
  5
3D6
100
AcDbEntity
  8
0
100
AcDbSpline
 62
7
  6
BYLAYER
 70
0
 71
3
 72
17
 73
13
 74
0
 42
0.0000001
 43
0.0000001
 44
0.0000000001
 40
0.0
 40
0.0
 40
0.0
 40
0.0
 40
0.3649223958
 40
0.542579422
 40
0.7013220089
 40
0.7698689253
 40
0.8300028591
 40
0.8811653532
 40
0.9228205414
 40
0.9546803605
 40
0.9773463809
 40
1.0
 40
1.0
 40
1.0
 40
1.0
 10
43.5208223142
 20
79.0880530138
 30
0.0
 10
43.4692064708
 20
79.1124570508
 30
0.0
 10
43.3930363146
 20
79.1499922291
 30
0.0
 10
43.2961877885
 20
79.2015851825
 30
0.0
 10
43.2410274792
 20
79.2327700724
 30
0.0
 10
43.2025619608
 20
79.256084425
 30
0.0
 10
43.1788639152
 20
79.271228986
 30
0.0
 10
43.1590660985
 20
79.2847694393
 30
0.0
 10
43.1435040071
 20
79.2963092914
 30
0.0
 10
43.13180622
 20
79.3063636858
 30
0.0
 10
43.1239975705
 20
79.31435722
 30
0.0
 10
43.1190617791
 20
79.3223168958
 30
0.0
 10
43.1208704077
 20
79.3253649872
 30
0.0
  0
SPLINE
  5
3D7
100
AcDbEntity
  8
0
100
AcDbSpline
 62
7
  6
BYLAYER
 70
0
 71
3
 72
9
 73
5
 74
0
 42
0.0000001
 43
0.0000001
 44
0.0000000001
 40
0.0
 40
0.0
 40
0.0
 40
0.0
 40
0.5022056356
 40
1.0
 40
1.0
 40
1.0
 40
1.0
 10
57.4208710705
 20
32.0838959328
 30
0.0
 10
57.1720831623
 20
32.0357183616
 30
0.0
 10
56.6761471701
 20
31.942739663
 30
0.0
 10
56.1761671143
 20
31.8710901946
 30
0.0
 10
55.9261242841
 20
31.8471755502
 30
0.0
  0
SPLINE
  5
3D8
100
AcDbEntity
  8
0
100
AcDbSpline
 62
7
  6
BYLAYER
 70
0
 71
3
 72
9
 73
5
 74
0
 42
0.0000001
 43
0.0000001
 44
0.0000000001
 40
0.0
 40
0.0
 40
0.0
 40
0.0
 40
0.2517405251
 40
1.0
 40
1.0
 40
1.0
 40
1.0
 10
55.7774813324
 20
31.8344415129
 30
0.0
 10
55.733368915
 20
31.8311303522
 30
0.0
 10
55.558027641
 20
31.8197344933
 30
0.0
 10
55.3820267137
 20
31.8165510122
 30
0.0
 10
55.2506176291
 20
31.821051931
 30
0.0
  0
SPLINE
  5
3D9
100
AcDbEntity
  8
0
100
AcDbSpline
 62
7
  6
BYLAYER
 70
0
 71
3
 72
18
 73
14
 74
0
 42
0.0000001
 43
0.0000001
 44
0.0000000001
 40
0.0
 40
0.0
 40
0.0
 40
0.0
 40
0.1783663049
 40
0.360741874
 40
0.536537268
 40
0.6936651466
 40
0.8211409942
 40
0.8719917458
 40
0.9136324214
 40
0.9459374344
 40
0.9697920887
 40
0.9868270526
 40
1.0
 40
1.0
 40
1.0
 40
1.0
 10
71.5881833454
 20
81.3752760371
 30
0.0
 10
71.5987820634
 20
81.3914685044
 30
0.0
 10
71.6197703811
 20
81.4245124956
 30
0.0
 10
71.6495917376
 20
81.4745187218
 30
0.0
 10
71.6765611401
 20
81.5235099441
 30
0.0
 10
71.6988698105
 20
81.5682208355
 30
0.0
 10
71.7131821927
 20
81.6017318425
 30
0.0
 10
71.7208926789
 20
81.6243321778
 30
0.0
 10
71.7244181716
 20
81.6374167114
 30
0.0
 10
71.7261531676
 20
81.6479200545
 30
0.0
 10
71.7261910494
 20
81.6558930469
 30
0.0
 10
71.7246734391
 20
81.6617144991
 30
0.0
 10
71.7221702479
 20
81.6641715921
 30
0.0
 10
71.7208709604
 20
81.6647671175
 30
0.0
  0
SPLINE
  5
3DA
100
AcDbEntity
  8
0
100
AcDbSpline
 62
7
  6
BYLAYER
 70
0
 71
3
 72
17
 73
13
 74
0
 42
0.0000001
 43
0.0000001
 44
0.0000000001
 40
0.0
 40
0.0
 40
0.0
 40
0.0
 40
0.1741714917
 40
0.3526936717
 40
0.5250815593
 40
0.6793084286
 40
0.8047486595
 40
0.8970499838
 40
0.9307353192
 40
0.9575637367
 40
0.9797216055
 40
1.0
 40
1.0
 40
1.0
 40
1.0
 10
71.720871384
 20
81.2538847267
 30
0.0
 10
71.7375552478
 20
81.2677106161
 30
0.0
 10
71.770719227
 20
81.2964634887
 30
0.0
 10
71.8180897208
 20
81.3414895119
 30
0.0
 10
71.8611274128
 20
81.3873168755
 30
0.0
 10
71.8969433885
 20
81.4307937616
 30
0.0
 10
71.9226255504
 20
81.4693208418
 30
0.0
 10
71.9363937118
 20
81.4977493295
 30
0.0
 10
71.9404520178
 20
81.5164278722
 30
0.0
 10
71.9403353569
 20
81.5268357056
 30
0.0
 10
71.937466149
 20
81.5351649185
 30
0.0
 10
71.933779732
 20
81.5391769648
 30
0.0
 10
71.9317472721
 20
81.540671443
 30
0.0
  0
SPLINE
  5
3DB
100
AcDbEntity
  8
0
100
AcDbSpline
 62
7
  6
BYLAYER
 70
0
 71
3
 72
11
 73
7
 74
0
 42
0.0000001
 43
0.0000001
 44
0.0000000001
 40
0.0
 40
0.0
 40
0.0
 40
0.0
 40
0.2510138355
 40
0.5017194973
 40
0.7516355312
 40
1.0
 40
1.0
 40
1.0
 40
1.0
 10
47.420893563
 20
81.4737884664
 30
0.0
 10
47.0186850653
 20
81.4737899404
 30
0.0
 10
46.210492619
 20
81.3672447589
 30
0.0
 10
45.0889781396
 20
80.8887195382
 30
0.0
 10
44.1461566438
 20
80.1208734505
 30
0.0
 10
43.6910095142
 20
79.4477620858
 30
0.0
 10
43.5209166884
 20
79.087979879
 30
0.0
  0
SPLINE
  5
3DC
100
AcDbEntity
  8
0
100
AcDbSpline
 62
7
  6
BYLAYER
 70
0
 71
3
 72
13
 73
9
 74
0
 42
0.0000001
 43
0.0000001
 44
0.0000000001
 40
0.0
 40
0.0
 40
0.0
 40
0.0
 40
0.3293725154
 40
0.6016019362
 40
0.7160213701
 40
0.8181356233
 40
0.9113909387
 40
1.0
 40
1.0
 40
1.0
 40
1.0
 10
72.1515546974
 20
33.7834005667
 30
0.0
 10
72.1905293277
 20
33.7886792005
 30
0.0
 10
72.2609915984
 20
33.8055710353
 30
0.0
 10
72.3381866187
 20
33.8451906746
 30
0.0
 10
72.3819453648
 20
33.8842775206
 30
0.0
 10
72.4042581174
 20
33.9141532447
 30
0.0
 10
72.417804305
 20
33.9456118102
 30
0.0
 10
72.4208662937
 20
33.9674330275
 30
0.0
 10
72.4208710705
 20
33.9780138605
 30
0.0
  0
SPLINE
  5
3DD
100
AcDbEntity
  8
0
100
AcDbSpline
 62
7
  6
BYLAYER
 70
0
 71
3
 72
9
 73
5
 74
0
 42
0.0000001
 43
0.0000001
 44
0.0000000001
 40
0.0
 40
0.0
 40
0.0
 40
0.0
 40
0.4999909481
 40
1.0
 40
1.0
 40
1.0
 40
1.0
 10
71.8521210628
 20
41.7738955893
 30
0.0
 10
71.8521138104
 20
41.6372623191
 30
0.0
 10
71.8294801092
 20
41.3635412241
 30
0.0
 10
71.7635187119
 20
41.0970945347
 30
0.0
 10
71.7208710705
 20
40.9672824352
 30
0.0
  0
SPLINE
  5
3DE
100
AcDbEntity
  8
0
100
AcDbSpline
 62
7
  6
BYLAYER
 70
0
 71
3
 72
9
 73
5
 74
0
 42
0.0000001
 43
0.0000001
 44
0.0000000001
 40
0.0
 40
0.0
 40
0.0
 40
0.0
 40
0.5000086193
 40
1.0
 40
1.0
 40
1.0
 40
1.0
 10
71.7208710705
 20
42.5805085515
 30
0.0
 10
71.7635120565
 20
42.4506938145
 30
0.0
 10
71.8295278319
 20
42.1842580919
 30
0.0
 10
71.8521111045
 20
41.9105295242
 30
0.0
 10
71.8521210628
 20
41.7738955893
 30
0.0
  0
SPLINE
  5
3DF
100
AcDbEntity
  8
0
100
AcDbSpline
 62
7
  6
BYLAYER
 70
0
 71
3
 72
11
 73
7
 74
0
 42
0.0000001
 43
0.0000001
 44
0.0000000001
 40
0.0
 40
0.0
 40
0.0
 40
0.0
 40
0.1803712019
 40
0.4068929791
 40
0.6810346412
 40
1.0
 40
1.0
 40
1.0
 40
1.0
 10
72.4208710705
 20
80.573895936
 30
0.0
 10
72.42087107
 20
80.5867366731
 30
0.0
 10
72.4142770152
 20
80.615578226
 30
0.0
 10
72.3928801986
 20
80.6592372462
 30
0.0
 10
72.3601460969
 20
80.7077171933
 30
0.0
 10
72.3334595078
 20
80.7404798626
 30
0.0
 10
72.318641221
 20
80.7576857247
 30
0.0
  0
SPLINE
  5
3E0
100
AcDbEntity
  8
0
100
AcDbSpline
 62
7
  6
BYLAYER
 70
0
 71
3
 72
12
 73
8
 74
0
 42
0.0000001
 43
0.0000001
 44
0.0000000001
 40
0.0
 40
0.0
 40
0.0
 40
0.0
 40
0.2173972185
 40
0.4627085697
 40
0.592808813
 40
0.7265424411
 40
1.0
 40
1.0
 40
1.0
 40
1.0
 10
72.2911220856
 20
80.7886288995
 30
0.0
 10
72.2550032726
 20
80.8280730931
 30
0.0
 10
72.1740304634
 20
80.9082387682
 30
0.0
 10
72.0652848401
 20
81.0055139488
 30
0.0
 10
71.9677860985
 20
81.0842061319
 30
0.0
 10
71.861321117
 20
81.1626106594
 30
0.0
 10
71.7775554527
 20
81.2176532842
 30
0.0
 10
71.7208710705
 20
81.2538849826
 30
0.0
  0
SPLINE
  5
3E1
100
AcDbEntity
  8
0
100
AcDbSpline
 62
7
  6
BYLAYER
 70
0
 71
3
 72
9
 73
5
 74
0
 42
0.0000001
 43
0.0000001
 44
0.0000000001
 40
0.0
 40
0.0
 40
0.0
 40
0.0
 40
0.4984131335
 40
1.0
 40
1.0
 40
1.0
 40
1.0
 10
71.5881653106
 20
81.375248535
 30
0.0
 10
71.5347463834
 20
81.4102145642
 30
0.0
 10
71.4138755269
 20
81.4604479885
 30
0.0
 10
71.2851479651
 20
81.4738625083
 30
0.0
 10
71.2208962558
 20
81.4738646112
 30
0.0
  0
SPLINE
  5
3E2
100
AcDbEntity
  8
0
100
AcDbSpline
 62
7
  6
BYLAYER
 70
0
 71
3
 72
9
 73
5
 74
0
 42
0.0000001
 43
0.0000001
 44
0.0000000001
 40
0.0
 40
0.0
 40
0.0
 40
0.0
 40
0.2485807549
 40
1.0
 40
1.0
 40
1.0
 40
1.0
 10
71.7208932939
 20
81.2539030567
 30
0.0
 10
71.7113660811
 20
81.2653992201
 30
0.0
 10
71.6717546189
 20
81.3105214609
 30
0.0
 10
71.6259607756
 20
81.3505800202
 30
0.0
 10
71.5881975717
 20
81.375297822
 30
0.0
  0
SPLINE
  5
3E3
100
AcDbEntity
  8
0
100
AcDbSpline
 62
7
  6
BYLAYER
 70
0
 71
3
 72
13
 73
9
 74
0
 42
0.0000001
 43
0.0000001
 44
0.0000000001
 40
0.0
 40
0.0
 40
0.0
 40
0.0
 40
0.0886046484
 40
0.1818616432
 40
0.2839805328
 40
0.3984027716
 40
0.67062519
 40
1.0
 40
1.0
 40
1.0
 40
1.0
 10
42.4208710706
 20
33.9780134756
 30
0.0
 10
42.4208748819
 20
33.9674336037
 30
0.0
 10
42.4239361628
 20
33.9456133463
 30
0.0
 10
42.4374822156
 20
33.9141560107
 30
0.0
 10
42.4597944458
 20
33.884280527
 30
0.0
 10
42.5035501155
 20
33.8451938465
 30
0.0
 10
42.58074063
 20
33.8055734176
 30
0.0
 10
42.6511993359
 20
33.7886819759
 30
0.0
 10
42.6901724715
 20
33.7834022993
 30
0.0
  0
SPLINE
  5
3E4
100
AcDbEntity
  8
0
100
AcDbSpline
 62
7
  6
BYLAYER
 70
0
 71
3
 72
9
 73
5
 74
0
 42
0.0000001
 43
0.0000001
 44
0.0000000001
 40
0.0
 40
0.0
 40
0.0
 40
0.0
 40
0.4999913747
 40
1.0
 40
1.0
 40
1.0
 40
1.0
 10
42.9896210751
 20
41.7738961898
 30
0.0
 10
42.9896310845
 20
41.9105303129
 30
0.0
 10
43.0122149851
 20
42.1842591413
 30
0.0
 10
43.0782297757
 20
42.4506955167
 30
0.0
 10
43.1208710705
 20
42.5805103537
 30
0.0
  0
SPLINE
  5
3E5
100
AcDbEntity
  8
0
100
AcDbSpline
 62
7
  6
BYLAYER
 70
0
 71
3
 72
9
 73
5
 74
0
 42
0.0000001
 43
0.0000001
 44
0.0000000001
 40
0.0
 40
0.0
 40
0.0
 40
0.0
 40
0.5000109876
 40
1.0
 40
1.0
 40
1.0
 40
1.0
 10
43.1208710705
 20
40.9672831035
 30
0.0
 10
43.0782329733
 20
41.0970986323
 30
0.0
 10
43.0122733879
 20
41.3635436975
 30
0.0
 10
42.9896312864
 20
41.6372636984
 30
0.0
 10
42.9896210751
 20
41.7738961898
 30
0.0
  0
SPLINE
  5
3E6
100
AcDbEntity
  8
0
100
AcDbSpline
 62
7
  6
BYLAYER
 70
0
 71
3
 72
14
 73
10
 74
0
 42
0.0000001
 43
0.0000001
 44
0.0000000001
 40
0.0
 40
0.0
 40
0.0
 40
0.0
 40
0.2991835536
 40
0.4450468642
 40
0.5815215285
 40
0.7049580041
 40
0.8147078822
 40
0.9118718296
 40
1.0
 40
1.0
 40
1.0
 40
1.0
 10
42.6901875254
 20
33.7834021781
 30
0.0
 10
42.6852397096
 20
33.7497958456
 30
0.0
 10
42.6829415115
 20
33.6987162774
 30
0.0
 10
42.6926588652
 20
33.6332513885
 30
0.0
 10
42.7059359838
 20
33.5889127943
 30
0.0
 10
42.7251429835
 20
33.5513107636
 30
0.0
 10
42.7488660882
 20
33.5218282688
 30
0.0
 10
42.7759956407
 20
33.5015494125
 30
0.0
 10
42.7958722476
 20
33.4937872517
 30
0.0
 10
42.8056086226
 20
33.4914806488
 30
0.0
  0
SPLINE
  5
3E7
100
AcDbEntity
  8
0
100
AcDbSpline
 62
7
  6
BYLAYER
 70
0
 71
3
 72
11
 73
7
 74
0
 42
0.0000001
 43
0.0000001
 44
0.0000000001
 40
0.0
 40
0.0
 40
0.0
 40
0.0
 40
0.2500031369
 40
0.5000112577
 40
0.7500087771
 40
1.0
 40
1.0
 40
1.0
 40
1.0
 10
61.3913941019
 20
39.7553054987
 30
0.0
 10
61.4106902177
 20
39.5472018281
 30
0.0
 10
61.4354548922
 20
39.1296494178
 30
0.0
 10
61.4417428819
 20
38.502558501
 30
0.0
 10
61.4297380004
 20
37.8756588892
 30
0.0
 10
61.4178577244
 20
37.457852744
 30
0.0
 10
61.4128615746
 20
37.2489260744
 30
0.0
  0
SPLINE
  5
3E8
100
AcDbEntity
  8
0
100
AcDbSpline
 62
7
  6
BYLAYER
 70
0
 71
3
 72
35
 73
31
 74
0
 42
0.0000001
 43
0.0000001
 44
0.0000000001
 40
0.0
 40
0.0
 40
0.0
 40
0.0
 40
0.0624977628
 40
0.1249827504
 40
0.1562412935
 40
0.1875017198
 40
0.2187610311
 40
0.2500209503
 40
0.3125028223
 40
0.3437602578
 40
0.3750155597
 40
0.4062667491
 40
0.4375105688
 40
0.4687400553
 40
0.4843703079
 40
0.4999994871
 40
0.5156285924
 40
0.5312589613
 40
0.5624885147
 40
0.593732329
 40
0.6249836773
 40
0.6562391888
 40
0.6874968495
 40
0.749978858
 40
0.7812388809
 40
0.8124983657
 40
0.8437588642
 40
0.8750173788
 40
0.9375022517
 40
1.0
 40
1.0
 40
1.0
 40
1.0
 10
53.4503528373
 20
39.7553243695
 30
0.0
 10
53.4776296345
 20
40.0494904841
 30
0.0
 10
53.5602720517
 20
40.6358191081
 30
0.0
 10
53.7544580537
 20
41.3509041657
 30
0.0
 10
53.9687853295
 20
41.9020201479
 30
0.0
 10
54.1573641167
 20
42.3035550403
 30
0.0
 10
54.3709710842
 20
42.6923510873
 30
0.0
 10
54.6872795288
 20
43.191720318
 30
0.0
 10
55.05051937
 20
43.6605532433
 30
0.0
 10
55.4624757077
 20
44.0848468183
 30
0.0
 10
55.7979833606
 20
44.3754773673
 30
0.0
 10
56.1617834576
 20
44.63021776
 30
0.0
 10
56.5552023727
 20
44.836981113
 30
0.0
 10
56.9075284836
 20
44.9547234957
 30
0.0
 10
57.1991058906
 20
45.0051170754
 30
0.0
 10
57.4208731652
 20
45.0182089299
 30
0.0
 10
57.6426410792
 20
45.0051172157
 30
0.0
 10
57.9342185229
 20
44.954720776
 30
0.0
 10
58.2865454044
 20
44.8369786542
 30
0.0
 10
58.6799651272
 20
44.6302143659
 30
0.0
 10
59.0437662634
 20
44.375472487
 30
0.0
 10
59.3792753816
 20
44.0848392875
 30
0.0
 10
59.7912318428
 20
43.6605420639
 30
0.0
 10
60.1544719628
 20
43.1917066398
 30
0.0
 10
60.4707808747
 20
42.6923354412
 30
0.0
 10
60.6843886232
 20
42.3035378029
 30
0.0
 10
60.8729624216
 20
41.901999531
 30
0.0
 10
61.0872935359
 20
41.3508854004
 30
0.0
 10
61.2814710117
 20
40.6357986845
 30
0.0
 10
61.3641179035
 20
40.0494716
 30
0.0
 10
61.3913941019
 20
39.7553054987
 30
0.0
  0
SPLINE
  5
3E9
100
AcDbEntity
  8
0
100
AcDbSpline
 62
7
  6
BYLAYER
 70
0
 71
3
 72
9
 73
5
 74
0
 42
0.0000001
 43
0.0000001
 44
0.0000000001
 40
0.0
 40
0.0
 40
0.0
 40
0.0
 40
0.4995491027
 40
1.0
 40
1.0
 40
1.0
 40
1.0
 10
53.4288728627
 20
37.2489298148
 30
0.0
 10
53.4188858791
 20
37.6663618678
 30
0.0
 10
53.3906239641
 20
38.5015489802
 30
0.0
 10
53.4115842873
 20
39.3388194562
 30
0.0
 10
53.4501539469
 20
39.7553427865
 30
0.0
  0
SPLINE
  5
3EA
100
AcDbEntity
  8
0
100
AcDbSpline
 62
7
  6
BYLAYER
 70
0
 71
3
 72
10
 73
6
 74
0
 42
0.0000001
 43
0.0000001
 44
0.0000000001
 40
0.0
 40
0.0
 40
0.0
 40
0.0
 40
0.2501119987
 40
0.6250034825
 40
1.0
 40
1.0
 40
1.0
 40
1.0
 10
56.9227250638
 20
37.6514488696
 30
0.0
 10
56.9226513566
 20
37.6499471643
 30
0.0
 10
56.9221880946
 20
37.6462095079
 30
0.0
 10
56.9225037091
 20
37.6401828243
 30
0.0
 10
56.9220170818
 20
37.6356918317
 30
0.0
 10
56.9219286018
 20
37.6334393302
 30
0.0
  0
SPLINE
  5
3EB
100
AcDbEntity
  8
0
100
AcDbSpline
 62
7
  6
BYLAYER
 70
0
 71
3
 72
11
 73
7
 74
0
 42
0.0000001
 43
0.0000001
 44
0.0000000001
 40
0.0
 40
0.0
 40
0.0
 40
0.0
 40
0.1785393457
 40
0.4099019137
 40
0.6910855708
 40
1.0
 40
1.0
 40
1.0
 40
1.0
 10
56.9219286018
 20
37.6334393302
 30
0.0
 10
56.9238249967
 20
37.6399073476
 30
0.0
 10
56.9338004822
 20
37.6529079828
 30
0.0
 10
56.9567887459
 20
37.6658386129
 30
0.0
 10
56.9868799894
 20
37.6742613678
 30
0.0
 10
57.0092087466
 20
37.6761869519
 30
0.0
 10
57.0208710166
 20
37.6761869534
 30
0.0
  0
SPLINE
  5
3EC
100
AcDbEntity
  8
0
100
AcDbSpline
 62
7
  6
BYLAYER
 70
0
 71
3
 72
9
 73
5
 74
0
 42
0.0000001
 43
0.0000001
 44
0.0000000001
 40
0.0
 40
0.0
 40
0.0
 40
0.0
 40
0.2578693888
 40
1.0
 40
1.0
 40
1.0
 40
1.0
 10
57.0208710705
 20
37.9383315336
 30
0.0
 10
57.0170741
 20
37.9383315336
 30
0.0
 10
57.0023512848
 20
37.9381300097
 30
0.0
 10
56.9876320519
 20
37.9371627743
 30
0.0
 10
56.9767784722
 20
37.9358945494
 30
0.0
  0
SPLINE
  5
3ED
100
AcDbEntity
  8
0
100
AcDbSpline
 62
7
  6
BYLAYER
 70
0
 71
3
 72
12
 73
8
 74
0
 42
0.0000001
 43
0.0000001
 44
0.0000000001
 40
0.0
 40
0.0
 40
0.0
 40
0.0
 40
0.1217558909
 40
0.2136937217
 40
0.3296328521
 40
0.6297411555
 40
1.0
 40
1.0
 40
1.0
 40
1.0
 10
56.9208710705
 20
37.2671010136
 30
0.0
 10
56.9208710705
 20
37.2704194674
 30
0.0
 10
56.9252614309
 20
37.2756444535
 30
0.0
 10
56.9328728127
 20
37.2800423227
 30
0.0
 10
56.9457995453
 20
37.2853481383
 30
0.0
 10
56.9667418238
 20
37.2901159307
 30
0.0
 10
56.9849236155
 20
37.2922601593
 30
0.0
 10
56.9949890928
 20
37.2929829526
 30
0.0
  0
SPLINE
  5
3EE
100
AcDbEntity
  8
0
100
AcDbSpline
 62
7
  6
BYLAYER
 70
0
 71
3
 72
9
 73
5
 74
0
 42
0.0000001
 43
0.0000001
 44
0.0000000001
 40
0.0
 40
0.0
 40
0.0
 40
0.0
 40
0.252053499
 40
1.0
 40
1.0
 40
1.0
 40
1.0
 10
57.0208710782
 20
36.4938959284
 30
0.0
 10
57.0171209851
 20
36.5003912802
 30
0.0
 10
57.002245763
 20
36.5261621389
 30
0.0
 10
56.9874942583
 20
36.5520089302
 30
0.0
 10
56.9768261391
 20
36.5715416464
 30
0.0
  0
SPLINE
  5
3EF
100
AcDbEntity
  8
0
100
AcDbSpline
 62
7
  6
BYLAYER
 70
0
 71
3
 72
9
 73
5
 74
0
 42
0.0000001
 43
0.0000001
 44
0.0000000001
 40
0.0
 40
0.0
 40
0.0
 40
0.0
 40
0.499407949
 40
1.0
 40
1.0
 40
1.0
 40
1.0
 10
57.4208710573
 20
33.4317788201
 30
0.0
 10
55.8555856655
 20
33.4317788204
 30
0.0
 10
52.7203625324
 20
33.5397621653
 30
0.0
 10
49.6000716547
 20
33.8635692227
 30
0.0
 10
48.0458678249
 20
34.0785136464
 30
0.0
  0
SPLINE
  5
3F0
100
AcDbEntity
  8
0
100
AcDbSpline
 62
7
  6
BYLAYER
 70
0
 71
3
 72
9
 73
5
 74
0
 42
0.0000001
 43
0.0000001
 44
0.0000000001
 40
0.0
 40
0.0
 40
0.0
 40
0.0
 40
0.500592051
 40
1.0
 40
1.0
 40
1.0
 40
1.0
 10
66.7958743162
 20
34.0785136466
 30
0.0
 10
65.241670482
 20
33.8635692225
 30
0.0
 10
62.1213795955
 20
33.5397621648
 30
0.0
 10
58.9861564535
 20
33.4317788206
 30
0.0
 10
57.4208710573
 20
33.4317788209
 30
0.0
  0
SPLINE
  5
3F1
100
AcDbEntity
  8
0
100
AcDbSpline
 62
7
  6
BYLAYER
 70
0
 71
3
 72
32
 73
28
 74
0
 42
0.0000001
 43
0.0000001
 44
0.0000000001
 40
0.0
 40
0.0
 40
0.0
 40
0.0
 40
0.1251883904
 40
0.2503809373
 40
0.37557259
 40
0.4381680445
 40
0.5007638617
 40
0.5633610564
 40
0.6259612969
 40
0.688567278
 40
0.7198739238
 40
0.7511840188
 40
0.7824987391
 40
0.8138197163
 40
0.8451491218
 40
0.8608185586
 40
0.8764915083
 40
0.8921682492
 40
0.9078481613
 40
0.9235258485
 40
0.9391671661
 40
0.9544739104
 40
0.9620507447
 40
0.9696067826
 40
0.9771782698
 40
0.9847717674
 40
1.0
 40
1.0
 40
1.0
 40
1.0
 10
60.9809373666
 20
38.0714746541
 30
0.0
 10
60.9624264706
 20
38.1404942699
 30
0.0
 10
60.925225979
 20
38.2784880986
 30
0.0
 10
60.8689058789
 20
38.4853387575
 30
0.0
 10
60.8214357918
 20
38.6575691211
 30
0.0
 10
60.7829702036
 20
38.795216829
 30
0.0
 10
60.7537997253
 20
38.8983631342
 30
0.0
 10
60.7242012161
 20
39.0013905116
 30
0.0
 10
60.6940090335
 20
39.1042517638
 30
0.0
 10
60.6681376918
 20
39.1897648607
 30
0.0
 10
60.6467782529
 20
39.2579779435
 30
0.0
 10
60.6303281106
 20
39.3090099095
 30
0.0
 10
60.6133131643
 20
39.3598658094
 30
0.0
 10
60.5955243403
 20
39.4104687208
 30
0.0
 10
60.5797796459
 20
39.4523171399
 30
0.0
 10
60.5663158554
 20
39.4854633269
 30
0.0
 10
60.5556466492
 20
39.5100926996
 30
0.0
 10
60.5441945887
 20
39.5343840616
 30
0.0
 10
60.5316756951
 20
39.5581294248
 30
0.0
 10
60.5173301507
 20
39.5809290864
 30
0.0
 10
60.5006730289
 20
39.6014705278
 30
0.0
 10
60.4804685464
 20
39.61405968
 30
0.0
 10
60.4625404155
 20
39.6114851111
 30
0.0
 10
60.4513658824
 20
39.6045246624
 30
0.0
 10
60.4421086
 20
39.5953676156
 30
0.0
 10
60.4315166423
 20
39.5815866072
 30
0.0
 10
60.424935274
 20
39.5702911146
 30
0.0
 10
60.4208710705
 20
39.5626073274
 30
0.0
  0
LINE
  5
3F2
100
AcDbEntity
  8
0
100
AcDbLine
 62
7
  6
BYLAYER
 10
61.3965101789
 20
36.8148751056
 11
61.398790856
 21
36.896216936
  0
SPLINE
  5
3F3
100
AcDbEntity
  8
0
100
AcDbSpline
 62
7
  6
BYLAYER
 70
0
 71
3
 72
13
 73
9
 74
0
 42
0.0000001
 43
0.0000001
 44
0.0000000001
 40
0.0
 40
0.0
 40
0.0
 40
0.0
 40
0.2655422096
 40
0.5301141516
 40
0.6596874822
 40
0.7840405983
 40
0.8989023259
 40
1.0
 40
1.0
 40
1.0
 40
1.0
 10
60.9809373666
 20
38.0714746541
 30
0.0
 10
61.0099584708
 20
37.9632828496
 30
0.0
 10
61.0711352971
 20
37.7481358753
 30
0.0
 10
61.1581643117
 20
37.4837078047
 30
0.0
 10
61.2335220808
 20
37.2783634201
 30
0.0
 10
61.2896696574
 20
37.1332681808
 30
0.0
 10
61.3411986386
 20
36.999306121
 30
0.0
 10
61.3702619701
 20
36.9128298593
 30
0.0
 10
61.3812996936
 20
36.8716358813
 30
0.0
  0
ELLIPSE
  5
3F4
100
AcDbEntity
  8
0
100
AcDbEllipse
 62
7
  6
BYLAYER
 10
57.0208710705
 20
36.9065967629
 30
0.0
 11
0.0
 21
0.3732050808
 31
0.0
 40
0.2679491924
 41
-4.7123889804
 42
-3.5976917396
  0
ELLIPSE
  5
3F5
100
AcDbEntity
  8
0
100
AcDbEllipse
 62
7
  6
BYLAYER
 10
57.0208710705
 20
37.5793068529
 30
0.0
 11
-0.0
 21
0.3732050808
 31
0.0
 40
0.2679491924
 41
1.4252353106
 42
1.5707963268
  0
ELLIPSE
  5
3F6
100
AcDbEntity
  8
0
100
AcDbEllipse
 62
7
  6
BYLAYER
 10
57.8208710705
 20
37.5793068529
 30
0.0
 11
0.0
 21
0.3732050808
 31
0.0
 40
0.2679491924
 41
-1.5707963268
 42
-1.4252353108
  0
ELLIPSE
  5
3F7
100
AcDbEntity
  8
0
100
AcDbEllipse
 62
7
  6
BYLAYER
 10
57.8208710705
 20
36.9065967629
 30
0.0
 11
0.0
 21
0.3732050808
 31
0.0
 40
0.2679491924
 41
-2.6854935676
 42
-1.5707963268
  0
ENDSEC
  0
SECTION
  2
OBJECTS
  0
DICTIONARY
  5
C
100
AcDbDictionary
280
0
281
1
  3
ACAD_GROUP
350
D
  3
ACAD_MLINESTYLE
350
17
  3
ACAD_LAYOUT
350
1A
  3
ACAD_PLOTSETTINGS
350
19
  3
ACAD_PLOTSTYLENAME
350
E
  0
DICTIONARY
  5
D
102
{ACAD_REACTORS
330
C
102
}
100
AcDbDictionary
280
0
281
1
  0
ACDBDICTIONARYWDFLT
  5
E
102
{ACAD_REACTORS
330
C
102
}
100
AcDbDictionary
281
1
  3
Normal
350
F
100
AcDbDictionaryWithDefault
340
F
  0
DICTIONARY
  5
17
102
{ACAD_REACTORS
330
C
102
}
100
AcDbDictionary
280
0
281
1
  3
Standard
350
18
  0
DICTIONARY
  5
19
102
{ACAD_REACTORS
330
C
102
}
100
AcDbDictionary
281
1
  0
DICTIONARY
  5
1A
102
{ACAD_REACTORS
330
C
102
}
100
AcDbDictionary
281
1
  3
Model
350
3F8
  3
Layout1
350
3F9
  0
ACDBPLACEHOLDER
  5
F
102
{ACAD_REACTORS
330
E
102
}
  0
MLINESTYLE
  5
18
102
{ACAD_REACTORS
330
17
102
}
100
AcDbMlineStyle
  2
STANDARD
 70
0
  3

 62
256
 51
90.0
 52
90.0
 71
2
 49
0.5
 62
256
  6
BYLAYER
 49
-0.5
 62
256
  6
BYLAYER
  0
LAYOUT
  5
3F8
102
{ACAD_REACTORS
330
1A
102
}
100
AcDbPlotSettings
  1

  2
none_device
  4

  6

 40
0.0
 41
0.0
 42
0.0
 43
0.0
 44
210.0
 45
297.0
 46
0.0
 47
0.0
 48
0.0
 49
0.0
140
0.0
141
0.0
142
1.0
143
1.0
 70
1024
 72
1
 73
0
 74
0
  7

 75
0
147
1.0
148
0.0
149
0.0
100
AcDbLayout
  1
Model
 70
0
 71
0
 10
0.0
 20
0.0
 11
210.0
 21
297.0
 12
0.0
 22
0.0
 32
0.0
 14
0.0
 24
0.0
 34
0.0
 15
0.0
 25
0.0
 35
0.0
146
0.0
 13
0.0
 23
0.0
 33
0.0
 16
1.0
 26
0.0
 36
0.0
 17
0.0
 27
1.0
 37
0.0
 76
0
330
210
345
0
346
0
  0
LAYOUT
  5
3F9
102
{ACAD_REACTORS
330
1A
102
}
100
AcDbPlotSettings
  1

  2
none_device
  4

  6

 40
0.0
 41
0.0
 42
0.0
 43
0.0
 44
210.0
 45
297.0
 46
0.0
 47
0.0
 48
0.0
 49
0.0
140
0.0
141
0.0
142
1.0
143
1.0
 70
0
 72
1
 73
0
 74
0
  7

 75
0
147
1.0
148
0.0
149
0.0
100
AcDbLayout
  1
Layout1
 70
0
 71
1
 10
0.0
 20
0.0
 11
210.0
 21
297.0
 12
0.0
 22
0.0
 32
0.0
 14
0.0
 24
0.0
 34
0.0
 15
0.0
 25
0.0
 35
0.0
146
0.0
 13
0.0
 23
0.0
 33
0.0
 16
1.0
 26
0.0
 36
0.0
 17
0.0
 27
1.0
 37
0.0
 76
0
330
211
345
0
346
0
  0
ENDSEC
  0
EOF
