999
DXF file: C:\Users\sesa63760\Dev\_Creo\CAD\MCADID0000531_3D-CAD\drw0001_1.dxf
999
Pro/ENGINEER 2019471 by Parametric Technology Corporation
  0
SECTION
  2
HEADER
  9
$ACADVER
  1
AC1024
  9
$DWGCODEPAGE
  3
ANSI_1252
  9
$EXTMAX
 10
182.7504969133
 20
258.4614170631
 30
0.0
  9
$EXTMIN
 10
0.0
 20
0.0
 30
0.0
  9
$LIMMIN
 10
0.0
 20
0.0
  9
$LIMMAX
 10
182.7504969133
 20
258.4614170631
  9
$VIEWCTR
 10
91.3752484567
 20
129.2307085316
  9
$VIEWSIZE
 40
258.4614170631
  9
$CLAYER
  8
0
  9
$LTSCALE
 40
16.8478553345
  9
$CELTYPE
  6
BYLAYER
  9
$DIMSCALE
 40
1.0
  9
$DIMASZ
 40
2.1756011537
  9
$DIMEXO
 40
1.0
  9
$DIMDLI
 40
11.6403364129
  9
$DIMEXE
 40
1.0
  9
$DIMCEN
 40
2.756921782
  9
$DIMLFAC
 40
1.0
  9
$DIMBLK
  1
_FILLED
  9
$DIMALT
 70
0
  9
$DIMALTF
 40
0.0393700787
  9
$DIMTXT
 40
3.0458416152
  9
$DIMTOL
 70
1
  9
$DIMLIM
 70
0
  9
$DIMTFAC
 40
1.0
  9
$DIMTP
 40
0.01
  9
$DIMTM
 40
0.01
  9
$DIMGAP
 40
0.625
  9
$DIMDSEP
 70
46
  9
$AUNITS
 70
0
  9
$PDMODE
 70
3
  9
$PDSIZE
 40
0.3125
  9
$HANDSEED
  5
324
  9
$TILEMODE
 70
1
  9
$MEASUREMENT
 70
1
  9
$INSUNITS
 70
4
  0
ENDSEC
  0
SECTION
  2
CLASSES
  0
CLASS
  1
ACDBDICTIONARYWDFLT
  2
AcDbDictionaryWithDefault
  3
AutoCAD 2000
 90
0
 91
1
280
0
281
0
  0
CLASS
  1
ACDBPLACEHOLDER
  2
AcDbPlaceHolder
  3
AutoCAD 2000
 90
0
 91
1
280
0
281
0
  0
CLASS
  1
LAYOUT
  2
AcDbLayout
  3
AutoCAD 2000
 90
0
 91
0
280
0
281
0
  0
ENDSEC
  0
SECTION
  2
TABLES
  0
TABLE
  2
VPORT
  5
8
100
AcDbSymbolTable
 70
2
  0
VPORT
  5
1F4
100
AcDbSymbolTableRecord
100
AcDbViewportTableRecord
  2
*ACTIVE
 70
0
 10
0.0
 20
0.0
 11
1.0
 21
1.0
 12
91.3752484567
 22
129.2307085316
 13
0.0
 23
0.0
 14
1.0
 24
1.0
 15
0.0
 25
0.0
 16
0.0
 26
0.0
 36
1.0
 17
0.0
 27
0.0
 37
0.0
 40
258.4614170631
 41
0.7070707071
 42
50.0
 43
0.0
 44
0.0
 50
0.0
 51
0.0
 71
0
 72
100
 73
1
 74
1
 75
0
 76
0
 77
0
 78
0
  0
ENDTAB
  0
TABLE
  2
LTYPE
  5
5
100
AcDbSymbolTable
 70
6
  0
LTYPE
  5
14
100
AcDbSymbolTableRecord
100
AcDbLinetypeTableRecord
  2
BYBLOCK
 70
0
  3

 72
65
 73
0
 40
0.0
  0
LTYPE
  5
15
100
AcDbSymbolTableRecord
100
AcDbLinetypeTableRecord
  2
BYLAYER
 70
0
  3

 72
65
 73
0
 40
0.0
  0
LTYPE
  5
16
100
AcDbSymbolTableRecord
100
AcDbLinetypeTableRecord
  2
CONTINUOUS
 70
64
  3
Solid line
 72
65
 73
0
 40
0.0
  0
LTYPE
  5
1F5
100
AcDbSymbolTableRecord
100
AcDbLinetypeTableRecord
  2
CENTER
 70
64
  3
____ _ ____ _ ____ _ ____ _ ____ _ ____ _ ____
 72
65
 73
4
 40
0.6
 49
0.375
 74
0
 49
-0.075
 74
0
 49
0.075
 74
0
 49
-0.075
 74
0
  0
LTYPE
  5
1F6
100
AcDbSymbolTableRecord
100
AcDbLinetypeTableRecord
  2
HIDDEN
 70
64
  3
- - - - - - - - - - - - - - - - - - - -
 72
65
 73
2
 40
0.2
 49
0.1
 74
0
 49
-0.1
 74
0
  0
LTYPE
  5
1F7
100
AcDbSymbolTableRecord
100
AcDbLinetypeTableRecord
  2
PHANTOM
 70
64
  3
_____ _ _ _____ _ _ _____ _ _ _____
 72
65
 73
6
 40
0.8
 49
0.45
 74
0
 49
-0.05
 74
0
 49
0.1
 74
0
 49
-0.05
 74
0
 49
0.1
 74
0
 49
-0.05
 74
0
  0
LTYPE
  5
1F8
100
AcDbSymbolTableRecord
100
AcDbLinetypeTableRecord
  2
DOT
 70
64
  3
. . . . . . . . . . . . . . . . . . . .
 72
65
 73
2
 40
0.2
 49
0.1
 74
0
 49
-0.1
 74
0
  0
LTYPE
  5
1F9
100
AcDbSymbolTableRecord
100
AcDbLinetypeTableRecord
  2
DASHED
 70
64
  3
- - - - - - - - - - - - - - - - - - - -
 72
65
 73
2
 40
0.2
 49
0.1
 74
0
 49
-0.1
 74
0
  0
ENDTAB
  0
TABLE
  2
LAYER
  5
2
100
AcDbSymbolTable
 70
36
  0
LAYER
  5
10
100
AcDbSymbolTableRecord
100
AcDbLayerTableRecord
  2
0
 70
0
 62
7
  6
CONTINUOUS
370
-3
390
F
  0
LAYER
  5
1FA
100
AcDbSymbolTableRecord
100
AcDbLayerTableRecord
  2
DEFAULT_1
 70
0
 62
7
  6
CENTER
370
-3
390
F
  0
LAYER
  5
1FB
100
AcDbSymbolTableRecord
100
AcDbLayerTableRecord
  2
DEFAULT_2
 70
0
 62
8
  6
HIDDEN
370
-3
390
F
  0
LAYER
  5
1FC
100
AcDbSymbolTableRecord
100
AcDbLayerTableRecord
  2
DEFAULT_3
 70
0
 62
7
  6
PHANTOM
370
-3
390
F
  0
LAYER
  5
1FD
100
AcDbSymbolTableRecord
100
AcDbLayerTableRecord
  2
00_COMPONENTS
 70
0
 62
7
  6
CONTINUOUS
370
-3
390
F
  0
LAYER
  5
1FE
100
AcDbSymbolTableRecord
100
AcDbLayerTableRecord
  2
01_1_DEFAULT_DATUMS
 70
0
 62
7
  6
CONTINUOUS
370
-3
390
F
  0
LAYER
  5
1FF
100
AcDbSymbolTableRecord
100
AcDbLayerTableRecord
  2
01_PLANES
 70
0
 62
7
  6
CONTINUOUS
370
-3
390
F
  0
LAYER
  5
200
100
AcDbSymbolTableRecord
100
AcDbLayerTableRecord
  2
02_COORD_SYS
 70
0
 62
7
  6
CONTINUOUS
370
-3
390
F
  0
LAYER
  5
201
100
AcDbSymbolTableRecord
100
AcDbLayerTableRecord
  2
03_AXES
 70
0
 62
7
  6
CONTINUOUS
370
-3
390
F
  0
LAYER
  5
202
100
AcDbSymbolTableRecord
100
AcDbLayerTableRecord
  2
04_POINTS
 70
0
 62
7
  6
CONTINUOUS
370
-3
390
F
  0
LAYER
  5
203
100
AcDbSymbolTableRecord
100
AcDbLayerTableRecord
  2
05_CURVES
 70
0
 62
7
  6
CONTINUOUS
370
-3
390
F
  0
LAYER
  5
204
100
AcDbSymbolTableRecord
100
AcDbLayerTableRecord
  2
06_SURFS
 70
0
 62
7
  6
CONTINUOUS
370
-3
390
F
  0
LAYER
  5
205
100
AcDbSymbolTableRecord
100
AcDbLayerTableRecord
  2
07_COSMETICS
 70
0
 62
7
  6
CONTINUOUS
370
-3
390
F
  0
LAYER
  5
206
100
AcDbSymbolTableRecord
100
AcDbLayerTableRecord
  2
10_NOTES
 70
0
 62
7
  6
CONTINUOUS
370
-3
390
F
  0
LAYER
  5
207
100
AcDbSymbolTableRecord
100
AcDbLayerTableRecord
  2
11_NOTES_PUB
 70
0
 62
7
  6
CONTINUOUS
370
-3
390
F
  0
LAYER
  5
208
100
AcDbSymbolTableRecord
100
AcDbLayerTableRecord
  2
13_REF_GTOL
 70
0
 62
7
  6
CONTINUOUS
370
-3
390
F
  0
LAYER
  5
209
100
AcDbSymbolTableRecord
100
AcDbLayerTableRecord
  2
16_MISC
 70
0
 62
7
  6
CONTINUOUS
370
-3
390
F
  0
LAYER
  5
20A
100
AcDbSymbolTableRecord
100
AcDbLayerTableRecord
  2
17_NO_PRINT
 70
0
 62
7
  6
CONTINUOUS
370
-3
390
F
  0
LAYER
  5
20B
100
AcDbSymbolTableRecord
100
AcDbLayerTableRecord
  2
18_DATUM_CAMS_JOINTS
 70
0
 62
7
  6
CONTINUOUS
370
-3
390
F
  0
LAYER
  5
20C
100
AcDbSymbolTableRecord
100
AcDbLayerTableRecord
  2
19_DATUM_FUNCTIONAL
 70
0
 62
7
  6
CONTINUOUS
370
-3
390
F
  0
LAYER
  5
20D
100
AcDbSymbolTableRecord
100
AcDbLayerTableRecord
  2
20_DATUM_KINEMATIC_SCHEME
 70
0
 62
7
  6
CONTINUOUS
370
-3
390
F
  0
ENDTAB
  0
TABLE
  2
STYLE
  5
3
100
AcDbSymbolTable
 70
1
  0
STYLE
  5
11
100
AcDbSymbolTableRecord
100
AcDbTextStyleTableRecord
  2
STANDARD
 70
0
 40
0.0
 41
0.8
 50
0.0
 71
0
 42
0.2
  3
txt
  4

  0
STYLE
  5
20E
100
AcDbSymbolTableRecord
100
AcDbTextStyleTableRecord
  2
TEXTSTYLE_1
 70
0
 40
0.0
 41
0.8
 50
0.0
 71
0
 42
0.2
  3
gdt
  4

  0
ENDTAB
  0
TABLE
  2
VIEW
  5
6
100
AcDbSymbolTable
 70
0
  0
ENDTAB
  0
TABLE
  2
UCS
  5
7
100
AcDbSymbolTable
 70
0
  0
ENDTAB
  0
TABLE
  2
APPID
  5
9
100
AcDbSymbolTable
 70
1
  0
APPID
  5
20F
100
AcDbSymbolTableRecord
100
AcDbRegAppTableRecord
  2
ACAD
 70
0
  0
ENDTAB
  0
TABLE
  2
BLOCK_RECORD
  5
1
100
AcDbSymbolTable
 70
0
  0
BLOCK_RECORD
  5
210
100
AcDbSymbolTableRecord
100
AcDbBlockTableRecord
  2
*Model_Space
  0
BLOCK_RECORD
  5
211
100
AcDbSymbolTableRecord
100
AcDbBlockTableRecord
  2
*Paper_Space
  0
BLOCK_RECORD
  5
212
100
AcDbSymbolTableRecord
100
AcDbBlockTableRecord
  2
_FILLED
  0
ENDTAB
  0
TABLE
  2
DIMSTYLE
  5
A
100
AcDbSymbolTable
 70
1
100
AcDbDimStyleTable
 71
0
  0
DIMSTYLE
105
213
100
AcDbSymbolTableRecord
100
AcDbDimStyleTableRecord
  2
STANDARD
 70
0
  3

  4

 40
1.0
 41
2.1756011537
 42
1.0
 43
0.38
 44
1.0
 45
0.0
 46
0.0
 47
0.01
 48
0.01
140
3.0458416152
141
0.09
142
0.0
143
25.4
144
1.0
145
0.0
146
1.0
147
0.625
 71
1
 72
0
 73
0
 74
0
 75
0
 76
0
 77
1
 78
8
 79
2
170
0
171
1
172
0
173
0
174
0
175
0
176
0
177
0
178
0
270
2
179
2
271
2
272
2
273
2
274
2
275
0
280
0
281
0
282
0
283
1
284
8
285
0
286
0
287
3
288
0
340
11
278
46
341
212
342
212
343
212
344
212
  0
ENDTAB
  0
ENDSEC
  0
SECTION
  2
BLOCKS
  0
BLOCK
  5
20
100
AcDbEntity
  8
0
100
AcDbBlockBegin
  2
*Model_Space
 70
0
 10
0.0
 20
0.0
 30
0.0
  3
*Model_Space
  1

  0
ENDBLK
  5
21
100
AcDbEntity
  8
0
100
AcDbBlockEnd
  0
BLOCK
  5
1C
100
AcDbEntity
  8
0
100
AcDbBlockBegin
  2
*Paper_Space
 70
0
 10
0.0
 20
0.0
 30
0.0
  3
*Paper_Space
  1

  0
ENDBLK
  5
1D
100
AcDbEntity
  8
0
100
AcDbBlockEnd
  0
BLOCK
  5
214
100
AcDbEntity
  8
0
100
AcDbBlockBegin
  2
_FILLED
 70
64
 10
0.0
 20
0.0
  3
_FILLED
  1

  0
SOLID
  5
215
100
AcDbEntity
  8
0
  6
BYBLOCK
 62
0
100
AcDbTrace
 10
0.0
 20
0.0
 11
-1.0
 21
0.25
 12
-1.0
 22
-0.25
 13
-1.0
 23
-0.25
  0
ENDBLK
  5
216
100
AcDbEntity
  8
0
  6
BYBLOCK
 62
0
100
AcDbBlockEnd
  0
ENDSEC
  0
SECTION
  2
ENTITIES
  0
LINE
  5
217
100
AcDbEntity
  8
0
100
AcDbLine
 62
7
  6
CONTINUOUS
 10
24.5574445933
 20
183.4147794759
 11
65.0037840819
 21
206.7663450773
  0
LINE
  5
218
100
AcDbEntity
  8
0
100
AcDbLine
 62
7
  6
CONTINUOUS
 10
26.5017795079
 20
182.2922425847
 11
28.9766429382
 21
183.7210971232
  0
LINE
  5
219
100
AcDbEntity
  8
0
100
AcDbLine
 62
7
  6
CONTINUOUS
 10
64.4732555663
 20
204.2149536476
 11
66.9481189966
 21
205.6438081861
  0
LINE
  5
21A
100
AcDbEntity
  8
0
100
AcDbLine
 62
7
  6
CONTINUOUS
 10
23.3990946236
 20
179.1845235106
 11
23.977003758
 21
179.5181775133
  0
LINE
  5
21B
100
AcDbEntity
  8
0
100
AcDbLine
 62
7
  6
CONTINUOUS
 10
26.5017795079
 20
179.8427353333
 11
28.0979721136
 21
180.7642920629
  0
LINE
  5
21C
100
AcDbEntity
  8
0
100
AcDbLine
 62
7
  6
CONTINUOUS
 10
24.5574445933
 20
183.4147794759
 11
23.8854735249
 21
178.9037188736
  0
LINE
  5
21D
100
AcDbEntity
  8
0
100
AcDbLine
 62
7
  6
CONTINUOUS
 10
71.1907773475
 20
203.194363659
 11
68.7159139172
 21
201.7655091205
  0
LINE
  5
21E
100
AcDbEntity
  8
0
100
AcDbLine
 62
7
  6
CONTINUOUS
 10
33.2193012891
 20
181.2716525961
 11
30.7444378588
 21
179.8427980576
  0
LINE
  5
21F
100
AcDbEntity
  8
0
100
AcDbLine
 62
7
  6
CONTINUOUS
 10
26.5017795079
 20
182.2922425847
 11
26.5017795079
 21
179.8427353333
  0
LINE
  5
220
100
AcDbEntity
  8
0
100
AcDbLine
 62
7
  6
CONTINUOUS
 10
26.5017795079
 20
177.3932280819
 11
26.5017795079
 21
109.4602269767
  0
LINE
  5
221
100
AcDbEntity
  8
0
100
AcDbLine
 62
7
  6
CONTINUOUS
 10
28.0979721136
 20
181.3532714757
 11
28.0979721136
 21
180.0468676083
  0
LINE
  5
222
100
AcDbEntity
  8
0
100
AcDbLine
 62
7
  6
CONTINUOUS
 10
28.9766429382
 20
183.7210971232
 11
28.9766429382
 21
182.5779937392
  0
LINE
  5
223
100
AcDbEntity
  8
0
100
AcDbLine
 62
7
  6
CONTINUOUS
 10
31.5222744539
 20
174.045689669
 11
33.4314548144
 21
175.1479488844
  0
LINE
  5
224
100
AcDbEntity
  8
0
100
AcDbLine
 62
7
  6
CONTINUOUS
 10
31.5222744539
 20
174.045689669
 11
31.8008456281
 21
155.4565560514
  0
LINE
  5
225
100
AcDbEntity
  8
0
100
AcDbLine
 62
7
  6
CONTINUOUS
 10
30.7444378588
 20
179.8427980576
 11
30.7444378588
 21
177.3932908062
  0
LINE
  5
226
100
AcDbEntity
  8
0
100
AcDbLine
 62
7
  6
CONTINUOUS
 10
103.3007627514
 20
72.3959493409
 11
92.5456775613
 21
71.3305645399
  0
LINE
  5
227
100
AcDbEntity
  8
0
100
AcDbLine
 62
7
  6
CONTINUOUS
 10
23.9311736291
 20
109.9296959014
 11
60.0037186895
 21
89.1036734481
  0
LINE
  5
228
100
AcDbEntity
  8
0
100
AcDbLine
 62
7
  6
CONTINUOUS
 10
124.9770612368
 20
52.548725099
 11
120.875824831
 21
54.9165214752
  0
LINE
  5
229
100
AcDbEntity
  8
0
100
AcDbLine
 62
7
  6
CONTINUOUS
 10
23.1020635714
 20
111.4230094838
 11
92.5456775613
 21
71.3305645399
  0
LINE
  5
22A
100
AcDbEntity
  8
0
100
AcDbLine
 62
7
  6
CONTINUOUS
 10
123.9414996332
 20
54.8376558381
 11
119.8402632273
 21
57.2054522143
  0
LINE
  5
22B
100
AcDbEntity
  8
0
100
AcDbLine
 62
7
  6
CONTINUOUS
 10
103.3007627514
 20
72.3959493409
 11
94.8792899297
 21
77.2582279587
  0
LINE
  5
22C
100
AcDbEntity
  8
0
100
AcDbLine
 62
7
  6
CONTINUOUS
 10
95.7077392126
 20
76.8071270449
 11
119.8402632273
 21
62.8745230064
  0
LINE
  5
22D
100
AcDbEntity
  8
0
100
AcDbLine
 62
7
  6
CONTINUOUS
 10
119.8402632273
 20
64.2273730016
 11
94.8792899297
 21
78.6382716362
  0
LINE
  5
22E
100
AcDbEntity
  8
0
100
AcDbLine
 62
7
  6
CONTINUOUS
 10
68.2212532916
 20
158.206038068
 11
70.6961167219
 21
159.6348926065
  0
LINE
  5
22F
100
AcDbEntity
  8
0
100
AcDbLine
 62
7
  6
CONTINUOUS
 10
106.19272935
 20
180.1287491309
 11
108.6675927803
 21
181.5576036694
  0
LINE
  5
230
100
AcDbEntity
  8
0
100
AcDbLine
 62
7
  6
CONTINUOUS
 10
63.9786108382
 20
155.3074390365
 11
65.8877911986
 21
156.4096982519
  0
LINE
  5
231
100
AcDbEntity
  8
0
100
AcDbLine
 62
7
  6
CONTINUOUS
 10
68.2212532916
 20
155.7565308166
 11
69.8174458973
 21
156.6780875462
  0
LINE
  5
232
100
AcDbEntity
  8
0
100
AcDbLine
 62
7
  6
CONTINUOUS
 10
131.6648814654
 20
64.1321381409
 11
132.7962570256
 21
63.4789529336
  0
LINE
  5
233
100
AcDbEntity
  8
0
100
AcDbLine
 62
7
  6
CONTINUOUS
 10
59.3823817273
 20
135.3030145919
 11
59.3823817273
 21
90.4770318915
  0
LINE
  5
234
100
AcDbEntity
  8
0
100
AcDbLine
 62
7
  6
CONTINUOUS
 10
64.4732555663
 20
203.0718502636
 11
64.4732555663
 21
204.2149536476
  0
LINE
  5
235
100
AcDbEntity
  8
0
100
AcDbLine
 62
7
  6
CONTINUOUS
 10
63.700039664
 20
137.0399644269
 11
63.9786108382
 21
155.3074390365
  0
LINE
  5
236
100
AcDbEntity
  8
0
100
AcDbLine
 62
7
  6
CONTINUOUS
 10
65.8877911986
 20
156.4096982519
 11
65.6092200244
 21
138.1422236423
  0
LINE
  5
237
100
AcDbEntity
  8
0
100
AcDbLine
 62
7
  6
CONTINUOUS
 10
59.3823817273
 20
132.2819556486
 11
60.690540575
 21
134.547765815
  0
LINE
  5
238
100
AcDbEntity
  8
0
100
AcDbLine
 62
7
  6
CONTINUOUS
 10
77.413641447
 20
158.2060601638
 11
108.6676310518
 21
176.2504517649
  0
LINE
  5
239
100
AcDbEntity
  8
0
100
AcDbLine
 62
7
  6
CONTINUOUS
 10
74.9387780167
 20
154.3276983738
 11
77.413641447
 21
155.7565529124
  0
LINE
  5
23A
100
AcDbEntity
  8
0
100
AcDbLine
 62
7
  6
CONTINUOUS
 10
108.6676310518
 20
173.8009445135
 11
111.1424944821
 21
175.229799052
  0
LINE
  5
23B
100
AcDbEntity
  8
0
100
AcDbLine
 62
7
  6
CONTINUOUS
 10
76.8126031853
 20
154.715518327
 11
109.2686693134
 21
173.4539249897
  0
LINE
  5
23C
100
AcDbEntity
  8
0
100
AcDbLine
 62
7
  6
CONTINUOUS
 10
111.1424944821
 20
172.7802918007
 11
110.7889814939
 21
172.5761922001
  0
LINE
  5
23D
100
AcDbEntity
  8
0
100
AcDbLine
 62
7
  6
CONTINUOUS
 10
76.8391396536
 20
152.9753588758
 11
74.9387780167
 21
151.8781911224
  0
LINE
  5
23E
100
AcDbEntity
  8
0
100
AcDbLine
 62
7
  6
CONTINUOUS
 10
111.1778655713
 20
172.3516749525
 11
78.7217994432
 21
153.6132682898
  0
LINE
  5
23F
100
AcDbEntity
  8
0
100
AcDbLine
 62
7
  6
CONTINUOUS
 10
66.4534789788
 20
128.1995481034
 11
66.4534789788
 21
86.3946243463
  0
LINE
  5
240
100
AcDbEntity
  8
0
100
AcDbLine
 62
7
  6
CONTINUOUS
 10
66.9481189966
 20
205.6438081861
 11
66.9481189966
 21
203.5646979655
  0
LINE
  5
241
100
AcDbEntity
  8
0
100
AcDbLine
 62
7
  6
CONTINUOUS
 10
68.2212532916
 20
158.206038068
 11
68.2212532916
 21
155.7565308166
  0
LINE
  5
242
100
AcDbEntity
  8
0
100
AcDbLine
 62
7
  6
CONTINUOUS
 10
69.8174458973
 20
157.267066959
 11
69.8174458973
 21
155.9606630916
  0
LINE
  5
243
100
AcDbEntity
  8
0
100
AcDbLine
 62
7
  6
CONTINUOUS
 10
70.6961167219
 20
159.6348926065
 11
70.6961167219
 21
158.4917892225
  0
LINE
  5
244
100
AcDbEntity
  8
0
100
AcDbLine
 62
7
  6
CONTINUOUS
 10
70.6961373296
 20
154.3276881758
 11
70.6961373296
 21
128.7711625196
  0
LINE
  5
245
100
AcDbEntity
  8
0
100
AcDbLine
 62
7
  6
CONTINUOUS
 10
67.7616378265
 20
130.4653582698
 11
66.4534789788
 21
128.1995481034
  0
LINE
  5
246
100
AcDbEntity
  8
0
100
AcDbLine
 62
7
  6
CONTINUOUS
 10
65.6092200244
 20
138.1422236423
 11
63.700039664
 21
137.0399644269
  0
LINE
  5
247
100
AcDbEntity
  8
0
100
AcDbLine
 62
7
  6
CONTINUOUS
 10
94.8792899297
 20
103.1333441501
 11
119.8402632273
 21
88.7224455155
  0
LINE
  5
248
100
AcDbEntity
  8
0
100
AcDbLine
 62
7
  6
CONTINUOUS
 10
77.0911720399
 20
136.4480450566
 11
76.8126031853
 21
154.715518327
  0
LINE
  5
249
100
AcDbEntity
  8
0
100
AcDbLine
 62
7
  6
CONTINUOUS
 10
78.7217994432
 20
153.6132682898
 11
79.0003682978
 21
135.3457950194
  0
LINE
  5
24A
100
AcDbEntity
  8
0
100
AcDbLine
 62
7
  6
CONTINUOUS
 10
74.938757409
 20
158.4917994206
 11
74.938757409
 21
159.6349028046
  0
LINE
  5
24B
100
AcDbEntity
  8
0
100
AcDbLine
 62
7
  6
CONTINUOUS
 10
74.9387780167
 20
128.7711727177
 11
74.9387780167
 21
154.3276983738
  0
LINE
  5
24C
100
AcDbEntity
  8
0
100
AcDbLine
 62
7
  6
CONTINUOUS
 10
75.8174458973
 20
157.267066959
 11
75.8174458973
 21
155.9606630916
  0
LINE
  5
24D
100
AcDbEntity
  8
0
100
AcDbLine
 62
7
  6
CONTINUOUS
 10
77.413641447
 20
158.2060601638
 11
77.413641447
 21
155.7565529124
  0
LINE
  5
24E
100
AcDbEntity
  8
0
100
AcDbLine
 62
7
  6
CONTINUOUS
 10
64.781202955
 20
136.3678308958
 11
62.8720225946
 21
135.2655716804
  0
LINE
  5
24F
100
AcDbEntity
  8
0
100
AcDbLine
 62
7
  6
CONTINUOUS
 10
143.0460831136
 20
81.2325741182
 11
156.0569020563
 21
73.7209442351
  0
LINE
  5
250
100
AcDbEntity
  8
0
100
AcDbLine
 62
7
  6
CONTINUOUS
 10
119.8402632273
 20
95.2543812203
 11
97.7077052785
 21
108.0323304341
  0
LINE
  5
251
100
AcDbEntity
  8
0
100
AcDbLine
 62
7
  6
CONTINUOUS
 10
119.8402632273
 20
95.7443663028
 11
123.9414996332
 21
93.3765699266
  0
LINE
  5
252
100
AcDbEntity
  8
0
100
AcDbLine
 62
7
  6
CONTINUOUS
 10
98.4148091157
 20
108.4405745879
 11
119.8872195587
 21
96.0437530921
  0
LINE
  5
253
100
AcDbEntity
  8
0
100
AcDbLine
 62
7
  6
CONTINUOUS
 10
59.3823817273
 20
132.2819556486
 11
90.4243660497
 21
114.3602630867
  0
LINE
  5
254
100
AcDbEntity
  8
0
100
AcDbLine
 62
7
  6
CONTINUOUS
 10
82.7170026571
 20
118.8100107494
 11
82.7170026571
 21
77.0050869924
  0
LINE
  5
255
100
AcDbEntity
  8
0
100
AcDbLine
 62
7
  6
CONTINUOUS
 10
81.8283528653
 20
133.7695129843
 11
108.0713121492
 21
148.9208021502
  0
LINE
  5
256
100
AcDbEntity
  8
0
100
AcDbLine
 62
7
  6
CONTINUOUS
 10
111.1424944821
 20
149.6732733959
 11
74.9387780167
 21
128.7711727177
  0
LINE
  5
257
100
AcDbEntity
  8
0
100
AcDbLine
 62
7
  6
CONTINUOUS
 10
92.5456775613
 20
118.0345027997
 11
103.3007627514
 21
119.0998876007
  0
LINE
  5
258
100
AcDbEntity
  8
0
100
AcDbLine
 62
7
  6
CONTINUOUS
 10
70.6961373296
 20
128.7711625196
 11
59.3823817273
 21
135.3030145919
  0
LINE
  5
259
100
AcDbEntity
  8
0
100
AcDbLine
 62
7
  6
CONTINUOUS
 10
34.6288537437
 20
150.6148318012
 11
60.8720315483
 21
135.4636687964
  0
LINE
  5
25A
100
AcDbEntity
  8
0
100
AcDbLine
 62
7
  6
CONTINUOUS
 10
74.311004223
 20
128.5620581951
 11
92.5456775613
 21
118.0345027997
  0
LINE
  5
25B
100
AcDbEntity
  8
0
100
AcDbLine
 62
7
  6
CONTINUOUS
 10
123.1398362983
 20
101.6776224852
 11
101.6674867669
 21
114.0744088145
  0
LINE
  5
25C
100
AcDbEntity
  8
0
100
AcDbLine
 62
7
  6
CONTINUOUS
 10
127.4770188193
 20
99.5003027816
 11
123.3757824134
 21
101.8680991578
  0
LINE
  5
25D
100
AcDbEntity
  8
0
100
AcDbLine
 62
7
  6
CONTINUOUS
 10
101.6674867669
 20
114.8909112317
 11
123.7999722871
 21
102.1130038337
  0
LINE
  5
25E
100
AcDbEntity
  8
0
100
AcDbLine
 62
7
  6
CONTINUOUS
 10
147.5460067619
 20
89.0268468334
 11
160.5568257046
 21
81.5152169502
  0
LINE
  5
25F
100
AcDbEntity
  8
0
100
AcDbLine
 62
7
  6
CONTINUOUS
 10
90.4243660497
 20
114.3602630867
 11
94.8792899297
 21
104.5133878275
  0
LINE
  5
260
100
AcDbEntity
  8
0
100
AcDbLine
 62
7
  6
CONTINUOUS
 10
84.8383141688
 20
122.4842504624
 11
82.7170026571
 21
118.8100107494
  0
LINE
  5
261
100
AcDbEntity
  8
0
100
AcDbLine
 62
7
  6
CONTINUOUS
 10
77.9191905415
 20
134.6736514833
 11
79.8283867994
 21
133.571401446
  0
LINE
  5
262
100
AcDbEntity
  8
0
100
AcDbLine
 62
7
  6
CONTINUOUS
 10
129.4568754135
 20
105.3789988811
 11
104.4959021158
 21
119.7898975157
  0
LINE
  5
263
100
AcDbEntity
  8
0
100
AcDbLine
 62
7
  6
CONTINUOUS
 10
79.0003682978
 20
135.3457950194
 11
77.0911720399
 21
136.4480450566
  0
LINE
  5
264
100
AcDbEntity
  8
0
100
AcDbLine
 62
7
  6
CONTINUOUS
 10
94.8792899297
 20
104.5133878275
 11
94.8792899297
 21
77.2582279587
  0
LINE
  5
265
100
AcDbEntity
  8
0
100
AcDbLine
 62
7
  6
CONTINUOUS
 10
96.3944513892
 20
183.3130876168
 11
96.3944513892
 21
180.4553291569
  0
LINE
  5
266
100
AcDbEntity
  8
0
100
AcDbLine
 62
7
  6
CONTINUOUS
 10
92.5456775613
 20
118.0345027997
 11
90.4243660497
 21
114.3602630867
  0
LINE
  5
267
100
AcDbEntity
  8
0
100
AcDbLine
 62
7
  6
CONTINUOUS
 10
121.0420306341
 20
143.3863511406
 11
84.8383141688
 21
122.4842504624
  0
LINE
  5
268
100
AcDbEntity
  8
0
100
AcDbLine
 62
7
  6
CONTINUOUS
 10
63.9786108382
 20
155.3074390365
 11
31.5222744539
 21
174.045689669
  0
LINE
  5
269
100
AcDbEntity
  8
0
100
AcDbLine
 62
7
  6
CONTINUOUS
 10
101.6674867669
 20
114.0744088145
 11
101.6674867669
 21
114.8909112317
  0
LINE
  5
26A
100
AcDbEntity
  8
0
100
AcDbLine
 62
7
  6
CONTINUOUS
 10
104.3944513892
 20
183.3130876168
 11
104.3944513892
 21
180.4553291569
  0
LINE
  5
26B
100
AcDbEntity
  8
0
100
AcDbLine
 62
7
  6
CONTINUOUS
 10
106.19272935
 20
178.9856457469
 11
106.19272935
 21
180.1287491309
  0
LINE
  5
26C
100
AcDbEntity
  8
0
100
AcDbLine
 62
7
  6
CONTINUOUS
 10
94.8792899297
 20
104.5133878275
 11
103.3007627514
 21
119.0998876007
  0
LINE
  5
26D
100
AcDbEntity
  8
0
100
AcDbLine
 62
7
  6
CONTINUOUS
 10
126.9041565966
 20
132.7272320468
 11
103.3007627514
 21
119.0998876007
  0
LINE
  5
26E
100
AcDbEntity
  8
0
100
AcDbLine
 62
7
  6
CONTINUOUS
 10
70.6961373296
 20
151.8781809244
 11
65.8612545094
 21
154.6695386732
  0
LINE
  5
26F
100
AcDbEntity
  8
0
100
AcDbLine
 62
7
  6
CONTINUOUS
 10
31.911142634
 20
174.2702014773
 11
23.3990946236
 21
179.1845235106
  0
LINE
  5
270
100
AcDbEntity
  8
0
100
AcDbLine
 62
7
  6
CONTINUOUS
 10
33.4314548144
 20
175.1479488844
 11
65.8877911986
 21
156.4096982519
  0
LINE
  5
271
100
AcDbEntity
  8
0
100
AcDbLine
 62
7
  6
CONTINUOUS
 10
26.5017795079
 20
179.8427353333
 11
30.7444378588
 21
177.3932908062
  0
LINE
  5
272
100
AcDbEntity
  8
0
100
AcDbLine
 62
7
  6
CONTINUOUS
 10
68.2212532916
 20
155.7565308166
 11
70.6961373296
 21
154.3276881758
  0
LINE
  5
273
100
AcDbEntity
  8
0
100
AcDbLine
 62
7
  6
CONTINUOUS
 10
24.5574445933
 20
183.4147794759
 11
26.5017795079
 21
182.2922425847
  0
LINE
  5
274
100
AcDbEntity
  8
0
100
AcDbLine
 62
7
  6
CONTINUOUS
 10
30.7444378588
 20
179.8427980576
 11
68.2212532916
 21
158.206038068
  0
LINE
  5
275
100
AcDbEntity
  8
0
100
AcDbLine
 62
7
  6
CONTINUOUS
 10
156.6644572897
 20
107.4336532253
 11
157.7958328499
 21
106.780468018
  0
LINE
  5
276
100
AcDbEntity
  8
0
100
AcDbLine
 62
7
  6
CONTINUOUS
 10
78.7217994432
 20
153.6132682898
 11
76.8126031853
 21
154.715518327
  0
LINE
  5
277
100
AcDbEntity
  8
0
100
AcDbLine
 62
7
  6
CONTINUOUS
 10
108.6675927803
 20
181.5576036694
 11
108.6675927803
 21
179.4784934488
  0
LINE
  5
278
100
AcDbEntity
  8
0
100
AcDbLine
 62
7
  6
CONTINUOUS
 10
108.6676310518
 20
176.2504517649
 11
108.6676310518
 21
173.8009445135
  0
LINE
  5
279
100
AcDbEntity
  8
0
100
AcDbLine
 62
7
  6
CONTINUOUS
 10
110.7892587455
 20
93.9479271734
 11
110.7892587455
 21
69.4528546595
  0
LINE
  5
27A
100
AcDbEntity
  8
0
100
AcDbLine
 62
7
  6
CONTINUOUS
 10
111.1424944821
 20
175.229799052
 11
111.1424944821
 21
172.3720959984
  0
LINE
  5
27B
100
AcDbEntity
  8
0
100
AcDbLine
 62
7
  6
CONTINUOUS
 10
111.1424944821
 20
169.9913322892
 11
111.1424944821
 21
149.6732733959
  0
LINE
  5
27C
100
AcDbEntity
  8
0
100
AcDbLine
 62
7
  6
CONTINUOUS
 10
111.3140585254
 20
177.7609234833
 11
111.3140585254
 21
176.4545196159
  0
LINE
  5
27D
100
AcDbEntity
  8
0
100
AcDbLine
 62
7
  6
CONTINUOUS
 10
112.0211653066
 20
150.8979956594
 11
112.0211653066
 21
176.4545213156
  0
LINE
  5
27E
100
AcDbEntity
  8
0
100
AcDbLine
 62
7
  6
CONTINUOUS
 10
110.8992967167
 20
153.7625399958
 11
111.1778655713
 21
172.3516749525
  0
LINE
  5
27F
100
AcDbEntity
  8
0
100
AcDbLine
 62
7
  6
CONTINUOUS
 10
97.7077052785
 20
108.0323304341
 11
98.4148091157
 21
108.4405745879
  0
LINE
  5
280
100
AcDbEntity
  8
0
100
AcDbLine
 62
7
  6
CONTINUOUS
 10
75.8174458973
 20
156.6780959946
 11
77.413641447
 21
155.7565529124
  0
LINE
  5
281
100
AcDbEntity
  8
0
100
AcDbLine
 62
7
  6
CONTINUOUS
 10
74.938757409
 20
159.6349028046
 11
77.413641447
 21
158.2060601638
  0
LINE
  5
282
100
AcDbEntity
  8
0
100
AcDbLine
 62
7
  6
CONTINUOUS
 10
125.7090172322
 20
132.0372221318
 11
150.6699905299
 21
117.6263234973
  0
LINE
  5
283
100
AcDbEntity
  8
0
100
AcDbLine
 62
7
  6
CONTINUOUS
 10
127.7089832981
 20
132.2353336701
 11
151.8415373139
 21
118.3027123109
  0
LINE
  5
284
100
AcDbEntity
  8
0
100
AcDbLine
 62
7
  6
CONTINUOUS
 10
126.9041565966
 20
132.7272320468
 11
135.3256294183
 21
127.8649534289
  0
LINE
  5
285
100
AcDbEntity
  8
0
100
AcDbLine
 62
7
  6
CONTINUOUS
 10
117.5774555827
 20
105.705494255
 11
117.5774555827
 21
104.8889918378
  0
LINE
  5
286
100
AcDbEntity
  8
0
100
AcDbLine
 62
7
  6
CONTINUOUS
 10
119.8402632273
 20
57.2054522143
 11
119.8402632273
 21
64.2273730016
  0
LINE
  5
287
100
AcDbEntity
  8
0
100
AcDbLine
 62
7
  6
CONTINUOUS
 10
119.8402632273
 20
88.7224455155
 11
119.8402632273
 21
95.7443663028
  0
LINE
  5
288
100
AcDbEntity
  8
0
100
AcDbLine
 62
7
  6
CONTINUOUS
 10
156.7510835299
 20
121.1372232206
 11
160.8523199358
 21
118.7694268443
  0
LINE
  5
289
100
AcDbEntity
  8
0
100
AcDbLine
 62
7
  6
CONTINUOUS
 10
130.8707055383
 20
137.7118286882
 11
110.647509121
 21
149.3874951703
  0
LINE
  5
28A
100
AcDbEntity
  8
0
100
AcDbLine
 62
7
  6
CONTINUOUS
 10
163.3522775182
 20
119.0170662671
 11
159.2510411123
 21
121.3848626433
  0
LINE
  5
28B
100
AcDbEntity
  8
0
100
AcDbLine
 62
7
  6
CONTINUOUS
 10
123.9414996332
 20
93.3765699266
 11
123.9414996332
 21
54.8376558381
  0
LINE
  5
28C
100
AcDbEntity
  8
0
100
AcDbLine
 62
7
  6
CONTINUOUS
 10
128.7493940266
 20
138.9366034779
 11
126.9041565966
 21
132.7272320468
  0
LINE
  5
28D
100
AcDbEntity
  8
0
100
AcDbLine
 62
7
  6
CONTINUOUS
 10
141.618986048
 20
122.8518051551
 11
120.4058709316
 21
110.604480539
  0
LINE
  5
28E
100
AcDbEntity
  8
0
100
AcDbLine
 62
7
  6
CONTINUOUS
 10
135.3256294183
 20
127.8379604641
 11
135.3256294183
 21
127.8649534289
  0
LINE
  5
28F
100
AcDbEntity
  8
0
100
AcDbLine
 62
7
  6
CONTINUOUS
 10
94.8792899297
 20
77.2582279587
 11
90.4243660497
 21
72.5553393297
  0
LINE
  5
290
100
AcDbEntity
  8
0
100
AcDbLine
 62
7
  6
CONTINUOUS
 10
114.3247779315
 20
99.2551576112
 11
113.6176740943
 21
98.8469134574
  0
LINE
  5
291
100
AcDbEntity
  8
0
100
AcDbLine
 62
7
  6
CONTINUOUS
 10
123.3757824134
 20
101.8680991578
 11
129.4568754135
 21
105.3789988811
  0
LINE
  5
292
100
AcDbEntity
  8
0
100
AcDbLine
 62
7
  6
CONTINUOUS
 10
150.6699905299
 20
117.6263234973
 11
156.7510835299
 21
121.1372232206
  0
LINE
  5
293
100
AcDbEntity
  8
0
100
AcDbLine
 62
7
  6
CONTINUOUS
 10
130.8707055383
 20
137.7118286882
 11
135.3256294183
 21
127.8649534289
  0
LINE
  5
294
100
AcDbEntity
  8
0
100
AcDbLine
 62
7
  6
CONTINUOUS
 10
160.8523199358
 20
118.7694268443
 11
127.4770188193
 21
99.5003027816
  0
LINE
  5
295
100
AcDbEntity
  8
0
100
AcDbLine
 62
7
  6
CONTINUOUS
 10
111.1778655713
 20
172.3516749525
 11
109.2686693134
 21
173.4539249897
  0
LINE
  5
296
100
AcDbEntity
  8
0
100
AcDbLine
 62
7
  6
CONTINUOUS
 10
108.6676310518
 20
176.2504517649
 11
106.1927470138
 21
177.6792944057
  0
LINE
  5
297
100
AcDbEntity
  8
0
100
AcDbLine
 62
7
  6
CONTINUOUS
 10
103.3007627514
 20
72.3959493409
 11
103.3243553318
 21
72.4095704423
  0
LINE
  5
298
100
AcDbEntity
  8
0
100
AcDbLine
 62
7
  6
CONTINUOUS
 10
108.6675927803
 20
181.5576036694
 11
103.9334329788
 21
184.2908102718
  0
LINE
  5
299
100
AcDbEntity
  8
0
100
AcDbLine
 62
7
  6
CONTINUOUS
 10
102.0879114447
 20
185.3562985217
 11
71.1907773475
 21
203.194363659
  0
LINE
  5
29A
100
AcDbEntity
  8
0
100
AcDbLine
 62
7
  6
CONTINUOUS
 10
66.9481189966
 20
205.6438081861
 11
65.0037840819
 21
206.7663450773
  0
LINE
  5
29B
100
AcDbEntity
  8
0
100
AcDbLine
 62
7
  6
CONTINUOUS
 10
158.3068638805
 20
79.781811998
 11
158.9673307866
 21
80.0242649459
  0
LINE
  5
29C
100
AcDbEntity
  8
0
100
AcDbLine
 62
7
  6
CONTINUOUS
 10
164.3878391218
 20
78.1892214395
 11
164.3878391218
 21
116.728135528
  0
LINE
  5
29D
100
AcDbEntity
  8
0
100
AcDbLine
 62
7
  6
CONTINUOUS
 10
127.4770188193
 20
52.7963645218
 11
160.8523199358
 21
72.0654885845
  0
ARC
  5
29E
100
AcDbEntity
  8
0
100
AcDbCircle
 62
7
  6
CONTINUOUS
 10
109.7969985467
 20
105.6238520907
 40
7.8833783605
100
AcDbArc
 50
322.5413270381
 51
330.0081404156
  0
ARC
  5
29F
100
AcDbEntity
  8
0
100
AcDbCircle
 62
7
  6
CONTINUOUS
 10
109.8611452987
 20
105.5946372491
 40
7.813220188
100
AcDbArc
 50
329.9585489266
 51
337.492520711
  0
ARC
  5
2A0
100
AcDbEntity
  8
0
100
AcDbCircle
 62
7
  6
CONTINUOUS
 10
110.4488961275
 20
105.3578162584
 40
7.1795852495
100
AcDbArc
 50
337.4429533829
 51
343.401997505
  0
ARC
  5
2A1
100
AcDbEntity
  8
0
100
AcDbCircle
 62
7
  6
CONTINUOUS
 10
72.8174489041
 20
156.5270925088
 40
5.1562245781
100
AcDbArc
 50
263.5258730156
 51
276.4737961813
  0
ARC
  5
2A2
100
AcDbEntity
  8
0
100
AcDbCircle
 62
7
  6
CONTINUOUS
 10
31.0936776242
 20
184.7281592087
 40
5.1068003616
100
AcDbArc
 50
266.0731906639
 51
266.2771437941
  0
ARC
  5
2A3
100
AcDbEntity
  8
0
100
AcDbCircle
 62
7
  6
CONTINUOUS
 10
108.3183538597
 20
181.1358000826
 40
5.106789197
100
AcDbArc
 50
273.7231339531
 51
273.927243542
  0
ARC
  5
2A4
100
AcDbEntity
  8
0
100
AcDbCircle
 62
7
  6
CONTINUOUS
 10
31.0932168632
 20
184.7215311192
 40
5.1001562787
100
AcDbArc
 50
265.6065755674
 51
266.0732555268
  0
ARC
  5
2A5
100
AcDbEntity
  8
0
100
AcDbCircle
 62
7
  6
CONTINUOUS
 10
108.3188148751
 20
181.1291690205
 40
5.100142131
100
AcDbArc
 50
273.9271786805
 51
274.3938670825
  0
ARC
  5
2A6
100
AcDbEntity
  8
0
100
AcDbCircle
 62
7
  6
CONTINUOUS
 10
64.9874592758
 20
201.6744790481
 40
1.4332141139
100
AcDbArc
 50
143.7716157653
 51
147.9635674831
  0
SPLINE
  5
2A7
100
AcDbEntity
  8
0
100
AcDbSpline
 62
7
  6
CONTINUOUS
 70
0
 71
3
 72
14
 73
10
 74
0
 42
0.0000001
 43
0.0000001
 44
0.0000000001
 40
0.0
 40
0.0
 40
0.0
 40
0.0
 40
0.2892788785
 40
0.4225377813
 40
0.5484922121
 40
0.6678919699
 40
0.7818652625
 40
0.8919497476
 40
1.0
 40
1.0
 40
1.0
 40
1.0
 10
145.2960449378
 20
88.8039713529
 30
0.0
 10
145.4935710693
 20
88.9180124374
 30
0.0
 10
145.7968218204
 20
89.062344174
 30
0.0
 10
146.2127022604
 20
89.1836128123
 30
0.0
 10
146.5078937587
 20
89.2331147391
 30
0.0
 10
146.7919299845
 20
89.24301552
 30
0.0
 10
147.0621235318
 20
89.2128761467
 30
0.0
 10
147.3155764135
 20
89.142782843
 30
0.0
 10
147.4722261343
 20
89.0694404205
 30
0.0
 10
147.5460057205
 20
89.0268450294
 30
0.0
  0
SPLINE
  5
2A8
100
AcDbEntity
  8
0
100
AcDbSpline
 62
7
  6
CONTINUOUS
 70
0
 71
3
 72
24
 73
20
 74
0
 42
0.0000001
 43
0.0000001
 44
0.0000000001
 40
0.0
 40
0.0
 40
0.0
 40
0.0
 40
0.0623863897
 40
0.1287313901
 40
0.1983281441
 40
0.270309554
 40
0.3436926692
 40
0.4174309912
 40
0.4904615813
 40
0.5617540351
 40
0.6303567713
 40
0.6954494309
 40
0.7564017262
 40
0.8128433725
 40
0.8647479326
 40
0.9125264432
 40
0.957104329
 40
0.9786662794
 40
1.0
 40
1.0
 40
1.0
 40
1.0
 10
158.3068638805
 20
73.9438197156
 30
0.0
 10
158.4685375711
 20
74.0371615072
 30
0.0
 10
158.7897189544
 20
74.2518020507
 30
0.0
 10
159.24455613
 20
74.6345702095
 30
0.0
 10
159.6793316691
 20
75.0809745289
 30
0.0
 10
160.0847581674
 20
75.581449441
 30
0.0
 10
160.4522449033
 20
76.1253865976
 30
0.0
 10
160.7739561224
 20
76.7011728566
 30
0.0
 10
161.0430234593
 20
77.2965278933
 30
0.0
 10
161.2537128971
 20
77.8987619284
 30
0.0
 10
161.4015354028
 20
78.4950890377
 30
0.0
 10
161.4833270676
 20
79.0729255572
 30
0.0
 10
161.4972496876
 20
79.6202013239
 30
0.0
 10
161.4427426928
 20
80.1256115997
 30
0.0
 10
161.3202394499
 20
80.5788135001
 30
0.0
 10
161.1312863807
 20
80.9701028464
 30
0.0
 10
160.9175198083
 20
81.2400725548
 30
0.0
 10
160.7192792436
 20
81.4118836038
 30
0.0
 10
160.6121110957
 20
81.4832964246
 30
0.0
 10
160.5568247182
 20
81.5152152414
 30
0.0
  0
SPLINE
  5
2A9
100
AcDbEntity
  8
0
100
AcDbSpline
 62
7
  6
CONTINUOUS
 70
0
 71
3
 72
24
 73
20
 74
0
 42
0.0000001
 43
0.0000001
 44
0.0000000001
 40
0.0
 40
0.0
 40
0.0
 40
0.0
 40
0.0213340747
 40
0.0428964024
 40
0.0874750933
 40
0.1352544321
 40
0.1871597209
 40
0.2436018924
 40
0.3045544249
 40
0.3696469604
 40
0.4382491621
 40
0.5095407264
 40
0.5825702323
 40
0.6563074583
 40
0.7296896754
 40
0.8016705762
 40
0.8712671782
 40
0.93761283
 40
1.0
 40
1.0
 40
1.0
 40
1.0
 10
143.046084155
 20
81.2325759223
 30
0.0
 10
142.9907967919
 20
81.2644951425
 30
0.0
 10
142.8836272062
 20
81.3359097961
 30
0.0
 10
142.6853835221
 20
81.5077242319
 30
0.0
 10
142.4716151913
 20
81.7777004754
 30
0.0
 10
142.2826624263
 20
82.1689978116
 30
0.0
 10
142.160161642
 20
82.6222068377
 30
0.0
 10
142.1056583314
 20
83.1276219489
 30
0.0
 10
142.1195848899
 20
83.6748994696
 30
0.0
 10
142.2013797683
 20
84.2527341912
 30
0.0
 10
142.3492038806
 20
84.8490560534
 30
0.0
 10
142.5598928594
 20
85.4512822165
 30
0.0
 10
142.8289577025
 20
86.0466282158
 30
0.0
 10
143.1506649944
 20
86.6224060244
 30
0.0
 10
143.5181474373
 20
87.1663369649
 30
0.0
 10
143.923570601
 20
87.6668084655
 30
0.0
 10
144.3583449477
 20
88.1132138562
 30
0.0
 10
144.8131847354
 20
88.4959848088
 30
0.0
 10
145.1343692358
 20
88.7106284
 30
0.0
 10
145.2960449378
 20
88.8039713529
 30
0.0
  0
SPLINE
  5
2AA
100
AcDbEntity
  8
0
100
AcDbSpline
 62
7
  6
CONTINUOUS
 70
0
 71
3
 72
14
 73
10
 74
0
 42
0.0000001
 43
0.0000001
 44
0.0000000001
 40
0.0
 40
0.0
 40
0.0
 40
0.0
 40
0.1080488667
 40
0.2181321678
 40
0.3321045072
 40
0.4515036959
 40
0.5774576959
 40
0.710717211
 40
1.0
 40
1.0
 40
1.0
 40
1.0
 10
156.0569030427
 20
73.7209459439
 30
0.0
 10
156.1306815865
 20
73.6783509335
 30
0.0
 10
156.2873294193
 20
73.6050092456
 30
0.0
 10
156.540779466
 20
73.53491634
 30
0.0
 10
156.8109707151
 20
73.5047758446
 30
0.0
 10
157.0950054455
 20
73.5146755669
 30
0.0
 10
157.3901968457
 20
73.5641761054
 30
0.0
 10
157.8060809256
 20
73.685443898
 30
0.0
 10
158.10933508
 20
73.8297770902
 30
0.0
 10
158.3068638805
 20
73.9438197156
 30
0.0
  0
SPLINE
  5
2AB
100
AcDbEntity
  8
0
100
AcDbSpline
 62
7
  6
CONTINUOUS
 70
0
 71
3
 72
16
 73
12
 74
0
 42
0.0000001
 43
0.0000001
 44
0.0000000001
 40
0.0
 40
0.0
 40
0.0
 40
0.0
 40
0.0994019373
 40
0.1544800457
 40
0.2129740543
 40
0.3388344208
 40
0.4734917711
 40
0.6121085057
 40
0.7493638734
 40
0.8800999342
 40
1.0
 40
1.0
 40
1.0
 40
1.0
 10
156.5533145144
 20
75.842972114
 30
0.0
 10
156.4964986206
 20
75.9843294888
 30
0.0
 10
156.4444066861
 20
76.2191911469
 30
0.0
 10
156.4285425211
 20
76.545396025
 30
0.0
 10
156.4487787142
 20
76.9124806864
 30
0.0
 10
156.5445996106
 20
77.3945287265
 30
0.0
 10
156.7550020315
 20
77.971124415
 30
0.0
 10
157.0519959044
 20
78.5280893809
 30
0.0
 10
157.4190828192
 20
79.0342882929
 30
0.0
 10
157.8355762077
 20
79.4614610899
 30
0.0
 10
158.1477188854
 20
79.6899301408
 30
0.0
 10
158.3068638805
 20
79.781811998
 30
0.0
  0
SPLINE
  5
2AC
100
AcDbEntity
  8
0
100
AcDbSpline
 62
7
  6
CONTINUOUS
 70
0
 71
3
 72
13
 73
9
 74
0
 42
0.0000001
 43
0.0000001
 44
0.0000000001
 40
0.0
 40
0.0
 40
0.0
 40
0.0
 40
0.117525281
 40
0.241518056
 40
0.5005914968
 40
0.7593545421
 40
0.8829902158
 40
1.0
 40
1.0
 40
1.0
 40
1.0
 10
156.612993651
 20
77.4673227072
 30
0.0
 10
156.6770075214
 20
77.5138019955
 30
0.0
 10
156.802415907
 20
77.6179885382
 30
0.0
 10
157.0363837323
 20
77.8611975361
 30
0.0
 10
157.2866683406
 20
78.2168525275
 30
0.0
 10
157.4670287196
 20
78.6123425767
 30
0.0
 10
157.5581920033
 20
78.9364529225
 30
0.0
 10
157.5843935084
 20
79.0967841664
 30
0.0
 10
157.5919531721
 20
79.1751816944
 30
0.0
  0
SPLINE
  5
2AD
100
AcDbEntity
  8
0
100
AcDbSpline
 62
7
  6
CONTINUOUS
 70
0
 71
3
 72
24
 73
20
 74
0
 42
0.0000001
 43
0.0000001
 44
0.0000000001
 40
0.0
 40
0.0
 40
0.0
 40
0.0
 40
0.0623863897
 40
0.1287313901
 40
0.1983281441
 40
0.270309554
 40
0.3436926692
 40
0.4174309912
 40
0.4904615813
 40
0.5617540351
 40
0.6303567713
 40
0.6954494309
 40
0.7564017262
 40
0.8128433725
 40
0.8647479326
 40
0.9125264432
 40
0.957104329
 40
0.9786662794
 40
1.0
 40
1.0
 40
1.0
 40
1.0
 10
158.3068638805
 20
81.2923414697
 30
0.0
 10
158.1451901898
 20
81.1989996781
 30
0.0
 10
157.8240088065
 20
80.9843591346
 30
0.0
 10
157.3691716309
 20
80.6015909758
 30
0.0
 10
156.9343960918
 20
80.1551866564
 30
0.0
 10
156.5289695935
 20
79.6547117443
 30
0.0
 10
156.1614828577
 20
79.1107745877
 30
0.0
 10
155.8397716386
 20
78.5349883287
 30
0.0
 10
155.5707043016
 20
77.939633292
 30
0.0
 10
155.3600148638
 20
77.3373992569
 30
0.0
 10
155.2121923581
 20
76.7410721476
 30
0.0
 10
155.1304006933
 20
76.1632356281
 30
0.0
 10
155.1164780733
 20
75.6159598614
 30
0.0
 10
155.1709850681
 20
75.1105495856
 30
0.0
 10
155.293488311
 20
74.6573476852
 30
0.0
 10
155.4824413802
 20
74.2660583389
 30
0.0
 10
155.6962079526
 20
73.9960886305
 30
0.0
 10
155.8944485173
 20
73.8242775815
 30
0.0
 10
156.0016166653
 20
73.7528647607
 30
0.0
 10
156.0569030427
 20
73.7209459439
 30
0.0
  0
SPLINE
  5
2AE
100
AcDbEntity
  8
0
100
AcDbSpline
 62
7
  6
CONTINUOUS
 70
0
 71
3
 72
17
 73
13
 74
0
 42
0.0000001
 43
0.0000001
 44
0.0000000001
 40
0.0
 40
0.0
 40
0.0
 40
0.0
 40
0.0452471826
 40
0.0938451664
 40
0.146224402
 40
0.2025019415
 40
0.3258224364
 40
0.4606381223
 40
0.6016062063
 40
0.7424880909
 40
0.8770471057
 40
1.0
 40
1.0
 40
1.0
 40
1.0
 10
158.019167586
 20
79.564115957
 30
0.0
 10
158.0440877258
 20
79.52755026
 30
0.0
 10
158.0881139687
 20
79.4463037185
 30
0.0
 10
158.1337412201
 20
79.3101812538
 30
0.0
 10
158.1606680657
 20
79.158260115
 30
0.0
 10
158.1714693581
 20
78.9311545274
 30
0.0
 10
158.1336229986
 20
78.6237052081
 30
0.0
 10
158.0186498395
 20
78.2490544651
 30
0.0
 10
157.8400968562
 20
77.8810550849
 30
0.0
 10
157.6094281521
 20
77.5435561445
 30
0.0
 10
157.3417333947
 20
77.2583461257
 30
0.0
 10
157.138200216
 20
77.1066314255
 30
0.0
 10
157.0340663752
 20
77.0465100834
 30
0.0
  0
SPLINE
  5
2AF
100
AcDbEntity
  8
0
100
AcDbSpline
 62
7
  6
CONTINUOUS
 70
0
 71
3
 72
15
 73
11
 74
0
 42
0.0000001
 43
0.0000001
 44
0.0000000001
 40
0.0
 40
0.0
 40
0.0
 40
0.0
 40
0.1514262642
 40
0.2905956316
 40
0.4182190328
 40
0.5364945931
 40
0.6490587531
 40
0.7606659999
 40
0.876265557
 40
1.0
 40
1.0
 40
1.0
 40
1.0
 10
158.3068638805
 20
75.4543491873
 30
0.0
 10
158.2160728707
 20
75.4019312862
 30
0.0
 10
158.0352170101
 20
75.312056834
 30
0.0
 10
157.7581182275
 20
75.2237287526
 30
0.0
 10
157.4919030451
 20
75.1899148213
 30
0.0
 10
157.2424899675
 20
75.2125104483
 30
0.0
 10
157.0164299619
 20
75.2924328439
 30
0.0
 10
156.8208766967
 20
75.4281273984
 30
0.0
 10
156.6617657627
 20
75.6148800901
 30
0.0
 10
156.5852617788
 20
75.76348764
 30
0.0
 10
156.5533145144
 20
75.842972114
 30
0.0
  0
SPLINE
  5
2B0
100
AcDbEntity
  8
0
100
AcDbSpline
 62
7
  6
CONTINUOUS
 70
0
 71
3
 72
14
 73
10
 74
0
 42
0.0000001
 43
0.0000001
 44
0.0000000001
 40
0.0
 40
0.0
 40
0.0
 40
0.0
 40
0.1080488667
 40
0.2181321678
 40
0.3321045072
 40
0.4515036959
 40
0.5774576959
 40
0.710717211
 40
1.0
 40
1.0
 40
1.0
 40
1.0
 10
160.5568247182
 20
81.5152152414
 30
0.0
 10
160.4830461744
 20
81.5578102518
 30
0.0
 10
160.3263983416
 20
81.6311519398
 30
0.0
 10
160.0729482949
 20
81.7012448453
 30
0.0
 10
159.8027570459
 20
81.7313853407
 30
0.0
 10
159.5187223154
 20
81.7214856184
 30
0.0
 10
159.2235309152
 20
81.6719850799
 30
0.0
 10
158.8076468353
 20
81.5507172873
 30
0.0
 10
158.5043926809
 20
81.4063840951
 30
0.0
 10
158.3068638805
 20
81.2923414697
 30
0.0
  0
SPLINE
  5
2B1
100
AcDbEntity
  8
0
100
AcDbSpline
 62
7
  6
CONTINUOUS
 70
0
 71
3
 72
11
 73
7
 74
0
 42
0.0000001
 43
0.0000001
 44
0.0000000001
 40
0.0
 40
0.0
 40
0.0
 40
0.0
 40
0.278937078
 40
0.5378689226
 40
0.7773049567
 40
1.0
 40
1.0
 40
1.0
 40
1.0
 10
157.0340663752
 20
77.0465100834
 30
0.0
 10
156.9848355404
 20
77.0180868173
 30
0.0
 10
156.8866812853
 20
76.968554178
 30
0.0
 10
156.7364621435
 20
76.9165616652
 30
0.0
 10
156.5911347172
 20
76.890686986
 30
0.0
 10
156.4962243561
 20
76.8914586631
 30
0.0
 10
156.451145581
 20
76.8967200495
 30
0.0
  0
SPLINE
  5
2B2
100
AcDbEntity
  8
0
100
AcDbSpline
 62
7
  6
CONTINUOUS
 70
0
 71
3
 72
26
 73
22
 74
0
 42
0.0000001
 43
0.0000001
 44
0.0000000001
 40
0.0
 40
0.0
 40
0.0
 40
0.0
 40
0.0491410268
 40
0.0723333276
 40
0.0949186622
 40
0.1172083179
 40
0.1395344345
 40
0.1622268154
 40
0.1855883424
 40
0.2352128988
 40
0.2899273466
 40
0.3502607309
 40
0.4160223453
 40
0.4864864596
 40
0.5605491091
 40
0.636855197
 40
0.7139057864
 40
0.7901553193
 40
0.8641109388
 40
0.9344239234
 40
1.0
 40
1.0
 40
1.0
 40
1.0
 10
158.9673315127
 20
80.0242675908
 30
0.0
 10
159.064165331
 20
80.0380533644
 30
0.0
 10
159.2100255021
 20
80.0430780833
 30
0.0
 10
159.3966781735
 20
80.0107845132
 30
0.0
 10
159.5260015769
 20
79.9687302404
 30
0.0
 10
159.646045231
 20
79.9085989756
 30
0.0
 10
159.7558397855
 20
79.8309522571
 30
0.0
 10
159.8544207737
 20
79.7364050667
 30
0.0
 10
159.972259127
 20
79.5860976045
 30
0.0
 10
160.086931475
 20
79.3561259312
 30
0.0
 10
160.1662987514
 20
79.0360538915
 30
0.0
 10
160.1898735371
 20
78.675354909
 30
0.0
 10
160.1575179639
 20
78.284264386
 30
0.0
 10
160.0704711606
 20
77.8738530723
 30
0.0
 10
159.9313313993
 20
77.4560173962
 30
0.0
 10
159.7442063809
 20
77.042997512
 30
0.0
 10
159.514614541
 20
76.6469708608
 30
0.0
 10
159.2493445234
 20
76.2796374326
 30
0.0
 10
158.9561791325
 20
75.9518061204
 30
0.0
 10
158.6438090974
 20
75.6731785584
 30
0.0
 10
158.4198998452
 20
75.5196101424
 30
0.0
 10
158.3068638805
 20
75.4543491873
 30
0.0
  0
SPLINE
  5
2B3
100
AcDbEntity
  8
0
100
AcDbSpline
 62
7
  6
CONTINUOUS
 70
0
 71
3
 72
12
 73
8
 74
0
 42
0.0000001
 43
0.0000001
 44
0.0000000001
 40
0.0
 40
0.0
 40
0.0
 40
0.0
 40
0.2895815875
 40
0.5486326666
 40
0.7816361232
 40
0.8918379233
 40
1.0
 40
1.0
 40
1.0
 40
1.0
 10
60.8720315483
 20
135.4636687964
 30
0.0
 10
61.0476093019
 20
135.3623012264
 30
0.0
 10
61.3968043614
 20
135.1961653768
 30
0.0
 10
61.9331412137
 20
135.0665030142
 30
0.0
 10
62.3614219739
 20
135.0778528661
 30
0.0
 10
62.6671733884
 20
135.1625458151
 30
0.0
 10
62.806440538
 20
135.2277127169
 30
0.0
 10
62.8720191238
 20
135.2655776895
 30
0.0
  0
SPLINE
  5
2B4
100
AcDbEntity
  8
0
100
AcDbSpline
 62
7
  6
CONTINUOUS
 70
0
 71
3
 72
15
 73
11
 74
0
 42
0.0000001
 43
0.0000001
 44
0.0000000001
 40
0.0
 40
0.0
 40
0.0
 40
0.0
 40
0.1148263591
 40
0.2383901443
 40
0.3681607991
 40
0.501083093
 40
0.6338551732
 40
0.7631866601
 40
0.8860576628
 40
1.0
 40
1.0
 40
1.0
 40
1.0
 10
31.8008456281
 20
155.4565560514
 30
0.0
 10
31.8041827621
 20
155.2338681516
 30
0.0
 10
31.850662645
 20
154.7717177926
 30
0.0
 10
32.0193290307
 20
154.076005216
 30
0.0
 10
32.2836219382
 20
153.3731264908
 30
0.0
 10
32.6338715155
 20
152.6889537956
 30
0.0
 10
33.0572347798
 20
152.0484625615
 30
0.0
 10
33.5382926639
 20
151.4750765623
 30
0.0
 10
34.0593185711
 20
150.9898425574
 30
0.0
 10
34.4374625303
 20
150.72532907
 30
0.0
 10
34.6288537437
 20
150.6148318012
 30
0.0
  0
SPLINE
  5
2B5
100
AcDbEntity
  8
0
100
AcDbSpline
 62
7
  6
CONTINUOUS
 70
0
 71
3
 72
12
 73
8
 74
0
 42
0.0000001
 43
0.0000001
 44
0.0000000001
 40
0.0
 40
0.0
 40
0.0
 40
0.0
 40
0.288578566
 40
0.5472734103
 40
0.7806914594
 40
0.8913263451
 40
1.0
 40
1.0
 40
1.0
 40
1.0
 10
65.6092200244
 20
138.1422236423
 30
0.0
 10
65.6062222381
 20
137.9456419753
 30
0.0
 10
65.5708187667
 20
137.571969082
 30
0.0
 10
65.4123416516
 20
137.059687771
 30
0.0
 10
65.1906355561
 20
136.7064653896
 30
0.0
 10
64.9686681518
 20
136.4906204398
 30
0.0
 10
64.8453167894
 20
136.4048581436
 30
0.0
 10
64.7811994835
 20
136.3678369063
 30
0.0
  0
SPLINE
  5
2B6
100
AcDbEntity
  8
0
100
AcDbSpline
 62
7
  6
CONTINUOUS
 70
0
 71
3
 72
12
 73
8
 74
0
 42
0.0000001
 43
0.0000001
 44
0.0000000001
 40
0.0
 40
0.0
 40
0.0
 40
0.0
 40
0.1086736605
 40
0.2193085503
 40
0.4527266067
 40
0.7114214418
 40
1.0
 40
1.0
 40
1.0
 40
1.0
 10
62.8720191238
 20
135.2655776895
 30
0.0
 10
62.9361364355
 20
135.3025989247
 30
0.0
 10
63.0594877975
 20
135.388361234
 30
0.0
 10
63.2814552166
 20
135.6042061845
 30
0.0
 10
63.5031612978
 20
135.9574285796
 30
0.0
 10
63.6616384141
 20
136.4697098815
 30
0.0
 10
63.6970418777
 20
136.843382765
 30
0.0
 10
63.700039664
 20
137.0399644269
 30
0.0
  0
SPLINE
  5
2B7
100
AcDbEntity
  8
0
100
AcDbSpline
 62
7
  6
CONTINUOUS
 70
0
 71
3
 72
15
 73
11
 74
0
 42
0.0000001
 43
0.0000001
 44
0.0000000001
 40
0.0
 40
0.0
 40
0.0
 40
0.0
 40
0.113942031
 40
0.2368128637
 40
0.3661442943
 40
0.4989164145
 40
0.6318388157
 40
0.7616096149
 40
0.8851735401
 40
1.0
 40
1.0
 40
1.0
 40
1.0
 10
108.0713121492
 20
148.9208021502
 30
0.0
 10
108.2627019358
 20
149.0313004354
 30
0.0
 10
108.6408429788
 20
149.2958159754
 30
0.0
 10
109.1618644939
 20
149.7810525182
 30
0.0
 10
109.6429183035
 20
150.3544408444
 30
0.0
 10
110.0662779669
 20
150.9949340836
 30
0.0
 10
110.4165245506
 20
151.6791083948
 30
0.0
 10
110.6808151768
 20
152.3819882701
 30
0.0
 10
110.8494801089
 20
153.077701487
 30
0.0
 10
110.8959596099
 20
153.5398520348
 30
0.0
 10
110.8992967167
 20
153.7625399958
 30
0.0
  0
SPLINE
  5
2B8
100
AcDbEntity
  8
0
100
AcDbSpline
 62
7
  6
CONTINUOUS
 70
0
 71
3
 72
12
 73
8
 74
0
 42
0.0000001
 43
0.0000001
 44
0.0000000001
 40
0.0
 40
0.0
 40
0.0
 40
0.0
 40
0.1081618764
 40
0.2183635
 40
0.4513667606
 40
0.7104179405
 40
1.0
 40
1.0
 40
1.0
 40
1.0
 10
79.8283902707
 20
133.5714074562
 30
0.0
 10
79.8939682401
 20
133.5335434658
 30
0.0
 10
80.033234016
 20
133.4683784796
 30
0.0
 10
80.3389821529
 20
133.3836890616
 30
0.0
 10
80.7672578276
 20
133.3723430035
 30
0.0
 10
81.3035875648
 20
133.5020084023
 30
0.0
 10
81.6527776077
 20
133.6681451671
 30
0.0
 10
81.8283528653
 20
133.7695129843
 30
0.0
  0
SPLINE
  5
2B9
100
AcDbEntity
  8
0
100
AcDbSpline
 62
7
  6
CONTINUOUS
 70
0
 71
3
 72
12
 73
8
 74
0
 42
0.0000001
 43
0.0000001
 44
0.0000000001
 40
0.0
 40
0.0
 40
0.0
 40
0.0
 40
0.1086732176
 40
0.2193077256
 40
0.4527253853
 40
0.7114204933
 40
1.0
 40
1.0
 40
1.0
 40
1.0
 10
77.919194012
 20
134.6736574921
 30
0.0
 10
77.8550766141
 20
134.7106781592
 30
0.0
 10
77.7317250278
 20
134.7964395231
 30
0.0
 10
77.5097570753
 20
135.0122833283
 30
0.0
 10
77.2880504893
 20
135.3655057446
 30
0.0
 10
77.1295732334
 20
135.8777883122
 30
0.0
 10
77.094169815
 20
136.2514625031
 30
0.0
 10
77.0911720399
 20
136.4480450566
 30
0.0
  0
SPLINE
  5
2BA
100
AcDbEntity
  8
0
100
AcDbSpline
 62
7
  6
CONTINUOUS
 70
0
 71
3
 72
12
 73
8
 74
0
 42
0.0000001
 43
0.0000001
 44
0.0000000001
 40
0.0
 40
0.0
 40
0.0
 40
0.0
 40
0.2885795145
 40
0.5472746317
 40
0.780692284
 40
0.891326788
 40
1.0
 40
1.0
 40
1.0
 40
1.0
 10
79.0003682978
 20
135.3457950194
 30
0.0
 10
79.003366073
 20
135.1492124607
 30
0.0
 10
79.0387694992
 20
134.77553826
 30
0.0
 10
79.1972467538
 20
134.2632556833
 30
0.0
 10
79.4189533542
 20
133.9100332807
 30
0.0
 10
79.6409212918
 20
133.6941894763
 30
0.0
 10
79.7642728786
 20
133.6084281255
 30
0.0
 10
79.8283902707
 20
133.5714074562
 30
0.0
  0
SPLINE
  5
2BB
100
AcDbEntity
  8
0
100
AcDbSpline
 62
7
  6
CONTINUOUS
 70
0
 71
3
 72
11
 73
7
 74
0
 42
0.0000001
 43
0.0000001
 44
0.0000000001
 40
0.0
 40
0.0
 40
0.0
 40
0.0
 40
0.22364517
 40
0.4615142525
 40
0.719615073
 40
1.0
 40
1.0
 40
1.0
 40
1.0
 10
23.9310932516
 20
109.9295285343
 30
0.0
 10
23.816953781
 20
109.9954261916
 30
0.0
 10
23.6015451769
 20
110.1688085467
 30
0.0
 10
23.3534445605
 20
110.5180279599
 30
0.0
 10
23.1800660866
 20
110.9451124379
 30
0.0
 10
23.1200373504
 20
111.2587561068
 30
0.0
 10
23.1020635714
 20
111.4230094838
 30
0.0
  0
SPLINE
  5
2BC
100
AcDbEntity
  8
0
100
AcDbSpline
 62
7
  6
CONTINUOUS
 70
0
 71
3
 72
11
 73
7
 74
0
 42
0.0000001
 43
0.0000001
 44
0.0000000001
 40
0.0
 40
0.0
 40
0.0
 40
0.0
 40
0.2368169205
 40
0.4825917025
 40
0.7371052518
 40
1.0
 40
1.0
 40
1.0
 40
1.0
 10
23.3990946236
 20
179.1845235106
 30
0.0
 10
22.6788776206
 20
173.8717226562
 30
0.0
 10
21.5978305301
 20
162.9897930468
 30
0.0
 10
21.0292087063
 20
146.3015393926
 30
0.0
 10
21.4847429589
 20
129.0199203921
 30
0.0
 10
22.4546416446
 20
117.3394746624
 30
0.0
 10
23.1020635714
 20
111.4230094838
 30
0.0
  0
SPLINE
  5
2BD
100
AcDbEntity
  8
0
100
AcDbSpline
 62
7
  6
CONTINUOUS
 70
0
 71
3
 72
9
 73
5
 74
0
 42
0.0000001
 43
0.0000001
 44
0.0000000001
 40
0.0
 40
0.0
 40
0.0
 40
0.0
 40
0.2603782916
 40
1.0
 40
1.0
 40
1.0
 40
1.0
 10
26.6742053187
 20
108.5924341863
 30
0.0
 10
26.6898386363
 20
108.5594629804
 30
0.0
 10
26.7546107379
 20
108.4351906406
 30
0.0
 10
26.8398148011
 20
108.3211218833
 30
0.0
 10
26.9132708285
 20
108.247992905
 30
0.0
  0
SPLINE
  5
2BE
100
AcDbEntity
  8
0
100
AcDbSpline
 62
7
  6
CONTINUOUS
 70
0
 71
3
 72
9
 73
5
 74
0
 42
0.0000001
 43
0.0000001
 44
0.0000000001
 40
0.0
 40
0.0
 40
0.0
 40
0.0
 40
0.2527452273
 40
1.0
 40
1.0
 40
1.0
 40
1.0
 10
26.9132708285
 20
108.247992905
 30
0.0
 10
26.9290918108
 20
108.2322423626
 30
0.0
 10
26.993612204
 20
108.1718902806
 30
0.0
 10
27.0659664127
 20
108.1198888546
 30
0.0
 10
27.1231274961
 20
108.0868876313
 30
0.0
  0
SPLINE
  5
2BF
100
AcDbEntity
  8
0
100
AcDbSpline
 62
7
  6
CONTINUOUS
 70
0
 71
3
 72
11
 73
7
 74
0
 42
0.0000001
 43
0.0000001
 44
0.0000000001
 40
0.0
 40
0.0
 40
0.0
 40
0.0
 40
0.2177731171
 40
0.4509285976
 40
0.710222822
 40
1.0
 40
1.0
 40
1.0
 40
1.0
 10
95.7077539139
 20
76.8071525089
 30
0.0
 10
95.5758120929
 20
76.8833274384
 30
0.0
 10
95.328903667
 20
77.0908453377
 30
0.0
 10
95.066151766
 20
77.5205509011
 30
0.0
 10
94.9099426057
 20
78.0501008405
 30
0.0
 10
94.8792899297
 20
78.4355457036
 30
0.0
 10
94.8792899297
 20
78.6382716362
 30
0.0
  0
SPLINE
  5
2C0
100
AcDbEntity
  8
0
100
AcDbSpline
 62
7
  6
CONTINUOUS
 70
0
 71
3
 72
11
 73
7
 74
0
 42
0.0000001
 43
0.0000001
 44
0.0000000001
 40
0.0
 40
0.0
 40
0.0
 40
0.0
 40
0.2897757032
 40
0.5490693955
 40
0.7822254653
 40
1.0
 40
1.0
 40
1.0
 40
1.0
 10
125.7090172322
 20
132.0372221318
 30
0.0
 10
125.8845754533
 20
132.138580113
 30
0.0
 10
126.2336920561
 20
132.3047485788
 30
0.0
 10
126.7703780195
 20
132.434236941
 30
0.0
 10
127.2738707364
 20
132.4215424812
 30
0.0
 10
127.5770311438
 20
132.3114806137
 30
0.0
 10
127.7089685968
 20
132.2353082061
 30
0.0
  0
SPLINE
  5
2C1
100
AcDbEntity
  8
0
100
AcDbSpline
 62
7
  6
CONTINUOUS
 70
0
 71
3
 72
15
 73
11
 74
0
 42
0.0000001
 43
0.0000001
 44
0.0000000001
 40
0.0
 40
0.0
 40
0.0
 40
0.0
 40
0.1141475829
 40
0.2373370756
 40
0.3669780685
 40
0.5000016033
 40
0.6330249151
 40
0.7626652568
 40
0.8858537231
 40
1.0
 40
1.0
 40
1.0
 40
1.0
 10
101.6674867669
 20
114.8909112317
 30
0.0
 10
101.6674867669
 20
115.1144793755
 30
0.0
 10
101.708465614
 20
115.5797554939
 30
0.0
 10
101.8716797946
 20
116.281665146
 30
0.0
 10
102.1332632486
 20
116.9926281737
 30
0.0
 10
102.4832437046
 20
117.6859291893
 30
0.0
 10
102.9086658875
 20
118.3356726878
 30
0.0
 10
103.393581425
 20
118.9176912911
 30
0.0
 10
103.9198404444
 20
119.4099911089
 30
0.0
 10
104.3022883499
 20
119.6781152231
 30
0.0
 10
104.4959021158
 20
119.7898975157
 30
0.0
  0
SPLINE
  5
2C2
100
AcDbEntity
  8
0
100
AcDbSpline
 62
7
  6
CONTINUOUS
 70
0
 71
3
 72
15
 73
11
 74
0
 42
0.0000001
 43
0.0000001
 44
0.0000000001
 40
0.0
 40
0.0
 40
0.0
 40
0.0
 40
0.1141543519
 40
0.237325601
 40
0.366974755
 40
0.4999984147
 40
0.6330222943
 40
0.7626720931
 40
0.8858443543
 40
1.0
 40
1.0
 40
1.0
 40
1.0
 10
98.4148091157
 20
108.4405745879
 30
0.0
 10
98.6374811105
 20
108.5691335567
 30
0.0
 10
99.0772981679
 20
108.8774422044
 30
0.0
 10
99.6824624238
 20
109.4436224738
 30
0.0
 10
100.2401539891
 20
110.1128897987
 30
0.0
 10
100.7293671145
 20
110.8601378196
 30
0.0
 10
101.1318930414
 20
111.6574360983
 30
0.0
 10
101.4326477944
 20
112.4750500173
 30
0.0
 10
101.6203916083
 20
113.282234674
 30
0.0
 10
101.6674867669
 20
113.8172868118
 30
0.0
 10
101.6674867669
 20
114.0744088145
 30
0.0
  0
SPLINE
  5
2C3
100
AcDbEntity
  8
0
100
AcDbSpline
 62
7
  6
CONTINUOUS
 70
0
 71
3
 72
15
 73
11
 74
0
 42
0.0000001
 43
0.0000001
 44
0.0000000001
 40
0.0
 40
0.0
 40
0.0
 40
0.0
 40
0.1141475829
 40
0.2373370756
 40
0.3669780685
 40
0.5000016033
 40
0.6330249151
 40
0.7626652568
 40
0.8858537231
 40
1.0
 40
1.0
 40
1.0
 40
1.0
 10
94.8792899297
 20
103.1333441501
 30
0.0
 10
94.8792899297
 20
103.3569122939
 30
0.0
 10
94.9202687767
 20
103.8221884123
 30
0.0
 10
95.0834829573
 20
104.5240980644
 30
0.0
 10
95.3450664113
 20
105.2350610921
 30
0.0
 10
95.6950468673
 20
105.9283621077
 30
0.0
 10
96.1204690502
 20
106.5781056062
 30
0.0
 10
96.6053845878
 20
107.1601242095
 30
0.0
 10
97.1316436071
 20
107.6524240273
 30
0.0
 10
97.5140915127
 20
107.9205481415
 30
0.0
 10
97.7077052785
 20
108.0323304341
 30
0.0
  0
SPLINE
  5
2C4
100
AcDbEntity
  8
0
100
AcDbSpline
 62
7
  6
CONTINUOUS
 70
0
 71
3
 72
9
 73
5
 74
0
 42
0.0000001
 43
0.0000001
 44
0.0000000001
 40
0.0
 40
0.0
 40
0.0
 40
0.0
 40
0.4809901163
 40
1.0
 40
1.0
 40
1.0
 40
1.0
 10
117.5774555827
 20
104.8889918378
 30
0.0
 10
117.5774555827
 20
104.6315799627
 30
0.0
 10
117.530278185
 20
104.0959813769
 30
0.0
 10
117.4085288413
 20
103.5731594529
 30
0.0
 10
117.3293262516
 20
103.3069321413
 30
0.0
  0
SPLINE
  5
2C5
100
AcDbEntity
  8
0
100
AcDbSpline
 62
7
  6
CONTINUOUS
 70
0
 71
3
 72
9
 73
5
 74
0
 42
0.0000001
 43
0.0000001
 44
0.0000000001
 40
0.0
 40
0.0
 40
0.0
 40
0.0
 40
0.253139686
 40
1.0
 40
1.0
 40
1.0
 40
1.0
 10
116.0547630288
 20
100.8292678479
 30
0.0
 10
116.0164004789
 20
100.7793018549
 30
0.0
 10
115.8623959767
 20
100.5838203232
 30
0.0
 10
115.6985799096
 20
100.3960329925
 30
0.0
 10
115.5708038
 20
100.2610650004
 30
0.0
  0
SPLINE
  5
2C6
100
AcDbEntity
  8
0
100
AcDbSpline
 62
7
  6
CONTINUOUS
 70
0
 71
3
 72
9
 73
5
 74
0
 42
0.0000001
 43
0.0000001
 44
0.0000000001
 40
0.0
 40
0.0
 40
0.0
 40
0.0
 40
0.5190106608
 40
1.0
 40
1.0
 40
1.0
 40
1.0
 10
115.5708038
 20
100.2610650004
 30
0.0
 10
115.3798477213
 20
100.0593609525
 30
0.0
 10
114.9879500674
 20
99.6925145449
 30
0.0
 10
114.5477009372
 20
99.3838615003
 30
0.0
 10
114.3247779315
 20
99.2551576112
 30
0.0
  0
SPLINE
  5
2C7
100
AcDbEntity
  8
0
100
AcDbSpline
 62
7
  6
CONTINUOUS
 70
0
 71
3
 72
11
 73
7
 74
0
 42
0.0000001
 43
0.0000001
 44
0.0000000001
 40
0.0
 40
0.0
 40
0.0
 40
0.0
 40
0.2177731171
 40
0.4509285976
 40
0.710222822
 40
1.0
 40
1.0
 40
1.0
 40
1.0
 10
111.6177227297
 20
67.6217355322
 30
0.0
 10
111.4857809087
 20
67.6979104617
 30
0.0
 10
111.2388724828
 20
67.905428361
 30
0.0
 10
110.9761205818
 20
68.3351339244
 30
0.0
 10
110.8199114215
 20
68.8646838638
 30
0.0
 10
110.7892587455
 20
69.2501287268
 30
0.0
 10
110.7892587455
 20
69.4528546595
 30
0.0
  0
SPLINE
  5
2C8
100
AcDbEntity
  8
0
100
AcDbSpline
 62
7
  6
CONTINUOUS
 70
0
 71
3
 72
11
 73
7
 74
0
 42
0.0000001
 43
0.0000001
 44
0.0000000001
 40
0.0
 40
0.0
 40
0.0
 40
0.0
 40
0.2177798312
 40
0.4509239181
 40
0.7102597115
 40
1.0
 40
1.0
 40
1.0
 40
1.0
 10
126.1982617115
 20
54.6639535829
 30
0.0
 10
126.112488506
 20
54.7134535405
 30
0.0
 10
125.9520312417
 20
54.8483801495
 30
0.0
 10
125.7812032766
 20
55.1276743217
 30
0.0
 10
125.6797058454
 20
55.4718947549
 30
0.0
 10
125.6597619576
 20
55.7224296282
 30
0.0
 10
125.6597619576
 20
55.8541842045
 30
0.0
  0
SPLINE
  5
2C9
100
AcDbEntity
  8
0
100
AcDbSpline
 62
7
  6
CONTINUOUS
 70
0
 71
3
 72
11
 73
7
 74
0
 42
0.0000001
 43
0.0000001
 44
0.0000000001
 40
0.0
 40
0.0
 40
0.0
 40
0.0
 40
0.2177798312
 40
0.4509239181
 40
0.7102597115
 40
1.0
 40
1.0
 40
1.0
 40
1.0
 10
159.5311365978
 20
112.3985069399
 30
0.0
 10
159.4453633923
 20
112.4480068975
 30
0.0
 10
159.284906128
 20
112.5829335065
 30
0.0
 10
159.1140781629
 20
112.8622276787
 30
0.0
 10
159.0125807317
 20
113.2064481119
 30
0.0
 10
158.9926368439
 20
113.4569829852
 30
0.0
 10
158.9926368439
 20
113.5887375615
 30
0.0
  0
SPLINE
  5
2CA
100
AcDbEntity
  8
0
100
AcDbSpline
 62
7
  6
CONTINUOUS
 70
0
 71
3
 72
11
 73
7
 74
0
 42
0.0000001
 43
0.0000001
 44
0.0000000001
 40
0.0
 40
0.0
 40
0.0
 40
0.0
 40
0.2177798312
 40
0.4509239181
 40
0.7102597115
 40
1.0
 40
1.0
 40
1.0
 40
1.0
 10
126.1982617115
 20
93.1538775264
 30
0.0
 10
126.112488506
 20
93.203377484
 30
0.0
 10
125.9520312417
 20
93.338304093
 30
0.0
 10
125.7812032766
 20
93.6175982652
 30
0.0
 10
125.6797058454
 20
93.9618186984
 30
0.0
 10
125.6597619576
 20
94.2123535717
 30
0.0
 10
125.6597619576
 20
94.344108148
 30
0.0
  0
SPLINE
  5
2CB
100
AcDbEntity
  8
0
100
AcDbSpline
 62
7
  6
CONTINUOUS
 70
0
 71
3
 72
15
 73
11
 74
0
 42
0.0000001
 43
0.0000001
 44
0.0000000001
 40
0.0
 40
0.0
 40
0.0
 40
0.0
 40
0.1080128151
 40
0.2180620975
 40
0.3319994177
 40
0.4513585055
 40
0.577277768
 40
0.710492627
 40
0.8514154749
 40
1.0
 40
1.0
 40
1.0
 40
1.0
 10
132.7962744351
 20
63.478983081
 30
0.0
 10
133.2061494575
 20
63.2423456117
 30
0.0
 10
134.0763803567
 20
62.8348185059
 30
0.0
 10
135.4844666081
 20
62.4454520584
 30
0.0
 10
136.9855233622
 20
62.2780578599
 30
0.0
 10
138.5635621315
 20
62.3329566751
 30
0.0
 10
140.2033590455
 20
62.6080368703
 30
0.0
 10
141.8897103562
 20
63.099644704
 30
0.0
 10
143.6066189583
 20
63.802390228
 30
0.0
 10
144.7322144329
 20
64.391624297
 30
0.0
 10
145.2960449378
 20
64.7171500476
 30
0.0
  0
SPLINE
  5
2CC
100
AcDbEntity
  8
0
100
AcDbSpline
 62
7
  6
CONTINUOUS
 70
0
 71
3
 72
12
 73
8
 74
0
 42
0.0000001
 43
0.0000001
 44
0.0000000001
 40
0.0
 40
0.0
 40
0.0
 40
0.0
 40
0.1081612896
 40
0.2183623225
 40
0.4513640816
 40
0.710417852
 40
1.0
 40
1.0
 40
1.0
 40
1.0
 10
120.8758290989
 20
54.9165288677
 30
0.0
 10
120.7938519983
 20
54.9638572858
 30
0.0
 10
120.6362589775
 20
55.0738870436
 30
0.0
 10
120.3534747264
 20
55.3519451211
 30
0.0
 10
120.0735042965
 20
55.80849185
 30
0.0
 10
119.878660952
 20
56.4701555442
 30
0.0
 10
119.8402632273
 20
56.9520214307
 30
0.0
 10
119.8402632273
 20
57.2054522143
 30
0.0
  0
SPLINE
  5
2CD
100
AcDbEntity
  8
0
100
AcDbSpline
 62
7
  6
CONTINUOUS
 70
0
 71
3
 72
12
 73
8
 74
0
 42
0.0000001
 43
0.0000001
 44
0.0000000001
 40
0.0
 40
0.0
 40
0.0
 40
0.0
 40
0.1081620389
 40
0.2183637051
 40
0.4513660653
 40
0.7104193096
 40
1.0
 40
1.0
 40
1.0
 40
1.0
 10
124.9770655048
 20
52.5487324915
 30
0.0
 10
125.0590399181
 20
52.5014056149
 30
0.0
 10
125.2331204848
 20
52.4199465792
 30
0.0
 10
125.6153056048
 20
52.3140854059
 30
0.0
 10
126.1506509386
 20
52.2999001394
 30
0.0
 10
126.8210623284
 20
52.4619857679
 30
0.0
 10
127.2575508033
 20
52.6696553601
 30
0.0
 10
127.4770188193
 20
52.7963645218
 30
0.0
  0
SPLINE
  5
2CE
100
AcDbEntity
  8
0
100
AcDbSpline
 62
7
  6
CONTINUOUS
 70
0
 71
3
 72
10
 73
6
 74
0
 42
0.0000001
 43
0.0000001
 44
0.0000000001
 40
0.0
 40
0.0
 40
0.0
 40
0.0
 40
0.2350062664
 40
0.4767115809
 40
1.0
 40
1.0
 40
1.0
 40
1.0
 10
159.5311365978
 20
73.9085829964
 30
0.0
 10
159.4783788666
 20
73.9390296311
 30
0.0
 10
159.3776692673
 20
74.0125131734
 30
0.0
 10
159.2029591817
 20
74.2058657017
 30
0.0
 10
159.115708869
 20
74.3896056922
 30
0.0
 10
159.0747322164
 20
74.5189025222
 30
0.0
  0
SPLINE
  5
2CF
100
AcDbEntity
  8
0
100
AcDbSpline
 62
7
  6
CONTINUOUS
 70
0
 71
3
 72
11
 73
7
 74
0
 42
0.0000001
 43
0.0000001
 44
0.0000000001
 40
0.0
 40
0.0
 40
0.0
 40
0.0
 40
0.2897757032
 40
0.5490693955
 40
0.7822254653
 40
1.0
 40
1.0
 40
1.0
 40
1.0
 10
141.618986048
 20
122.8518051551
 30
0.0
 10
141.7945442691
 20
122.9531631363
 30
0.0
 10
142.1436608719
 20
123.1193316021
 30
0.0
 10
142.6803468353
 20
123.2488199642
 30
0.0
 10
143.1838395522
 20
123.2361255045
 30
0.0
 10
143.4869999596
 20
123.126063637
 30
0.0
 10
143.6189374126
 20
123.0498912293
 30
0.0
  0
SPLINE
  5
2D0
100
AcDbEntity
  8
0
100
AcDbSpline
 62
7
  6
CONTINUOUS
 70
0
 71
3
 72
15
 73
11
 74
0
 42
0.0000001
 43
0.0000001
 44
0.0000000001
 40
0.0
 40
0.0
 40
0.0
 40
0.0
 40
0.1141475829
 40
0.2373370756
 40
0.3669780685
 40
0.5000016033
 40
0.6330249151
 40
0.7626652568
 40
0.8858537231
 40
1.0
 40
1.0
 40
1.0
 40
1.0
 10
117.5774555827
 20
105.705494255
 30
0.0
 10
117.5774555827
 20
105.9290623988
 30
0.0
 10
117.6184344298
 20
106.3943385172
 30
0.0
 10
117.7816486104
 20
107.0962481693
 30
0.0
 10
118.0432320644
 20
107.807211197
 30
0.0
 10
118.3932125204
 20
108.5005122126
 30
0.0
 10
118.8186347033
 20
109.1502557111
 30
0.0
 10
119.3035502408
 20
109.7322743144
 30
0.0
 10
119.8298092602
 20
110.2245741322
 30
0.0
 10
120.2122571657
 20
110.4926982464
 30
0.0
 10
120.4058709316
 20
110.604480539
 30
0.0
  0
SPLINE
  5
2D1
100
AcDbEntity
  8
0
100
AcDbSpline
 62
7
  6
CONTINUOUS
 70
0
 71
3
 72
15
 73
11
 74
0
 42
0.0000001
 43
0.0000001
 44
0.0000000001
 40
0.0
 40
0.0
 40
0.0
 40
0.0
 40
0.1141543519
 40
0.237325601
 40
0.366974755
 40
0.4999984147
 40
0.6330222943
 40
0.7626720931
 40
0.8858443543
 40
1.0
 40
1.0
 40
1.0
 40
1.0
 10
114.3247779315
 20
99.2551576112
 30
0.0
 10
114.5474499263
 20
99.38371658
 30
0.0
 10
114.9872669837
 20
99.6920252277
 30
0.0
 10
115.5924312396
 20
100.2582054971
 30
0.0
 10
116.1501228049
 20
100.927472822
 30
0.0
 10
116.6393359303
 20
101.6747208429
 30
0.0
 10
117.0418618573
 20
102.4720191215
 30
0.0
 10
117.3426166102
 20
103.2896330406
 30
0.0
 10
117.5303604241
 20
104.0968176973
 30
0.0
 10
117.5774555827
 20
104.6318698351
 30
0.0
 10
117.5774555827
 20
104.8889918378
 30
0.0
  0
SPLINE
  5
2D2
100
AcDbEntity
  8
0
100
AcDbSpline
 62
7
  6
CONTINUOUS
 70
0
 71
3
 72
15
 73
11
 74
0
 42
0.0000001
 43
0.0000001
 44
0.0000000001
 40
0.0
 40
0.0
 40
0.0
 40
0.0
 40
0.1141475829
 40
0.2373370756
 40
0.3669780685
 40
0.5000016033
 40
0.6330249151
 40
0.7626652568
 40
0.8858537231
 40
1.0
 40
1.0
 40
1.0
 40
1.0
 10
110.7892587455
 20
93.9479271734
 30
0.0
 10
110.7892587455
 20
94.1714953172
 30
0.0
 10
110.8302375925
 20
94.6367714356
 30
0.0
 10
110.9934517731
 20
95.3386810877
 30
0.0
 10
111.2550352271
 20
96.0496441154
 30
0.0
 10
111.6050156831
 20
96.742945131
 30
0.0
 10
112.030437866
 20
97.3926886295
 30
0.0
 10
112.5153534036
 20
97.9747072328
 30
0.0
 10
113.0416124229
 20
98.4670070506
 30
0.0
 10
113.4240603285
 20
98.7351311648
 30
0.0
 10
113.6176740943
 20
98.8469134574
 30
0.0
  0
SPLINE
  5
2D3
100
AcDbEntity
  8
0
100
AcDbSpline
 62
7
  6
CONTINUOUS
 70
0
 71
3
 72
15
 73
11
 74
0
 42
0.0000001
 43
0.0000001
 44
0.0000000001
 40
0.0
 40
0.0
 40
0.0
 40
0.0
 40
0.114155658
 40
0.2373279333
 40
0.3669777387
 40
0.5000016213
 40
0.633025278
 40
0.7626744253
 40
0.8858456604
 40
1.0
 40
1.0
 40
1.0
 40
1.0
 10
119.8402632273
 20
95.7443663028
 30
0.0
 10
119.8402632273
 20
96.0238467707
 30
0.0
 10
119.8914536339
 20
96.6054252454
 30
0.0
 10
120.0955230266
 20
97.4827999486
 30
0.0
 10
120.4224304166
 20
98.3715107743
 30
0.0
 10
120.8599586274
 20
99.2381393411
 30
0.0
 10
121.3917120366
 20
100.0503654238
 30
0.0
 10
121.9978985074
 20
100.7778298422
 30
0.0
 10
122.6556856907
 20
101.3932431146
 30
0.0
 10
123.1337476625
 20
101.7283611634
 30
0.0
 10
123.3757824134
 20
101.8680991578
 30
0.0
  0
SPLINE
  5
2D4
100
AcDbEntity
  8
0
100
AcDbSpline
 62
7
  6
CONTINUOUS
 70
0
 71
3
 72
11
 73
7
 74
0
 42
0.0000001
 43
0.0000001
 44
0.0000000001
 40
0.0
 40
0.0
 40
0.0
 40
0.0
 40
0.2305508528
 40
0.4760044413
 40
0.7336255892
 40
1.0
 40
1.0
 40
1.0
 40
1.0
 10
145.2960449378
 20
64.7171500476
 30
0.0
 10
146.2172787517
 20
65.2490214632
 30
0.0
 10
148.0466769339
 20
66.4759320598
 30
0.0
 10
150.6322557762
 20
68.6696748587
 30
0.0
 10
153.0979305622
 20
71.2314968133
 30
0.0
 10
154.607588959
 20
73.1248681657
 30
0.0
 10
155.3309546945
 20
74.1184826796
 30
0.0
  0
SPLINE
  5
2D5
100
AcDbEntity
  8
0
100
AcDbSpline
 62
7
  6
CONTINUOUS
 70
0
 71
3
 72
18
 73
14
 74
0
 42
0.0000001
 43
0.0000001
 44
0.0000000001
 40
0.0
 40
0.0
 40
0.0
 40
0.0
 40
0.156861925
 40
0.3074024484
 40
0.44907166
 40
0.5799832602
 40
0.6992101801
 40
0.7545790853
 40
0.8073123282
 40
0.8577280829
 40
0.9062661171
 40
0.953477232
 40
1.0
 40
1.0
 40
1.0
 40
1.0
 10
159.8598731177
 20
81.96835982
 30
0.0
 10
160.4311198963
 20
83.2569123765
 30
0.0
 10
161.4245379749
 20
85.8406495591
 30
0.0
 10
162.4604303607
 20
89.7490505028
 30
0.0
 10
162.9912330514
 20
93.5245071759
 30
0.0
 10
163.0003116398
 20
97.0572340354
 30
0.0
 10
162.5581095632
 20
99.7838902452
 30
0.0
 10
161.925597498
 20
101.7298902597
 30
0.0
 10
161.3367121784
 20
103.0304265508
 30
0.0
 10
160.6255008577
 20
104.1974611923
 30
0.0
 10
159.7966812718
 20
105.2217379196
 30
0.0
 10
158.8565135197
 20
106.0943618961
 30
0.0
 10
158.1578462917
 20
106.5714227813
 30
0.0
 10
157.7958154404
 20
106.7804378707
 30
0.0
  0
SPLINE
  5
2D6
100
AcDbEntity
  8
0
100
AcDbSpline
 62
7
  6
CONTINUOUS
 70
0
 71
3
 72
12
 73
8
 74
0
 42
0.0000001
 43
0.0000001
 44
0.0000000001
 40
0.0
 40
0.0
 40
0.0
 40
0.0
 40
0.2895806991
 40
0.5486339526
 40
0.7816363052
 40
0.891837967
 40
1.0
 40
1.0
 40
1.0
 40
1.0
 10
156.7510835299
 20
121.1372232206
 30
0.0
 10
156.9705515523
 20
121.263932386
 30
0.0
 10
157.4070400439
 20
121.4716019768
 30
0.0
 10
158.0774514436
 20
121.6336876111
 30
0.0
 10
158.6127967719
 20
121.6195023232
 30
0.0
 10
158.9949818794
 20
121.5136411603
 30
0.0
 10
159.1690624313
 20
121.4321821173
 30
0.0
 10
159.2510368444
 20
121.3848552509
 30
0.0
  0
SPLINE
  5
2D7
100
AcDbEntity
  8
0
100
AcDbSpline
 62
7
  6
CONTINUOUS
 70
0
 71
3
 72
10
 73
6
 74
0
 42
0.0000001
 43
0.0000001
 44
0.0000000001
 40
0.0
 40
0.0
 40
0.0
 40
0.0
 40
0.5232856774
 40
0.7649792103
 40
1.0
 40
1.0
 40
1.0
 40
1.0
 10
161.3751979633
 20
78.5021673227
 30
0.0
 10
161.5075204967
 20
78.5312417381
 30
0.0
 10
161.7100358749
 20
78.5474087484
 30
0.0
 10
161.9645403694
 20
78.4927959437
 30
0.0
 10
162.0783762982
 20
78.4423275877
 30
0.0
 10
162.1310770435
 20
78.4119138397
 30
0.0
  0
SPLINE
  5
2D8
100
AcDbEntity
  8
0
100
AcDbSpline
 62
7
  6
CONTINUOUS
 70
0
 71
3
 72
17
 73
13
 74
0
 42
0.0000001
 43
0.0000001
 44
0.0000000001
 40
0.0
 40
0.0
 40
0.0
 40
0.0
 40
0.1286938287
 40
0.2702786484
 40
0.4174347437
 40
0.5617788623
 40
0.6954492664
 40
0.8127116048
 40
0.8646776308
 40
0.9125100673
 40
0.9571398924
 40
1.0
 40
1.0
 40
1.0
 40
1.0
 10
125.6597619576
 20
55.8541842045
 30
0.0
 10
125.6597619576
 20
56.0764277197
 30
0.0
 10
125.7219289015
 20
56.543710859
 30
0.0
 10
125.95400058
 20
57.2298064904
 30
0.0
 10
126.3115584281
 20
57.8907439174
 30
0.0
 10
126.7659049435
 20
58.4723200161
 30
0.0
 10
127.2799064629
 20
58.9275658851
 30
0.0
 10
127.7451598266
 20
59.1819120674
 30
0.0
 10
128.1090823491
 20
59.2787931593
 30
0.0
 10
128.3595625028
 20
59.2971611068
 30
0.0
 10
128.5928081328
 20
59.2630354528
 30
0.0
 10
128.7340956971
 20
59.2042804442
 30
0.0
 10
128.7982021573
 20
59.1672844262
 30
0.0
  0
SPLINE
  5
2D9
100
AcDbEntity
  8
0
100
AcDbSpline
 62
7
  6
CONTINUOUS
 70
0
 71
3
 72
17
 73
13
 74
0
 42
0.0000001
 43
0.0000001
 44
0.0000000001
 40
0.0
 40
0.0
 40
0.0
 40
0.0
 40
0.1286938287
 40
0.2702786484
 40
0.4174347437
 40
0.5617788623
 40
0.6954492664
 40
0.8127116048
 40
0.8646776308
 40
0.9125100673
 40
0.9571398924
 40
1.0
 40
1.0
 40
1.0
 40
1.0
 10
158.9926368439
 20
113.5887375615
 30
0.0
 10
158.9926368439
 20
113.8109810767
 30
0.0
 10
159.0548037877
 20
114.278264216
 30
0.0
 10
159.2868754662
 20
114.9643598474
 30
0.0
 10
159.6444333143
 20
115.6252972744
 30
0.0
 10
160.0987798297
 20
116.2068733731
 30
0.0
 10
160.6127813491
 20
116.6621192421
 30
0.0
 10
161.0780347128
 20
116.9164654244
 30
0.0
 10
161.4419572354
 20
117.0133465163
 30
0.0
 10
161.6924373891
 20
117.0317144638
 30
0.0
 10
161.925683019
 20
116.9975888098
 30
0.0
 10
162.0669705834
 20
116.9388338012
 30
0.0
 10
162.1310770435
 20
116.9018377832
 30
0.0
  0
SPLINE
  5
2DA
100
AcDbEntity
  8
0
100
AcDbSpline
 62
7
  6
CONTINUOUS
 70
0
 71
3
 72
17
 73
13
 74
0
 42
0.0000001
 43
0.0000001
 44
0.0000000001
 40
0.0
 40
0.0
 40
0.0
 40
0.0
 40
0.1286938287
 40
0.2702786484
 40
0.4174347437
 40
0.5617788623
 40
0.6954492664
 40
0.8127116048
 40
0.8646776308
 40
0.9125100673
 40
0.9571398924
 40
1.0
 40
1.0
 40
1.0
 40
1.0
 10
125.6597619576
 20
94.344108148
 30
0.0
 10
125.6597619576
 20
94.5663516632
 30
0.0
 10
125.7219289015
 20
95.0336348025
 30
0.0
 10
125.95400058
 20
95.7197304339
 30
0.0
 10
126.3115584281
 20
96.3806678609
 30
0.0
 10
126.7659049435
 20
96.9622439596
 30
0.0
 10
127.2799064629
 20
97.4174898286
 30
0.0
 10
127.7451598266
 20
97.6718360109
 30
0.0
 10
128.1090823491
 20
97.7687171028
 30
0.0
 10
128.3595625028
 20
97.7870850503
 30
0.0
 10
128.5928081328
 20
97.7529593963
 30
0.0
 10
128.7340956971
 20
97.6942043877
 30
0.0
 10
128.7982021573
 20
97.6572083697
 30
0.0
  0
SPLINE
  5
2DB
100
AcDbEntity
  8
0
100
AcDbSpline
 62
7
  6
CONTINUOUS
 70
0
 71
3
 72
12
 73
8
 74
0
 42
0.0000001
 43
0.0000001
 44
0.0000000001
 40
0.0
 40
0.0
 40
0.0
 40
0.0
 40
0.2895821567
 40
0.5486359363
 40
0.7816376878
 40
0.8918387163
 40
1.0
 40
1.0
 40
1.0
 40
1.0
 10
164.3878391218
 20
116.728135528
 30
0.0
 10
164.3878391218
 20
116.981566319
 30
0.0
 10
164.3494413876
 20
117.4634322193
 30
0.0
 10
164.1545980433
 20
118.125095925
 30
0.0
 10
163.8746275977
 20
118.5816426385
 30
0.0
 10
163.5918433618
 20
118.8597007103
 30
0.0
 10
163.434250342
 20
118.9697304517
 30
0.0
 10
163.3522732503
 20
119.0170588747
 30
0.0
  0
SPLINE
  5
2DC
100
AcDbEntity
  8
0
100
AcDbSpline
 62
7
  6
CONTINUOUS
 70
0
 71
3
 72
15
 73
11
 74
0
 42
0.0000001
 43
0.0000001
 44
0.0000000001
 40
0.0
 40
0.0
 40
0.0
 40
0.0
 40
0.1141543519
 40
0.237325601
 40
0.366974755
 40
0.4999984147
 40
0.6330222943
 40
0.7626720931
 40
0.8858443543
 40
1.0
 40
1.0
 40
1.0
 40
1.0
 10
160.8523199358
 20
72.0654885845
 30
0.0
 10
161.0943547127
 20
72.205226594
 30
0.0
 10
161.5724167316
 20
72.5403446894
 30
0.0
 10
162.2302039662
 20
73.1557580256
 30
0.0
 10
162.8363904503
 20
73.8832225093
 30
0.0
 10
163.3681438475
 20
74.6954486189
 30
0.0
 10
163.8056720289
 20
75.5620771827
 30
0.0
 10
164.1325793691
 20
76.4507879643
 30
0.0
 10
164.336648732
 20
77.3281625911
 30
0.0
 10
164.3878391218
 20
77.9097410018
 30
0.0
 10
164.3878391218
 20
78.1892214395
 30
0.0
  0
SPLINE
  5
2DD
100
AcDbEntity
  8
0
100
AcDbSpline
 62
7
  6
CONTINUOUS
 70
0
 71
3
 72
25
 73
21
 74
0
 42
0.0000001
 43
0.0000001
 44
0.0000000001
 40
0.0
 40
0.0
 40
0.0
 40
0.0
 40
0.0213320791
 40
0.0428926617
 40
0.0648979477
 40
0.0875428516
 40
0.1353180106
 40
0.1872190276
 40
0.2436567825
 40
0.304604725
 40
0.3696925383
 40
0.4382898856
 40
0.5095763441
 40
0.5826005951
 40
0.656332067
 40
0.7297091863
 40
0.8016853277
 40
0.8712781831
 40
0.9376162149
 40
1.0
 40
1.0
 40
1.0
 40
1.0
 10
131.6648987446
 20
64.1321680648
 30
0.0
 10
131.3577529803
 20
64.3094952914
 30
0.0
 10
130.7623155279
 20
64.7060611395
 30
0.0
 10
129.9451884362
 20
65.4147407948
 30
0.0
 10
129.2061629387
 20
66.2342484244
 30
0.0
 10
128.3151919146
 20
67.4898747852
 30
0.0
 10
127.423178378
 20
69.334861303
 30
0.0
 10
126.7432610051
 20
71.8520883272
 30
0.0
 10
126.4402454968
 20
74.6601159202
 30
0.0
 10
126.5176586479
 20
77.7004961922
 30
0.0
 10
126.9720449737
 20
80.9107163464
 30
0.0
 10
127.793289945
 20
84.2236269743
 30
0.0
 10
128.9637795394
 20
87.5693468129
 30
0.0
 10
130.4585876649
 20
90.8768299559
 30
0.0
 10
132.2458432658
 20
94.0756113359
 30
0.0
 10
134.2874370643
 20
97.0974519699
 30
0.0
 10
136.5397903367
 20
99.8779063693
 30
0.0
 10
138.955236538
 20
102.3578947093
 30
0.0
 10
141.4820969932
 20
104.4844382606
 30
0.0
 10
143.266451706
 20
105.6768729924
 30
0.0
 10
144.1646693775
 20
106.1954561113
 30
0.0
  0
SPLINE
  5
2DE
100
AcDbEntity
  8
0
100
AcDbSpline
 62
7
  6
CONTINUOUS
 70
0
 71
3
 72
25
 73
21
 74
0
 42
0.0000001
 43
0.0000001
 44
0.0000000001
 40
0.0
 40
0.0
 40
0.0
 40
0.0
 40
0.0623836167
 40
0.1287213509
 40
0.1983140001
 40
0.2702900758
 40
0.3436673578
 40
0.4173990717
 40
0.4904234985
 40
0.5617100966
 40
0.6303076041
 40
0.6953955537
 40
0.7563435331
 40
0.8127812253
 40
0.8646821605
 40
0.9124572692
 40
0.9351021548
 40
0.9571074167
 40
0.9786679641
 40
1.0
 40
1.0
 40
1.0
 40
1.0
 10
145.2960449378
 20
105.5422709041
 30
0.0
 10
144.3978296936
 20
105.0236891866
 30
0.0
 10
142.6134810487
 20
103.831259397
 30
0.0
 10
140.0866285167
 20
101.7047239033
 30
0.0
 10
137.6711865635
 20
99.2247447254
 30
0.0
 10
135.4188323425
 20
96.4442934254
 30
0.0
 10
133.3772329954
 20
93.422449735
 30
0.0
 10
131.5899710487
 20
90.2236608057
 30
0.0
 10
130.0951581189
 20
86.9161696459
 30
0.0
 10
128.9246655779
 20
83.5704424437
 30
0.0
 10
128.1034191283
 20
80.2575246866
 30
0.0
 10
127.6490330696
 20
77.0472988668
 30
0.0
 10
127.5716215331
 20
74.0069166885
 30
0.0
 10
127.874638914
 20
71.1988911153
 30
0.0
 10
128.5545572491
 20
68.6816677102
 30
0.0
 10
129.4465711112
 20
66.8366842175
 30
0.0
 10
130.3375416536
 20
65.5810594022
 30
0.0
 10
131.0765668971
 20
64.7615533051
 30
0.0
 10
131.8936928739
 20
64.0528749453
 30
0.0
 10
132.4891294999
 20
63.6563103055
 30
0.0
 10
132.7962744351
 20
63.478983081
 30
0.0
  0
SPLINE
  5
2DF
100
AcDbEntity
  8
0
100
AcDbSpline
 62
7
  6
CONTINUOUS
 70
0
 71
3
 72
11
 73
7
 74
0
 42
0.0000001
 43
0.0000001
 44
0.0000000001
 40
0.0
 40
0.0
 40
0.0
 40
0.0
 40
0.2177798312
 40
0.4509239181
 40
0.7102597115
 40
1.0
 40
1.0
 40
1.0
 40
1.0
 10
128.7982021573
 20
97.6572083697
 30
0.0
 10
128.8839753628
 20
97.6077084121
 30
0.0
 10
129.0444326271
 20
97.4727818031
 30
0.0
 10
129.2152605922
 20
97.193487631
 30
0.0
 10
129.3167580234
 20
96.8492671978
 30
0.0
 10
129.3367019111
 20
96.5987323244
 30
0.0
 10
129.3367019111
 20
96.4669777481
 30
0.0
  0
SPLINE
  5
2E0
100
AcDbEntity
  8
0
100
AcDbSpline
 62
7
  6
CONTINUOUS
 70
0
 71
3
 72
11
 73
7
 74
0
 42
0.0000001
 43
0.0000001
 44
0.0000000001
 40
0.0
 40
0.0
 40
0.0
 40
0.0
 40
0.2177798312
 40
0.4509239181
 40
0.7102597115
 40
1.0
 40
1.0
 40
1.0
 40
1.0
 10
162.1310770435
 20
116.9018377832
 30
0.0
 10
162.216850249
 20
116.8523378256
 30
0.0
 10
162.3773075133
 20
116.7174112166
 30
0.0
 10
162.5481354784
 20
116.4381170445
 30
0.0
 10
162.6496329096
 20
116.0938966113
 30
0.0
 10
162.6695767974
 20
115.8433617379
 30
0.0
 10
162.6695767974
 20
115.7116071616
 30
0.0
  0
SPLINE
  5
2E1
100
AcDbEntity
  8
0
100
AcDbSpline
 62
7
  6
CONTINUOUS
 70
0
 71
3
 72
17
 73
13
 74
0
 42
0.0000001
 43
0.0000001
 44
0.0000000001
 40
0.0
 40
0.0
 40
0.0
 40
0.0
 40
0.1286938287
 40
0.2702786484
 40
0.4174347437
 40
0.5617788623
 40
0.6954492664
 40
0.8127116048
 40
0.8646776308
 40
0.9125100673
 40
0.9571398924
 40
1.0
 40
1.0
 40
1.0
 40
1.0
 10
162.6695767974
 20
77.2216832181
 30
0.0
 10
162.6695767974
 20
76.9994397029
 30
0.0
 10
162.6074098536
 20
76.5321565636
 30
0.0
 10
162.3753381751
 20
75.8460609322
 30
0.0
 10
162.017780327
 20
75.1851235052
 30
0.0
 10
161.5634338116
 20
74.6035474066
 30
0.0
 10
161.0494322921
 20
74.1483015376
 30
0.0
 10
160.5841789285
 20
73.8939553552
 30
0.0
 10
160.2202564059
 20
73.7970742634
 30
0.0
 10
159.9697762522
 20
73.7787063158
 30
0.0
 10
159.7365306223
 20
73.8128319698
 30
0.0
 10
159.5952430579
 20
73.8715869784
 30
0.0
 10
159.5311365978
 20
73.9085829964
 30
0.0
  0
SPLINE
  5
2E2
100
AcDbEntity
  8
0
100
AcDbSpline
 62
7
  6
CONTINUOUS
 70
0
 71
3
 72
11
 73
7
 74
0
 42
0.0000001
 43
0.0000001
 44
0.0000000001
 40
0.0
 40
0.0
 40
0.0
 40
0.0
 40
0.2177798312
 40
0.4509239181
 40
0.7102597115
 40
1.0
 40
1.0
 40
1.0
 40
1.0
 10
128.7982021573
 20
59.1672844262
 30
0.0
 10
128.8839753628
 20
59.1177844686
 30
0.0
 10
129.0444326271
 20
58.9828578596
 30
0.0
 10
129.2152605922
 20
58.7035636875
 30
0.0
 10
129.3167580234
 20
58.3593432543
 30
0.0
 10
129.3367019111
 20
58.1088083809
 30
0.0
 10
129.3367019111
 20
57.9770538046
 30
0.0
  0
SPLINE
  5
2E3
100
AcDbEntity
  8
0
100
AcDbSpline
 62
7
  6
CONTINUOUS
 70
0
 71
3
 72
15
 73
11
 74
0
 42
0.0000001
 43
0.0000001
 44
0.0000000001
 40
0.0
 40
0.0
 40
0.0
 40
0.0
 40
0.1080128151
 40
0.2180620975
 40
0.3319994177
 40
0.4513585055
 40
0.577277768
 40
0.710492627
 40
0.8514154749
 40
1.0
 40
1.0
 40
1.0
 40
1.0
 10
157.7958154404
 20
106.7804378707
 30
0.0
 10
157.385940418
 20
107.01707534
 30
0.0
 10
156.5157095188
 20
107.4246024458
 30
0.0
 10
155.1076232674
 20
107.8139688932
 30
0.0
 10
153.6065665133
 20
107.9813630918
 30
0.0
 10
152.028527744
 20
107.9264642766
 30
0.0
 10
150.38873083
 20
107.6513840814
 30
0.0
 10
148.7023795194
 20
107.1597762476
 30
0.0
 10
146.9854709172
 20
106.4570307237
 30
0.0
 10
145.8598754426
 20
105.8677966547
 30
0.0
 10
145.2960449378
 20
105.5422709041
 30
0.0
  0
SPLINE
  5
2E4
100
AcDbEntity
  8
0
100
AcDbSpline
 62
7
  6
CONTINUOUS
 70
0
 71
3
 72
17
 73
13
 74
0
 42
0.0000001
 43
0.0000001
 44
0.0000000001
 40
0.0
 40
0.0
 40
0.0
 40
0.0
 40
0.1286938287
 40
0.2702786484
 40
0.4174347437
 40
0.5617788623
 40
0.6954492664
 40
0.8127116048
 40
0.8646776308
 40
0.9125100673
 40
0.9571398924
 40
1.0
 40
1.0
 40
1.0
 40
1.0
 10
129.3367019111
 20
57.9770538046
 30
0.0
 10
129.3367019111
 20
57.7548102894
 30
0.0
 10
129.2745349673
 20
57.2875271501
 30
0.0
 10
129.0424632888
 20
56.6014315187
 30
0.0
 10
128.6849054407
 20
55.9404940917
 30
0.0
 10
128.2305589253
 20
55.3589179931
 30
0.0
 10
127.7165574059
 20
54.9036721241
 30
0.0
 10
127.2513040422
 20
54.6493259417
 30
0.0
 10
126.8873815196
 20
54.5524448498
 30
0.0
 10
126.636901366
 20
54.5340769023
 30
0.0
 10
126.403655736
 20
54.5682025563
 30
0.0
 10
126.2623681717
 20
54.6269575649
 30
0.0
 10
126.1982617115
 20
54.6639535829
 30
0.0
  0
SPLINE
  5
2E5
100
AcDbEntity
  8
0
100
AcDbSpline
 62
7
  6
CONTINUOUS
 70
0
 71
3
 72
17
 73
13
 74
0
 42
0.0000001
 43
0.0000001
 44
0.0000000001
 40
0.0
 40
0.0
 40
0.0
 40
0.0
 40
0.1286938287
 40
0.2702786484
 40
0.4174347437
 40
0.5617788623
 40
0.6954492664
 40
0.8127116048
 40
0.8646776308
 40
0.9125100673
 40
0.9571398924
 40
1.0
 40
1.0
 40
1.0
 40
1.0
 10
162.6695767974
 20
115.7116071616
 30
0.0
 10
162.6695767974
 20
115.4893636464
 30
0.0
 10
162.6074098536
 20
115.0220805071
 30
0.0
 10
162.3753381751
 20
114.3359848757
 30
0.0
 10
162.017780327
 20
113.6750474487
 30
0.0
 10
161.5634338116
 20
113.09347135
 30
0.0
 10
161.0494322921
 20
112.6382254811
 30
0.0
 10
160.5841789285
 20
112.3838792987
 30
0.0
 10
160.2202564059
 20
112.2869982068
 30
0.0
 10
159.9697762522
 20
112.2686302593
 30
0.0
 10
159.7365306223
 20
112.3027559133
 30
0.0
 10
159.5952430579
 20
112.3615109219
 30
0.0
 10
159.5311365978
 20
112.3985069399
 30
0.0
  0
SPLINE
  5
2E6
100
AcDbEntity
  8
0
100
AcDbSpline
 62
7
  6
CONTINUOUS
 70
0
 71
3
 72
12
 73
8
 74
0
 42
0.0000001
 43
0.0000001
 44
0.0000000001
 40
0.0
 40
0.0
 40
0.0
 40
0.0
 40
0.1081620389
 40
0.2183637051
 40
0.4513660653
 40
0.7104193096
 40
1.0
 40
1.0
 40
1.0
 40
1.0
 10
163.3522732503
 20
119.0170588747
 30
0.0
 10
163.2702988369
 20
119.0643857512
 30
0.0
 10
163.0962182703
 20
119.1458447869
 30
0.0
 10
162.7140331503
 20
119.2517059602
 30
0.0
 10
162.1786878165
 20
119.2658912267
 30
0.0
 10
161.5082764266
 20
119.1038055983
 30
0.0
 10
161.0717879517
 20
118.8961360061
 30
0.0
 10
160.8523199358
 20
118.7694268443
 30
0.0
  0
SPLINE
  5
2E7
100
AcDbEntity
  8
0
100
AcDbSpline
 62
7
  6
CONTINUOUS
 70
0
 71
3
 72
15
 73
11
 74
0
 42
0.0000001
 43
0.0000001
 44
0.0000000001
 40
0.0
 40
0.0
 40
0.0
 40
0.0
 40
0.1141543519
 40
0.237325601
 40
0.366974755
 40
0.4999984147
 40
0.6330222943
 40
0.7626720931
 40
0.8858443543
 40
1.0
 40
1.0
 40
1.0
 40
1.0
 10
127.4770188193
 20
99.5003027816
 30
0.0
 10
127.2349840423
 20
99.3605647721
 30
0.0
 10
126.7569220234
 20
99.0254466767
 30
0.0
 10
126.0991347888
 20
98.4100333405
 30
0.0
 10
125.4929483048
 20
97.6825688568
 30
0.0
 10
124.9611949076
 20
96.8703427472
 30
0.0
 10
124.5236667261
 20
96.0037141834
 30
0.0
 10
124.196759386
 20
95.1150034018
 30
0.0
 10
123.992690023
 20
94.2376287751
 30
0.0
 10
123.9414996332
 20
93.6560503643
 30
0.0
 10
123.9414996332
 20
93.3765699266
 30
0.0
  0
SPLINE
  5
2E8
100
AcDbEntity
  8
0
100
AcDbSpline
 62
7
  6
CONTINUOUS
 70
0
 71
3
 72
11
 73
7
 74
0
 42
0.0000001
 43
0.0000001
 44
0.0000000001
 40
0.0
 40
0.0
 40
0.0
 40
0.0
 40
0.2177798312
 40
0.4509239181
 40
0.7102597115
 40
1.0
 40
1.0
 40
1.0
 40
1.0
 10
162.1310770435
 20
78.4119138397
 30
0.0
 10
162.216850249
 20
78.3624138822
 30
0.0
 10
162.3773075133
 20
78.2274872731
 30
0.0
 10
162.5481354784
 20
77.948193101
 30
0.0
 10
162.6496329096
 20
77.6039726678
 30
0.0
 10
162.6695767974
 20
77.3534377944
 30
0.0
 10
162.6695767974
 20
77.2216832181
 30
0.0
  0
SPLINE
  5
2E9
100
AcDbEntity
  8
0
100
AcDbSpline
 62
7
  6
CONTINUOUS
 70
0
 71
3
 72
12
 73
8
 74
0
 42
0.0000001
 43
0.0000001
 44
0.0000000001
 40
0.0
 40
0.0
 40
0.0
 40
0.0
 40
0.2895821567
 40
0.5486359363
 40
0.7816376878
 40
0.8918387163
 40
1.0
 40
1.0
 40
1.0
 40
1.0
 10
123.9414996332
 20
54.8376558381
 30
0.0
 10
123.9414996332
 20
54.5842250471
 30
0.0
 10
123.9798973674
 20
54.1023591468
 30
0.0
 10
124.1747407118
 20
53.4406954412
 30
0.0
 10
124.4547111574
 20
52.9841487276
 30
0.0
 10
124.7374953932
 20
52.7060906558
 30
0.0
 10
124.895088413
 20
52.5960609144
 30
0.0
 10
124.9770655048
 20
52.5487324915
 30
0.0
  0
SPLINE
  5
2EA
100
AcDbEntity
  8
0
100
AcDbSpline
 62
7
  6
CONTINUOUS
 70
0
 71
3
 72
17
 73
13
 74
0
 42
0.0000001
 43
0.0000001
 44
0.0000000001
 40
0.0
 40
0.0
 40
0.0
 40
0.0
 40
0.1286938287
 40
0.2702786484
 40
0.4174347437
 40
0.5617788623
 40
0.6954492664
 40
0.8127116048
 40
0.8646776308
 40
0.9125100673
 40
0.9571398924
 40
1.0
 40
1.0
 40
1.0
 40
1.0
 10
129.3367019111
 20
96.4669777481
 30
0.0
 10
129.3367019111
 20
96.2447342329
 30
0.0
 10
129.2745349673
 20
95.7774510936
 30
0.0
 10
129.0424632888
 20
95.0913554622
 30
0.0
 10
128.6849054407
 20
94.4304180352
 30
0.0
 10
128.2305589253
 20
93.8488419365
 30
0.0
 10
127.7165574059
 20
93.3935960676
 30
0.0
 10
127.2513040422
 20
93.1392498852
 30
0.0
 10
126.8873815196
 20
93.0423687933
 30
0.0
 10
126.636901366
 20
93.0240008458
 30
0.0
 10
126.403655736
 20
93.0581264998
 30
0.0
 10
126.2623681717
 20
93.1168815084
 30
0.0
 10
126.1982617115
 20
93.1538775264
 30
0.0
  0
SPLINE
  5
2EB
100
AcDbEntity
  8
0
100
AcDbSpline
 62
7
  6
CONTINUOUS
 70
0
 71
3
 72
15
 73
11
 74
0
 42
0.0000001
 43
0.0000001
 44
0.0000000001
 40
0.0
 40
0.0
 40
0.0
 40
0.0
 40
0.1485845154
 40
0.2895068088
 40
0.4227213715
 40
0.5486405566
 40
0.6679995612
 40
0.781937036
 40
0.8919867099
 40
1.0
 40
1.0
 40
1.0
 40
1.0
 10
144.1646693775
 20
106.1954561113
 30
0.0
 10
144.7284998658
 20
106.5209818524
 30
0.0
 10
145.8540928393
 20
107.1102154564
 30
0.0
 10
147.570998157
 20
107.8129593478
 30
0.0
 10
149.2573454268
 20
108.304566209
 30
0.0
 10
150.8971397653
 20
108.5796499738
 30
0.0
 10
152.475178711
 20
108.6345491683
 30
0.0
 10
153.9762373711
 20
108.4671555619
 30
0.0
 10
155.3843294087
 20
108.0777921288
 30
0.0
 10
156.2545628952
 20
107.6702613428
 30
0.0
 10
156.6644400104
 20
107.4336233014
 30
0.0
  0
SPLINE
  5
2EC
100
AcDbEntity
  8
0
100
AcDbSpline
 62
7
  6
CONTINUOUS
 70
0
 71
3
 72
13
 73
9
 74
0
 42
0.0000001
 43
0.0000001
 44
0.0000000001
 40
0.0
 40
0.0
 40
0.0
 40
0.0
 40
0.1142466307
 40
0.237544229
 40
0.5000005226
 40
0.7624565301
 40
0.8857537943
 40
1.0
 40
1.0
 40
1.0
 40
1.0
 10
110.4353700371
 20
178.9856559449
 30
0.0
 10
110.2901610756
 20
179.0694904814
 30
0.0
 10
109.9725805728
 20
179.2173841228
 30
0.0
 10
109.2687494801
 20
179.4311456296
 30
0.0
 10
108.3140463703
 20
179.5349871122
 30
0.0
 10
107.3593441785
 20
179.4311412154
 30
0.0
 10
106.6555157234
 20
179.2173762464
 30
0.0
 10
106.3379371667
 20
179.0694810185
 30
0.0
 10
106.19272935
 20
178.9856457469
 30
0.0
  0
SPLINE
  5
2ED
100
AcDbEntity
  8
0
100
AcDbSpline
 62
7
  6
CONTINUOUS
 70
0
 71
3
 72
11
 73
7
 74
0
 42
0.0000001
 43
0.0000001
 44
0.0000000001
 40
0.0
 40
0.0
 40
0.0
 40
0.0
 40
0.2177753738
 40
0.4509336309
 40
0.7102261693
 40
1.0
 40
1.0
 40
1.0
 40
1.0
 10
104.3944327024
 20
183.3130876168
 30
0.0
 10
104.3944327004
 20
183.4654384375
 30
0.0
 10
104.3381672248
 20
183.7830230486
 30
0.0
 10
104.0973985756
 20
184.2254117984
 30
0.0
 10
103.7169013636
 20
184.6254510843
 30
0.0
 10
103.3984278326
 20
184.8447062801
 30
0.0
 10
103.222866738
 20
184.9460642323
 30
0.0
  0
SPLINE
  5
2EE
100
AcDbEntity
  8
0
100
AcDbSpline
 62
7
  6
CONTINUOUS
 70
0
 71
3
 72
13
 73
9
 74
0
 42
0.0000001
 43
0.0000001
 44
0.0000000001
 40
0.0
 40
0.0
 40
0.0
 40
0.0
 40
0.1142483233
 40
0.2375469957
 40
0.4999994774
 40
0.7624522452
 40
0.8857512516
 40
1.0
 40
1.0
 40
1.0
 40
1.0
 10
74.9387780167
 20
151.8781911224
 30
0.0
 10
74.7935675918
 20
151.794354345
 30
0.0
 10
74.4759831616
 20
151.6464596465
 30
0.0
 10
73.7721543782
 20
151.432697544
 30
0.0
 10
72.8174609964
 20
151.3288566026
 30
0.0
 10
71.8627666965
 20
151.4326931298
 30
0.0
 10
71.1589352756
 20
151.6464517701
 30
0.0
 10
70.8413488994
 20
151.7943448821
 30
0.0
 10
70.6961373296
 20
151.8781809244
 30
0.0
  0
SPLINE
  5
2EF
100
AcDbEntity
  8
0
100
AcDbSpline
 62
7
  6
CONTINUOUS
 70
0
 71
3
 72
11
 73
7
 74
0
 42
0.0000001
 43
0.0000001
 44
0.0000000001
 40
0.0
 40
0.0
 40
0.0
 40
0.0
 40
0.2177796924
 40
0.4509239527
 40
0.7102593987
 40
1.0
 40
1.0
 40
1.0
 40
1.0
 10
34.0979542039
 20
182.4963748629
 30
0.0
 10
34.0979744113
 20
182.3821117619
 30
0.0
 10
34.0557190197
 20
182.1439400063
 30
0.0
 10
33.8751893775
 20
181.8121215808
 30
0.0
 10
33.5897893864
 20
181.512122735
 30
0.0
 10
33.3509538374
 20
181.3476617766
 30
0.0
 10
33.2193012891
 20
181.2716525961
 30
0.0
  0
SPLINE
  5
2F0
100
AcDbEntity
  8
0
100
AcDbSpline
 62
7
  6
CONTINUOUS
 70
0
 71
3
 72
15
 73
11
 74
0
 42
0.0000001
 43
0.0000001
 44
0.0000000001
 40
0.0
 40
0.0
 40
0.0
 40
0.0
 40
0.122681148
 40
0.2568619433
 40
0.397426131
 40
0.5383207409
 40
0.6734720337
 40
0.7372546802
 40
0.797743823
 40
1.0
 40
1.0
 40
1.0
 40
1.0
 10
68.7159139172
 20
201.7655091205
 30
0.0
 10
68.5234022192
 20
201.6543631032
 30
0.0
 10
68.0928787629
 20
201.4681524417
 30
0.0
 10
67.3895892394
 20
201.3008555753
 30
0.0
 10
66.6360944208
 20
201.2397144784
 30
0.0
 10
65.8801243085
 20
201.2889313809
 30
0.0
 10
65.2760977878
 20
201.4214628494
 30
0.0
 10
64.8330458336
 20
201.5824573177
 30
0.0
 10
64.3011284393
 20
201.8351662867
 30
0.0
 10
63.9005318539
 20
202.1565642649
 30
0.0
 10
63.7278524975
 20
202.4798120631
 30
0.0
  0
SPLINE
  5
2F1
100
AcDbEntity
  8
0
100
AcDbSpline
 62
7
  6
CONTINUOUS
 70
0
 71
3
 72
9
 73
5
 74
0
 42
0.0000001
 43
0.0000001
 44
0.0000000001
 40
0.0
 40
0.0
 40
0.0
 40
0.0
 40
0.5104125976
 40
1.0
 40
1.0
 40
1.0
 40
1.0
 10
63.7278524975
 20
202.4798120631
 30
0.0
 10
63.6852372088
 20
202.5595859198
 30
0.0
 10
63.6181403006
 20
202.7255774178
 30
0.0
 10
63.5946179938
 20
202.9034785482
 30
0.0
 10
63.5946026515
 20
202.9902313808
 30
0.0
  0
SPLINE
  5
2F2
100
AcDbEntity
  8
0
100
AcDbSpline
 62
7
  6
CONTINUOUS
 70
0
 71
3
 72
11
 73
7
 74
0
 42
0.0000001
 43
0.0000001
 44
0.0000000001
 40
0.0
 40
0.0
 40
0.0
 40
0.0
 40
0.2897781767
 40
0.5490726313
 40
0.7822276909
 40
1.0
 40
1.0
 40
1.0
 40
1.0
 10
106.1927470138
 20
177.6792944057
 30
0.0
 10
106.0610746529
 20
177.7553137589
 30
0.0
 10
105.8222191361
 20
177.9197588588
 30
0.0
 10
105.536847778
 20
178.2197904376
 30
0.0
 10
105.3562782641
 20
178.5515816305
 30
0.0
 10
105.3140805793
 20
178.7897657372
 30
0.0
 10
105.3140805778
 20
178.9040268673
 30
0.0
  0
SPLINE
  5
2F3
100
AcDbEntity
  8
0
100
AcDbSpline
 62
7
  6
CONTINUOUS
 70
0
 71
3
 72
11
 73
7
 74
0
 42
0.0000001
 43
0.0000001
 44
0.0000000001
 40
0.0
 40
0.0
 40
0.0
 40
0.0
 40
0.2214765155
 40
0.4601293302
 40
0.7194266925
 40
1.0
 40
1.0
 40
1.0
 40
1.0
 10
69.5276051741
 20
202.2110000156
 30
0.0
 10
69.4965666443
 20
202.2943767689
 30
0.0
 10
69.4114257137
 20
202.4603517466
 30
0.0
 10
69.2298906979
 20
202.6871823638
 30
0.0
 10
68.9951428791
 20
202.8956948751
 30
0.0
 10
68.8135028633
 20
203.015508534
 30
0.0
 10
68.7158962534
 20
203.0718604616
 30
0.0
  0
SPLINE
  5
2F4
100
AcDbEntity
  8
0
100
AcDbSpline
 62
7
  6
CONTINUOUS
 70
0
 71
3
 72
11
 73
7
 74
0
 42
0.0000001
 43
0.0000001
 44
0.0000000001
 40
0.0
 40
0.0
 40
0.0
 40
0.0
 40
0.2228964003
 40
0.4583021121
 40
0.7156030448
 40
1.0
 40
1.0
 40
1.0
 40
1.0
 10
112.0211432543
 20
176.4545213156
 30
0.0
 10
112.021143253
 20
176.5552262683
 30
0.0
 10
111.9888786872
 20
176.7634434476
 30
0.0
 10
111.848823671
 20
177.0589226061
 30
0.0
 10
111.6245086117
 20
177.3326694488
 30
0.0
 10
111.433703853
 20
177.4883583318
 30
0.0
 10
111.3281792528
 20
177.5616692892
 30
0.0
  0
SPLINE
  5
2F5
100
AcDbEntity
  8
0
100
AcDbSpline
 62
7
  6
CONTINUOUS
 70
0
 71
3
 72
11
 73
7
 74
0
 42
0.0000001
 43
0.0000001
 44
0.0000000001
 40
0.0
 40
0.0
 40
0.0
 40
0.0
 40
0.2177727701
 40
0.4509280213
 40
0.7102223029
 40
1.0
 40
1.0
 40
1.0
 40
1.0
 10
112.0211432543
 20
174.0050140642
 30
0.0
 10
112.0211432557
 20
173.8907541641
 30
0.0
 10
111.9789465345
 20
173.6525728056
 30
0.0
 10
111.7983809268
 20
173.3207848252
 30
0.0
 10
111.5130153645
 20
173.0207554704
 30
0.0
 10
111.2741643807
 20
172.8563109983
 30
0.0
 10
111.1424944821
 20
172.7802918007
 30
0.0
  0
SPLINE
  5
2F6
100
AcDbEntity
  8
0
100
AcDbSpline
 62
7
  6
CONTINUOUS
 70
0
 71
3
 72
13
 73
9
 74
0
 42
0.0000001
 43
0.0000001
 44
0.0000000001
 40
0.0
 40
0.0
 40
0.0
 40
0.0
 40
0.1142466307
 40
0.237544229
 40
0.5000005226
 40
0.7624565301
 40
0.8857537943
 40
1.0
 40
1.0
 40
1.0
 40
1.0
 10
68.7158962534
 20
203.0718604616
 30
0.0
 10
68.5706872919
 20
203.1556949981
 30
0.0
 10
68.2531067891
 20
203.3035886395
 30
0.0
 10
67.5492756965
 20
203.5173501463
 30
0.0
 10
66.5945725866
 20
203.6211916289
 30
0.0
 10
65.6398703949
 20
203.5173457321
 30
0.0
 10
64.9360419398
 20
203.3035807631
 30
0.0
 10
64.6184633831
 20
203.1556855352
 30
0.0
 10
64.4732555663
 20
203.0718502636
 30
0.0
  0
SPLINE
  5
2F7
100
AcDbEntity
  8
0
100
AcDbSpline
 62
7
  6
CONTINUOUS
 70
0
 71
3
 72
11
 73
7
 74
0
 42
0.0000001
 43
0.0000001
 44
0.0000000001
 40
0.0
 40
0.0
 40
0.0
 40
0.0
 40
0.2897733512
 40
0.5490657165
 40
0.7822241652
 40
1.0
 40
1.0
 40
1.0
 40
1.0
 10
70.6961167219
 20
158.4917892225
 30
0.0
 10
70.5644483632
 20
158.415770914
 30
0.0
 10
70.3255977478
 20
158.2513301449
 30
0.0
 10
70.0402306347
 20
157.9513029044
 30
0.0
 10
69.8596580541
 20
157.6195145545
 30
0.0
 10
69.8174599109
 20
157.3813288444
 30
0.0
 10
69.8174599124
 20
157.267066959
 30
0.0
  0
SPLINE
  5
2F8
100
AcDbEntity
  8
0
100
AcDbSpline
 62
7
  6
CONTINUOUS
 70
0
 71
3
 72
11
 73
7
 74
0
 42
0.0000001
 43
0.0000001
 44
0.0000000001
 40
0.0
 40
0.0
 40
0.0
 40
0.0
 40
0.2897733512
 40
0.5490657165
 40
0.7822241652
 40
1.0
 40
1.0
 40
1.0
 40
1.0
 10
28.9766429382
 20
182.5779937392
 30
0.0
 10
28.8449745795
 20
182.5019754307
 30
0.0
 10
28.6061239642
 20
182.3375346616
 30
0.0
 10
28.320756851
 20
182.0375074211
 30
0.0
 10
28.1401842705
 20
181.7057190712
 30
0.0
 10
28.0979861272
 20
181.4675333611
 30
0.0
 10
28.0979861287
 20
181.3532714757
 30
0.0
  0
SPLINE
  5
2F9
100
AcDbEntity
  8
0
100
AcDbSpline
 62
7
  6
CONTINUOUS
 70
0
 71
3
 72
11
 73
7
 74
0
 42
0.0000001
 43
0.0000001
 44
0.0000000001
 40
0.0
 40
0.0
 40
0.0
 40
0.0
 40
0.2897733512
 40
0.5490657165
 40
0.7822241652
 40
1.0
 40
1.0
 40
1.0
 40
1.0
 10
97.5660124886
 20
184.9460506349
 30
0.0
 10
97.390454677
 20
184.8446928902
 30
0.0
 10
97.0719871899
 20
184.6254385314
 30
0.0
 10
96.6914977056
 20
184.2254022107
 30
0.0
 10
96.4507342649
 20
183.7830177442
 30
0.0
 10
96.394470074
 20
183.4654367974
 30
0.0
 10
96.3944700759
 20
183.3130876168
 30
0.0
  0
SPLINE
  5
2FA
100
AcDbEntity
  8
0
100
AcDbSpline
 62
7
  6
CONTINUOUS
 70
0
 71
3
 72
15
 73
11
 74
0
 42
0.0000001
 43
0.0000001
 44
0.0000000001
 40
0.0
 40
0.0
 40
0.0
 40
0.0
 40
0.1141447985
 40
0.2373324971
 40
0.3669747555
 40
0.5000005214
 40
0.6330262147
 40
0.7626682613
 40
0.8858556261
 40
1.0
 40
1.0
 40
1.0
 40
1.0
 10
103.222866738
 20
184.9460642323
 30
0.0
 10
103.0292547893
 20
185.0578436142
 30
0.0
 10
102.6058327231
 20
185.2549884243
 30
0.0
 10
101.9163594651
 20
185.4645898276
 30
0.0
 10
101.1698527214
 20
185.5935330147
 30
0.0
 10
100.3944348433
 20
185.6370879749
 30
0.0
 10
99.6190175851
 20
185.5935293344
 30
0.0
 10
98.8725126727
 20
185.4645826028
 30
0.0
 10
98.1830423831
 20
185.254977922
 30
0.0
 10
97.7596229109
 20
185.0578309971
 30
0.0
 10
97.5660124886
 20
184.9460506349
 30
0.0
  0
SPLINE
  5
2FB
100
AcDbEntity
  8
0
100
AcDbSpline
 62
7
  6
CONTINUOUS
 70
0
 71
3
 72
11
 73
7
 74
0
 42
0.0000001
 43
0.0000001
 44
0.0000000001
 40
0.0
 40
0.0
 40
0.0
 40
0.0
 40
0.2177753738
 40
0.4509336309
 40
0.7102261693
 40
1.0
 40
1.0
 40
1.0
 40
1.0
 10
111.3140445104
 20
177.7609234833
 30
0.0
 10
111.3140445089
 20
177.8751865988
 30
0.0
 10
111.2718454022
 20
178.1133750572
 30
0.0
 10
111.0912689153
 20
178.4451666195
 30
0.0
 10
110.8058960063
 20
178.7451960839
 30
0.0
 10
110.567040858
 20
178.9096374808
 30
0.0
 10
110.4353700371
 20
178.9856559449
 30
0.0
  0
SPLINE
  5
2FC
100
AcDbEntity
  8
0
100
AcDbSpline
 62
7
  6
CONTINUOUS
 70
0
 71
3
 72
11
 73
7
 74
0
 42
0.0000001
 43
0.0000001
 44
0.0000000001
 40
0.0
 40
0.0
 40
0.0
 40
0.0
 40
0.2177753738
 40
0.4509336309
 40
0.7102261693
 40
1.0
 40
1.0
 40
1.0
 40
1.0
 10
75.8174318822
 20
157.267066959
 30
0.0
 10
75.8174318808
 20
157.3813300745
 30
0.0
 10
75.775232774
 20
157.6195185328
 30
0.0
 10
75.5946562871
 20
157.9513100952
 30
0.0
 10
75.3092833781
 20
158.2513395596
 30
0.0
 10
75.0704282299
 20
158.4157809565
 30
0.0
 10
74.938757409
 20
158.4917994206
 30
0.0
  0
SPLINE
  5
2FD
100
AcDbEntity
  8
0
100
AcDbSpline
 62
7
  6
CONTINUOUS
 70
0
 71
3
 72
13
 73
9
 74
0
 42
0.0000001
 43
0.0000001
 44
0.0000000001
 40
0.0
 40
0.0
 40
0.0
 40
0.0
 40
0.1142487484
 40
0.2375477548
 40
0.5000005226
 40
0.7624530043
 40
0.8857516767
 40
1.0
 40
1.0
 40
1.0
 40
1.0
 10
70.6961373296
 20
154.3276881758
 30
0.0
 10
70.8413488994
 20
154.2438521335
 30
0.0
 10
71.1589352756
 20
154.0959590215
 30
0.0
 10
71.8627666965
 20
153.8822003812
 30
0.0
 10
72.8174609964
 20
153.778363854
 30
0.0
 10
73.7721543782
 20
153.8822047953
 30
0.0
 10
74.4759831616
 20
154.0959668979
 30
0.0
 10
74.7935675918
 20
154.2438615963
 30
0.0
 10
74.9387780167
 20
154.3276983738
 30
0.0
  0
SPLINE
  5
2FE
100
AcDbEntity
  8
0
100
AcDbSpline
 62
7
  6
CONTINUOUS
 70
0
 71
3
 72
17
 73
13
 74
0
 42
0.0000001
 43
0.0000001
 44
0.0000000001
 40
0.0
 40
0.0
 40
0.0
 40
0.0
 40
0.1286923651
 40
0.2702770074
 40
0.417433908
 40
0.5617794078
 40
0.6954504941
 40
0.8127129393
 40
0.8646788001
 40
0.9125109544
 40
0.9571403961
 40
1.0
 40
1.0
 40
1.0
 40
1.0
 10
74.9387750728
 20
154.735940828
 30
0.0
 10
74.7166974916
 20
154.6077250421
 30
0.0
 10
74.2138950858
 20
154.4002623751
 30
0.0
 10
73.394418155
 20
154.2363404534
 30
0.0
 10
72.5276795913
 20
154.2123263687
 30
0.0
 10
71.6844027002
 20
154.3308141796
 30
0.0
 10
70.9329477433
 20
154.5817949469
 30
0.0
 10
70.4103705353
 20
154.8999655728
 30
0.0
 10
70.1036041857
 20
155.2077252672
 30
0.0
 10
69.940741829
 20
155.4474221258
 30
0.0
 10
69.8402776606
 20
155.700181702
 30
0.0
 10
69.8174789104
 20
155.8752609388
 30
0.0
 10
69.8174638071
 20
155.9606630884
 30
0.0
  0
SPLINE
  5
2FF
100
AcDbEntity
  8
0
100
AcDbSpline
 62
7
  6
CONTINUOUS
 70
0
 71
3
 72
13
 73
9
 74
0
 42
0.0000001
 43
0.0000001
 44
0.0000000001
 40
0.0
 40
0.0
 40
0.0
 40
0.0
 40
0.1142483233
 40
0.2375469957
 40
0.4999994774
 40
0.7624522452
 40
0.8857512516
 40
1.0
 40
1.0
 40
1.0
 40
1.0
 10
70.6961167219
 20
159.6348926065
 30
0.0
 10
70.8413271468
 20
159.718729384
 30
0.0
 10
71.158911577
 20
159.8666240825
 30
0.0
 10
71.8627403603
 20
160.080386185
 30
0.0
 10
72.8174337422
 20
160.1842271264
 30
0.0
 10
73.7721280421
 20
160.0803905991
 30
0.0
 10
74.475959463
 20
159.8666319588
 30
0.0
 10
74.7935458392
 20
159.7187388468
 30
0.0
 10
74.938757409
 20
159.6349028046
 30
0.0
  0
SPLINE
  5
300
100
AcDbEntity
  8
0
100
AcDbSpline
 62
7
  6
CONTINUOUS
 70
0
 71
3
 72
17
 73
13
 74
0
 42
0.0000001
 43
0.0000001
 44
0.0000000001
 40
0.0
 40
0.0
 40
0.0
 40
0.0
 40
0.1286923651
 40
0.2702770074
 40
0.417433908
 40
0.5617794078
 40
0.6954504941
 40
0.8127129393
 40
0.8646788001
 40
0.9125109544
 40
0.9571403961
 40
1.0
 40
1.0
 40
1.0
 40
1.0
 10
28.9766429382
 20
183.7210971232
 30
0.0
 10
29.1987205193
 20
183.8493129091
 30
0.0
 10
29.7015229252
 20
184.0567755762
 30
0.0
 10
30.5209998559
 20
184.2206974978
 30
0.0
 10
31.3877384196
 20
184.2447115826
 30
0.0
 10
32.2310153108
 20
184.1262237716
 30
0.0
 10
32.9824702677
 20
183.8752430044
 30
0.0
 10
33.5050474756
 20
183.5570723784
 30
0.0
 10
33.8118138252
 20
183.249312684
 30
0.0
 10
33.974676182
 20
183.0096158254
 30
0.0
 10
34.0751403504
 20
182.7568562492
 30
0.0
 10
34.0979391005
 20
182.5817770124
 30
0.0
 10
34.0979542039
 20
182.4963748629
 30
0.0
  0
SPLINE
  5
301
100
AcDbEntity
  8
0
100
AcDbSpline
 62
7
  6
CONTINUOUS
 70
0
 71
3
 72
11
 73
7
 74
0
 42
0.0000001
 43
0.0000001
 44
0.0000000001
 40
0.0
 40
0.0
 40
0.0
 40
0.0
 40
0.2177796924
 40
0.4509239527
 40
0.7102593987
 40
1.0
 40
1.0
 40
1.0
 40
1.0
 10
63.5946026515
 20
202.9902313808
 30
0.0
 10
63.5945824441
 20
203.1044944818
 30
0.0
 10
63.6368378357
 20
203.3426662373
 30
0.0
 10
63.8173674779
 20
203.6744846629
 30
0.0
 10
64.102767469
 20
203.9744835087
 30
0.0
 10
64.3416030181
 20
204.1389444671
 30
0.0
 10
64.4732555663
 20
204.2149536476
 30
0.0
  0
SPLINE
  5
302
100
AcDbEntity
  8
0
100
AcDbSpline
 62
7
  6
CONTINUOUS
 70
0
 71
3
 72
17
 73
13
 74
0
 42
0.0000001
 43
0.0000001
 44
0.0000000001
 40
0.0
 40
0.0
 40
0.0
 40
0.0
 40
0.1286902347
 40
0.2702748016
 40
0.4174293138
 40
0.5617764465
 40
0.6954484688
 40
0.8127147336
 40
0.8646780237
 40
0.9125120584
 40
0.9571415929
 40
1.0
 40
1.0
 40
1.0
 40
1.0
 10
103.2228902897
 20
178.8223661388
 30
0.0
 10
102.9267914254
 20
178.6514144002
 30
0.0
 10
102.2563911445
 20
178.3748063924
 30
0.0
 10
101.1637717121
 20
178.1562200834
 30
0.0
 10
100.0081217932
 20
178.1241945094
 30
0.0
 10
98.8837445029
 20
178.2821892585
 30
0.0
 10
97.8818190248
 20
178.616871175
 30
0.0
 10
97.1849639388
 20
179.0410144732
 30
0.0
 10
96.776029177
 20
179.4514493215
 30
0.0
 10
96.5587933835
 20
179.7709872233
 30
0.0
 10
96.4249038958
 20
180.1080304721
 30
0.0
 10
96.3944836053
 20
180.3414626808
 30
0.0
 10
96.3944809212
 20
180.4553291604
 30
0.0
  0
SPLINE
  5
303
100
AcDbEntity
  8
0
100
AcDbSpline
 62
7
  6
CONTINUOUS
 70
0
 71
3
 72
11
 73
7
 74
0
 42
0.0000001
 43
0.0000001
 44
0.0000000001
 40
0.0
 40
0.0
 40
0.0
 40
0.0
 40
0.2177753738
 40
0.4509336309
 40
0.7102261693
 40
1.0
 40
1.0
 40
1.0
 40
1.0
 10
96.3944700759
 20
183.3130876168
 30
0.0
 10
96.3944700779
 20
183.1607367962
 30
0.0
 10
96.4507355535
 20
182.8431521851
 30
0.0
 10
96.6915042027
 20
182.4007634353
 30
0.0
 10
97.0720014147
 20
182.0007241494
 30
0.0
 10
97.3904749457
 20
181.7814689535
 30
0.0
 10
97.5660360403
 20
181.6801110014
 30
0.0
  0
SPLINE
  5
304
100
AcDbEntity
  8
0
100
AcDbSpline
 62
7
  6
CONTINUOUS
 70
0
 71
3
 72
11
 73
7
 74
0
 42
0.0000001
 43
0.0000001
 44
0.0000000001
 40
0.0
 40
0.0
 40
0.0
 40
0.0
 40
0.2897776971
 40
0.5490719787
 40
0.7822272299
 40
1.0
 40
1.0
 40
1.0
 40
1.0
 10
111.1424944821
 20
175.229799052
 30
0.0
 10
111.2741643807
 20
175.3058182497
 30
0.0
 10
111.5130153645
 20
175.4702627218
 30
0.0
 10
111.7983809268
 20
175.7702920766
 30
0.0
 10
111.9789465345
 20
176.102080057
 30
0.0
 10
112.0211432557
 20
176.3402614155
 30
0.0
 10
112.0211432543
 20
176.4545213156
 30
0.0
  0
SPLINE
  5
305
100
AcDbEntity
  8
0
100
AcDbSpline
 62
7
  6
CONTINUOUS
 70
0
 71
3
 72
9
 73
5
 74
0
 42
0.0000001
 43
0.0000001
 44
0.0000000001
 40
0.0
 40
0.0
 40
0.0
 40
0.0
 40
0.2709897213
 40
1.0
 40
1.0
 40
1.0
 40
1.0
 10
64.4732555663
 20
203.0718502636
 30
0.0
 10
64.4068617039
 20
203.0335179781
 30
0.0
 10
64.1680386135
 20
202.8823850313
 30
0.0
 10
63.9531765808
 20
202.6879184884
 30
0.0
 10
63.831331846
 20
202.5215162742
 30
0.0
  0
SPLINE
  5
306
100
AcDbEntity
  8
0
100
AcDbSpline
 62
7
  6
CONTINUOUS
 70
0
 71
3
 72
9
 73
5
 74
0
 42
0.0000001
 43
0.0000001
 44
0.0000000001
 40
0.0
 40
0.0
 40
0.0
 40
0.0
 40
0.4750938762
 40
1.0
 40
1.0
 40
1.0
 40
1.0
 10
110.4353877009
 20
175.2297973524
 30
0.0
 10
110.1821201943
 20
175.0835741621
 30
0.0
 10
109.6021684459
 20
174.85601638
 30
0.0
 10
108.9905021132
 20
174.7567378611
 30
0.0
 10
108.6681509917
 20
174.734605807
 30
0.0
  0
SPLINE
  5
307
100
AcDbEntity
  8
0
100
AcDbSpline
 62
7
  6
CONTINUOUS
 70
0
 71
3
 72
13
 73
9
 74
0
 42
0.0000001
 43
0.0000001
 44
0.0000000001
 40
0.0
 40
0.0
 40
0.0
 40
0.0
 40
0.1142466307
 40
0.237544229
 40
0.5000005226
 40
0.7624565301
 40
0.8857537943
 40
1.0
 40
1.0
 40
1.0
 40
1.0
 10
74.938757409
 20
158.4917994206
 30
0.0
 10
74.7935484474
 20
158.575633957
 30
0.0
 10
74.4759679447
 20
158.7235275985
 30
0.0
 10
73.772136852
 20
158.9372891052
 30
0.0
 10
72.8174337422
 20
159.0411305878
 30
0.0
 10
71.8627315504
 20
158.9372846911
 30
0.0
 10
71.1589030953
 20
158.723519722
 30
0.0
 10
70.8413245386
 20
158.5756244942
 30
0.0
 10
70.6961167219
 20
158.4917892225
 30
0.0
  0
SPLINE
  5
308
100
AcDbEntity
  8
0
100
AcDbSpline
 62
7
  6
CONTINUOUS
 70
0
 71
3
 72
11
 73
7
 74
0
 42
0.0000001
 43
0.0000001
 44
0.0000000001
 40
0.0
 40
0.0
 40
0.0
 40
0.0
 40
0.2897733512
 40
0.5490657165
 40
0.7822241652
 40
1.0
 40
1.0
 40
1.0
 40
1.0
 10
74.9387750728
 20
156.0423446954
 30
0.0
 10
75.0704434314
 20
156.118363004
 30
0.0
 10
75.3092940468
 20
156.2828037731
 30
0.0
 10
75.59466116
 20
156.5828310136
 30
0.0
 10
75.7752337405
 20
156.9146193634
 30
0.0
 10
75.8174318837
 20
157.1528050736
 30
0.0
 10
75.8174318822
 20
157.267066959
 30
0.0
  0
SPLINE
  5
309
100
AcDbEntity
  8
0
100
AcDbSpline
 62
7
  6
CONTINUOUS
 70
0
 71
3
 72
13
 73
9
 74
0
 42
0.0000001
 43
0.0000001
 44
0.0000000001
 40
0.0
 40
0.0
 40
0.0
 40
0.0
 40
0.1142466307
 40
0.237544229
 40
0.5000005226
 40
0.7624565301
 40
0.8857537943
 40
1.0
 40
1.0
 40
1.0
 40
1.0
 10
70.6961343857
 20
156.0423344974
 30
0.0
 10
70.8413433472
 20
155.9584999609
 30
0.0
 10
71.1589238499
 20
155.8106063195
 30
0.0
 10
71.8627549426
 20
155.5968448127
 30
0.0
 10
72.8174580525
 20
155.4930033301
 30
0.0
 10
73.7721602442
 20
155.5968492269
 30
0.0
 10
74.4759886993
 20
155.8106141959
 30
0.0
 10
74.793567256
 20
155.9585094238
 30
0.0
 10
74.9387750728
 20
156.0423446954
 30
0.0
  0
SPLINE
  5
30A
100
AcDbEntity
  8
0
100
AcDbSpline
 62
7
  6
CONTINUOUS
 70
0
 71
3
 72
11
 73
7
 74
0
 42
0.0000001
 43
0.0000001
 44
0.0000000001
 40
0.0
 40
0.0
 40
0.0
 40
0.0
 40
0.2897733512
 40
0.5490657165
 40
0.7822241652
 40
1.0
 40
1.0
 40
1.0
 40
1.0
 10
110.4353877009
 20
176.5362012198
 30
0.0
 10
110.5670560596
 20
176.6122195283
 30
0.0
 10
110.8059066749
 20
176.7766602974
 30
0.0
 10
111.0912737881
 20
177.076687538
 30
0.0
 10
111.2718463686
 20
177.4084758878
 30
0.0
 10
111.3140445118
 20
177.6466615979
 30
0.0
 10
111.3140445104
 20
177.7609234833
 30
0.0
  0
SPLINE
  5
30B
100
AcDbEntity
  8
0
100
AcDbSpline
 62
7
  6
CONTINUOUS
 70
0
 71
3
 72
14
 73
10
 74
0
 42
0.0000001
 43
0.0000001
 44
0.0000000001
 40
0.0
 40
0.0
 40
0.0
 40
0.0
 40
0.3072080201
 40
0.4497478615
 40
0.5815297174
 40
0.701315719
 40
0.8092838373
 40
0.9074709308
 40
1.0
 40
1.0
 40
1.0
 40
1.0
 10
30.739872952
 20
178.3272366985
 30
0.0
 10
30.3906509966
 20
178.3514585679
 30
0.0
 10
29.8797903885
 20
178.4386544957
 30
0.0
 10
29.256431937
 20
178.6676718326
 30
0.0
 10
28.8587875023
 20
178.8801137882
 30
0.0
 10
28.5322170538
 20
179.1311477588
 30
0.0
 10
28.2872124928
 20
179.4144952861
 30
0.0
 10
28.1335117755
 20
179.7227999607
 30
0.0
 10
28.0980086698
 20
179.9414315102
 30
0.0
 10
28.0979900234
 20
180.0468676051
 30
0.0
  0
SPLINE
  5
30C
100
AcDbEntity
  8
0
100
AcDbSpline
 62
7
  6
CONTINUOUS
 70
0
 71
3
 72
9
 73
5
 74
0
 42
0.0000001
 43
0.0000001
 44
0.0000000001
 40
0.0
 40
0.0
 40
0.0
 40
0.0
 40
0.2270441754
 40
1.0
 40
1.0
 40
1.0
 40
1.0
 10
33.9397645129
 20
181.9083011571
 30
0.0
 10
33.9018896508
 20
181.9729609279
 30
0.0
 10
33.7106432441
 20
182.2435654512
 30
0.0
 10
33.4402200916
 20
182.4504490947
 30
0.0
 10
33.2192836253
 20
182.5780039373
 30
0.0
  0
SPLINE
  5
30D
100
AcDbEntity
  8
0
100
AcDbSpline
 62
7
  6
CONTINUOUS
 70
0
 71
3
 72
11
 73
7
 74
0
 42
0.0000001
 43
0.0000001
 44
0.0000000001
 40
0.0
 40
0.0
 40
0.0
 40
0.0
 40
0.2177753738
 40
0.4509336309
 40
0.7102261693
 40
1.0
 40
1.0
 40
1.0
 40
1.0
 10
69.8174599124
 20
157.267066959
 30
0.0
 10
69.8174599139
 20
157.1528038435
 30
0.0
 10
69.8596590206
 20
156.9146153851
 30
0.0
 10
70.0402355075
 20
156.5828238228
 30
0.0
 10
70.3256084165
 20
156.2827943584
 30
0.0
 10
70.5644635647
 20
156.1183529615
 30
0.0
 10
70.6961343857
 20
156.0423344974
 30
0.0
  0
SPLINE
  5
30E
100
AcDbEntity
  8
0
100
AcDbSpline
 62
7
  6
CONTINUOUS
 70
0
 71
3
 72
13
 73
9
 74
0
 42
0.0000001
 43
0.0000001
 44
0.0000000001
 40
0.0
 40
0.0
 40
0.0
 40
0.0
 40
0.1142466307
 40
0.237544229
 40
0.5000005226
 40
0.7624565301
 40
0.8857537943
 40
1.0
 40
1.0
 40
1.0
 40
1.0
 10
33.2192836253
 20
182.5780039373
 30
0.0
 10
33.0740746637
 20
182.6618384737
 30
0.0
 10
32.756494161
 20
182.8097321152
 30
0.0
 10
32.0526630683
 20
183.0234936219
 30
0.0
 10
31.0979599585
 20
183.1273351045
 30
0.0
 10
30.1432577667
 20
183.0234892077
 30
0.0
 10
29.4394293116
 20
182.8097242387
 30
0.0
 10
29.1218507549
 20
182.6618290109
 30
0.0
 10
28.9766429382
 20
182.5779937392
 30
0.0
  0
SPLINE
  5
30F
100
AcDbEntity
  8
0
100
AcDbSpline
 62
7
  6
CONTINUOUS
 70
0
 71
3
 72
9
 73
5
 74
0
 42
0.0000001
 43
0.0000001
 44
0.0000000001
 40
0.0
 40
0.0
 40
0.0
 40
0.0
 40
0.4752390475
 40
1.0
 40
1.0
 40
1.0
 40
1.0
 10
28.976660602
 20
180.1285390141
 30
0.0
 10
29.2243456272
 20
179.9855412332
 30
0.0
 10
29.7904000129
 20
179.7614007621
 30
0.0
 10
30.3876465737
 20
179.660553777
 30
0.0
 10
30.7025214286
 20
179.636361393
 30
0.0
  0
SPLINE
  5
310
100
AcDbEntity
  8
0
100
AcDbSpline
 62
7
  6
CONTINUOUS
 70
0
 71
3
 72
11
 73
7
 74
0
 42
0.0000001
 43
0.0000001
 44
0.0000000001
 40
0.0
 40
0.0
 40
0.0
 40
0.0
 40
0.2177753738
 40
0.4509336309
 40
0.7102261693
 40
1.0
 40
1.0
 40
1.0
 40
1.0
 10
28.0979861287
 20
181.3532714757
 30
0.0
 10
28.0979861302
 20
181.2390083602
 30
0.0
 10
28.1401852369
 20
181.0008199018
 30
0.0
 10
28.3207617238
 20
180.6690283395
 30
0.0
 10
28.6061346328
 20
180.3689988751
 30
0.0
 10
28.8449897811
 20
180.2045574782
 30
0.0
 10
28.976660602
 20
180.1285390141
 30
0.0
  0
SPLINE
  5
311
100
AcDbEntity
  8
0
100
AcDbSpline
 62
7
  6
CONTINUOUS
 70
0
 71
3
 72
11
 73
7
 74
0
 42
0.0000001
 43
0.0000001
 44
0.0000000001
 40
0.0
 40
0.0
 40
0.0
 40
0.0
 40
0.2897733512
 40
0.5490657165
 40
0.7822241652
 40
1.0
 40
1.0
 40
1.0
 40
1.0
 10
103.2228902897
 20
181.6801245988
 30
0.0
 10
103.3984481013
 20
181.7814823435
 30
0.0
 10
103.7169155884
 20
182.0007367023
 30
0.0
 10
104.0974050727
 20
182.400773023
 30
0.0
 10
104.3381685134
 20
182.8431574895
 30
0.0
 10
104.3944327043
 20
183.1607384363
 30
0.0
 10
104.3944327024
 20
183.3130876168
 30
0.0
  0
SPLINE
  5
312
100
AcDbEntity
  8
0
100
AcDbSpline
 62
7
  6
CONTINUOUS
 70
0
 71
3
 72
15
 73
11
 74
0
 42
0.0000001
 43
0.0000001
 44
0.0000000001
 40
0.0
 40
0.0
 40
0.0
 40
0.0
 40
0.1141447985
 40
0.2373324971
 40
0.3669747555
 40
0.5000005214
 40
0.6330262147
 40
0.7626682613
 40
0.8858556261
 40
1.0
 40
1.0
 40
1.0
 40
1.0
 10
97.5660360403
 20
181.6801110014
 30
0.0
 10
97.759647989
 20
181.5683316194
 30
0.0
 10
98.1830700552
 20
181.3711868094
 30
0.0
 10
98.8725433132
 20
181.1615854061
 30
0.0
 10
99.6190500569
 20
181.032642219
 30
0.0
 10
100.394467935
 20
180.9890872588
 30
0.0
 10
101.1698851932
 20
181.0326458993
 30
0.0
 10
101.9163901056
 20
181.1615926309
 30
0.0
 10
102.6058603952
 20
181.3711973117
 30
0.0
 10
103.0292798674
 20
181.5683442366
 30
0.0
 10
103.2228902897
 20
181.6801245988
 30
0.0
  0
SPLINE
  5
313
100
AcDbEntity
  8
0
100
AcDbSpline
 62
7
  6
CONTINUOUS
 70
0
 71
3
 72
11
 73
7
 74
0
 42
0.0000001
 43
0.0000001
 44
0.0000000001
 40
0.0
 40
0.0
 40
0.0
 40
0.0
 40
0.2177727366
 40
0.450931526
 40
0.7102279717
 40
1.0
 40
1.0
 40
1.0
 40
1.0
 10
104.3944218571
 20
180.4553291533
 30
0.0
 10
104.3944254482
 20
180.3029825177
 30
0.0
 10
104.3381614243
 20
179.9854039506
 30
0.0
 10
104.0974044518
 20
179.5430167944
 30
0.0
 10
103.716914061
 20
179.1429793594
 30
0.0
 10
103.398446865
 20
178.9237231698
 30
0.0
 10
103.2228902897
 20
178.8223661388
 30
0.0
  0
SPLINE
  5
314
100
AcDbEntity
  8
0
100
AcDbSpline
 62
7
  6
CONTINUOUS
 70
0
 71
3
 72
9
 73
5
 74
0
 42
0.0000001
 43
0.0000001
 44
0.0000000001
 40
0.0
 40
0.0
 40
0.0
 40
0.0
 40
0.5247613351
 40
1.0
 40
1.0
 40
1.0
 40
1.0
 10
108.7095485122
 20
176.0440164189
 30
0.0
 10
109.0244201006
 20
176.068210999
 30
0.0
 10
109.6216596359
 20
176.1690611814
 30
0.0
 10
110.1877065093
 20
176.3932032707
 30
0.0
 10
110.4353877009
 20
176.5362012198
 30
0.0
  0
SPLINE
  5
315
100
AcDbEntity
  8
0
100
AcDbSpline
 62
7
  6
CONTINUOUS
 70
0
 71
3
 72
11
 73
7
 74
0
 42
0.0000001
 43
0.0000001
 44
0.0000000001
 40
0.0
 40
0.0
 40
0.0
 40
0.0
 40
0.2177796924
 40
0.4509239527
 40
0.7102593987
 40
1.0
 40
1.0
 40
1.0
 40
1.0
 10
111.3140406157
 20
176.4545196191
 30
0.0
 10
111.3140608231
 20
176.3402565181
 30
0.0
 10
111.2718054315
 20
176.1020847626
 30
0.0
 10
111.0912757893
 20
175.770266337
 30
0.0
 10
110.8058757982
 20
175.4702674912
 30
0.0
 10
110.5670402492
 20
175.3058065328
 30
0.0
 10
110.4353877009
 20
175.2297973524
 30
0.0
  0
SPLINE
  5
316
100
AcDbEntity
  8
0
100
AcDbSpline
 62
7
  6
CONTINUOUS
 70
0
 71
3
 72
11
 73
7
 74
0
 42
0.0000001
 43
0.0000001
 44
0.0000000001
 40
0.0
 40
0.0
 40
0.0
 40
0.0
 40
0.2177727701
 40
0.4509280213
 40
0.7102223029
 40
1.0
 40
1.0
 40
1.0
 40
1.0
 10
75.817423845
 20
155.9606630916
 30
0.0
 10
75.8174238464
 20
155.8464031915
 30
0.0
 10
75.7752271252
 20
155.608221833
 30
0.0
 10
75.5946615175
 20
155.2764338525
 30
0.0
 10
75.3092959552
 20
154.9764044977
 30
0.0
 10
75.0704449714
 20
154.8119600257
 30
0.0
 10
74.9387750728
 20
154.735940828
 30
0.0
  0
SPLINE
  5
317
100
AcDbEntity
  8
0
100
AcDbSpline
 62
7
  6
CONTINUOUS
 70
0
 71
3
 72
11
 73
7
 74
0
 42
0.0000001
 43
0.0000001
 44
0.0000000001
 40
0.0
 40
0.0
 40
0.0
 40
0.0
 40
0.2177727701
 40
0.4509280213
 40
0.7102223029
 40
1.0
 40
1.0
 40
1.0
 40
1.0
 10
105.3140805778
 20
178.9040268673
 30
0.0
 10
105.3140805763
 20
179.0182867674
 30
0.0
 10
105.3562772976
 20
179.2564681259
 30
0.0
 10
105.5368429052
 20
179.5882561063
 30
0.0
 10
105.8222084676
 20
179.8882854611
 30
0.0
 10
106.0610594514
 20
180.0527299332
 30
0.0
 10
106.19272935
 20
180.1287491309
 30
0.0
  0
SPLINE
  5
318
100
AcDbEntity
  8
0
100
AcDbSpline
 62
7
  6
CONTINUOUS
 70
0
 71
3
 72
9
 73
5
 74
0
 42
0.0000001
 43
0.0000001
 44
0.0000000001
 40
0.0
 40
0.0
 40
0.0
 40
0.0
 40
0.2744293402
 40
1.0
 40
1.0
 40
1.0
 40
1.0
 10
106.19272935
 20
178.9856457469
 30
0.0
 10
106.1171665777
 20
178.9420198204
 30
0.0
 10
105.8498561304
 20
178.770881783
 30
0.0
 10
105.6129244078
 20
178.5427662216
 30
0.0
 10
105.4909864445
 20
178.346939065
 30
0.0
  0
SPLINE
  5
319
100
AcDbEntity
  8
0
100
AcDbSpline
 62
7
  6
CONTINUOUS
 70
0
 71
3
 72
11
 73
7
 74
0
 42
0.0000001
 43
0.0000001
 44
0.0000000001
 40
0.0
 40
0.0
 40
0.0
 40
0.0
 40
0.2177839237
 40
0.4509111717
 40
0.7102971901
 40
1.0
 40
1.0
 40
1.0
 40
1.0
 10
60.0037261741
 20
89.1036864122
 30
0.0
 10
60.1026828469
 20
89.046555093
 30
0.0
 10
60.3300510116
 20
88.9640433258
 30
0.0
 10
60.7077048806
 20
88.9544844304
 30
0.0
 10
61.1101949428
 20
89.0516821727
 30
0.0
 10
61.3720586349
 20
89.1762582814
 30
0.0
 10
61.5036932389
 20
89.2522571017
 30
0.0
  0
SPLINE
  5
31A
100
AcDbEntity
  8
0
100
AcDbSpline
 62
7
  6
CONTINUOUS
 70
0
 71
3
 72
11
 73
7
 74
0
 42
0.0000001
 43
0.0000001
 44
0.0000000001
 40
0.0
 40
0.0
 40
0.0
 40
0.0
 40
0.2177825102
 40
0.4509091639
 40
0.7102957096
 40
1.0
 40
1.0
 40
1.0
 40
1.0
 10
27.1231239548
 20
108.0868814974
 30
0.0
 10
27.0241640308
 20
108.1440147551
 30
0.0
 10
26.8390138244
 20
108.299668715
 30
0.0
 10
26.6418997474
 20
108.6219585505
 30
0.0
 10
26.5248256444
 20
109.0191406086
 30
0.0
 10
26.5017795079
 20
109.3082218574
 30
0.0
 10
26.5017795079
 20
109.4602269767
 30
0.0
  0
SPLINE
  5
31B
100
AcDbEntity
  8
0
100
AcDbSpline
 62
7
  6
CONTINUOUS
 70
0
 71
3
 72
13
 73
9
 74
0
 42
0.0000001
 43
0.0000001
 44
0.0000000001
 40
0.0
 40
0.0
 40
0.0
 40
0.0
 40
0.1142249338
 40
0.2375584468
 40
0.4999994088
 40
0.7624406902
 40
0.885774603
 40
1.0
 40
1.0
 40
1.0
 40
1.0
 10
74.9387780167
 20
128.7711727177
 30
0.0
 10
74.7935975922
 20
128.6873532608
 30
0.0
 10
74.4759812319
 20
128.5394923099
 30
0.0
 10
73.772177836
 20
128.3256574898
 30
0.0
 10
72.8174612573
 20
128.2218504815
 30
0.0
 10
71.8627436383
 20
128.3256529667
 30
0.0
 10
71.1589374146
 20
128.5394843878
 30
0.0
 10
70.8413189474
 20
128.6873437698
 30
0.0
 10
70.6961373296
 20
128.7711625196
 30
0.0
  0
SPLINE
  5
31C
100
AcDbEntity
  8
0
100
AcDbSpline
 62
7
  6
CONTINUOUS
 70
0
 71
3
 72
11
 73
7
 74
0
 42
0.0000001
 43
0.0000001
 44
0.0000000001
 40
0.0
 40
0.0
 40
0.0
 40
0.0
 40
0.2177821605
 40
0.4509085882
 40
0.7102951949
 40
1.0
 40
1.0
 40
1.0
 40
1.0
 10
112.021150337
 20
150.8979956595
 30
0.0
 10
112.021150305
 20
150.7837316489
 30
0.0
 10
111.9789246312
 20
150.545569463
 30
0.0
 10
111.7983748287
 20
150.2137327236
 30
0.0
 10
111.5129509131
 20
149.9137652443
 30
0.0
 10
111.2741303192
 20
149.7492729283
 30
0.0
 10
111.1424944821
 20
149.6732733959
 30
0.0
  0
SPLINE
  5
31D
100
AcDbEntity
  8
0
100
AcDbSpline
 62
7
  6
CONTINUOUS
 70
0
 71
3
 72
11
 73
7
 74
0
 42
0.0000001
 43
0.0000001
 44
0.0000000001
 40
0.0
 40
0.0
 40
0.0
 40
0.0
 40
0.2897042895
 40
0.5490907647
 40
0.7822174449
 40
1.0
 40
1.0
 40
1.0
 40
1.0
 10
59.3823817273
 20
90.4770318915
 30
0.0
 10
59.3823817273
 20
90.3250267722
 30
0.0
 10
59.4054278119
 20
90.0359455558
 30
0.0
 10
59.5225019447
 20
89.638763521
 30
0.0
 10
59.7196160149
 20
89.3164737047
 30
0.0
 10
59.9047662028
 20
89.1608196358
 30
0.0
 10
60.0037261741
 20
89.1036864122
 30
0.0
  0
SPLINE
  5
31E
100
AcDbEntity
  8
0
100
AcDbSpline
 62
7
  6
CONTINUOUS
 70
0
 71
3
 72
9
 73
5
 74
0
 42
0.0000001
 43
0.0000001
 44
0.0000000001
 40
0.0
 40
0.0
 40
0.0
 40
0.0
 40
0.2465708886
 40
1.0
 40
1.0
 40
1.0
 40
1.0
 10
71.7062128164
 20
151.4940981268
 30
0.0
 10
71.7492765736
 20
151.4841840212
 30
0.0
 10
71.9245112657
 20
151.4465445259
 30
0.0
 10
72.1019004495
 20
151.4190374404
 30
0.0
 10
72.2360611959
 20
151.4037498272
 30
0.0
  0
SPLINE
  5
31F
100
AcDbEntity
  8
0
100
AcDbSpline
 62
7
  6
CONTINUOUS
 70
0
 71
3
 72
9
 73
5
 74
0
 42
0.0000001
 43
0.0000001
 44
0.0000000001
 40
0.0
 40
0.0
 40
0.0
 40
0.0
 40
0.2532154778
 40
1.0
 40
1.0
 40
1.0
 40
1.0
 10
73.3988070321
 20
151.4037464706
 30
0.0
 10
73.443892334
 20
151.408883668
 30
0.0
 10
73.6216571426
 20
151.4315866227
 30
0.0
 10
73.7981965709
 20
151.4640595011
 30
0.0
 10
73.928611846
 20
151.4940813204
 30
0.0
  0
SPLINE
  5
320
100
AcDbEntity
  8
0
100
AcDbSpline
 62
7
  6
CONTINUOUS
 70
0
 71
3
 72
9
 73
5
 74
0
 42
0.0000001
 43
0.0000001
 44
0.0000000001
 40
0.0
 40
0.0
 40
0.0
 40
0.0
 40
0.2604112263
 40
1.0
 40
1.0
 40
1.0
 40
1.0
 10
111.8077549122
 20
173.3634508179
 30
0.0
 10
111.8284965893
 20
173.3934817335
 30
0.0
 10
111.9037635907
 20
173.5117070601
 30
0.0
 10
111.9599372371
 20
173.6425565789
 30
0.0
 10
111.9865123985
 20
173.7427480768
 30
0.0
  0
SPLINE
  5
321
100
AcDbEntity
  8
0
100
AcDbSpline
 62
7
  6
CONTINUOUS
 70
0
 71
3
 72
9
 73
5
 74
0
 42
0.0000001
 43
0.0000001
 44
0.0000000001
 40
0.0
 40
0.0
 40
0.0
 40
0.0
 40
0.2527278947
 40
1.0
 40
1.0
 40
1.0
 40
1.0
 10
111.9865123985
 20
173.7427480768
 30
0.0
 10
111.9922349909
 20
173.7643229262
 30
0.0
 10
112.012222444
 20
173.8503693939
 30
0.0
 10
112.0211503493
 20
173.939015099
 30
0.0
 10
112.021150337
 20
174.0050140642
 30
0.0
  0
ENDSEC
  0
SECTION
  2
OBJECTS
  0
DICTIONARY
  5
C
100
AcDbDictionary
280
0
281
1
  3
ACAD_GROUP
350
D
  3
ACAD_MLINESTYLE
350
17
  3
ACAD_LAYOUT
350
1A
  3
ACAD_PLOTSETTINGS
350
19
  3
ACAD_PLOTSTYLENAME
350
E
  0
DICTIONARY
  5
D
102
{ACAD_REACTORS
330
C
102
}
100
AcDbDictionary
280
0
281
1
  0
ACDBDICTIONARYWDFLT
  5
E
102
{ACAD_REACTORS
330
C
102
}
100
AcDbDictionary
281
1
  3
Normal
350
F
100
AcDbDictionaryWithDefault
340
F
  0
DICTIONARY
  5
17
102
{ACAD_REACTORS
330
C
102
}
100
AcDbDictionary
280
0
281
1
  3
Standard
350
18
  0
DICTIONARY
  5
19
102
{ACAD_REACTORS
330
C
102
}
100
AcDbDictionary
281
1
  0
DICTIONARY
  5
1A
102
{ACAD_REACTORS
330
C
102
}
100
AcDbDictionary
281
1
  3
Model
350
322
  3
Layout1
350
323
  0
ACDBPLACEHOLDER
  5
F
102
{ACAD_REACTORS
330
E
102
}
  0
MLINESTYLE
  5
18
102
{ACAD_REACTORS
330
17
102
}
100
AcDbMlineStyle
  2
STANDARD
 70
0
  3

 62
256
 51
90.0
 52
90.0
 71
2
 49
0.5
 62
256
  6
BYLAYER
 49
-0.5
 62
256
  6
BYLAYER
  0
LAYOUT
  5
322
102
{ACAD_REACTORS
330
1A
102
}
100
AcDbPlotSettings
  1

  2
none_device
  4

  6

 40
0.0
 41
0.0
 42
0.0
 43
0.0
 44
210.0
 45
297.0
 46
0.0
 47
0.0
 48
0.0
 49
0.0
140
0.0
141
0.0
142
1.0
143
1.0
 70
1024
 72
1
 73
0
 74
0
  7

 75
0
147
1.0
148
0.0
149
0.0
100
AcDbLayout
  1
Model
 70
0
 71
0
 10
0.0
 20
0.0
 11
210.0
 21
297.0
 12
0.0
 22
0.0
 32
0.0
 14
0.0
 24
0.0
 34
0.0
 15
0.0
 25
0.0
 35
0.0
146
0.0
 13
0.0
 23
0.0
 33
0.0
 16
1.0
 26
0.0
 36
0.0
 17
0.0
 27
1.0
 37
0.0
 76
0
330
210
345
0
346
0
  0
LAYOUT
  5
323
102
{ACAD_REACTORS
330
1A
102
}
100
AcDbPlotSettings
  1

  2
none_device
  4

  6

 40
0.0
 41
0.0
 42
0.0
 43
0.0
 44
210.0
 45
297.0
 46
0.0
 47
0.0
 48
0.0
 49
0.0
140
0.0
141
0.0
142
1.0
143
1.0
 70
0
 72
1
 73
0
 74
0
  7

 75
0
147
1.0
148
0.0
149
0.0
100
AcDbLayout
  1
Layout1
 70
0
 71
1
 10
0.0
 20
0.0
 11
210.0
 21
297.0
 12
0.0
 22
0.0
 32
0.0
 14
0.0
 24
0.0
 34
0.0
 15
0.0
 25
0.0
 35
0.0
146
0.0
 13
0.0
 23
0.0
 33
0.0
 16
1.0
 26
0.0
 36
0.0
 17
0.0
 27
1.0
 37
0.0
 76
0
330
211
345
0
346
0
  0
ENDSEC
  0
EOF
