999
DXF file: C:\Users\sesa63760\Dev\_Creo\CAD\MCADID0005856_3D-CAD\mcadid0005856_3d-simplified_3.dxf
999
Pro/ENGINEER 2019471 by Parametric Technology Corporation
  0
SECTION
  2
HEADER
  9
$ACADVER
  1
AC1024
  9
$DWGCODEPAGE
  3
ANSI_1252
  9
$EXTMAX
 10
61.7862977602
 20
87.3834782609
 30
0.0
  9
$EXTMIN
 10
0.0
 20
0.0
 30
0.0
  9
$LIMMIN
 10
0.0
 20
0.0
  9
$LIMMAX
 10
61.7862977602
 20
87.3834782609
  9
$VIEWCTR
 10
30.8931488801
 20
43.6917391304
  9
$VIEWSIZE
 40
87.3834782609
  9
$CLAYER
  8
0
  9
$LTSCALE
 40
5.6961082126
  9
$CELTYPE
  6
BYLAYER
  9
$DIMSCALE
 40
1.0
  9
$DIMASZ
 40
0.7355511638
  9
$DIMEXO
 40
1.0
  9
$DIMDLI
 40
3.9354929469
  9
$DIMEXE
 40
1.0
  9
$DIMCEN
 40
0.9320904348
  9
$DIMLFAC
 40
1.0
  9
$DIMBLK
  1
_FILLED
  9
$DIMALT
 70
0
  9
$DIMALTF
 40
0.0393700787
  9
$DIMTXT
 40
1.0297716293
  9
$DIMTOL
 70
1
  9
$DIMLIM
 70
0
  9
$DIMTFAC
 40
1.0
  9
$DIMTP
 40
0.01
  9
$DIMTM
 40
0.01
  9
$DIMGAP
 40
0.625
  9
$DIMDSEP
 70
46
  9
$AUNITS
 70
0
  9
$PDMODE
 70
3
  9
$PDSIZE
 40
0.3125
  9
$HANDSEED
  5
27E
  9
$TILEMODE
 70
1
  9
$MEASUREMENT
 70
1
  9
$INSUNITS
 70
4
  0
ENDSEC
  0
SECTION
  2
CLASSES
  0
CLASS
  1
ACDBDICTIONARYWDFLT
  2
AcDbDictionaryWithDefault
  3
AutoCAD 2000
 90
0
 91
1
280
0
281
0
  0
CLASS
  1
ACDBPLACEHOLDER
  2
AcDbPlaceHolder
  3
AutoCAD 2000
 90
0
 91
1
280
0
281
0
  0
CLASS
  1
LAYOUT
  2
AcDbLayout
  3
AutoCAD 2000
 90
0
 91
0
280
0
281
0
  0
ENDSEC
  0
SECTION
  2
TABLES
  0
TABLE
  2
VPORT
  5
8
100
AcDbSymbolTable
 70
2
  0
VPORT
  5
1F4
100
AcDbSymbolTableRecord
100
AcDbViewportTableRecord
  2
*ACTIVE
 70
0
 10
0.0
 20
0.0
 11
1.0
 21
1.0
 12
30.8931488801
 22
43.6917391304
 13
0.0
 23
0.0
 14
1.0
 24
1.0
 15
0.0
 25
0.0
 16
0.0
 26
0.0
 36
1.0
 17
0.0
 27
0.0
 37
0.0
 40
87.3834782609
 41
0.7070707071
 42
50.0
 43
0.0
 44
0.0
 50
0.0
 51
0.0
 71
0
 72
100
 73
1
 74
1
 75
0
 76
0
 77
0
 78
0
  0
ENDTAB
  0
TABLE
  2
LTYPE
  5
5
100
AcDbSymbolTable
 70
6
  0
LTYPE
  5
14
100
AcDbSymbolTableRecord
100
AcDbLinetypeTableRecord
  2
BYBLOCK
 70
0
  3

 72
65
 73
0
 40
0.0
  0
LTYPE
  5
15
100
AcDbSymbolTableRecord
100
AcDbLinetypeTableRecord
  2
BYLAYER
 70
0
  3

 72
65
 73
0
 40
0.0
  0
LTYPE
  5
16
100
AcDbSymbolTableRecord
100
AcDbLinetypeTableRecord
  2
CONTINUOUS
 70
64
  3
Solid line
 72
65
 73
0
 40
0.0
  0
LTYPE
  5
1F5
100
AcDbSymbolTableRecord
100
AcDbLinetypeTableRecord
  2
CENTER
 70
64
  3
____ _ ____ _ ____ _ ____ _ ____ _ ____ _ ____
 72
65
 73
4
 40
0.6
 49
0.375
 74
0
 49
-0.075
 74
0
 49
0.075
 74
0
 49
-0.075
 74
0
  0
LTYPE
  5
1F6
100
AcDbSymbolTableRecord
100
AcDbLinetypeTableRecord
  2
HIDDEN
 70
64
  3
- - - - - - - - - - - - - - - - - - - -
 72
65
 73
2
 40
0.2
 49
0.1
 74
0
 49
-0.1
 74
0
  0
LTYPE
  5
1F7
100
AcDbSymbolTableRecord
100
AcDbLinetypeTableRecord
  2
PHANTOM
 70
64
  3
_____ _ _ _____ _ _ _____ _ _ _____
 72
65
 73
6
 40
0.8
 49
0.45
 74
0
 49
-0.05
 74
0
 49
0.1
 74
0
 49
-0.05
 74
0
 49
0.1
 74
0
 49
-0.05
 74
0
  0
LTYPE
  5
1F8
100
AcDbSymbolTableRecord
100
AcDbLinetypeTableRecord
  2
DOT
 70
64
  3
. . . . . . . . . . . . . . . . . . . .
 72
65
 73
2
 40
0.2
 49
0.1
 74
0
 49
-0.1
 74
0
  0
LTYPE
  5
1F9
100
AcDbSymbolTableRecord
100
AcDbLinetypeTableRecord
  2
DASHED
 70
64
  3
- - - - - - - - - - - - - - - - - - - -
 72
65
 73
2
 40
0.2
 49
0.1
 74
0
 49
-0.1
 74
0
  0
ENDTAB
  0
TABLE
  2
LAYER
  5
2
100
AcDbSymbolTable
 70
36
  0
LAYER
  5
10
100
AcDbSymbolTableRecord
100
AcDbLayerTableRecord
  2
0
 70
0
 62
7
  6
CONTINUOUS
370
-3
390
F
  0
LAYER
  5
1FA
100
AcDbSymbolTableRecord
100
AcDbLayerTableRecord
  2
DEFAULT_1
 70
0
 62
7
  6
CENTER
370
-3
390
F
  0
LAYER
  5
1FB
100
AcDbSymbolTableRecord
100
AcDbLayerTableRecord
  2
DEFAULT_2
 70
0
 62
7
  6
HIDDEN
370
-3
390
F
  0
LAYER
  5
1FC
100
AcDbSymbolTableRecord
100
AcDbLayerTableRecord
  2
DEFAULT_3
 70
0
 62
7
  6
PHANTOM
370
-3
390
F
  0
LAYER
  5
1FD
100
AcDbSymbolTableRecord
100
AcDbLayerTableRecord
  2
00_COMPONENTS
 70
0
 62
7
  6
CONTINUOUS
370
-3
390
F
  0
LAYER
  5
1FE
100
AcDbSymbolTableRecord
100
AcDbLayerTableRecord
  2
01_1_DEFAULT_DATUMS
 70
0
 62
7
  6
CONTINUOUS
370
-3
390
F
  0
LAYER
  5
1FF
100
AcDbSymbolTableRecord
100
AcDbLayerTableRecord
  2
01_PLANES
 70
0
 62
7
  6
CONTINUOUS
370
-3
390
F
  0
LAYER
  5
200
100
AcDbSymbolTableRecord
100
AcDbLayerTableRecord
  2
02_COORD_SYS
 70
0
 62
7
  6
CONTINUOUS
370
-3
390
F
  0
LAYER
  5
201
100
AcDbSymbolTableRecord
100
AcDbLayerTableRecord
  2
03_AXES
 70
0
 62
7
  6
CONTINUOUS
370
-3
390
F
  0
LAYER
  5
202
100
AcDbSymbolTableRecord
100
AcDbLayerTableRecord
  2
04_POINTS
 70
0
 62
7
  6
CONTINUOUS
370
-3
390
F
  0
LAYER
  5
203
100
AcDbSymbolTableRecord
100
AcDbLayerTableRecord
  2
05_CURVES
 70
0
 62
7
  6
CONTINUOUS
370
-3
390
F
  0
LAYER
  5
204
100
AcDbSymbolTableRecord
100
AcDbLayerTableRecord
  2
06_SURFS
 70
0
 62
7
  6
CONTINUOUS
370
-3
390
F
  0
LAYER
  5
205
100
AcDbSymbolTableRecord
100
AcDbLayerTableRecord
  2
07_COSMETICS
 70
0
 62
7
  6
CONTINUOUS
370
-3
390
F
  0
LAYER
  5
206
100
AcDbSymbolTableRecord
100
AcDbLayerTableRecord
  2
10_NOTES
 70
0
 62
7
  6
CONTINUOUS
370
-3
390
F
  0
LAYER
  5
207
100
AcDbSymbolTableRecord
100
AcDbLayerTableRecord
  2
11_NOTES_PUB
 70
0
 62
7
  6
CONTINUOUS
370
-3
390
F
  0
LAYER
  5
208
100
AcDbSymbolTableRecord
100
AcDbLayerTableRecord
  2
13_REF_GTOL
 70
0
 62
7
  6
CONTINUOUS
370
-3
390
F
  0
LAYER
  5
209
100
AcDbSymbolTableRecord
100
AcDbLayerTableRecord
  2
16_MISC
 70
0
 62
7
  6
CONTINUOUS
370
-3
390
F
  0
LAYER
  5
20A
100
AcDbSymbolTableRecord
100
AcDbLayerTableRecord
  2
17_NO_PRINT
 70
0
 62
7
  6
CONTINUOUS
370
-3
390
F
  0
LAYER
  5
20B
100
AcDbSymbolTableRecord
100
AcDbLayerTableRecord
  2
18_DATUM_CAMS_JOINTS
 70
0
 62
7
  6
CONTINUOUS
370
-3
390
F
  0
LAYER
  5
20C
100
AcDbSymbolTableRecord
100
AcDbLayerTableRecord
  2
19_DATUM_FUNCTIONAL
 70
0
 62
7
  6
CONTINUOUS
370
-3
390
F
  0
LAYER
  5
20D
100
AcDbSymbolTableRecord
100
AcDbLayerTableRecord
  2
20_DATUM_KINEMATIC_SCHEME
 70
0
 62
7
  6
CONTINUOUS
370
-3
390
F
  0
ENDTAB
  0
TABLE
  2
STYLE
  5
3
100
AcDbSymbolTable
 70
1
  0
STYLE
  5
11
100
AcDbSymbolTableRecord
100
AcDbTextStyleTableRecord
  2
STANDARD
 70
0
 40
0.0
 41
1.0
 50
0.0
 71
0
 42
0.2
  3
ARIAL.TTF
  4

  0
STYLE
  5
20E
100
AcDbSymbolTableRecord
100
AcDbTextStyleTableRecord
  2
TEXTSTYLE_1
 70
0
 40
0.0
 41
0.8
 50
0.0
 71
0
 42
0.2
  3
gdt
  4

  0
ENDTAB
  0
TABLE
  2
VIEW
  5
6
100
AcDbSymbolTable
 70
0
  0
ENDTAB
  0
TABLE
  2
UCS
  5
7
100
AcDbSymbolTable
 70
0
  0
ENDTAB
  0
TABLE
  2
APPID
  5
9
100
AcDbSymbolTable
 70
1
  0
APPID
  5
20F
100
AcDbSymbolTableRecord
100
AcDbRegAppTableRecord
  2
ACAD
 70
0
  0
ENDTAB
  0
TABLE
  2
BLOCK_RECORD
  5
1
100
AcDbSymbolTable
 70
0
  0
BLOCK_RECORD
  5
210
100
AcDbSymbolTableRecord
100
AcDbBlockTableRecord
  2
*Model_Space
  0
BLOCK_RECORD
  5
211
100
AcDbSymbolTableRecord
100
AcDbBlockTableRecord
  2
*Paper_Space
  0
BLOCK_RECORD
  5
212
100
AcDbSymbolTableRecord
100
AcDbBlockTableRecord
  2
_FILLED
  0
ENDTAB
  0
TABLE
  2
DIMSTYLE
  5
A
100
AcDbSymbolTable
 70
1
100
AcDbDimStyleTable
 71
0
  0
DIMSTYLE
105
213
100
AcDbSymbolTableRecord
100
AcDbDimStyleTableRecord
  2
STANDARD
 70
0
  3

  4

 40
1.0
 41
0.7355511638
 42
1.0
 43
0.38
 44
1.0
 45
0.0
 46
0.0
 47
0.01
 48
0.01
140
1.0297716293
141
0.09
142
0.0
143
25.4
144
1.0
145
0.0
146
1.0
147
0.625
 71
1
 72
0
 73
0
 74
0
 75
0
 76
0
 77
1
 78
8
 79
2
170
0
171
1
172
0
173
0
174
0
175
0
176
0
177
0
178
0
270
2
179
2
271
2
272
2
273
2
274
2
275
0
280
0
281
0
282
0
283
1
284
8
285
0
286
0
287
3
288
0
340
11
278
46
341
212
342
212
343
212
344
212
  0
ENDTAB
  0
ENDSEC
  0
SECTION
  2
BLOCKS
  0
BLOCK
  5
20
100
AcDbEntity
  8
0
100
AcDbBlockBegin
  2
*Model_Space
 70
0
 10
0.0
 20
0.0
 30
0.0
  3
*Model_Space
  1

  0
ENDBLK
  5
21
100
AcDbEntity
  8
0
100
AcDbBlockEnd
  0
BLOCK
  5
1C
100
AcDbEntity
  8
0
100
AcDbBlockBegin
  2
*Paper_Space
 70
0
 10
0.0
 20
0.0
 30
0.0
  3
*Paper_Space
  1

  0
ENDBLK
  5
1D
100
AcDbEntity
  8
0
100
AcDbBlockEnd
  0
BLOCK
  5
214
100
AcDbEntity
  8
0
100
AcDbBlockBegin
  2
_FILLED
 70
64
 10
0.0
 20
0.0
  3
_FILLED
  1

  0
SOLID
  5
215
100
AcDbEntity
  8
0
  6
BYBLOCK
 62
0
100
AcDbTrace
 10
0.0
 20
0.0
 11
-1.0
 21
0.25
 12
-1.0
 22
-0.25
 13
-1.0
 23
-0.25
  0
ENDBLK
  5
216
100
AcDbEntity
  8
0
  6
BYBLOCK
 62
0
100
AcDbBlockEnd
  0
ENDSEC
  0
SECTION
  2
ENTITIES
  0
LINE
  5
217
100
AcDbEntity
  8
0
100
AcDbLine
 62
7
  6
BYLAYER
 10
39.7988056278
 20
7.0056521739
 11
23.6988141713
 21
7.0056521739
  0
LINE
  5
218
100
AcDbEntity
  8
0
100
AcDbLine
 62
7
  6
BYLAYER
 10
39.9988141713
 20
7.2056521739
 11
32.6557320287
 21
7.2056521739
  0
LINE
  5
219
100
AcDbEntity
  8
0
100
AcDbLine
 62
7
  6
BYLAYER
 10
30.841896314
 20
7.2056521739
 11
23.4988141713
 21
7.2056521739
  0
LINE
  5
21A
100
AcDbEntity
  8
0
100
AcDbLine
 62
7
  6
BYLAYER
 10
40.548779579
 20
7.4056521739
 11
22.9488141713
 21
7.4056521739
  0
LINE
  5
21B
100
AcDbEntity
  8
0
100
AcDbLine
 62
7
  6
BYLAYER
 10
40.7488141713
 20
7.6056521739
 11
22.7488141713
 21
7.6056521739
  0
LINE
  5
21C
100
AcDbEntity
  8
0
100
AcDbLine
 62
7
  6
BYLAYER
 10
43.7488141713
 20
12.0056521739
 11
19.7488141655
 21
12.0056521739
  0
LINE
  5
21D
100
AcDbEntity
  8
0
100
AcDbLine
 62
7
  6
BYLAYER
 10
22.9488141713
 20
7.4056521739
 11
22.7488141713
 21
7.6056521739
  0
LINE
  5
21E
100
AcDbEntity
  8
0
100
AcDbLine
 62
7
  6
BYLAYER
 10
19.7488141713
 20
16.0056521739
 11
43.7488141713
 21
16.0056521739
  0
LINE
  5
21F
100
AcDbEntity
  8
0
100
AcDbLine
 62
7
  6
BYLAYER
 10
43.7488141713
 20
20.0056521739
 11
19.7488141713
 21
20.0056521739
  0
LINE
  5
220
100
AcDbEntity
  8
0
100
AcDbLine
 62
7
  6
BYLAYER
 10
19.7488141655
 20
24.0056521739
 11
43.7488141713
 21
24.0056521739
  0
LINE
  5
221
100
AcDbEntity
  8
0
100
AcDbLine
 62
7
  6
BYLAYER
 10
23.7488141713
 20
58.8056521739
 11
22.7488141713
 21
57.8056521739
  0
LINE
  5
222
100
AcDbEntity
  8
0
100
AcDbLine
 62
7
  6
BYLAYER
 10
19.7488141713
 20
16.0056521749
 11
19.7488141713
 21
12.0056521729
  0
LINE
  5
223
100
AcDbEntity
  8
0
100
AcDbLine
 62
7
  6
BYLAYER
 10
19.7488141713
 20
20.0056521729
 11
19.7488141713
 21
24.0056521749
  0
LINE
  5
224
100
AcDbEntity
  8
0
100
AcDbLine
 62
7
  6
BYLAYER
 10
20.1818268732
 20
15.5733711382
 11
20.1818268732
 21
12.4379332096
  0
LINE
  5
225
100
AcDbEntity
  8
0
100
AcDbLine
 62
7
  6
BYLAYER
 10
20.1818268732
 20
20.4379331486
 11
20.1818268732
 21
23.5733711992
  0
LINE
  5
226
100
AcDbEntity
  8
0
100
AcDbLine
 62
7
  6
BYLAYER
 10
25.4457553949
 20
68.6403818094
 11
24.9988141713
 21
66.1056521739
  0
LINE
  5
227
100
AcDbEntity
  8
0
100
AcDbLine
 62
7
  6
BYLAYER
 10
22.7488141713
 20
7.6056521739
 11
22.7488141713
 21
12.0056521739
  0
LINE
  5
228
100
AcDbEntity
  8
0
100
AcDbLine
 62
7
  6
BYLAYER
 10
22.7488141713
 20
16.0056521739
 11
22.7488141713
 21
20.0056521739
  0
LINE
  5
229
100
AcDbEntity
  8
0
100
AcDbLine
 62
7
  6
BYLAYER
 10
22.7488141713
 20
24.0056521739
 11
22.7488141713
 21
57.8056521739
  0
LINE
  5
22A
100
AcDbEntity
  8
0
100
AcDbLine
 62
7
  6
BYLAYER
 10
23.4988141713
 20
7.2056521739
 11
23.4988141713
 21
7.4056521739
  0
LINE
  5
22B
100
AcDbEntity
  8
0
100
AcDbLine
 62
7
  6
BYLAYER
 10
23.7488141713
 20
58.8056521739
 11
23.7488141713
 21
61.7056521739
  0
LINE
  5
22C
100
AcDbEntity
  8
0
100
AcDbLine
 62
7
  6
BYLAYER
 10
23.7488141713
 20
61.8056521739
 11
23.7488141713
 21
65.4056521739
  0
LINE
  5
22D
100
AcDbEntity
  8
0
100
AcDbLine
 62
7
  6
BYLAYER
 10
23.7988141713
 20
61.7056521739
 11
23.7988141713
 21
61.8056521739
  0
LINE
  5
22E
100
AcDbEntity
  8
0
100
AcDbLine
 62
7
  6
BYLAYER
 10
24.9988141713
 20
65.6056521739
 11
24.9988141713
 21
66.1056521739
  0
LINE
  5
22F
100
AcDbEntity
  8
0
100
AcDbLine
 62
7
  6
BYLAYER
 10
30.841896314
 20
7.2056521739
 11
30.841896314
 21
7.4056521739
  0
LINE
  5
230
100
AcDbEntity
  8
0
100
AcDbLine
 62
7
  6
BYLAYER
 10
31.3158014694
 20
15.5733712
 11
31.3158014694
 21
12.4379331478
  0
LINE
  5
231
100
AcDbEntity
  8
0
100
AcDbLine
 62
7
  6
BYLAYER
 10
31.3158014694
 20
20.437933209
 11
31.3158014694
 21
23.5733711388
  0
LINE
  5
232
100
AcDbEntity
  8
0
100
AcDbLine
 62
7
  6
BYLAYER
 10
32.0086217925
 20
15.5477622172
 11
32.0086217925
 21
12.4635421299
  0
LINE
  5
233
100
AcDbEntity
  8
0
100
AcDbLine
 62
7
  6
BYLAYER
 10
32.0086217925
 20
20.4635421028
 11
32.0086217925
 21
23.547762245
  0
LINE
  5
234
100
AcDbEntity
  8
0
100
AcDbLine
 62
7
  6
BYLAYER
 10
33.3135452173
 20
70.6161193651
 11
33.2285956459
 21
68.9951849827
  0
LINE
  5
235
100
AcDbEntity
  8
0
100
AcDbLine
 62
7
  6
BYLAYER
 10
32.6557320287
 20
7.4056521739
 11
32.6557320287
 21
7.2056521739
  0
LINE
  5
236
100
AcDbEntity
  8
0
100
AcDbLine
 62
7
  6
BYLAYER
 10
33.7186626523
 20
80.8056521739
 11
33.7186626523
 21
70.8056521739
  0
LINE
  5
237
100
AcDbEntity
  8
0
100
AcDbLine
 62
7
  6
BYLAYER
 10
35.7186626523
 20
80.8056521739
 11
35.7186626523
 21
70.8056521739
  0
LINE
  5
238
100
AcDbEntity
  8
0
100
AcDbLine
 62
7
  6
BYLAYER
 10
36.1237800873
 20
70.6161193651
 11
36.2087296587
 21
68.9951849827
  0
LINE
  5
239
100
AcDbEntity
  8
0
100
AcDbLine
 62
7
  6
BYLAYER
 10
38.4988141713
 20
65.6056521739
 11
38.4988141713
 21
66.1056521739
  0
LINE
  5
23A
100
AcDbEntity
  8
0
100
AcDbLine
 62
7
  6
BYLAYER
 10
39.6988141713
 20
61.7056521739
 11
39.6988141713
 21
61.8056521739
  0
LINE
  5
23B
100
AcDbEntity
  8
0
100
AcDbLine
 62
7
  6
BYLAYER
 10
39.7488141713
 20
58.8056521739
 11
39.7488141713
 21
61.7056521739
  0
LINE
  5
23C
100
AcDbEntity
  8
0
100
AcDbLine
 62
7
  6
BYLAYER
 10
39.7488141713
 20
61.8056521739
 11
39.7488141713
 21
65.4056521739
  0
LINE
  5
23D
100
AcDbEntity
  8
0
100
AcDbLine
 62
7
  6
BYLAYER
 10
39.9988141713
 20
7.2056521739
 11
39.9988141713
 21
7.4056521739
  0
LINE
  5
23E
100
AcDbEntity
  8
0
100
AcDbLine
 62
7
  6
BYLAYER
 10
40.7488141713
 20
7.6056521739
 11
40.7488141713
 21
12.0056521739
  0
LINE
  5
23F
100
AcDbEntity
  8
0
100
AcDbLine
 62
7
  6
BYLAYER
 10
40.7488141713
 20
16.0056521739
 11
40.7488141713
 21
20.0056521739
  0
LINE
  5
240
100
AcDbEntity
  8
0
100
AcDbLine
 62
7
  6
BYLAYER
 10
40.7488141713
 20
24.0056521739
 11
40.7488141713
 21
57.8056521739
  0
LINE
  5
241
100
AcDbEntity
  8
0
100
AcDbLine
 62
7
  6
BYLAYER
 10
38.0518729478
 20
68.6403818094
 11
38.4988141713
 21
66.1056521739
  0
LINE
  5
242
100
AcDbEntity
  8
0
100
AcDbLine
 62
7
  6
BYLAYER
 10
43.4890065502
 20
15.5477622452
 11
43.4890065502
 21
12.4635421026
  0
LINE
  5
243
100
AcDbEntity
  8
0
100
AcDbLine
 62
7
  6
BYLAYER
 10
43.4890065502
 20
20.4635421305
 11
43.4890065502
 21
23.5477622181
  0
LINE
  5
244
100
AcDbEntity
  8
0
100
AcDbLine
 62
7
  6
BYLAYER
 10
43.7488141713
 20
12.0056521723
 11
43.7488141713
 21
16.0056521755
  0
LINE
  5
245
100
AcDbEntity
  8
0
100
AcDbLine
 62
7
  6
BYLAYER
 10
43.7488141713
 20
20.0056521723
 11
43.7488141713
 21
24.0056521755
  0
LINE
  5
246
100
AcDbEntity
  8
0
100
AcDbLine
 62
7
  6
BYLAYER
 10
22.7488141713
 20
57.8056521739
 11
40.7488141713
 21
57.8056521739
  0
LINE
  5
247
100
AcDbEntity
  8
0
100
AcDbLine
 62
7
  6
BYLAYER
 10
39.7488141713
 20
58.8056521739
 11
23.7488141713
 21
58.8056521739
  0
LINE
  5
248
100
AcDbEntity
  8
0
100
AcDbLine
 62
7
  6
BYLAYER
 10
23.7489271678
 20
61.7056521739
 11
39.7487011749
 21
61.7056521739
  0
LINE
  5
249
100
AcDbEntity
  8
0
100
AcDbLine
 62
7
  6
BYLAYER
 10
39.7486750728
 20
61.8056521739
 11
23.7488141713
 21
61.8056521739
  0
LINE
  5
24A
100
AcDbEntity
  8
0
100
AcDbLine
 62
7
  6
BYLAYER
 10
39.7488141713
 20
58.8056521739
 11
40.7488141713
 21
57.8056521739
  0
LINE
  5
24B
100
AcDbEntity
  8
0
100
AcDbLine
 62
7
  6
BYLAYER
 10
23.7488141713
 20
65.4056521739
 11
39.7488141713
 21
65.4056521739
  0
LINE
  5
24C
100
AcDbEntity
  8
0
100
AcDbLine
 62
7
  6
BYLAYER
 10
23.9489272883
 20
65.6056521739
 11
39.5487010543
 21
65.6056521739
  0
LINE
  5
24D
100
AcDbEntity
  8
0
100
AcDbLine
 62
7
  6
BYLAYER
 10
24.9988141713
 20
66.1056521739
 11
38.4988141713
 21
66.1056521739
  0
LINE
  5
24E
100
AcDbEntity
  8
0
100
AcDbLine
 62
7
  6
BYLAYER
 10
25.4457553949
 20
68.6403818094
 11
38.0518729478
 21
68.6403818094
  0
LINE
  5
24F
100
AcDbEntity
  8
0
100
AcDbLine
 62
7
  6
BYLAYER
 10
25.6427169455
 20
68.8056521739
 11
37.854903124
 21
68.8056521739
  0
LINE
  5
250
100
AcDbEntity
  8
0
100
AcDbLine
 62
7
  6
BYLAYER
 10
36.2087296587
 20
68.9951849827
 11
33.2285956459
 21
68.9951849827
  0
LINE
  5
251
100
AcDbEntity
  8
0
100
AcDbLine
 62
7
  6
BYLAYER
 10
33.3135452173
 20
70.6161193651
 11
36.1237800873
 21
70.6161193651
  0
LINE
  5
252
100
AcDbEntity
  8
0
100
AcDbLine
 62
7
  6
BYLAYER
 10
33.5132711242
 20
70.8056521739
 11
35.9240541633
 21
70.8056521739
  0
LINE
  5
253
100
AcDbEntity
  8
0
100
AcDbLine
 62
7
  6
BYLAYER
 10
40.5488141713
 20
7.4056521739
 11
40.7488141713
 21
7.6056521739
  0
LINE
  5
254
100
AcDbEntity
  8
0
100
AcDbLine
 62
7
  6
BYLAYER
 10
33.7186626523
 20
80.8056521739
 11
35.7186626523
 21
80.8056521739
  0
ARC
  5
255
100
AcDbEntity
  8
0
100
AcDbCircle
 62
7
  6
BYLAYER
 10
29.7785073067
 20
-27.4008503481
 40
50.9973973432
100
AcDbArc
 50
87.4936582217
 51
88.2725821876
  0
ARC
  5
256
100
AcDbEntity
  8
0
100
AcDbCircle
 62
7
  6
BYLAYER
 10
29.7785073067
 20
-35.4008503479
 40
50.997397343
100
AcDbArc
 50
87.4936582217
 51
88.2725821876
  0
ARC
  5
257
100
AcDbEntity
  8
0
100
AcDbCircle
 62
7
  6
BYLAYER
 10
29.7785073069
 20
71.4121546907
 40
50.997397338
100
AcDbArc
 50
271.7274178124
 51
272.5063417784
  0
ARC
  5
258
100
AcDbEntity
  8
0
100
AcDbCircle
 62
7
  6
BYLAYER
 10
29.7785073069
 20
63.4121546905
 40
50.9973973378
100
AcDbArc
 50
271.7274178124
 51
272.5063417784
  0
ARC
  5
259
100
AcDbEntity
  8
0
100
AcDbCircle
 62
7
  6
BYLAYER
 10
21.1451601763
 20
40.400211462
 40
19.985508913
100
AcDbArc
 50
265.9935987895
 51
267.2371817797
  0
ARC
  5
25A
100
AcDbEntity
  8
0
100
AcDbCircle
 62
7
  6
BYLAYER
 10
21.1451601759
 20
32.4002114618
 40
19.9855089128
100
AcDbArc
 50
265.9935987908
 51
267.2371817811
  0
ARC
  5
25B
100
AcDbEntity
  8
0
100
AcDbCircle
 62
7
  6
BYLAYER
 10
21.1451601763
 20
3.6110928864
 40
19.9855089125
100
AcDbArc
 50
92.7628182202
 51
94.0064012105
  0
ARC
  5
25C
100
AcDbEntity
  8
0
100
AcDbCircle
 62
7
  6
BYLAYER
 10
21.1451601758
 20
-4.3889071134
 40
19.9855089123
100
AcDbArc
 50
92.7628182189
 51
94.0064012092
  0
ARC
  5
25D
100
AcDbEntity
  8
0
100
AcDbCircle
 62
7
  6
BYLAYER
 10
44.3328646901
 20
8.3172527941
 40
7.2795853922
100
AcDbArc
 50
94.6018603489
 51
96.6567602308
  0
ARC
  5
25E
100
AcDbEntity
  8
0
100
AcDbCircle
 62
7
  6
BYLAYER
 10
44.3320154357
 20
27.685435571
 40
7.2709290499
100
AcDbArc
 50
263.3420164139
 51
265.399363002
  0
ARC
  5
25F
100
AcDbEntity
  8
0
100
AcDbCircle
 62
7
  6
BYLAYER
 10
44.3302314594
 20
16.3439678334
 40
7.2527452234
100
AcDbArc
 50
94.5980576665
 51
96.6605629176
  0
ARC
  5
260
100
AcDbEntity
  8
0
100
AcDbCircle
 62
7
  6
BYLAYER
 10
44.3292493674
 20
19.6573728534
 40
7.2427349021
100
AcDbArc
 50
263.3380116165
 51
265.4033678038
  0
ARC
  5
261
100
AcDbEntity
  8
0
100
AcDbCircle
 62
7
  6
BYLAYER
 10
39.7988141713
 20
7.2056521739
 40
0.2
100
AcDbArc
 50
270.0
 51
360.0
  0
ARC
  5
262
100
AcDbEntity
  8
0
100
AcDbCircle
 62
7
  6
BYLAYER
 10
23.6988141713
 20
7.2056521739
 40
0.2
100
AcDbArc
 50
180.0
 51
270.0
  0
ARC
  5
263
100
AcDbEntity
  8
0
100
AcDbCircle
 62
7
  6
BYLAYER
 10
23.9488141713
 20
65.4056521739
 40
0.2
100
AcDbArc
 50
90.0
 51
180.0
  0
ARC
  5
264
100
AcDbEntity
  8
0
100
AcDbCircle
 62
7
  6
BYLAYER
 10
39.5488141713
 20
65.4056521739
 40
0.2
100
AcDbArc
 50
0.0
 51
90.0
  0
ARC
  5
265
100
AcDbEntity
  8
0
100
AcDbCircle
 62
7
  6
BYLAYER
 10
25.6427169455
 20
68.6056521739
 40
0.2
100
AcDbArc
 50
90.0
 51
170.0
  0
ARC
  5
266
100
AcDbEntity
  8
0
100
AcDbCircle
 62
7
  6
BYLAYER
 10
33.028869739
 20
69.0056521739
 40
0.2
100
AcDbArc
 50
270.0
 51
357.0000000139
  0
ARC
  5
267
100
AcDbEntity
  8
0
100
AcDbCircle
 62
7
  6
BYLAYER
 10
36.4084555656
 20
69.0056521739
 40
0.2
100
AcDbArc
 50
182.9999999861
 51
270.0
  0
ARC
  5
268
100
AcDbEntity
  8
0
100
AcDbCircle
 62
7
  6
BYLAYER
 10
37.8549113972
 20
68.6056521739
 40
0.2
100
AcDbArc
 50
10.0
 51
90.0
  0
ARC
  5
269
100
AcDbEntity
  8
0
100
AcDbCircle
 62
7
  6
BYLAYER
 10
33.5132711242
 20
70.6056521739
 40
0.2
100
AcDbArc
 50
90.0
 51
177.0000000139
  0
ARC
  5
26A
100
AcDbEntity
  8
0
100
AcDbCircle
 62
7
  6
BYLAYER
 10
35.9240541804
 20
70.6056521739
 40
0.2
100
AcDbArc
 50
2.9999999861
 51
90.0
  0
SPLINE
  5
26B
100
AcDbEntity
  8
0
100
AcDbSpline
 62
7
  6
BYLAYER
 70
0
 71
3
 72
41
 73
37
 74
0
 42
0.0000001
 43
0.0000001
 44
0.0000000001
 40
0.0
 40
0.0
 40
0.0
 40
0.0
 40
0.0078204575
 40
0.0156512239
 40
0.0234684918
 40
0.031283822
 40
0.0390971817
 40
0.0469101037
 40
0.0625335923
 40
0.0937774231
 40
0.1250237625
 40
0.1562710736
 40
0.1875190451
 40
0.2500131711
 40
0.3125085245
 40
0.375004399
 40
0.4375006282
 40
0.4999969218
 40
0.5624932127
 40
0.6249893971
 40
0.6874853436
 40
0.7499807265
 40
0.8124747162
 40
0.8437226545
 40
0.8749702011
 40
0.8905944408
 40
0.9062186358
 40
0.9218427557
 40
0.9374666058
 40
0.9530899584
 40
0.9609036115
 40
0.9687190814
 40
0.9765303905
 40
0.984351661
 40
0.9921793437
 40
1.0
 40
1.0
 40
1.0
 40
1.0
 10
30.841896314
 20
7.2056521739
 30
0.0
 10
30.841896314
 20
7.2007732528
 30
0.0
 10
30.8455656096
 20
7.1910473617
 30
0.0
 10
30.8557876669
 20
7.1803998978
 30
0.0
 10
30.8678197805
 20
7.171972264
 30
0.0
 10
30.8805718459
 20
7.1647858511
 30
0.0
 10
30.8937943238
 20
7.1585111149
 30
0.0
 10
30.9118964392
 20
7.1512455782
 30
0.0
 10
30.9444074624
 20
7.1408207872
 30
0.0
 10
30.9916866039
 20
7.1288703095
 30
0.0
 10
31.0490856347
 20
7.1175784292
 30
0.0
 10
31.10689006
 20
7.1086214346
 30
0.0
 10
31.1842695455
 20
7.0989375297
 30
0.0
 10
31.2813172024
 20
7.0896435462
 30
0.0
 10
31.3980374626
 20
7.0818857947
 30
0.0
 10
31.5149047372
 20
7.0768479847
 30
0.0
 10
31.6318435648
 20
7.0740088879
 30
0.0
 10
31.7488125132
 20
7.0730537971
 30
0.0
 10
31.8657820981
 20
7.0739819204
 30
0.0
 10
31.9827195163
 20
7.0768857864
 30
0.0
 10
32.0995854597
 20
7.081948436
 30
0.0
 10
32.2163080433
 20
7.0896455441
 30
0.0
 10
32.3133665325
 20
7.0988591532
 30
0.0
 10
32.3907243851
 20
7.1087140119
 30
0.0
 10
32.4388938107
 20
7.1161891533
 30
0.0
 10
32.477237712
 20
7.1232684781
 30
0.0
 10
32.5058705117
 20
7.1292184769
 30
0.0
 10
32.5343442001
 20
7.1359026015
 30
0.0
 10
32.5625152236
 20
7.1437776824
 30
0.0
 10
32.5856382755
 20
7.1515186742
 30
0.0
 10
32.603797867
 20
7.1586258695
 30
0.0
 10
32.6171350337
 20
7.1646570311
 30
0.0
 10
32.6298758732
 20
7.1718878704
 30
0.0
 10
32.6418079521
 20
7.1804394563
 30
0.0
 10
32.6520765665
 20
7.1910367208
 30
0.0
 10
32.6557320287
 20
7.2007731287
 30
0.0
 10
32.6557320287
 20
7.2056521739
 30
0.0
  0
SPLINE
  5
26C
100
AcDbEntity
  8
0
100
AcDbSpline
 62
7
  6
BYLAYER
 70
0
 71
3
 72
10
 73
6
 74
0
 42
0.0000001
 43
0.0000001
 44
0.0000000001
 40
0.0
 40
0.0
 40
0.0
 40
0.0
 40
0.5003367696
 40
0.7502231702
 40
1.0
 40
1.0
 40
1.0
 40
1.0
 10
43.4890065502
 20
20.4635421305
 30
0.0
 10
42.5384191748
 20
20.3213393603
 30
0.0
 10
41.1062532538
 20
20.1478398557
 30
0.0
 10
39.1886508893
 20
20.0263421908
 30
0.0
 10
38.2286443259
 20
20.0056518211
 30
0.0
 10
37.7488140616
 20
20.0056532289
 30
0.0
  0
SPLINE
  5
26D
100
AcDbEntity
  8
0
100
AcDbSpline
 62
7
  6
BYLAYER
 70
0
 71
3
 72
10
 73
6
 74
0
 42
0.0000001
 43
0.0000001
 44
0.0000000001
 40
0.0
 40
0.0
 40
0.0
 40
0.0
 40
0.2497781181
 40
0.4996647315
 40
1.0
 40
1.0
 40
1.0
 40
1.0
 10
37.748814096
 20
24.0056511189
 30
0.0
 10
38.2286468008
 20
24.005652009
 30
0.0
 10
39.1886559655
 20
23.9849534056
 30
0.0
 10
41.1062585215
 20
23.8634639277
 30
0.0
 10
42.5384220948
 20
23.6899645514
 30
0.0
 10
43.4890065502
 20
23.5477622181
 30
0.0
  0
SPLINE
  5
26E
100
AcDbEntity
  8
0
100
AcDbSpline
 62
7
  6
BYLAYER
 70
0
 71
3
 72
10
 73
6
 74
0
 42
0.0000001
 43
0.0000001
 44
0.0000000001
 40
0.0
 40
0.0
 40
0.0
 40
0.0
 40
0.2497781181
 40
0.4996647315
 40
1.0
 40
1.0
 40
1.0
 40
1.0
 10
37.7488140616
 20
20.0056532289
 30
0.0
 10
37.2689813721
 20
20.0056523415
 30
0.0
 10
36.3089722381
 20
20.0263509373
 30
0.0
 10
34.391369745
 20
20.1478404371
 30
0.0
 10
32.9592062174
 20
20.3213398011
 30
0.0
 10
32.0086217925
 20
20.4635421299
 30
0.0
  0
SPLINE
  5
26F
100
AcDbEntity
  8
0
100
AcDbSpline
 62
7
  6
BYLAYER
 70
0
 71
3
 72
10
 73
6
 74
0
 42
0.0000001
 43
0.0000001
 44
0.0000000001
 40
0.0
 40
0.0
 40
0.0
 40
0.0
 40
0.500316752
 40
0.7502096458
 40
1.0
 40
1.0
 40
1.0
 40
1.0
 10
31.3158014694
 20
20.437933209
 30
0.0
 10
30.3936561621
 20
20.3032084263
 30
0.0
 10
29.0045278367
 20
20.1394503055
 30
0.0
 10
27.1449754548
 20
20.0250998822
 30
0.0
 10
26.214096039
 20
20.0056525178
 30
0.0
 10
25.7488140787
 20
20.0056532283
 30
0.0
  0
SPLINE
  5
270
100
AcDbEntity
  8
0
100
AcDbSpline
 62
7
  6
BYLAYER
 70
0
 71
3
 72
10
 73
6
 74
0
 42
0.0000001
 43
0.0000001
 44
0.0000000001
 40
0.0
 40
0.0
 40
0.0
 40
0.0
 40
0.5003367696
 40
0.7502231702
 40
1.0
 40
1.0
 40
1.0
 40
1.0
 10
32.0086217925
 20
23.5477622172
 30
0.0
 10
32.9592091374
 20
23.6899649828
 30
0.0
 10
34.3913750121
 20
23.8634644833
 30
0.0
 10
36.3089773146
 20
23.9849621504
 30
0.0
 10
37.268983847
 20
24.0056525241
 30
0.0
 10
37.748814096
 20
24.0056511189
 30
0.0
  0
SPLINE
  5
271
100
AcDbEntity
  8
0
100
AcDbSpline
 62
7
  6
BYLAYER
 70
0
 71
3
 72
10
 73
6
 74
0
 42
0.0000001
 43
0.0000001
 44
0.0000000001
 40
0.0
 40
0.0
 40
0.0
 40
0.0
 40
0.249790356
 40
0.4996832506
 40
1.0
 40
1.0
 40
1.0
 40
1.0
 10
25.7488140788
 20
24.0056511195
 30
0.0
 10
26.2140960424
 20
24.00565183
 30
0.0
 10
27.1449754631
 20
23.9862044675
 30
0.0
 10
29.004527845
 20
23.8718540428
 30
0.0
 10
30.3936561669
 20
23.7080959208
 30
0.0
 10
31.3158014694
 20
23.5733711388
 30
0.0
  0
SPLINE
  5
272
100
AcDbEntity
  8
0
100
AcDbSpline
 62
7
  6
BYLAYER
 70
0
 71
3
 72
10
 73
6
 74
0
 42
0.0000001
 43
0.0000001
 44
0.0000000001
 40
0.0
 40
0.0
 40
0.0
 40
0.0
 40
0.500316752
 40
0.7502096458
 40
1.0
 40
1.0
 40
1.0
 40
1.0
 10
20.1818268732
 20
23.5733711382
 30
0.0
 10
21.1039721501
 20
23.7080959164
 30
0.0
 10
22.4931004295
 20
23.8718540275
 30
0.0
 10
24.3526527487
 20
23.9862044699
 30
0.0
 10
25.2835321339
 20
24.0056518275
 30
0.0
 10
25.7488140788
 20
24.0056511195
 30
0.0
  0
SPLINE
  5
273
100
AcDbEntity
  8
0
100
AcDbSpline
 62
7
  6
BYLAYER
 70
0
 71
3
 72
10
 73
6
 74
0
 42
0.0000001
 43
0.0000001
 44
0.0000000001
 40
0.0
 40
0.0
 40
0.0
 40
0.0
 40
0.249790356
 40
0.4996832506
 40
1.0
 40
1.0
 40
1.0
 40
1.0
 10
25.7488140787
 20
20.0056532283
 30
0.0
 10
25.2835321305
 20
20.0056525204
 30
0.0
 10
24.3526527404
 20
20.025099876
 30
0.0
 10
22.4931004212
 20
20.1394503198
 30
0.0
 10
21.1039721453
 20
20.3032084321
 30
0.0
 10
20.1818268732
 20
20.4379332096
 30
0.0
  0
SPLINE
  5
274
100
AcDbEntity
  8
0
100
AcDbSpline
 62
7
  6
BYLAYER
 70
0
 71
3
 72
10
 73
6
 74
0
 42
0.0000001
 43
0.0000001
 44
0.0000000001
 40
0.0
 40
0.0
 40
0.0
 40
0.0
 40
0.5003367696
 40
0.7502231702
 40
1.0
 40
1.0
 40
1.0
 40
1.0
 10
32.0086217925
 20
15.5477622172
 30
0.0
 10
32.9592091374
 20
15.6899649828
 30
0.0
 10
34.3913750121
 20
15.8634644833
 30
0.0
 10
36.3089773146
 20
15.9849621504
 30
0.0
 10
37.268983847
 20
16.0056525241
 30
0.0
 10
37.748814096
 20
16.0056511189
 30
0.0
  0
SPLINE
  5
275
100
AcDbEntity
  8
0
100
AcDbSpline
 62
7
  6
BYLAYER
 70
0
 71
3
 72
10
 73
6
 74
0
 42
0.0000001
 43
0.0000001
 44
0.0000000001
 40
0.0
 40
0.0
 40
0.0
 40
0.0
 40
0.249790356
 40
0.4996832506
 40
1.0
 40
1.0
 40
1.0
 40
1.0
 10
25.7488140788
 20
16.0056511195
 30
0.0
 10
26.2140960424
 20
16.00565183
 30
0.0
 10
27.1449754631
 20
15.9862044675
 30
0.0
 10
29.004527845
 20
15.8718540428
 30
0.0
 10
30.3936561669
 20
15.7080959208
 30
0.0
 10
31.3158014694
 20
15.5733711388
 30
0.0
  0
SPLINE
  5
276
100
AcDbEntity
  8
0
100
AcDbSpline
 62
7
  6
BYLAYER
 70
0
 71
3
 72
10
 73
6
 74
0
 42
0.0000001
 43
0.0000001
 44
0.0000000001
 40
0.0
 40
0.0
 40
0.0
 40
0.0
 40
0.2497781181
 40
0.4996647315
 40
1.0
 40
1.0
 40
1.0
 40
1.0
 10
37.7488140616
 20
12.0056532289
 30
0.0
 10
37.2689813721
 20
12.0056523414
 30
0.0
 10
36.3089722381
 20
12.0263509374
 30
0.0
 10
34.391369745
 20
12.1478404371
 30
0.0
 10
32.9592062174
 20
12.3213398011
 30
0.0
 10
32.0086217925
 20
12.4635421299
 30
0.0
  0
SPLINE
  5
277
100
AcDbEntity
  8
0
100
AcDbSpline
 62
7
  6
BYLAYER
 70
0
 71
3
 72
10
 73
6
 74
0
 42
0.0000001
 43
0.0000001
 44
0.0000000001
 40
0.0
 40
0.0
 40
0.0
 40
0.0
 40
0.500316752
 40
0.7502096458
 40
1.0
 40
1.0
 40
1.0
 40
1.0
 10
31.3158014694
 20
12.437933209
 30
0.0
 10
30.3936561621
 20
12.3032084264
 30
0.0
 10
29.0045278367
 20
12.1394503055
 30
0.0
 10
27.1449754548
 20
12.0250998822
 30
0.0
 10
26.214096039
 20
12.0056525177
 30
0.0
 10
25.7488140787
 20
12.0056532283
 30
0.0
  0
SPLINE
  5
278
100
AcDbEntity
  8
0
100
AcDbSpline
 62
7
  6
BYLAYER
 70
0
 71
3
 72
10
 73
6
 74
0
 42
0.0000001
 43
0.0000001
 44
0.0000000001
 40
0.0
 40
0.0
 40
0.0
 40
0.0
 40
0.2497781181
 40
0.4996647315
 40
1.0
 40
1.0
 40
1.0
 40
1.0
 10
37.748814096
 20
16.0056511189
 30
0.0
 10
38.2286468008
 20
16.005652009
 30
0.0
 10
39.1886559655
 20
15.9849534056
 30
0.0
 10
41.1062585215
 20
15.8634639277
 30
0.0
 10
42.5384220948
 20
15.6899645514
 30
0.0
 10
43.4890065502
 20
15.5477622181
 30
0.0
  0
SPLINE
  5
279
100
AcDbEntity
  8
0
100
AcDbSpline
 62
7
  6
BYLAYER
 70
0
 71
3
 72
10
 73
6
 74
0
 42
0.0000001
 43
0.0000001
 44
0.0000000001
 40
0.0
 40
0.0
 40
0.0
 40
0.0
 40
0.500316752
 40
0.7502096458
 40
1.0
 40
1.0
 40
1.0
 40
1.0
 10
20.1818268732
 20
15.5733711382
 30
0.0
 10
21.1039721501
 20
15.7080959164
 30
0.0
 10
22.4931004295
 20
15.8718540275
 30
0.0
 10
24.3526527487
 20
15.9862044699
 30
0.0
 10
25.2835321339
 20
16.0056518275
 30
0.0
 10
25.7488140788
 20
16.0056511195
 30
0.0
  0
SPLINE
  5
27A
100
AcDbEntity
  8
0
100
AcDbSpline
 62
7
  6
BYLAYER
 70
0
 71
3
 72
10
 73
6
 74
0
 42
0.0000001
 43
0.0000001
 44
0.0000000001
 40
0.0
 40
0.0
 40
0.0
 40
0.0
 40
0.249790356
 40
0.4996832506
 40
1.0
 40
1.0
 40
1.0
 40
1.0
 10
25.7488140787
 20
12.0056532283
 30
0.0
 10
25.2835321305
 20
12.0056525204
 30
0.0
 10
24.3526527404
 20
12.025099876
 30
0.0
 10
22.4931004212
 20
12.1394503198
 30
0.0
 10
21.1039721453
 20
12.3032084321
 30
0.0
 10
20.1818268732
 20
12.4379332096
 30
0.0
  0
SPLINE
  5
27B
100
AcDbEntity
  8
0
100
AcDbSpline
 62
7
  6
BYLAYER
 70
0
 71
3
 72
10
 73
6
 74
0
 42
0.0000001
 43
0.0000001
 44
0.0000000001
 40
0.0
 40
0.0
 40
0.0
 40
0.0
 40
0.5003367696
 40
0.7502231702
 40
1.0
 40
1.0
 40
1.0
 40
1.0
 10
43.4890065502
 20
12.4635421305
 30
0.0
 10
42.5384191748
 20
12.3213393603
 30
0.0
 10
41.1062532538
 20
12.1478398557
 30
0.0
 10
39.1886508893
 20
12.0263421908
 30
0.0
 10
38.2286443259
 20
12.0056518211
 30
0.0
 10
37.7488140616
 20
12.0056532289
 30
0.0
  0
ENDSEC
  0
SECTION
  2
OBJECTS
  0
DICTIONARY
  5
C
100
AcDbDictionary
280
0
281
1
  3
ACAD_GROUP
350
D
  3
ACAD_MLINESTYLE
350
17
  3
ACAD_LAYOUT
350
1A
  3
ACAD_PLOTSETTINGS
350
19
  3
ACAD_PLOTSTYLENAME
350
E
  0
DICTIONARY
  5
D
102
{ACAD_REACTORS
330
C
102
}
100
AcDbDictionary
280
0
281
1
  0
ACDBDICTIONARYWDFLT
  5
E
102
{ACAD_REACTORS
330
C
102
}
100
AcDbDictionary
281
1
  3
Normal
350
F
100
AcDbDictionaryWithDefault
340
F
  0
DICTIONARY
  5
17
102
{ACAD_REACTORS
330
C
102
}
100
AcDbDictionary
280
0
281
1
  3
Standard
350
18
  0
DICTIONARY
  5
19
102
{ACAD_REACTORS
330
C
102
}
100
AcDbDictionary
281
1
  0
DICTIONARY
  5
1A
102
{ACAD_REACTORS
330
C
102
}
100
AcDbDictionary
281
1
  3
Model
350
27C
  3
Layout1
350
27D
  0
ACDBPLACEHOLDER
  5
F
102
{ACAD_REACTORS
330
E
102
}
  0
MLINESTYLE
  5
18
102
{ACAD_REACTORS
330
17
102
}
100
AcDbMlineStyle
  2
STANDARD
 70
0
  3

 62
256
 51
90.0
 52
90.0
 71
2
 49
0.5
 62
256
  6
BYLAYER
 49
-0.5
 62
256
  6
BYLAYER
  0
LAYOUT
  5
27C
102
{ACAD_REACTORS
330
1A
102
}
100
AcDbPlotSettings
  1

  2
none_device
  4

  6

 40
0.0
 41
0.0
 42
0.0
 43
0.0
 44
210.0
 45
297.0
 46
0.0
 47
0.0
 48
0.0
 49
0.0
140
0.0
141
0.0
142
1.0
143
1.0
 70
1024
 72
1
 73
0
 74
0
  7

 75
0
147
1.0
148
0.0
149
0.0
100
AcDbLayout
  1
Model
 70
0
 71
0
 10
0.0
 20
0.0
 11
210.0
 21
297.0
 12
0.0
 22
0.0
 32
0.0
 14
0.0
 24
0.0
 34
0.0
 15
0.0
 25
0.0
 35
0.0
146
0.0
 13
0.0
 23
0.0
 33
0.0
 16
1.0
 26
0.0
 36
0.0
 17
0.0
 27
1.0
 37
0.0
 76
0
330
210
345
0
346
0
  0
LAYOUT
  5
27D
102
{ACAD_REACTORS
330
1A
102
}
100
AcDbPlotSettings
  1

  2
none_device
  4

  6

 40
0.0
 41
0.0
 42
0.0
 43
0.0
 44
210.0
 45
297.0
 46
0.0
 47
0.0
 48
0.0
 49
0.0
140
0.0
141
0.0
142
1.0
143
1.0
 70
0
 72
1
 73
0
 74
0
  7

 75
0
147
1.0
148
0.0
149
0.0
100
AcDbLayout
  1
Layout1
 70
0
 71
1
 10
0.0
 20
0.0
 11
210.0
 21
297.0
 12
0.0
 22
0.0
 32
0.0
 14
0.0
 24
0.0
 34
0.0
 15
0.0
 25
0.0
 35
0.0
146
0.0
 13
0.0
 23
0.0
 33
0.0
 16
1.0
 26
0.0
 36
0.0
 17
0.0
 27
1.0
 37
0.0
 76
0
330
211
345
0
346
0
  0
ENDSEC
  0
EOF
