999
DXF file: C:\Users\sesa63760\Dev\_Creo\CAD\MCADID0005752_3D-CAD\mcadid0005752_3d-simplified_4.dxf
999
Pro/ENGINEER 2019471 by Parametric Technology Corporation
  0
SECTION
  2
HEADER
  9
$ACADVER
  1
AC1024
  9
$DWGCODEPAGE
  3
ANSI_1252
  9
$EXTMAX
 10
216.6493241615
 20
306.4040441712
 30
0.0
  9
$EXTMIN
 10
0.0
 20
0.0
 30
0.0
  9
$LIMMIN
 10
0.0
 20
0.0
  9
$LIMMAX
 10
216.6493241615
 20
306.4040441712
  9
$VIEWCTR
 10
108.3246620807
 20
153.2020220856
  9
$VIEWSIZE
 40
306.4040441712
  9
$CLAYER
  8
0
  9
$LTSCALE
 40
19.9730043608
  9
$CELTYPE
  6
BYLAYER
  9
$DIMSCALE
 40
1.0
  9
$DIMASZ
 40
2.579158621
  9
$DIMEXO
 40
1.0
  9
$DIMDLI
 40
13.7995302856
  9
$DIMEXE
 40
1.0
  9
$DIMCEN
 40
3.2683098045
  9
$DIMLFAC
 40
1.0
  9
$DIMBLK
  1
_FILLED
  9
$DIMALT
 70
0
  9
$DIMALTF
 40
0.0393700787
  9
$DIMTXT
 40
3.6108220694
  9
$DIMTOL
 70
1
  9
$DIMLIM
 70
0
  9
$DIMTFAC
 40
1.0
  9
$DIMTP
 40
0.01
  9
$DIMTM
 40
0.01
  9
$DIMGAP
 40
0.625
  9
$DIMDSEP
 70
46
  9
$AUNITS
 70
0
  9
$PDMODE
 70
3
  9
$PDSIZE
 40
0.3125
  9
$HANDSEED
  5
567
  9
$TILEMODE
 70
1
  9
$MEASUREMENT
 70
1
  9
$INSUNITS
 70
4
  0
ENDSEC
  0
SECTION
  2
CLASSES
  0
CLASS
  1
ACDBDICTIONARYWDFLT
  2
AcDbDictionaryWithDefault
  3
AutoCAD 2000
 90
0
 91
1
280
0
281
0
  0
CLASS
  1
ACDBPLACEHOLDER
  2
AcDbPlaceHolder
  3
AutoCAD 2000
 90
0
 91
1
280
0
281
0
  0
CLASS
  1
LAYOUT
  2
AcDbLayout
  3
AutoCAD 2000
 90
0
 91
0
280
0
281
0
  0
ENDSEC
  0
SECTION
  2
TABLES
  0
TABLE
  2
VPORT
  5
8
100
AcDbSymbolTable
 70
2
  0
VPORT
  5
1F4
100
AcDbSymbolTableRecord
100
AcDbViewportTableRecord
  2
*ACTIVE
 70
0
 10
0.0
 20
0.0
 11
1.0
 21
1.0
 12
108.3246620807
 22
153.2020220856
 13
0.0
 23
0.0
 14
1.0
 24
1.0
 15
0.0
 25
0.0
 16
0.0
 26
0.0
 36
1.0
 17
0.0
 27
0.0
 37
0.0
 40
306.4040441712
 41
0.7070707071
 42
50.0
 43
0.0
 44
0.0
 50
0.0
 51
0.0
 71
0
 72
100
 73
1
 74
1
 75
0
 76
0
 77
0
 78
0
  0
ENDTAB
  0
TABLE
  2
LTYPE
  5
5
100
AcDbSymbolTable
 70
6
  0
LTYPE
  5
14
100
AcDbSymbolTableRecord
100
AcDbLinetypeTableRecord
  2
BYBLOCK
 70
0
  3

 72
65
 73
0
 40
0.0
  0
LTYPE
  5
15
100
AcDbSymbolTableRecord
100
AcDbLinetypeTableRecord
  2
BYLAYER
 70
0
  3

 72
65
 73
0
 40
0.0
  0
LTYPE
  5
16
100
AcDbSymbolTableRecord
100
AcDbLinetypeTableRecord
  2
CONTINUOUS
 70
64
  3
Solid line
 72
65
 73
0
 40
0.0
  0
LTYPE
  5
1F5
100
AcDbSymbolTableRecord
100
AcDbLinetypeTableRecord
  2
CENTER
 70
64
  3
____ _ ____ _ ____ _ ____ _ ____ _ ____ _ ____
 72
65
 73
4
 40
0.6
 49
0.375
 74
0
 49
-0.075
 74
0
 49
0.075
 74
0
 49
-0.075
 74
0
  0
LTYPE
  5
1F6
100
AcDbSymbolTableRecord
100
AcDbLinetypeTableRecord
  2
HIDDEN
 70
64
  3
- - - - - - - - - - - - - - - - - - - -
 72
65
 73
2
 40
0.2
 49
0.1
 74
0
 49
-0.1
 74
0
  0
LTYPE
  5
1F7
100
AcDbSymbolTableRecord
100
AcDbLinetypeTableRecord
  2
PHANTOM
 70
64
  3
_____ _ _ _____ _ _ _____ _ _ _____
 72
65
 73
6
 40
0.8
 49
0.45
 74
0
 49
-0.05
 74
0
 49
0.1
 74
0
 49
-0.05
 74
0
 49
0.1
 74
0
 49
-0.05
 74
0
  0
LTYPE
  5
1F8
100
AcDbSymbolTableRecord
100
AcDbLinetypeTableRecord
  2
DOT
 70
64
  3
. . . . . . . . . . . . . . . . . . . .
 72
65
 73
2
 40
0.2
 49
0.1
 74
0
 49
-0.1
 74
0
  0
LTYPE
  5
1F9
100
AcDbSymbolTableRecord
100
AcDbLinetypeTableRecord
  2
DASHED
 70
64
  3
- - - - - - - - - - - - - - - - - - - -
 72
65
 73
2
 40
0.2
 49
0.1
 74
0
 49
-0.1
 74
0
  0
ENDTAB
  0
TABLE
  2
LAYER
  5
2
100
AcDbSymbolTable
 70
36
  0
LAYER
  5
10
100
AcDbSymbolTableRecord
100
AcDbLayerTableRecord
  2
0
 70
0
 62
7
  6
CONTINUOUS
370
-3
390
F
  0
LAYER
  5
1FA
100
AcDbSymbolTableRecord
100
AcDbLayerTableRecord
  2
DEFAULT_1
 70
0
 62
7
  6
CENTER
370
-3
390
F
  0
LAYER
  5
1FB
100
AcDbSymbolTableRecord
100
AcDbLayerTableRecord
  2
DEFAULT_2
 70
0
 62
7
  6
HIDDEN
370
-3
390
F
  0
LAYER
  5
1FC
100
AcDbSymbolTableRecord
100
AcDbLayerTableRecord
  2
DEFAULT_3
 70
0
 62
7
  6
PHANTOM
370
-3
390
F
  0
LAYER
  5
1FD
100
AcDbSymbolTableRecord
100
AcDbLayerTableRecord
  2
00_COMPONENTS
 70
0
 62
7
  6
CONTINUOUS
370
-3
390
F
  0
LAYER
  5
1FE
100
AcDbSymbolTableRecord
100
AcDbLayerTableRecord
  2
01_1_DEFAULT_DATUMS
 70
0
 62
7
  6
CONTINUOUS
370
-3
390
F
  0
LAYER
  5
1FF
100
AcDbSymbolTableRecord
100
AcDbLayerTableRecord
  2
01_PLANES
 70
0
 62
7
  6
CONTINUOUS
370
-3
390
F
  0
LAYER
  5
200
100
AcDbSymbolTableRecord
100
AcDbLayerTableRecord
  2
02_COORD_SYS
 70
0
 62
7
  6
CONTINUOUS
370
-3
390
F
  0
LAYER
  5
201
100
AcDbSymbolTableRecord
100
AcDbLayerTableRecord
  2
03_AXES
 70
0
 62
7
  6
CONTINUOUS
370
-3
390
F
  0
LAYER
  5
202
100
AcDbSymbolTableRecord
100
AcDbLayerTableRecord
  2
04_POINTS
 70
0
 62
7
  6
CONTINUOUS
370
-3
390
F
  0
LAYER
  5
203
100
AcDbSymbolTableRecord
100
AcDbLayerTableRecord
  2
05_CURVES
 70
0
 62
7
  6
CONTINUOUS
370
-3
390
F
  0
LAYER
  5
204
100
AcDbSymbolTableRecord
100
AcDbLayerTableRecord
  2
06_SURFS
 70
0
 62
7
  6
CONTINUOUS
370
-3
390
F
  0
LAYER
  5
205
100
AcDbSymbolTableRecord
100
AcDbLayerTableRecord
  2
07_COSMETICS
 70
0
 62
7
  6
CONTINUOUS
370
-3
390
F
  0
LAYER
  5
206
100
AcDbSymbolTableRecord
100
AcDbLayerTableRecord
  2
10_NOTES
 70
0
 62
7
  6
CONTINUOUS
370
-3
390
F
  0
LAYER
  5
207
100
AcDbSymbolTableRecord
100
AcDbLayerTableRecord
  2
11_NOTES_PUB
 70
0
 62
7
  6
CONTINUOUS
370
-3
390
F
  0
LAYER
  5
208
100
AcDbSymbolTableRecord
100
AcDbLayerTableRecord
  2
13452
 70
0
 62
7
  6
CONTINUOUS
370
-3
390
F
  0
LAYER
  5
209
100
AcDbSymbolTableRecord
100
AcDbLayerTableRecord
  2
13_REF_GTOL
 70
0
 62
7
  6
CONTINUOUS
370
-3
390
F
  0
LAYER
  5
20A
100
AcDbSymbolTableRecord
100
AcDbLayerTableRecord
  2
16_MISC
 70
0
 62
7
  6
CONTINUOUS
370
-3
390
F
  0
LAYER
  5
20B
100
AcDbSymbolTableRecord
100
AcDbLayerTableRecord
  2
17_NO_PRINT
 70
0
 62
7
  6
CONTINUOUS
370
-3
390
F
  0
LAYER
  5
20C
100
AcDbSymbolTableRecord
100
AcDbLayerTableRecord
  2
18_DATUM_CAMS_JOINTS
 70
0
 62
7
  6
CONTINUOUS
370
-3
390
F
  0
LAYER
  5
20D
100
AcDbSymbolTableRecord
100
AcDbLayerTableRecord
  2
19_DATUM_FUNCTIONAL
 70
0
 62
7
  6
CONTINUOUS
370
-3
390
F
  0
LAYER
  5
20E
100
AcDbSymbolTableRecord
100
AcDbLayerTableRecord
  2
20_DATUM_KINEMATIC_SCHEME
 70
0
 62
7
  6
CONTINUOUS
370
-3
390
F
  0
LAYER
  5
20F
100
AcDbSymbolTableRecord
100
AcDbLayerTableRecord
  2
INTF_YELLOW
 70
0
 62
7
  6
CONTINUOUS
370
-3
390
F
  0
ENDTAB
  0
TABLE
  2
STYLE
  5
3
100
AcDbSymbolTable
 70
1
  0
STYLE
  5
11
100
AcDbSymbolTableRecord
100
AcDbTextStyleTableRecord
  2
STANDARD
 70
0
 40
0.0
 41
1.0
 50
0.0
 71
0
 42
0.2
  3
ARIAL.TTF
  4

  0
STYLE
  5
210
100
AcDbSymbolTableRecord
100
AcDbTextStyleTableRecord
  2
TEXTSTYLE_1
 70
0
 40
0.0
 41
0.8
 50
0.0
 71
0
 42
0.2
  3
gdt
  4

  0
ENDTAB
  0
TABLE
  2
VIEW
  5
6
100
AcDbSymbolTable
 70
0
  0
ENDTAB
  0
TABLE
  2
UCS
  5
7
100
AcDbSymbolTable
 70
0
  0
ENDTAB
  0
TABLE
  2
APPID
  5
9
100
AcDbSymbolTable
 70
1
  0
APPID
  5
211
100
AcDbSymbolTableRecord
100
AcDbRegAppTableRecord
  2
ACAD
 70
0
  0
ENDTAB
  0
TABLE
  2
BLOCK_RECORD
  5
1
100
AcDbSymbolTable
 70
0
  0
BLOCK_RECORD
  5
212
100
AcDbSymbolTableRecord
100
AcDbBlockTableRecord
  2
*Model_Space
  0
BLOCK_RECORD
  5
213
100
AcDbSymbolTableRecord
100
AcDbBlockTableRecord
  2
*Paper_Space
  0
BLOCK_RECORD
  5
214
100
AcDbSymbolTableRecord
100
AcDbBlockTableRecord
  2
_FILLED
  0
ENDTAB
  0
TABLE
  2
DIMSTYLE
  5
A
100
AcDbSymbolTable
 70
1
100
AcDbDimStyleTable
 71
0
  0
DIMSTYLE
105
215
100
AcDbSymbolTableRecord
100
AcDbDimStyleTableRecord
  2
STANDARD
 70
0
  3

  4

 40
1.0
 41
2.579158621
 42
1.0
 43
0.38
 44
1.0
 45
0.0
 46
0.0
 47
0.01
 48
0.01
140
3.6108220694
141
0.09
142
0.0
143
25.4
144
1.0
145
0.0
146
1.0
147
0.625
 71
1
 72
0
 73
0
 74
0
 75
0
 76
0
 77
1
 78
8
 79
2
170
0
171
1
172
0
173
0
174
0
175
0
176
0
177
0
178
0
270
2
179
2
271
2
272
2
273
2
274
2
275
0
280
0
281
0
282
0
283
1
284
8
285
0
286
0
287
3
288
0
340
11
278
46
341
214
342
214
343
214
344
214
  0
ENDTAB
  0
ENDSEC
  0
SECTION
  2
BLOCKS
  0
BLOCK
  5
20
100
AcDbEntity
  8
0
100
AcDbBlockBegin
  2
*Model_Space
 70
0
 10
0.0
 20
0.0
 30
0.0
  3
*Model_Space
  1

  0
ENDBLK
  5
21
100
AcDbEntity
  8
0
100
AcDbBlockEnd
  0
BLOCK
  5
1C
100
AcDbEntity
  8
0
100
AcDbBlockBegin
  2
*Paper_Space
 70
0
 10
0.0
 20
0.0
 30
0.0
  3
*Paper_Space
  1

  0
ENDBLK
  5
1D
100
AcDbEntity
  8
0
100
AcDbBlockEnd
  0
BLOCK
  5
216
100
AcDbEntity
  8
0
100
AcDbBlockBegin
  2
_FILLED
 70
64
 10
0.0
 20
0.0
  3
_FILLED
  1

  0
SOLID
  5
217
100
AcDbEntity
  8
0
  6
BYBLOCK
 62
0
100
AcDbTrace
 10
0.0
 20
0.0
 11
-1.0
 21
0.25
 12
-1.0
 22
-0.25
 13
-1.0
 23
-0.25
  0
ENDBLK
  5
218
100
AcDbEntity
  8
0
  6
BYBLOCK
 62
0
100
AcDbBlockEnd
  0
ENDSEC
  0
SECTION
  2
ENTITIES
  0
LINE
  5
219
100
AcDbEntity
  8
0
100
AcDbLine
 62
7
  6
BYLAYER
 10
96.6374287037
 20
21.9395796622
 11
125.6374287037
 21
21.9395796622
  0
LINE
  5
21A
100
AcDbEntity
  8
0
100
AcDbLine
 62
7
  6
BYLAYER
 10
96.6374287004
 20
21.9878907139
 11
125.6374287071
 21
21.9878907139
  0
LINE
  5
21B
100
AcDbEntity
  8
0
100
AcDbLine
 62
7
  6
BYLAYER
 10
98.1184153803
 20
23.627048543
 11
124.1564420272
 21
23.627048543
  0
LINE
  5
21C
100
AcDbEntity
  8
0
100
AcDbLine
 62
7
  6
BYLAYER
 10
120.767161834
 20
31.8581575836
 11
101.5076955734
 21
31.8581575836
  0
LINE
  5
21D
100
AcDbEntity
  8
0
100
AcDbLine
 62
7
  6
BYLAYER
 10
120.767161834
 20
31.8581575836
 11
128.9982708344
 21
28.4688758244
  0
LINE
  5
21E
100
AcDbEntity
  8
0
100
AcDbLine
 62
7
  6
BYLAYER
 10
125.7931736198
 20
21.9903169504
 11
124.1564420272
 21
23.627048543
  0
LINE
  5
21F
100
AcDbEntity
  8
0
100
AcDbLine
 62
7
  6
BYLAYER
 10
128.9982708746
 20
28.4688773904
 11
130.6350024672
 21
26.8321457978
  0
LINE
  5
220
100
AcDbEntity
  8
0
100
AcDbLine
 62
7
  6
BYLAYER
 10
127.3206655979
 20
225.0977305147
 11
128.5393524924
 21
225.8013397213
  0
LINE
  5
221
100
AcDbEntity
  8
0
100
AcDbLine
 62
7
  6
BYLAYER
 10
93.191897423
 20
224.8597839256
 11
93.7355049151
 21
225.8013397213
  0
LINE
  5
222
100
AcDbEntity
  8
0
100
AcDbLine
 62
7
  6
BYLAYER
 10
113.0565391037
 20
207.0702591792
 11
113.6092431037
 21
207.629439238
  0
LINE
  5
223
100
AcDbEntity
  8
0
100
AcDbLine
 62
7
  6
BYLAYER
 10
113.6092431037
 20
207.5638940718
 11
113.1213251685
 21
207.0702591792
  0
LINE
  5
224
100
AcDbEntity
  8
0
100
AcDbLine
 62
7
  6
BYLAYER
 10
97.4892691039
 20
115.979892941
 11
124.7855883036
 21
115.979892941
  0
LINE
  5
225
100
AcDbEntity
  8
0
100
AcDbLine
 62
7
  6
BYLAYER
 10
124.7375905307
 20
116.0278907139
 11
97.5372668767
 21
116.0278907139
  0
LINE
  5
226
100
AcDbEntity
  8
0
100
AcDbLine
 62
7
  6
BYLAYER
 10
97.6374287038
 20
116.1028907139
 11
124.6374287036
 21
116.1028907139
  0
LINE
  5
227
100
AcDbEntity
  8
0
100
AcDbLine
 62
7
  6
BYLAYER
 10
125.0701816342
 20
99.6283973936
 11
125.2678712415
 21
99.4999607343
  0
LINE
  5
228
100
AcDbEntity
  8
0
100
AcDbLine
 62
7
  6
BYLAYER
 10
124.1564420272
 20
23.627048543
 11
120.767161834
 21
31.8581575836
  0
LINE
  5
229
100
AcDbEntity
  8
0
100
AcDbLine
 62
7
  6
BYLAYER
 10
85.1374287037
 20
215.4704048558
 11
85.1374287037
 21
135.7962017656
  0
LINE
  5
22A
100
AcDbEntity
  8
0
100
AcDbLine
 62
7
  6
BYLAYER
 10
101.9193727037
 20
206.8010239891
 11
102.0304559037
 21
207.1178489714
  0
LINE
  5
22B
100
AcDbEntity
  8
0
100
AcDbLine
 62
7
  6
BYLAYER
 10
102.0697407037
 20
207.4161657715
 11
102.1835327037
 21
207.7325504546
  0
LINE
  5
22C
100
AcDbEntity
  8
0
100
AcDbLine
 62
7
  6
BYLAYER
 10
124.6374287037
 20
118.1028907139
 11
97.6374287037
 21
118.1028907139
  0
LINE
  5
22D
100
AcDbEntity
  8
0
100
AcDbLine
 62
7
  6
BYLAYER
 10
104.1374287037
 20
118.3528907139
 11
118.1374287037
 21
118.3528907139
  0
LINE
  5
22E
100
AcDbEntity
  8
0
100
AcDbLine
 62
7
  6
BYLAYER
 10
128.6374287037
 20
120.1028907139
 11
126.6374287037
 21
120.1028907139
  0
LINE
  5
22F
100
AcDbEntity
  8
0
100
AcDbLine
 62
7
  6
BYLAYER
 10
95.6374287037
 20
120.1028907139
 11
93.6374287037
 21
120.1028907139
  0
LINE
  5
230
100
AcDbEntity
  8
0
100
AcDbLine
 62
7
  6
BYLAYER
 10
122.8124287037
 20
123.0278907139
 11
121.1374287037
 21
123.0278907139
  0
LINE
  5
231
100
AcDbEntity
  8
0
100
AcDbLine
 62
7
  6
BYLAYER
 10
101.0983741717
 20
123.0278907139
 11
99.4624287037
 21
123.0278907139
  0
LINE
  5
232
100
AcDbEntity
  8
0
100
AcDbLine
 62
7
  6
BYLAYER
 10
104.0815222077
 20
120.0672590312
 11
118.0813025577
 21
119.9888361819
  0
LINE
  5
233
100
AcDbEntity
  8
0
100
AcDbLine
 62
7
  6
BYLAYER
 10
104.0843227751
 20
120.567251188
 11
118.0841036226
 21
120.4888283359
  0
LINE
  5
234
100
AcDbEntity
  8
0
100
AcDbLine
 62
7
  6
BYLAYER
 10
121.0980603864
 20
122.9719842178
 11
120.5980682311
 21
122.9747850339
  0
LINE
  5
235
100
AcDbEntity
  8
0
100
AcDbLine
 62
7
  6
BYLAYER
 10
101.5983663271
 20
123.0812160404
 11
101.0983741717
 21
123.0840168564
  0
LINE
  5
236
100
AcDbEntity
  8
0
100
AcDbLine
 62
7
  6
BYLAYER
 10
130.9101977533
 20
117.3383077798
 11
133.8874830297
 21
116.3171967207
  0
LINE
  5
237
100
AcDbEntity
  8
0
100
AcDbLine
 62
7
  6
BYLAYER
 10
92.163715379
 20
122.7025895925
 11
92.0835870036
 21
183.4144285435
  0
LINE
  5
238
100
AcDbEntity
  8
0
100
AcDbLine
 62
7
  6
BYLAYER
 10
93.0885104465
 20
179.8047089572
 11
93.1657714916
 21
121.2653949489
  0
LINE
  5
239
100
AcDbEntity
  8
0
100
AcDbLine
 62
7
  6
BYLAYER
 10
91.6374287037
 20
26.9878907139
 11
91.6374287037
 21
96.8378907139
  0
LINE
  5
23A
100
AcDbEntity
  8
0
100
AcDbLine
 62
7
  6
BYLAYER
 10
93.1374287037
 20
214.6578907139
 11
93.1374287037
 21
202.6578907139
  0
LINE
  5
23B
100
AcDbEntity
  8
0
100
AcDbLine
 62
7
  6
BYLAYER
 10
93.1717977055
 20
144.1435217121
 11
93.1717977055
 21
145.9558940546
  0
LINE
  5
23C
100
AcDbEntity
  8
0
100
AcDbLine
 62
7
  6
BYLAYER
 10
93.204828081
 20
120.1951282642
 11
93.204828081
 21
116.5377735015
  0
LINE
  5
23D
100
AcDbEntity
  8
0
100
AcDbLine
 62
7
  6
BYLAYER
 10
93.2437943648
 20
146.0278907139
 11
93.2437943648
 21
169.7780525409
  0
LINE
  5
23E
100
AcDbEntity
  8
0
100
AcDbLine
 62
7
  6
BYLAYER
 10
93.2765865329
 20
96.0196795169
 11
93.2765865329
 21
28.4688773904
  0
LINE
  5
23F
100
AcDbEntity
  8
0
100
AcDbLine
 62
7
  6
BYLAYER
 10
93.2874287037
 20
120.2777288869
 11
93.2874287037
 21
144.0278907139
  0
LINE
  5
240
100
AcDbEntity
  8
0
100
AcDbLine
 62
7
  6
BYLAYER
 10
93.6374287037
 20
120.1028905243
 11
93.6374287037
 21
142.9528907139
  0
LINE
  5
241
100
AcDbEntity
  8
0
100
AcDbLine
 62
7
  6
BYLAYER
 10
93.6374287037
 20
147.1028907139
 11
93.6374287037
 21
169.9528907139
  0
LINE
  5
242
100
AcDbEntity
  8
0
100
AcDbLine
 62
7
  6
BYLAYER
 10
94.1374287037
 20
227.3013397213
 11
94.1374287037
 21
245.3578907139
  0
LINE
  5
243
100
AcDbEntity
  8
0
100
AcDbLine
 62
7
  6
BYLAYER
 10
99.3757179048
 20
237.0468983078
 11
99.3374287037
 21
236.429301394
  0
LINE
  5
244
100
AcDbEntity
  8
0
100
AcDbLine
 62
7
  6
BYLAYER
 10
100.8124287037
 20
248.5892867601
 11
99.375717906
 21
237.0468983172
  0
LINE
  5
245
100
AcDbEntity
  8
0
100
AcDbLine
 62
7
  6
BYLAYER
 10
104.4047343037
 20
207.7338713523
 11
104.5072383037
 21
208.1952284698
  0
LINE
  5
246
100
AcDbEntity
  8
0
100
AcDbLine
 62
7
  6
BYLAYER
 10
102.7150143037
 20
207.4747724133
 11
102.5068463037
 21
206.6230025675
  0
LINE
  5
247
100
AcDbEntity
  8
0
100
AcDbLine
 62
7
  6
BYLAYER
 10
101.8502847037
 20
206.5088745014
 11
101.7152703037
 21
206.0074204858
  0
LINE
  5
248
100
AcDbEntity
  8
0
100
AcDbLine
 62
7
  6
BYLAYER
 10
103.5490367037
 20
206.6913020383
 11
103.8127455037
 21
207.66645248
  0
LINE
  5
249
100
AcDbEntity
  8
0
100
AcDbLine
 62
7
  6
BYLAYER
 10
104.1915999037
 20
207.4553836324
 11
104.1021919037
 21
207.1394392486
  0
LINE
  5
24A
100
AcDbEntity
  8
0
100
AcDbLine
 62
7
  6
BYLAYER
 10
104.0290399037
 20
206.8397999894
 11
103.9333103037
 21
206.5242974662
  0
LINE
  5
24B
100
AcDbEntity
  8
0
100
AcDbLine
 62
7
  6
BYLAYER
 10
115.9970687037
 20
207.1879112007
 11
115.8412815037
 21
206.9354214345
  0
LINE
  5
24C
100
AcDbEntity
  8
0
100
AcDbLine
 62
7
  6
BYLAYER
 10
113.3872706166
 20
130.0545621783
 11
116.1370814305
 21
130.0871534477
  0
LINE
  5
24D
100
AcDbEntity
  8
0
100
AcDbLine
 62
7
  6
BYLAYER
 10
106.137488192
 20
129.9686423276
 11
108.8870114314
 21
130.0012301886
  0
LINE
  5
24E
100
AcDbEntity
  8
0
100
AcDbLine
 62
7
  6
BYLAYER
 10
93.2874287037
 20
144.0278907139
 11
93.1717977055
 21
144.1435217121
  0
LINE
  5
24F
100
AcDbEntity
  8
0
100
AcDbLine
 62
7
  6
BYLAYER
 10
111.2261745632
 20
122.5282030347
 11
106.137488192
 21
129.9686423276
  0
LINE
  5
250
100
AcDbEntity
  8
0
100
AcDbLine
 62
7
  6
BYLAYER
 10
95.2169343037
 20
209.662140098
 11
95.2169343037
 21
208.8456222971
  0
LINE
  5
251
100
AcDbEntity
  8
0
100
AcDbLine
 62
7
  6
BYLAYER
 10
95.6374287037
 20
120.1034601473
 11
95.6374287037
 21
143.9528907139
  0
LINE
  5
252
100
AcDbEntity
  8
0
100
AcDbLine
 62
7
  6
BYLAYER
 10
95.6374287037
 20
146.1028907139
 11
95.6374287037
 21
169.9523186517
  0
LINE
  5
253
100
AcDbEntity
  8
0
100
AcDbLine
 62
7
  6
BYLAYER
 10
96.5467647037
 20
209.1087995613
 11
96.5467647037
 21
209.1743447275
  0
LINE
  5
254
100
AcDbEntity
  8
0
100
AcDbLine
 62
7
  6
BYLAYER
 10
96.6217231037
 20
212.2999589984
 11
96.6217231037
 21
212.3655041646
  0
LINE
  5
255
100
AcDbEntity
  8
0
100
AcDbLine
 62
7
  6
BYLAYER
 10
97.1374287037
 20
227.3013397213
 11
97.1374287037
 21
245.3578907139
  0
LINE
  5
256
100
AcDbEntity
  8
0
100
AcDbLine
 62
7
  6
BYLAYER
 10
97.2046757733
 20
99.6563237707
 11
97.2046757733
 21
115.9894319626
  0
LINE
  5
257
100
AcDbEntity
  8
0
100
AcDbLine
 62
7
  6
BYLAYER
 10
97.3778364958
 20
174.1436867559
 11
97.3778364958
 21
175.8757177398
  0
LINE
  5
258
100
AcDbEntity
  8
0
100
AcDbLine
 62
7
  6
BYLAYER
 10
97.6374287037
 20
116.1028907139
 11
97.6374287037
 21
118.1028907139
  0
LINE
  5
259
100
AcDbEntity
  8
0
100
AcDbLine
 62
7
  6
BYLAYER
 10
97.6374286886
 20
171.9528907139
 11
97.6374286886
 21
173.9528907139
  0
LINE
  5
25A
100
AcDbEntity
  8
0
100
AcDbLine
 62
7
  6
BYLAYER
 10
97.9398143037
 20
211.3317486424
 11
97.9398143037
 21
212.0702710207
  0
LINE
  5
25B
100
AcDbEntity
  8
0
100
AcDbLine
 62
7
  6
BYLAYER
 10
99.3374287037
 20
236.4293014211
 11
99.3374287037
 21
225.6268935787
  0
LINE
  5
25C
100
AcDbEntity
  8
0
100
AcDbLine
 62
7
  6
BYLAYER
 10
99.4624287037
 20
167.0278907139
 11
99.4624287037
 21
153.0278907139
  0
LINE
  5
25D
100
AcDbEntity
  8
0
100
AcDbLine
 62
7
  6
BYLAYER
 10
99.4624287037
 20
137.0278907139
 11
99.4624287037
 21
123.0278907139
  0
LINE
  5
25E
100
AcDbEntity
  8
0
100
AcDbLine
 62
7
  6
BYLAYER
 10
99.7943519037
 20
211.0754024467
 11
99.7943519037
 21
211.1409476129
  0
LINE
  5
25F
100
AcDbEntity
  8
0
100
AcDbLine
 62
7
  6
BYLAYER
 10
99.9763295037
 20
208.9889429208
 11
99.9763295037
 21
209.054488087
  0
LINE
  5
260
100
AcDbEntity
  8
0
100
AcDbLine
 62
7
  6
BYLAYER
 10
100.6775951037
 20
210.3751048217
 11
100.6775951037
 21
210.9748252006
  0
LINE
  5
261
100
AcDbEntity
  8
0
100
AcDbLine
 62
7
  6
BYLAYER
 10
100.7177839037
 20
208.6521779106
 11
100.7177839037
 21
209.2325095087
  0
LINE
  5
262
100
AcDbEntity
  8
0
100
AcDbLine
 62
7
  6
BYLAYER
 10
101.0587087037
 20
212.3179143723
 11
101.0587087037
 21
208.5336452906
  0
LINE
  5
263
100
AcDbEntity
  8
0
100
AcDbLine
 62
7
  6
BYLAYER
 10
101.1374287037
 20
167.0278907138
 11
101.1374287037
 21
153.0278907141
  0
LINE
  5
264
100
AcDbEntity
  8
0
100
AcDbLine
 62
7
  6
BYLAYER
 10
101.5076955734
 20
31.8581575836
 11
101.5076955734
 21
93.1414784845
  0
LINE
  5
265
100
AcDbEntity
  8
0
100
AcDbLine
 62
7
  6
BYLAYER
 10
101.6374287037
 20
153.0278904653
 11
101.6374287037
 21
167.0278909625
  0
LINE
  5
266
100
AcDbEntity
  8
0
100
AcDbLine
 62
7
  6
BYLAYER
 10
101.7152703037
 20
205.9418753196
 11
101.7152703037
 21
206.0074204858
  0
LINE
  5
267
100
AcDbEntity
  8
0
100
AcDbLine
 62
7
  6
BYLAYER
 10
101.8846031037
 20
208.5336452906
 11
101.8846031037
 21
210.1596298589
  0
LINE
  5
268
100
AcDbEntity
  8
0
100
AcDbLine
 62
7
  6
BYLAYER
 10
101.8846031037
 20
210.6457734187
 11
101.8846031037
 21
212.3179143723
  0
LINE
  5
269
100
AcDbEntity
  8
0
100
AcDbLine
 62
7
  6
BYLAYER
 10
101.9193727037
 20
206.7354788229
 11
101.9193727037
 21
206.8010239891
  0
LINE
  5
26A
100
AcDbEntity
  8
0
100
AcDbLine
 62
7
  6
BYLAYER
 10
102.0611615037
 20
208.0816532121
 11
102.0611615037
 21
208.1471983783
  0
LINE
  5
26B
100
AcDbEntity
  8
0
100
AcDbLine
 62
7
  6
BYLAYER
 10
102.0697407037
 20
207.3506206053
 11
102.0697407037
 21
207.4161657715
  0
LINE
  5
26C
100
AcDbEntity
  8
0
100
AcDbLine
 62
7
  6
BYLAYER
 10
102.4874287037
 20
254.0892867601
 11
102.4874287037
 21
253.3441607912
  0
LINE
  5
26D
100
AcDbEntity
  8
0
100
AcDbLine
 62
7
  6
BYLAYER
 10
102.4874287037
 20
250.0369575958
 11
102.4874287037
 21
248.5892867601
  0
LINE
  5
26E
100
AcDbEntity
  8
0
100
AcDbLine
 62
7
  6
BYLAYER
 10
102.4955583037
 20
206.0074204858
 11
102.4955583037
 21
205.9418753196
  0
LINE
  5
26F
100
AcDbEntity
  8
0
100
AcDbLine
 62
7
  6
BYLAYER
 10
102.7272063037
 20
211.0754024467
 11
102.7272063037
 21
211.1409476129
  0
LINE
  5
270
100
AcDbEntity
  8
0
100
AcDbLine
 62
7
  6
BYLAYER
 10
102.8640271037
 20
209.9877773109
 11
102.8640271037
 21
209.0862146152
  0
LINE
  5
271
100
AcDbEntity
  8
0
100
AcDbLine
 62
7
  6
BYLAYER
 10
101.176797021
 20
137.0837972099
 11
101.0983741717
 21
123.0840168599
  0
LINE
  5
272
100
AcDbEntity
  8
0
100
AcDbLine
 62
7
  6
BYLAYER
 10
101.6767891778
 20
137.0809966426
 11
101.5983663257
 21
123.081215795
  0
LINE
  5
273
100
AcDbEntity
  8
0
100
AcDbLine
 62
7
  6
BYLAYER
 10
105.0381597782
 20
207.7854004604
 11
105.0039487037
 21
207.4553836324
  0
LINE
  5
274
100
AcDbEntity
  8
0
100
AcDbLine
 62
7
  6
BYLAYER
 10
101.1937304811
 20
206.412637582
 11
101.2388783037
 21
206.8010239891
  0
LINE
  5
275
100
AcDbEntity
  8
0
100
AcDbLine
 62
7
  6
BYLAYER
 10
110.374791654
 20
206.7222400666
 11
110.3494639037
 21
206.558227052
  0
LINE
  5
276
100
AcDbEntity
  8
0
100
AcDbLine
 62
7
  6
BYLAYER
 10
119.7677327037
 20
210.872911943
 11
119.5521663037
 21
210.1970834001
  0
LINE
  5
277
100
AcDbEntity
  8
0
100
AcDbLine
 62
7
  6
BYLAYER
 10
111.1374287037
 20
167.5278907139
 11
106.1374287037
 21
160.0278907139
  0
LINE
  5
278
100
AcDbEntity
  8
0
100
AcDbLine
 62
7
  6
BYLAYER
 10
93.1717977055
 20
145.9558940546
 11
93.2437943648
 21
146.0278907139
  0
LINE
  5
279
100
AcDbEntity
  8
0
100
AcDbLine
 62
7
  6
BYLAYER
 10
108.7981262788
 20
137.5007034654
 11
113.2983853938
 21
137.5540413737
  0
LINE
  5
27A
100
AcDbEntity
  8
0
100
AcDbLine
 62
7
  6
BYLAYER
 10
137.1374287038
 20
135.7962017656
 11
134.18443545
 21
135.7953919601
  0
LINE
  5
27B
100
AcDbEntity
  8
0
100
AcDbLine
 62
7
  6
BYLAYER
 10
99.4624287037
 20
137.0278907139
 11
101.1374287037
 21
137.0278907139
  0
LINE
  5
27C
100
AcDbEntity
  8
0
100
AcDbLine
 62
7
  6
BYLAYER
 10
121.1764832357
 20
137.0278907139
 11
122.8124287037
 21
137.0278907139
  0
LINE
  5
27D
100
AcDbEntity
  8
0
100
AcDbLine
 62
7
  6
BYLAYER
 10
118.1374287037
 20
141.7028907139
 11
104.1374287037
 21
141.7028907139
  0
LINE
  5
27E
100
AcDbEntity
  8
0
100
AcDbLine
 62
7
  6
BYLAYER
 10
93.6374287037
 20
141.9528907139
 11
128.6374287037
 21
141.9528907139
  0
LINE
  5
27F
100
AcDbEntity
  8
0
100
AcDbLine
 62
7
  6
BYLAYER
 10
94.6374287037
 20
143.9528907139
 11
127.6374287037
 21
143.9528907139
  0
LINE
  5
280
100
AcDbEntity
  8
0
100
AcDbLine
 62
7
  6
BYLAYER
 10
128.9874287037
 20
144.0278907139
 11
93.2874287037
 21
144.0278907139
  0
LINE
  5
281
100
AcDbEntity
  8
0
100
AcDbLine
 62
7
  6
BYLAYER
 10
129.103059702
 20
144.1435217121
 11
93.1717977055
 21
144.1435217121
  0
LINE
  5
282
100
AcDbEntity
  8
0
100
AcDbLine
 62
7
  6
BYLAYER
 10
88.0904158318
 20
135.7952183095
 11
85.1374287037
 21
135.7962017656
  0
LINE
  5
283
100
AcDbEntity
  8
0
100
AcDbLine
 62
7
  6
BYLAYER
 10
101.176797021
 20
137.08379721
 11
101.6767891764
 21
137.0809963939
  0
LINE
  5
284
100
AcDbEntity
  8
0
100
AcDbLine
 62
7
  6
BYLAYER
 10
120.6764910804
 20
136.9745653874
 11
121.1764832358
 21
136.9717645714
  0
LINE
  5
285
100
AcDbEntity
  8
0
100
AcDbLine
 62
7
  6
BYLAYER
 10
118.1905346324
 20
139.4885302398
 11
104.1907537849
 21
139.5669530919
  0
LINE
  5
286
100
AcDbEntity
  8
0
100
AcDbLine
 62
7
  6
BYLAYER
 10
118.1933351998
 20
139.9885223966
 11
104.1935548497
 21
140.0669452459
  0
LINE
  5
287
100
AcDbEntity
  8
0
100
AcDbLine
 62
7
  6
BYLAYER
 10
124.7855883036
 20
115.979892941
 11
124.7375905307
 21
116.0278907139
  0
LINE
  5
288
100
AcDbEntity
  8
0
100
AcDbLine
 62
7
  6
BYLAYER
 10
128.9874287037
 20
120.2777288869
 11
129.0700293264
 21
120.1951282642
  0
LINE
  5
289
100
AcDbEntity
  8
0
100
AcDbLine
 62
7
  6
BYLAYER
 10
108.8870114314
 20
130.0012301886
 11
108.7981262788
 21
137.5007034654
  0
LINE
  5
28A
100
AcDbEntity
  8
0
100
AcDbLine
 62
7
  6
BYLAYER
 10
103.4874287037
 20
262.5892867601
 11
103.4874287037
 21
257.0892867601
  0
LINE
  5
28B
100
AcDbEntity
  8
0
100
AcDbLine
 62
7
  6
BYLAYER
 10
103.6899215037
 20
209.3422298981
 11
103.6899215037
 21
210.1596298589
  0
LINE
  5
28C
100
AcDbEntity
  8
0
100
AcDbLine
 62
7
  6
BYLAYER
 10
103.9220223037
 20
207.6683261862
 11
103.9220223037
 21
207.7338713523
  0
LINE
  5
28D
100
AcDbEntity
  8
0
100
AcDbLine
 62
7
  6
BYLAYER
 10
103.9333103037
 20
206.4587523
 11
103.9333103037
 21
206.5242974662
  0
LINE
  5
28E
100
AcDbEntity
  8
0
100
AcDbLine
 62
7
  6
BYLAYER
 10
104.0800655037
 20
211.0933578206
 11
104.0800655037
 21
209.3488406324
  0
LINE
  5
28F
100
AcDbEntity
  8
0
100
AcDbLine
 62
7
  6
BYLAYER
 10
104.1021919037
 20
207.0738940824
 11
104.1021919037
 21
207.1394392486
  0
LINE
  5
290
100
AcDbEntity
  8
0
100
AcDbLine
 62
7
  6
BYLAYER
 10
104.1374287037
 20
118.3528907139
 11
104.1374287037
 21
120.0278907139
  0
LINE
  5
291
100
AcDbEntity
  8
0
100
AcDbLine
 62
7
  6
BYLAYER
 10
104.1374287037
 20
140.0669452459
 11
104.1374287037
 21
141.7028907139
  0
LINE
  5
292
100
AcDbEntity
  8
0
100
AcDbLine
 62
7
  6
BYLAYER
 10
104.1374287037
 20
148.3528907139
 11
104.1374287037
 21
150.5278907139
  0
LINE
  5
293
100
AcDbEntity
  8
0
100
AcDbLine
 62
7
  6
BYLAYER
 10
104.1374287005
 20
169.5278907139
 11
104.1374287037
 21
171.7028907139
  0
LINE
  5
294
100
AcDbEntity
  8
0
100
AcDbLine
 62
7
  6
BYLAYER
 10
104.3874287037
 20
271.0892867601
 11
104.3874287037
 21
265.5892867601
  0
LINE
  5
295
100
AcDbEntity
  8
0
100
AcDbLine
 62
7
  6
BYLAYER
 10
104.4047343037
 20
207.6683261862
 11
104.4047343037
 21
207.7338713523
  0
LINE
  5
296
100
AcDbEntity
  8
0
100
AcDbLine
 62
7
  6
BYLAYER
 10
104.7402399037
 20
208.5496195025
 11
104.7402399037
 21
208.6151646687
  0
LINE
  5
297
100
AcDbEntity
  8
0
100
AcDbLine
 62
7
  6
BYLAYER
 10
104.9059615037
 20
208.9813406403
 11
104.9059615037
 21
210.1803395375
  0
LINE
  5
298
100
AcDbEntity
  8
0
100
AcDbLine
 62
7
  6
BYLAYER
 10
104.9059615037
 20
210.6603142237
 11
104.9059615037
 21
211.0933578206
  0
LINE
  5
299
100
AcDbEntity
  8
0
100
AcDbLine
 62
7
  6
BYLAYER
 10
105.4874287037
 20
279.5892867601
 11
105.4874287037
 21
274.0892867601
  0
LINE
  5
29A
100
AcDbEntity
  8
0
100
AcDbLine
 62
7
  6
BYLAYER
 10
105.7621103037
 20
211.0754024467
 11
105.7621103037
 21
211.1409476129
  0
LINE
  5
29B
100
AcDbEntity
  8
0
100
AcDbLine
 62
7
  6
BYLAYER
 10
105.8944159037
 20
210.0917691259
 11
105.8944159037
 21
208.5327631308
  0
LINE
  5
29C
100
AcDbEntity
  8
0
100
AcDbLine
 62
7
  6
BYLAYER
 10
105.8948687037
 20
208.0811004037
 11
105.8948687037
 21
205.8739036389
  0
LINE
  5
29D
100
AcDbEntity
  8
0
100
AcDbLine
 62
7
  6
BYLAYER
 10
106.2163759037
 20
206.0934569269
 11
106.2163759037
 21
206.8450882646
  0
LINE
  5
29E
100
AcDbEntity
  8
0
100
AcDbLine
 62
7
  6
BYLAYER
 10
106.2163759037
 20
207.0650818518
 11
106.2163759037
 21
207.7960035109
  0
LINE
  5
29F
100
AcDbEntity
  8
0
100
AcDbLine
 62
7
  6
BYLAYER
 10
106.7198607037
 20
208.5327631308
 11
106.7198607037
 21
210.1578671005
  0
LINE
  5
2A0
100
AcDbEntity
  8
0
100
AcDbLine
 62
7
  6
BYLAYER
 10
107.1425167037
 20
206.8450882646
 11
107.1425167037
 21
207.130627018
  0
LINE
  5
2A1
100
AcDbEntity
  8
0
100
AcDbLine
 62
7
  6
BYLAYER
 10
107.1763823037
 20
207.7960035109
 11
107.1763823037
 21
208.0811004037
  0
LINE
  5
2A2
100
AcDbEntity
  8
0
100
AcDbLine
 62
7
  6
BYLAYER
 10
107.2048303037
 20
205.8739036389
 11
107.2048303037
 21
206.1590020931
  0
LINE
  5
2A3
100
AcDbEntity
  8
0
100
AcDbLine
 62
7
  6
BYLAYER
 10
107.9200943037
 20
210.0315122349
 11
107.9200943037
 21
210.0970574011
  0
LINE
  5
2A4
100
AcDbEntity
  8
0
100
AcDbLine
 62
7
  6
BYLAYER
 10
107.9602831037
 20
208.0811004037
 11
107.9602831037
 21
205.8725827411
  0
LINE
  5
2A5
100
AcDbEntity
  8
0
100
AcDbLine
 62
7
  6
BYLAYER
 10
108.2546975037
 20
205.8725827411
 11
108.2546975037
 21
208.0811004037
  0
LINE
  5
2A6
100
AcDbEntity
  8
0
100
AcDbLine
 62
7
  6
BYLAYER
 10
108.4339647037
 20
211.0754024467
 11
108.4339647037
 21
211.1409476129
  0
LINE
  5
2A7
100
AcDbEntity
  8
0
100
AcDbLine
 62
7
  6
BYLAYER
 10
108.7712767037
 20
208.8946454962
 11
108.7712767037
 21
208.9601906624
  0
LINE
  5
2A8
100
AcDbEntity
  8
0
100
AcDbLine
 62
7
  6
BYLAYER
 10
108.8874287037
 20
160.0278907139
 11
108.8874287037
 21
152.5278907139
  0
LINE
  5
2A9
100
AcDbEntity
  8
0
100
AcDbLine
 62
7
  6
BYLAYER
 10
109.0602719037
 20
210.0970574011
 11
109.0602719037
 21
210.0315122349
  0
LINE
  5
2AA
100
AcDbEntity
  8
0
100
AcDbLine
 62
7
  6
BYLAYER
 10
109.3081759037
 20
206.6839232146
 11
109.3081759037
 21
206.7494683808
  0
LINE
  5
2AB
100
AcDbEntity
  8
0
100
AcDbLine
 62
7
  6
BYLAYER
 10
109.7023839037
 20
207.291133365
 11
109.7023839037
 21
207.3566785312
  0
LINE
  5
2AC
100
AcDbEntity
  8
0
100
AcDbLine
 62
7
  6
BYLAYER
 10
109.7439279037
 20
208.8205049419
 11
109.7439279037
 21
209.3215202195
  0
LINE
  5
2AD
100
AcDbEntity
  8
0
100
AcDbLine
 62
7
  6
BYLAYER
 10
109.8026303037
 20
206.054239066
 11
109.8026303037
 21
206.1197842322
  0
LINE
  5
2AE
100
AcDbEntity
  8
0
100
AcDbLine
 62
7
  6
BYLAYER
 10
110.0568559037
 20
206.7494683808
 11
110.0568559037
 21
206.6839232146
  0
LINE
  5
2AF
100
AcDbEntity
  8
0
100
AcDbLine
 62
7
  6
BYLAYER
 10
110.1092367037
 20
211.0933578206
 11
110.1092367037
 21
208.5261539578
  0
LINE
  5
2B0
100
AcDbEntity
  8
0
100
AcDbLine
 62
7
  6
BYLAYER
 10
110.3237247037
 20
206.0166730156
 11
110.3237247037
 21
206.2956025962
  0
LINE
  5
2B1
100
AcDbEntity
  8
0
100
AcDbLine
 62
7
  6
BYLAYER
 10
110.3824271037
 20
212.2091855292
 11
110.3824271037
 21
212.2747306954
  0
LINE
  5
2B2
100
AcDbEntity
  8
0
100
AcDbLine
 62
7
  6
BYLAYER
 10
110.9351311037
 20
208.5261539578
 11
110.9351311037
 21
211.0933578206
  0
LINE
  5
2B3
100
AcDbEntity
  8
0
100
AcDbLine
 62
7
  6
BYLAYER
 10
111.8386943037
 20
207.291133365
 11
111.8386943037
 21
207.3566785312
  0
LINE
  5
2B4
100
AcDbEntity
  8
0
100
AcDbLine
 62
7
  6
BYLAYER
 10
111.9077823037
 20
206.0493926514
 11
111.9077823037
 21
206.1149378176
  0
LINE
  5
2B5
100
AcDbEntity
  8
0
100
AcDbLine
 62
7
  6
BYLAYER
 10
112.2694783037
 20
206.946877022
 11
112.2694783037
 21
207.2557703723
  0
LINE
  5
2B6
100
AcDbEntity
  8
0
100
AcDbLine
 62
7
  6
BYLAYER
 10
112.3024415037
 20
205.9285444647
 11
112.3024415037
 21
206.2118801605
  0
LINE
  5
2B7
100
AcDbEntity
  8
0
100
AcDbLine
 62
7
  6
BYLAYER
 10
107.9024847037
 20
209.6718344884
 11
107.902473252
 21
209.6432746926
  0
LINE
  5
2B8
100
AcDbEntity
  8
0
100
AcDbLine
 62
7
  6
BYLAYER
 10
104.0815222076
 20
120.0672590312
 11
104.0843230237
 21
120.5672511866
  0
LINE
  5
2B9
100
AcDbEntity
  8
0
100
AcDbLine
 62
7
  6
BYLAYER
 10
104.1907540302
 20
139.5669530906
 11
104.1935548463
 21
140.0669452459
  0
LINE
  5
2BA
100
AcDbEntity
  8
0
100
AcDbLine
 62
7
  6
BYLAYER
 10
117.1725136938
 20
209.905965993
 11
117.1476319037
 21
209.6718344884
  0
LINE
  5
2BB
100
AcDbEntity
  8
0
100
AcDbLine
 62
7
  6
BYLAYER
 10
109.8150231818
 20
209.9066828309
 11
109.7899855037
 21
209.6718344884
  0
LINE
  5
2BC
100
AcDbEntity
  8
0
100
AcDbLine
 62
7
  6
BYLAYER
 10
124.7812248697
 20
174.0278907139
 11
124.8970209116
 21
174.1436867559
  0
LINE
  5
2BD
100
AcDbEntity
  8
0
100
AcDbLine
 62
7
  6
BYLAYER
 10
129.1172364733
 20
169.8642259715
 11
129.0310630427
 21
169.7780525409
  0
LINE
  5
2BE
100
AcDbEntity
  8
0
100
AcDbLine
 62
7
  6
BYLAYER
 10
129.103059702
 20
145.9558940546
 11
93.1717977055
 21
145.9558940546
  0
LINE
  5
2BF
100
AcDbEntity
  8
0
100
AcDbLine
 62
7
  6
BYLAYER
 10
129.0310630427
 20
146.0278907139
 11
93.2437943648
 21
146.0278907139
  0
LINE
  5
2C0
100
AcDbEntity
  8
0
100
AcDbLine
 62
7
  6
BYLAYER
 10
94.6374287037
 20
146.1028907139
 11
127.6374287037
 21
146.1028907139
  0
LINE
  5
2C1
100
AcDbEntity
  8
0
100
AcDbLine
 62
7
  6
BYLAYER
 10
128.6374287037
 20
148.1028907139
 11
93.6374287037
 21
148.1028907139
  0
LINE
  5
2C2
100
AcDbEntity
  8
0
100
AcDbLine
 62
7
  6
BYLAYER
 10
104.1374287037
 20
148.3528907139
 11
118.1374287037
 21
148.3528907139
  0
LINE
  5
2C3
100
AcDbEntity
  8
0
100
AcDbLine
 62
7
  6
BYLAYER
 10
104.1374287038
 20
150.0278907139
 11
118.1374287035
 21
150.0278907139
  0
LINE
  5
2C4
100
AcDbEntity
  8
0
100
AcDbLine
 62
7
  6
BYLAYER
 10
118.1374289523
 20
150.5278907139
 11
104.1374284551
 21
150.5278907139
  0
LINE
  5
2C5
100
AcDbEntity
  8
0
100
AcDbLine
 62
7
  6
BYLAYER
 10
108.8874287037
 20
152.5278907139
 11
113.3874287037
 21
152.5278907139
  0
LINE
  5
2C6
100
AcDbEntity
  8
0
100
AcDbLine
 62
7
  6
BYLAYER
 10
122.8124287037
 20
153.0278907139
 11
120.6374287037
 21
153.0278907139
  0
LINE
  5
2C7
100
AcDbEntity
  8
0
100
AcDbLine
 62
7
  6
BYLAYER
 10
101.6374287037
 20
153.0278907106
 11
99.4624287037
 21
153.0278907139
  0
LINE
  5
2C8
100
AcDbEntity
  8
0
100
AcDbLine
 62
7
  6
BYLAYER
 10
93.2437943648
 20
169.7780525409
 11
93.1576209341
 21
169.8642259715
  0
LINE
  5
2C9
100
AcDbEntity
  8
0
100
AcDbLine
 62
7
  6
BYLAYER
 10
93.2204155054
 20
224.8641300804
 11
93.6655688425
 21
221.9131003107
  0
LINE
  5
2CA
100
AcDbEntity
  8
0
100
AcDbLine
 62
7
  6
BYLAYER
 10
113.2983853938
 20
137.5540413737
 11
113.3872706166
 21
130.0545621783
  0
LINE
  5
2CB
100
AcDbEntity
  8
0
100
AcDbLine
 62
7
  6
BYLAYER
 10
112.5458303037
 20
211.0754024467
 11
112.5458303037
 21
211.1409476129
  0
LINE
  5
2CC
100
AcDbEntity
  8
0
100
AcDbLine
 62
7
  6
BYLAYER
 10
112.7399983037
 20
208.951047519
 11
112.7399983037
 21
209.0165926852
  0
LINE
  5
2CD
100
AcDbEntity
  8
0
100
AcDbLine
 62
7
  6
BYLAYER
 10
113.2312911037
 20
212.3179143723
 11
113.2312911037
 21
210.9150086088
  0
LINE
  5
2CE
100
AcDbEntity
  8
0
100
AcDbLine
 62
7
  6
BYLAYER
 10
113.2312911037
 20
210.4531002444
 11
113.2312911037
 21
209.1625582272
  0
LINE
  5
2CF
100
AcDbEntity
  8
0
100
AcDbLine
 62
7
  6
BYLAYER
 10
113.2312911037
 20
208.5270345564
 11
113.2312911037
 21
208.7336972887
  0
LINE
  5
2D0
100
AcDbEntity
  8
0
100
AcDbLine
 62
7
  6
BYLAYER
 10
113.3157327037
 20
207.0702591792
 11
113.3157327037
 21
206.3013311706
  0
LINE
  5
2D1
100
AcDbEntity
  8
0
100
AcDbLine
 62
7
  6
BYLAYER
 10
113.3874287037
 20
152.5278907139
 11
113.3874287037
 21
160.0278907139
  0
LINE
  5
2D2
100
AcDbEntity
  8
0
100
AcDbLine
 62
7
  6
BYLAYER
 10
113.6092431037
 20
206.3233633083
 11
113.6092431037
 21
207.0702591792
  0
LINE
  5
2D3
100
AcDbEntity
  8
0
100
AcDbLine
 62
7
  6
BYLAYER
 10
113.6092431037
 20
207.2629323536
 11
113.6092431037
 21
207.629439238
  0
LINE
  5
2D4
100
AcDbEntity
  8
0
100
AcDbLine
 62
7
  6
BYLAYER
 10
113.8210223037
 20
206.0374952034
 11
113.8210223037
 21
206.1030403696
  0
LINE
  5
2D5
100
AcDbEntity
  8
0
100
AcDbLine
 62
7
  6
BYLAYER
 10
114.0567343037
 20
208.5270345564
 11
114.0567343037
 21
212.3179143723
  0
LINE
  5
2D6
100
AcDbEntity
  8
0
100
AcDbLine
 62
7
  6
BYLAYER
 10
114.0806671037
 20
207.0702591792
 11
114.0806671037
 21
207.3284775198
  0
LINE
  5
2D7
100
AcDbEntity
  8
0
100
AcDbLine
 62
7
  6
BYLAYER
 10
114.1560767037
 20
205.9422046711
 11
114.1560767037
 21
206.2109980006
  0
LINE
  5
2D8
100
AcDbEntity
  8
0
100
AcDbLine
 62
7
  6
BYLAYER
 10
114.9110783037
 20
207.3284775198
 11
114.9110783037
 21
205.8725827411
  0
LINE
  5
2D9
100
AcDbEntity
  8
0
100
AcDbLine
 62
7
  6
BYLAYER
 10
115.2045887037
 20
205.8725827411
 11
115.2045887037
 21
206.631814798
  0
LINE
  5
2DA
100
AcDbEntity
  8
0
100
AcDbLine
 62
7
  6
BYLAYER
 10
115.2045887037
 20
206.9258379919
 11
115.2045887037
 21
207.3284775198
  0
LINE
  5
2DB
100
AcDbEntity
  8
0
100
AcDbLine
 62
7
  6
BYLAYER
 10
115.2777407037
 20
210.0315122349
 11
115.2777407037
 21
210.0970574011
  0
LINE
  5
2DC
100
AcDbEntity
  8
0
100
AcDbLine
 62
7
  6
BYLAYER
 10
115.6416943037
 20
207.291133365
 11
115.6416943037
 21
207.3566785312
  0
LINE
  5
2DD
100
AcDbEntity
  8
0
100
AcDbLine
 62
7
  6
BYLAYER
 10
115.7911599037
 20
211.0754024467
 11
115.7911599037
 21
211.1409476129
  0
LINE
  5
2DE
100
AcDbEntity
  8
0
100
AcDbLine
 62
7
  6
BYLAYER
 10
116.1280207037
 20
208.8946454962
 11
116.1280207037
 21
208.9601906624
  0
LINE
  5
2DF
100
AcDbEntity
  8
0
100
AcDbLine
 62
7
  6
BYLAYER
 10
116.4201759037
 20
210.0970574011
 11
116.4201759037
 21
210.0315122349
  0
LINE
  5
2E0
100
AcDbEntity
  8
0
100
AcDbLine
 62
7
  6
BYLAYER
 10
116.7764543037
 20
207.3284775198
 11
116.7764543037
 21
205.8725827411
  0
LINE
  5
2E1
100
AcDbEntity
  8
0
100
AcDbLine
 62
7
  6
BYLAYER
 10
116.7874287037
 20
274.0892867601
 11
116.7874287037
 21
279.5892867601
  0
LINE
  5
2E2
100
AcDbEntity
  8
0
100
AcDbLine
 62
7
  6
BYLAYER
 10
116.8708287037
 20
207.8225527117
 11
116.8708287037
 21
207.8880978779
  0
LINE
  5
2E3
100
AcDbEntity
  8
0
100
AcDbLine
 62
7
  6
BYLAYER
 10
117.0699647037
 20
205.8725827411
 11
117.0699647037
 21
207.3284775198
  0
LINE
  5
2E4
100
AcDbEntity
  8
0
100
AcDbLine
 62
7
  6
BYLAYER
 10
117.1029279037
 20
208.8205049419
 11
117.1029279037
 21
209.3215202195
  0
LINE
  5
2E5
100
AcDbEntity
  8
0
100
AcDbLine
 62
7
  6
BYLAYER
 10
117.5567423037
 20
211.0960027389
 11
117.5567423037
 21
208.5301197739
  0
LINE
  5
2E6
100
AcDbEntity
  8
0
100
AcDbLine
 62
7
  6
BYLAYER
 10
117.8874287037
 20
265.5892867601
 11
117.8874287037
 21
271.0892867601
  0
LINE
  5
2E7
100
AcDbEntity
  8
0
100
AcDbLine
 62
7
  6
BYLAYER
 10
118.1374287037
 20
171.7028907139
 11
118.1374287037
 21
169.5278907139
  0
LINE
  5
2E8
100
AcDbEntity
  8
0
100
AcDbLine
 62
7
  6
BYLAYER
 10
118.137428707
 20
150.5278907139
 11
118.1374287037
 21
148.3528907139
  0
LINE
  5
2E9
100
AcDbEntity
  8
0
100
AcDbLine
 62
7
  6
BYLAYER
 10
118.1374287037
 20
141.7028907139
 11
118.1374287037
 21
140.0278907139
  0
LINE
  5
2EA
100
AcDbEntity
  8
0
100
AcDbLine
 62
7
  6
BYLAYER
 10
118.1374287037
 20
119.9888361819
 11
118.1374287037
 21
118.3528907139
  0
LINE
  5
2EB
100
AcDbEntity
  8
0
100
AcDbLine
 62
7
  6
BYLAYER
 10
118.3830879037
 20
208.5301197739
 11
118.3830879037
 21
209.6365824435
  0
LINE
  5
2EC
100
AcDbEntity
  8
0
100
AcDbLine
 62
7
  6
BYLAYER
 10
118.3830879037
 20
210.2932560922
 11
118.3830879037
 21
211.0960027389
  0
LINE
  5
2ED
100
AcDbEntity
  8
0
100
AcDbLine
 62
7
  6
BYLAYER
 10
118.5772575037
 20
207.291133365
 11
118.5772575037
 21
207.3566785312
  0
LINE
  5
2EE
100
AcDbEntity
  8
0
100
AcDbLine
 62
7
  6
BYLAYER
 10
118.6463455037
 20
206.0493926514
 11
118.6463455037
 21
206.1149378176
  0
LINE
  5
2EF
100
AcDbEntity
  8
0
100
AcDbLine
 62
7
  6
BYLAYER
 10
118.7874287037
 20
257.0892867601
 11
118.7874287037
 21
262.5892867601
  0
LINE
  5
2F0
100
AcDbEntity
  8
0
100
AcDbLine
 62
7
  6
BYLAYER
 10
119.0084927037
 20
206.946877022
 11
119.0084927037
 21
207.2557703723
  0
LINE
  5
2F1
100
AcDbEntity
  8
0
100
AcDbLine
 62
7
  6
BYLAYER
 10
119.0428111037
 20
205.9285444647
 11
119.0428111037
 21
206.2118801605
  0
LINE
  5
2F2
100
AcDbEntity
  8
0
100
AcDbLine
 62
7
  6
BYLAYER
 10
119.2329167037
 20
211.0776070657
 11
119.2329167037
 21
211.1431522319
  0
LINE
  5
2F3
100
AcDbEntity
  8
0
100
AcDbLine
 62
7
  6
BYLAYER
 10
119.7874287037
 20
248.5892867601
 11
119.7874287037
 21
250.0427295428
  0
LINE
  5
2F4
100
AcDbEntity
  8
0
100
AcDbLine
 62
7
  6
BYLAYER
 10
119.7874287037
 20
253.3184032472
 11
119.7874287037
 21
254.0892867601
  0
LINE
  5
2F5
100
AcDbEntity
  8
0
100
AcDbLine
 62
7
  6
BYLAYER
 10
120.6374287037
 20
211.0955624396
 11
120.6374287037
 21
208.5129340507
  0
LINE
  5
2F6
100
AcDbEntity
  8
0
100
AcDbLine
 62
7
  6
BYLAYER
 10
120.6374287037
 20
167.0278909625
 11
120.6374287037
 21
153.0278904653
  0
LINE
  5
2F7
100
AcDbEntity
  8
0
100
AcDbLine
 62
7
  6
BYLAYER
 10
120.7671618341
 20
93.08360247
 11
120.767161834
 21
31.8581575836
  0
LINE
  5
2F8
100
AcDbEntity
  8
0
100
AcDbLine
 62
7
  6
BYLAYER
 10
121.1374287037
 20
153.0278907139
 11
121.1374287037
 21
167.0278907137
  0
LINE
  5
2F9
100
AcDbEntity
  8
0
100
AcDbLine
 62
7
  6
BYLAYER
 10
115.2610335037
 20
209.6718344884
 11
115.2610181649
 21
209.6434011233
  0
LINE
  5
2FA
100
AcDbEntity
  8
0
100
AcDbLine
 62
7
  6
BYLAYER
 10
118.1933351998
 20
139.9885223966
 11
118.1905343838
 21
139.4885302412
  0
LINE
  5
2FB
100
AcDbEntity
  8
0
100
AcDbLine
 62
7
  6
BYLAYER
 10
118.0841033772
 20
120.4888283372
 11
118.0813025612
 21
119.9888361819
  0
LINE
  5
2FC
100
AcDbEntity
  8
0
100
AcDbLine
 62
7
  6
BYLAYER
 10
120.5980682297
 20
122.9747847852
 11
120.6764910818
 21
136.9745656327
  0
LINE
  5
2FD
100
AcDbEntity
  8
0
100
AcDbLine
 62
7
  6
BYLAYER
 10
129.0544419021
 20
224.8641300804
 11
128.6092885649
 21
221.9131003106
  0
LINE
  5
2FE
100
AcDbEntity
  8
0
100
AcDbLine
 62
7
  6
BYLAYER
 10
93.204828081
 20
120.1951282642
 11
93.2874287037
 21
120.2777288869
  0
LINE
  5
2FF
100
AcDbEntity
  8
0
100
AcDbLine
 62
7
  6
BYLAYER
 10
106.1374287037
 20
160.0278907139
 11
108.8874287037
 21
160.0278907139
  0
LINE
  5
300
100
AcDbEntity
  8
0
100
AcDbLine
 62
7
  6
BYLAYER
 10
113.3874287037
 20
160.0278907139
 11
116.1374287037
 21
160.0278907139
  0
LINE
  5
301
100
AcDbEntity
  8
0
100
AcDbLine
 62
7
  6
BYLAYER
 10
97.3778364958
 20
174.1436867559
 11
97.4936325378
 21
174.0278907139
  0
LINE
  5
302
100
AcDbEntity
  8
0
100
AcDbLine
 62
7
  6
BYLAYER
 10
129.1030597019
 20
145.9558940546
 11
129.0310630427
 21
146.0278907139
  0
LINE
  5
303
100
AcDbEntity
  8
0
100
AcDbLine
 62
7
  6
BYLAYER
 10
116.1374287037
 20
160.0278907139
 11
111.1374287037
 21
167.5278907139
  0
LINE
  5
304
100
AcDbEntity
  8
0
100
AcDbLine
 62
7
  6
BYLAYER
 10
110.0726607037
 20
211.6543006378
 11
110.0525513531
 21
211.766699641
  0
LINE
  5
305
100
AcDbEntity
  8
0
100
AcDbLine
 62
7
  6
BYLAYER
 10
122.8991395026
 20
237.0468983078
 11
122.9374287037
 21
236.429301394
  0
LINE
  5
306
100
AcDbEntity
  8
0
100
AcDbLine
 62
7
  6
BYLAYER
 10
122.8124287037
 20
123.0278907139
 11
122.8124287037
 21
137.0278907139
  0
LINE
  5
307
100
AcDbEntity
  8
0
100
AcDbLine
 62
7
  6
BYLAYER
 10
122.8124287037
 20
153.0278907139
 11
122.8124287037
 21
167.0278907139
  0
LINE
  5
308
100
AcDbEntity
  8
0
100
AcDbLine
 62
7
  6
BYLAYER
 10
122.9374287037
 20
225.6268935787
 11
122.9374287037
 21
236.4293014211
  0
LINE
  5
309
100
AcDbEntity
  8
0
100
AcDbLine
 62
7
  6
BYLAYER
 10
124.6374287037
 20
173.9528907139
 11
124.6374287037
 21
171.9528907139
  0
LINE
  5
30A
100
AcDbEntity
  8
0
100
AcDbLine
 62
7
  6
BYLAYER
 10
124.6374287188
 20
118.1028907139
 11
124.6374287188
 21
116.1028907139
  0
LINE
  5
30B
100
AcDbEntity
  8
0
100
AcDbLine
 62
7
  6
BYLAYER
 10
124.8970209116
 20
175.8757177398
 11
124.8970209116
 21
174.1436867559
  0
LINE
  5
30C
100
AcDbEntity
  8
0
100
AcDbLine
 62
7
  6
BYLAYER
 10
125.0701816342
 20
115.9894319626
 11
125.0701816342
 21
99.6283973936
  0
LINE
  5
30D
100
AcDbEntity
  8
0
100
AcDbLine
 62
7
  6
BYLAYER
 10
125.1374287037
 20
227.3013397213
 11
125.1374287037
 21
245.3578907139
  0
LINE
  5
30E
100
AcDbEntity
  8
0
100
AcDbLine
 62
7
  6
BYLAYER
 10
126.6374287037
 20
169.9523212805
 11
126.6374287037
 21
146.1028907139
  0
LINE
  5
30F
100
AcDbEntity
  8
0
100
AcDbLine
 62
7
  6
BYLAYER
 10
126.6374287037
 20
143.9528907139
 11
126.6374287037
 21
120.1034627761
  0
LINE
  5
310
100
AcDbEntity
  8
0
100
AcDbLine
 62
7
  6
BYLAYER
 10
127.1258319037
 20
208.5129340507
 11
127.1258319037
 21
211.0955624396
  0
LINE
  5
311
100
AcDbEntity
  8
0
100
AcDbLine
 62
7
  6
BYLAYER
 10
128.1374287037
 20
227.3013397213
 11
128.1374287037
 21
245.3578907139
  0
LINE
  5
312
100
AcDbEntity
  8
0
100
AcDbLine
 62
7
  6
BYLAYER
 10
128.6374287037
 20
120.1028907139
 11
128.6374287037
 21
142.9528907139
  0
LINE
  5
313
100
AcDbEntity
  8
0
100
AcDbLine
 62
7
  6
BYLAYER
 10
128.6374287037
 20
147.1028907139
 11
128.6374287037
 21
169.9528909035
  0
LINE
  5
314
100
AcDbEntity
  8
0
100
AcDbLine
 62
7
  6
BYLAYER
 10
128.9874287037
 20
120.2777288869
 11
128.9874287037
 21
144.0278907139
  0
LINE
  5
315
100
AcDbEntity
  8
0
100
AcDbLine
 62
7
  6
BYLAYER
 10
128.9982708746
 20
28.4688773904
 11
128.9982708746
 21
96.0198385843
  0
LINE
  5
316
100
AcDbEntity
  8
0
100
AcDbLine
 62
7
  6
BYLAYER
 10
129.0310630427
 20
146.0278907139
 11
129.0310630427
 21
169.7780525409
  0
LINE
  5
317
100
AcDbEntity
  8
0
100
AcDbLine
 62
7
  6
BYLAYER
 10
129.0700293264
 20
116.5760636885
 11
129.0700293264
 21
120.1951282642
  0
LINE
  5
318
100
AcDbEntity
  8
0
100
AcDbLine
 62
7
  6
BYLAYER
 10
129.103059702
 20
144.1435217121
 11
129.103059702
 21
145.9558940546
  0
LINE
  5
319
100
AcDbEntity
  8
0
100
AcDbLine
 62
7
  6
BYLAYER
 10
129.1374287037
 20
202.6578907139
 11
129.1374287037
 21
214.6578907139
  0
LINE
  5
31A
100
AcDbEntity
  8
0
100
AcDbLine
 62
7
  6
BYLAYER
 10
129.1089959144
 20
121.1972024621
 11
129.186346961
 21
179.8047089572
  0
LINE
  5
31B
100
AcDbEntity
  8
0
100
AcDbLine
 62
7
  6
BYLAYER
 10
121.0980603864
 20
122.9719842179
 11
121.1764832357
 21
136.9717645679
  0
LINE
  5
31C
100
AcDbEntity
  8
0
100
AcDbLine
 62
7
  6
BYLAYER
 10
116.1370814305
 20
130.0871534477
 11
111.2261745632
 21
122.5282030347
  0
LINE
  5
31D
100
AcDbEntity
  8
0
100
AcDbLine
 62
7
  6
BYLAYER
 10
97.4892691039
 20
115.979892941
 11
97.5372668767
 21
116.0278907139
  0
LINE
  5
31E
100
AcDbEntity
  8
0
100
AcDbLine
 62
7
  6
BYLAYER
 10
128.9874287037
 20
144.0278907139
 11
129.103059702
 21
144.1435217121
  0
LINE
  5
31F
100
AcDbEntity
  8
0
100
AcDbLine
 62
7
  6
BYLAYER
 10
99.4624287037
 20
167.0278907139
 11
101.6374287037
 21
167.0278907139
  0
LINE
  5
320
100
AcDbEntity
  8
0
100
AcDbLine
 62
7
  6
BYLAYER
 10
120.6374287037
 20
167.0278907172
 11
122.8124287037
 21
167.0278907139
  0
LINE
  5
321
100
AcDbEntity
  8
0
100
AcDbLine
 62
7
  6
BYLAYER
 10
104.1374284551
 20
169.5278907139
 11
118.1374289524
 21
169.5278907139
  0
LINE
  5
322
100
AcDbEntity
  8
0
100
AcDbLine
 62
7
  6
BYLAYER
 10
93.6374287037
 20
169.9528907139
 11
95.6374287037
 21
169.9528907139
  0
LINE
  5
323
100
AcDbEntity
  8
0
100
AcDbLine
 62
7
  6
BYLAYER
 10
126.6374287037
 20
169.9528907139
 11
128.6374287037
 21
169.9528907139
  0
LINE
  5
324
100
AcDbEntity
  8
0
100
AcDbLine
 62
7
  6
BYLAYER
 10
118.1374287037
 20
170.0278907139
 11
104.1374287039
 21
170.0278907139
  0
LINE
  5
325
100
AcDbEntity
  8
0
100
AcDbLine
 62
7
  6
BYLAYER
 10
110.9735135037
 20
212.1725016387
 11
110.9933445301
 21
212.0609025211
  0
LINE
  5
326
100
AcDbEntity
  8
0
100
AcDbLine
 62
7
  6
BYLAYER
 10
116.7597455037
 20
207.6682152384
 11
116.7537142063
 21
207.7074394263
  0
LINE
  5
327
100
AcDbEntity
  8
0
100
AcDbLine
 62
7
  6
BYLAYER
 10
117.0798991037
 20
207.8519652344
 11
117.0858694011
 21
207.8120078181
  0
LINE
  5
328
100
AcDbEntity
  8
0
100
AcDbLine
 62
7
  6
BYLAYER
 10
130.6374287037
 20
26.9878907139
 11
130.6374287037
 21
96.8378907139
  0
LINE
  5
329
100
AcDbEntity
  8
0
100
AcDbLine
 62
7
  6
BYLAYER
 10
137.1374287037
 20
135.7962017656
 11
137.1374287037
 21
215.4704048558
  0
LINE
  5
32A
100
AcDbEntity
  8
0
100
AcDbLine
 62
7
  6
BYLAYER
 10
130.1912704038
 20
183.4144285435
 11
130.1111122464
 21
122.6800242502
  0
LINE
  5
32B
100
AcDbEntity
  8
0
100
AcDbLine
 62
7
  6
BYLAYER
 10
88.387339167
 20
116.3172993307
 11
91.3837699863
 21
117.3450718594
  0
LINE
  5
32C
100
AcDbEntity
  8
0
100
AcDbLine
 62
7
  6
BYLAYER
 10
118.1374287037
 20
171.7028907139
 11
104.1374287037
 21
171.7028907139
  0
LINE
  5
32D
100
AcDbEntity
  8
0
100
AcDbLine
 62
7
  6
BYLAYER
 10
97.6374287037
 20
171.9528907139
 11
124.6374287037
 21
171.9528907139
  0
LINE
  5
32E
100
AcDbEntity
  8
0
100
AcDbLine
 62
7
  6
BYLAYER
 10
124.6374287037
 20
173.9528907139
 11
97.6374287038
 21
173.9528907139
  0
LINE
  5
32F
100
AcDbEntity
  8
0
100
AcDbLine
 62
7
  6
BYLAYER
 10
124.7812248696
 20
174.0278907139
 11
97.4936325378
 21
174.0278907139
  0
LINE
  5
330
100
AcDbEntity
  8
0
100
AcDbLine
 62
7
  6
BYLAYER
 10
97.3778364958
 20
174.1436867559
 11
124.8970209116
 21
174.1436867559
  0
LINE
  5
331
100
AcDbEntity
  8
0
100
AcDbLine
 62
7
  6
BYLAYER
 10
124.8970209116
 20
175.8757177398
 11
97.3778364958
 21
175.8757177398
  0
LINE
  5
332
100
AcDbEntity
  8
0
100
AcDbLine
 62
7
  6
BYLAYER
 10
122.8991395015
 20
237.0468983172
 11
121.4624287037
 21
248.5892867601
  0
LINE
  5
333
100
AcDbEntity
  8
0
100
AcDbLine
 62
7
  6
BYLAYER
 10
97.2046757733
 20
99.6563237707
 11
97.0095031724
 21
99.5289953888
  0
LINE
  5
334
100
AcDbEntity
  8
0
100
AcDbLine
 62
7
  6
BYLAYER
 10
92.5629462774
 20
182.5951797886
 11
129.711911117
 21
182.5951797886
  0
LINE
  5
335
100
AcDbEntity
  8
0
100
AcDbLine
 62
7
  6
BYLAYER
 10
130.1912704038
 20
183.4144285435
 11
92.0835870036
 21
183.4144285435
  0
LINE
  5
336
100
AcDbEntity
  8
0
100
AcDbLine
 62
7
  6
BYLAYER
 10
101.5076955734
 20
31.8581575836
 11
98.1184138142
 21
23.6270485832
  0
LINE
  5
337
100
AcDbEntity
  8
0
100
AcDbLine
 62
7
  6
BYLAYER
 10
90.7775743449
 20
188.9261359341
 11
131.4972830626
 21
188.9261359341
  0
LINE
  5
338
100
AcDbEntity
  8
0
100
AcDbLine
 62
7
  6
BYLAYER
 10
131.5184501945
 20
191.8702897801
 11
90.756407213
 21
191.8702897801
  0
LINE
  5
339
100
AcDbEntity
  8
0
100
AcDbLine
 62
7
  6
BYLAYER
 10
93.1374287037
 20
202.6578907139
 11
129.1374287037
 21
202.6578907139
  0
LINE
  5
33A
100
AcDbEntity
  8
0
100
AcDbLine
 62
7
  6
BYLAYER
 10
117.0699647037
 20
205.8725827411
 11
116.7764543037
 21
205.8725827411
  0
LINE
  5
33B
100
AcDbEntity
  8
0
100
AcDbLine
 62
7
  6
BYLAYER
 10
115.2045887037
 20
205.8725827411
 11
114.9110783037
 21
205.8725827411
  0
LINE
  5
33C
100
AcDbEntity
  8
0
100
AcDbLine
 62
7
  6
BYLAYER
 10
108.2546975037
 20
205.8725827411
 11
107.9602831037
 21
205.8725827411
  0
LINE
  5
33D
100
AcDbEntity
  8
0
100
AcDbLine
 62
7
  6
BYLAYER
 10
107.2048303037
 20
205.8739036389
 11
105.8948687037
 21
205.8739036389
  0
LINE
  5
33E
100
AcDbEntity
  8
0
100
AcDbLine
 62
7
  6
BYLAYER
 10
101.7152703037
 20
205.9418753196
 11
102.4955583037
 21
205.9418753196
  0
LINE
  5
33F
100
AcDbEntity
  8
0
100
AcDbLine
 62
7
  6
BYLAYER
 10
102.4955583037
 20
206.0074204858
 11
101.7152703037
 21
206.0074204858
  0
LINE
  5
340
100
AcDbEntity
  8
0
100
AcDbLine
 62
7
  6
BYLAYER
 10
106.2163759037
 20
206.0934569269
 11
107.2048303037
 21
206.0934569269
  0
LINE
  5
341
100
AcDbEntity
  8
0
100
AcDbLine
 62
7
  6
BYLAYER
 10
106.2163759037
 20
206.1590020931
 11
107.2048303037
 21
206.1590020931
  0
LINE
  5
342
100
AcDbEntity
  8
0
100
AcDbLine
 62
7
  6
BYLAYER
 10
103.9333103037
 20
206.4587523
 11
104.5110479649
 21
206.4587523
  0
LINE
  5
343
100
AcDbEntity
  8
0
100
AcDbLine
 62
7
  6
BYLAYER
 10
102.3510607037
 20
206.5088745014
 11
101.8502847037
 21
206.5088745014
  0
LINE
  5
344
100
AcDbEntity
  8
0
100
AcDbLine
 62
7
  6
BYLAYER
 10
103.9333103037
 20
206.5242974662
 11
104.5614239037
 21
206.5242974662
  0
LINE
  5
345
100
AcDbEntity
  8
0
100
AcDbLine
 62
7
  6
BYLAYER
 10
110.3494639037
 20
206.558227052
 11
109.3023055037
 21
206.558227052
  0
LINE
  5
346
100
AcDbEntity
  8
0
100
AcDbLine
 62
7
  6
BYLAYER
 10
128.5393524924
 20
225.8013397213
 11
129.0829599845
 21
224.8597839256
  0
LINE
  5
347
100
AcDbEntity
  8
0
100
AcDbLine
 62
7
  6
BYLAYER
 10
109.3081759037
 20
206.6839232146
 11
110.0568559037
 21
206.6839232146
  0
LINE
  5
348
100
AcDbEntity
  8
0
100
AcDbLine
 62
7
  6
BYLAYER
 10
101.2388783037
 20
206.7354788229
 11
101.9193727037
 21
206.7354788229
  0
LINE
  5
349
100
AcDbEntity
  8
0
100
AcDbLine
 62
7
  6
BYLAYER
 10
109.3081759037
 20
206.7494683808
 11
110.0568559037
 21
206.7494683808
  0
LINE
  5
34A
100
AcDbEntity
  8
0
100
AcDbLine
 62
7
  6
BYLAYER
 10
101.2388783037
 20
206.8010239891
 11
101.9193727037
 21
206.8010239891
  0
LINE
  5
34B
100
AcDbEntity
  8
0
100
AcDbLine
 62
7
  6
BYLAYER
 10
104.7628175037
 20
206.8397999894
 11
104.0290399037
 21
206.8397999894
  0
LINE
  5
34C
100
AcDbEntity
  8
0
100
AcDbLine
 62
7
  6
BYLAYER
 10
107.1425167037
 20
206.8450882646
 11
106.2163759037
 21
206.8450882646
  0
LINE
  5
34D
100
AcDbEntity
  8
0
100
AcDbLine
 62
7
  6
BYLAYER
 10
106.2163759037
 20
207.0650818518
 11
107.1425167037
 21
207.0650818518
  0
LINE
  5
34E
100
AcDbEntity
  8
0
100
AcDbLine
 62
7
  6
BYLAYER
 10
114.0806671037
 20
207.0702591792
 11
113.6092431037
 21
207.0702591792
  0
LINE
  5
34F
100
AcDbEntity
  8
0
100
AcDbLine
 62
7
  6
BYLAYER
 10
113.3157327037
 20
207.0702591792
 11
113.0565391037
 21
207.0702591792
  0
LINE
  5
350
100
AcDbEntity
  8
0
100
AcDbLine
 62
7
  6
BYLAYER
 10
104.1021919037
 20
207.0738940824
 11
104.9050575037
 21
207.0738940824
  0
LINE
  5
351
100
AcDbEntity
  8
0
100
AcDbLine
 62
7
  6
BYLAYER
 10
102.0304559037
 20
207.1178489714
 11
101.3382207037
 21
207.1178489714
  0
LINE
  5
352
100
AcDbEntity
  8
0
100
AcDbLine
 62
7
  6
BYLAYER
 10
106.2163759037
 20
207.130627018
 11
107.1425167037
 21
207.130627018
  0
LINE
  5
353
100
AcDbEntity
  8
0
100
AcDbLine
 62
7
  6
BYLAYER
 10
104.1021919037
 20
207.1394392486
 11
104.9050575037
 21
207.1394392486
  0
LINE
  5
354
100
AcDbEntity
  8
0
100
AcDbLine
 62
7
  6
BYLAYER
 10
113.6092431037
 20
207.2629323536
 11
114.0806671037
 21
207.2629323536
  0
LINE
  5
355
100
AcDbEntity
  8
0
100
AcDbLine
 62
7
  6
BYLAYER
 10
114.9110783037
 20
207.2629323536
 11
115.2045887037
 21
207.2629323536
  0
LINE
  5
356
100
AcDbEntity
  8
0
100
AcDbLine
 62
7
  6
BYLAYER
 10
116.7764543037
 20
207.2629323536
 11
117.0699647037
 21
207.2629323536
  0
LINE
  5
357
100
AcDbEntity
  8
0
100
AcDbLine
 62
7
  6
BYLAYER
 10
113.6092431037
 20
207.3284775198
 11
114.0806671037
 21
207.3284775198
  0
LINE
  5
358
100
AcDbEntity
  8
0
100
AcDbLine
 62
7
  6
BYLAYER
 10
114.9110783037
 20
207.3284775198
 11
115.2045887037
 21
207.3284775198
  0
LINE
  5
359
100
AcDbEntity
  8
0
100
AcDbLine
 62
7
  6
BYLAYER
 10
116.7764543037
 20
207.3284775198
 11
117.0699647037
 21
207.3284775198
  0
LINE
  5
35A
100
AcDbEntity
  8
0
100
AcDbLine
 62
7
  6
BYLAYER
 10
101.4858799037
 20
207.3506206053
 11
102.0697407037
 21
207.3506206053
  0
LINE
  5
35B
100
AcDbEntity
  8
0
100
AcDbLine
 62
7
  6
BYLAYER
 10
101.4858799037
 20
207.4161657715
 11
102.0697407037
 21
207.4161657715
  0
LINE
  5
35C
100
AcDbEntity
  8
0
100
AcDbLine
 62
7
  6
BYLAYER
 10
105.0039487037
 20
207.4553836324
 11
104.1915999037
 21
207.4553836324
  0
LINE
  5
35D
100
AcDbEntity
  8
0
100
AcDbLine
 62
7
  6
BYLAYER
 10
103.9220223037
 20
207.6683261862
 11
104.4047343037
 21
207.6683261862
  0
LINE
  5
35E
100
AcDbEntity
  8
0
100
AcDbLine
 62
7
  6
BYLAYER
 10
102.1835327037
 20
207.7325504546
 11
101.6949503037
 21
207.7325504546
  0
LINE
  5
35F
100
AcDbEntity
  8
0
100
AcDbLine
 62
7
  6
BYLAYER
 10
103.9220223038
 20
207.7338713523
 11
104.4047343037
 21
207.7338713523
  0
LINE
  5
360
100
AcDbEntity
  8
0
100
AcDbLine
 62
7
  6
BYLAYER
 10
107.1763823037
 20
207.7960035109
 11
106.2163759037
 21
207.7960035109
  0
LINE
  5
361
100
AcDbEntity
  8
0
100
AcDbLine
 62
7
  6
BYLAYER
 10
105.8948687037
 20
208.0155552375
 11
107.1763823037
 21
208.0155552375
  0
LINE
  5
362
100
AcDbEntity
  8
0
100
AcDbLine
 62
7
  6
BYLAYER
 10
107.9602831037
 20
208.0155552375
 11
108.2546975037
 21
208.0155552375
  0
LINE
  5
363
100
AcDbEntity
  8
0
100
AcDbLine
 62
7
  6
BYLAYER
 10
105.8948687037
 20
208.0811004037
 11
107.1763823037
 21
208.0811004037
  0
LINE
  5
364
100
AcDbEntity
  8
0
100
AcDbLine
 62
7
  6
BYLAYER
 10
107.9602831037
 20
208.0811004037
 11
108.2546975037
 21
208.0811004037
  0
LINE
  5
365
100
AcDbEntity
  8
0
100
AcDbLine
 62
7
  6
BYLAYER
 10
104.5072383037
 20
208.1952284698
 11
103.7079839037
 21
208.1952284698
  0
LINE
  5
366
100
AcDbEntity
  8
0
100
AcDbLine
 62
7
  6
BYLAYER
 10
127.1258319037
 20
208.5129340507
 11
120.6374287037
 21
208.5129340507
  0
LINE
  5
367
100
AcDbEntity
  8
0
100
AcDbLine
 62
7
  6
BYLAYER
 10
110.9351311037
 20
208.5261539578
 11
110.1092367037
 21
208.5261539578
  0
LINE
  5
368
100
AcDbEntity
  8
0
100
AcDbLine
 62
7
  6
BYLAYER
 10
114.0567343037
 20
208.5270345564
 11
113.2312911037
 21
208.5270345564
  0
LINE
  5
369
100
AcDbEntity
  8
0
100
AcDbLine
 62
7
  6
BYLAYER
 10
118.3830879037
 20
208.5301197739
 11
117.5567423037
 21
208.5301197739
  0
LINE
  5
36A
100
AcDbEntity
  8
0
100
AcDbLine
 62
7
  6
BYLAYER
 10
106.7198607037
 20
208.5327631308
 11
105.8944159037
 21
208.5327631308
  0
LINE
  5
36B
100
AcDbEntity
  8
0
100
AcDbLine
 62
7
  6
BYLAYER
 10
101.8846031037
 20
208.5336452906
 11
101.0587087037
 21
208.5336452906
  0
LINE
  5
36C
100
AcDbEntity
  8
0
100
AcDbLine
 62
7
  6
BYLAYER
 10
117.1476319037
 20
209.6718344884
 11
115.2610335037
 21
209.6718344884
  0
LINE
  5
36D
100
AcDbEntity
  8
0
100
AcDbLine
 62
7
  6
BYLAYER
 10
109.7899855037
 20
209.6718344884
 11
107.9024847037
 21
209.6718344884
  0
LINE
  5
36E
100
AcDbEntity
  8
0
100
AcDbLine
 62
7
  6
BYLAYER
 10
107.9200943037
 20
210.0315122349
 11
109.0602719037
 21
210.0315122349
  0
LINE
  5
36F
100
AcDbEntity
  8
0
100
AcDbLine
 62
7
  6
BYLAYER
 10
115.2777407037
 20
210.0315122349
 11
116.4201759037
 21
210.0315122349
  0
LINE
  5
370
100
AcDbEntity
  8
0
100
AcDbLine
 62
7
  6
BYLAYER
 10
107.9200943037
 20
210.0970574011
 11
109.0602719037
 21
210.0970574011
  0
LINE
  5
371
100
AcDbEntity
  8
0
100
AcDbLine
 62
7
  6
BYLAYER
 10
115.2777407037
 20
210.0970574011
 11
116.4201759037
 21
210.0970574011
  0
LINE
  5
372
100
AcDbEntity
  8
0
100
AcDbLine
 62
7
  6
BYLAYER
 10
104.0800655037
 20
211.0278126544
 11
104.9059615037
 21
211.0278126544
  0
LINE
  5
373
100
AcDbEntity
  8
0
100
AcDbLine
 62
7
  6
BYLAYER
 10
110.1092367037
 20
211.0278126544
 11
110.9351311037
 21
211.0278126544
  0
LINE
  5
374
100
AcDbEntity
  8
0
100
AcDbLine
 62
7
  6
BYLAYER
 10
120.6374287037
 20
211.0300172734
 11
127.1258319037
 21
211.0300172734
  0
LINE
  5
375
100
AcDbEntity
  8
0
100
AcDbLine
 62
7
  6
BYLAYER
 10
117.5567423037
 20
211.0304575727
 11
118.3830879037
 21
211.0304575727
  0
LINE
  5
376
100
AcDbEntity
  8
0
100
AcDbLine
 62
7
  6
BYLAYER
 10
104.0800655037
 20
211.0933578206
 11
104.9059615037
 21
211.0933578206
  0
LINE
  5
377
100
AcDbEntity
  8
0
100
AcDbLine
 62
7
  6
BYLAYER
 10
110.1092367037
 20
211.0933578206
 11
110.9351311037
 21
211.0933578206
  0
LINE
  5
378
100
AcDbEntity
  8
0
100
AcDbLine
 62
7
  6
BYLAYER
 10
120.6374287037
 20
211.0955624396
 11
127.1258319037
 21
211.0955624396
  0
LINE
  5
379
100
AcDbEntity
  8
0
100
AcDbLine
 62
7
  6
BYLAYER
 10
117.5567423037
 20
211.0960027389
 11
118.3830879037
 21
211.0960027389
  0
LINE
  5
37A
100
AcDbEntity
  8
0
100
AcDbLine
 62
7
  6
BYLAYER
 10
101.0587087037
 20
212.2523692061
 11
101.8846031037
 21
212.2523692061
  0
LINE
  5
37B
100
AcDbEntity
  8
0
100
AcDbLine
 62
7
  6
BYLAYER
 10
113.2312911037
 20
212.2523692061
 11
114.0567343037
 21
212.2523692061
  0
LINE
  5
37C
100
AcDbEntity
  8
0
100
AcDbLine
 62
7
  6
BYLAYER
 10
101.0587087037
 20
212.3179143723
 11
101.8846031037
 21
212.3179143723
  0
LINE
  5
37D
100
AcDbEntity
  8
0
100
AcDbLine
 62
7
  6
BYLAYER
 10
113.2312911037
 20
212.3179143723
 11
114.0567343037
 21
212.3179143723
  0
LINE
  5
37E
100
AcDbEntity
  8
0
100
AcDbLine
 62
7
  6
BYLAYER
 10
93.1374287037
 20
214.6578907139
 11
129.1374287037
 21
214.6578907139
  0
LINE
  5
37F
100
AcDbEntity
  8
0
100
AcDbLine
 62
7
  6
BYLAYER
 10
93.7355049151
 20
225.8013397213
 11
94.9543380026
 21
225.0976461101
  0
LINE
  5
380
100
AcDbEntity
  8
0
100
AcDbLine
 62
7
  6
BYLAYER
 10
85.1374287037
 20
215.4704048558
 11
88.6099228487
 21
215.4704048558
  0
LINE
  5
381
100
AcDbEntity
  8
0
100
AcDbLine
 62
7
  6
BYLAYER
 10
133.6649345587
 20
215.4704048558
 11
137.1374287038
 21
215.4704048558
  0
LINE
  5
382
100
AcDbEntity
  8
0
100
AcDbLine
 62
7
  6
BYLAYER
 10
91.6398549403
 20
26.8321457978
 11
93.2765865329
 21
28.4688773904
  0
LINE
  5
383
100
AcDbEntity
  8
0
100
AcDbLine
 62
7
  6
BYLAYER
 10
128.1374287037
 20
227.3013397213
 11
125.1374287037
 21
227.3013397213
  0
LINE
  5
384
100
AcDbEntity
  8
0
100
AcDbLine
 62
7
  6
BYLAYER
 10
97.1374287037
 20
227.3013397213
 11
94.1374287037
 21
227.3013397213
  0
LINE
  5
385
100
AcDbEntity
  8
0
100
AcDbLine
 62
7
  6
BYLAYER
 10
98.1184153803
 20
23.627048543
 11
96.4816837877
 21
21.9903169504
  0
LINE
  5
386
100
AcDbEntity
  8
0
100
AcDbLine
 62
7
  6
BYLAYER
 10
99.3374287037
 20
236.4293014211
 11
122.9365788399
 21
236.4293014211
  0
LINE
  5
387
100
AcDbEntity
  8
0
100
AcDbLine
 62
7
  6
BYLAYER
 10
122.8991395015
 20
237.0468983172
 11
99.375717906
 21
237.0468983172
  0
LINE
  5
388
100
AcDbEntity
  8
0
100
AcDbLine
 62
7
  6
BYLAYER
 10
94.1374287037
 20
240.2578907139
 11
97.1374287037
 21
240.2578907139
  0
LINE
  5
389
100
AcDbEntity
  8
0
100
AcDbLine
 62
7
  6
BYLAYER
 10
125.1374287037
 20
240.2598145025
 11
128.1374287037
 21
240.2598145025
  0
LINE
  5
38A
100
AcDbEntity
  8
0
100
AcDbLine
 62
7
  6
BYLAYER
 10
100.8124287037
 20
248.5892867601
 11
121.4624287037
 21
248.5892867601
  0
LINE
  5
38B
100
AcDbEntity
  8
0
100
AcDbLine
 62
7
  6
BYLAYER
 10
102.4874287037
 20
254.0892867601
 11
106.5849369919
 21
254.0892867601
  0
LINE
  5
38C
100
AcDbEntity
  8
0
100
AcDbLine
 62
7
  6
BYLAYER
 10
115.6626184292
 20
254.0892867601
 11
119.7874287037
 21
254.0892867601
  0
LINE
  5
38D
100
AcDbEntity
  8
0
100
AcDbLine
 62
7
  6
BYLAYER
 10
102.4874287037
 20
257.0892867601
 11
119.7874287037
 21
257.0892867601
  0
LINE
  5
38E
100
AcDbEntity
  8
0
100
AcDbLine
 62
7
  6
BYLAYER
 10
93.2765865328
 20
28.4688773904
 11
101.5076955734
 21
31.8581575836
  0
LINE
  5
38F
100
AcDbEntity
  8
0
100
AcDbLine
 62
7
  6
BYLAYER
 10
103.4874287037
 20
262.5892867601
 11
118.7874287037
 21
262.5892867601
  0
LINE
  5
390
100
AcDbEntity
  8
0
100
AcDbLine
 62
7
  6
BYLAYER
 10
103.4874287037
 20
265.5892867601
 11
118.7874287037
 21
265.5892867601
  0
LINE
  5
391
100
AcDbEntity
  8
0
100
AcDbLine
 62
7
  6
BYLAYER
 10
104.3874287037
 20
271.0892867601
 11
117.8874287037
 21
271.0892867601
  0
LINE
  5
392
100
AcDbEntity
  8
0
100
AcDbLine
 62
7
  6
BYLAYER
 10
104.3874287037
 20
274.0892867601
 11
117.8874287037
 21
274.0892867601
  0
LINE
  5
393
100
AcDbEntity
  8
0
100
AcDbLine
 62
7
  6
BYLAYER
 10
105.4874287037
 20
279.5892867601
 11
116.7874287037
 21
279.5892867601
  0
LINE
  5
394
100
AcDbEntity
  8
0
100
AcDbLine
 62
7
  6
BYLAYER
 10
105.4874287037
 20
282.5892867601
 11
116.7874287037
 21
282.5892867601
  0
ARC
  5
395
100
AcDbEntity
  8
0
100
AcDbCircle
 62
7
  6
BYLAYER
 10
-7641.4668982289
 20
-86.5164628745
 40
7777.8429393295
100
AcDbArc
 50
1.6371110435
 51
2.0294828686
  0
ARC
  5
396
100
AcDbEntity
  8
0
100
AcDbCircle
 62
7
  6
BYLAYER
 10
-7549.5682272049
 20
-84.6585042738
 40
7686.9145241261
100
AcDbArc
 50
1.643417515
 51
2.0407574496
  0
ARC
  5
397
100
AcDbEntity
  8
0
100
AcDbCircle
 62
7
  6
BYLAYER
 10
96.6374287037
 20
26.9395796622
 40
5.0
100
AcDbArc
 50
181.237363421
 51
270.0
  0
ARC
  5
398
100
AcDbEntity
  8
0
100
AcDbCircle
 62
7
  6
BYLAYER
 10
96.6374287037
 20
26.9878907139
 40
5.0
100
AcDbArc
 50
180.0
 51
270.0
  0
ARC
  5
399
100
AcDbEntity
  8
0
100
AcDbCircle
 62
7
  6
BYLAYER
 10
49.2204209113
 20
64.5227188849
 40
110.9249448095
100
AcDbArc
 50
44.8751991386
 51
45.1125064492
  0
ARC
  5
39A
100
AcDbEntity
  8
0
100
AcDbCircle
 62
7
  6
BYLAYER
 10
30.3207380531
 20
99.7414037958
 40
63.0235771249
100
AcDbArc
 50
358.2030935178
 51
16.0580379319
  0
ARC
  5
39B
100
AcDbEntity
  8
0
100
AcDbCircle
 62
7
  6
BYLAYER
 10
31.6374287037
 20
96.8378907139
 40
60.0
100
AcDbArc
 50
0.0
 51
18.9445287207
  0
ARC
  5
39C
100
AcDbEntity
  8
0
100
AcDbCircle
 62
7
  6
BYLAYER
 10
72.6360626615
 20
96.1088538052
 40
20.6407165025
100
AcDbArc
 50
359.7524637164
 51
4.7077109424
  0
ARC
  5
39D
100
AcDbEntity
  8
0
100
AcDbCircle
 62
7
  6
BYLAYER
 10
73.2889294761
 20
96.9221922929
 40
20.0420778108
100
AcDbArc
 50
357.3013003359
 51
2.410223019
  0
ARC
  5
39E
100
AcDbEntity
  8
0
100
AcDbCircle
 62
7
  6
BYLAYER
 10
77.1374287037
 20
135.7962017656
 40
60.0
100
AcDbArc
 50
341.0554712793
 51
360.0
  0
ARC
  5
39F
100
AcDbEntity
  8
0
100
AcDbCircle
 62
7
  6
BYLAYER
 10
77.2865548284
 20
132.7345418999
 40
56.2963161713
100
AcDbArc
 50
343.9548948178
 51
352.7095264044
  0
ARC
  5
3A0
100
AcDbEntity
  8
0
100
AcDbCircle
 62
7
  6
BYLAYER
 10
89.1409160867
 20
135.2991356555
 40
45.0458654312
100
AcDbArc
 50
347.5537455228
 51
0.6312175153
  0
ARC
  5
3A1
100
AcDbEntity
  8
0
100
AcDbCircle
 62
7
  6
BYLAYER
 10
111.1374287037
 20
106.0878907138
 40
120.1200000001
100
AcDbArc
 50
81.4217910076
 51
81.8255763735
  0
ARC
  5
3A2
100
AcDbEntity
  8
0
100
AcDbCircle
 62
7
  6
BYLAYER
 10
111.1374287037
 20
106.0878907138
 40
120.1200000001
100
AcDbArc
 50
98.1743871653
 51
98.5782089924
  0
ARC
  5
3A3
100
AcDbEntity
  8
0
100
AcDbCircle
 62
7
  6
BYLAYER
 10
111.1374287037
 20
106.0878907138
 40
120.1200000001
100
AcDbArc
 50
95.6051841431
 51
97.2195568484
  0
ARC
  5
3A4
100
AcDbEntity
  8
0
100
AcDbCircle
 62
7
  6
BYLAYER
 10
111.1374287037
 20
106.0878907138
 40
120.1200000001
100
AcDbArc
 50
82.7804431515
 51
84.3949474983
  0
ARC
  5
3A5
100
AcDbEntity
  8
0
100
AcDbCircle
 62
7
  6
BYLAYER
 10
111.1374287035
 20
111.0067097902
 40
112.2741882415
100
AcDbArc
 50
81.0473728184
 51
98.9526271814
  0
ARC
  5
3A6
100
AcDbEntity
  8
0
100
AcDbCircle
 62
7
  6
BYLAYER
 10
111.1374287043
 20
111.5815176251
 40
109.4066461241
100
AcDbArc
 50
81.0438587435
 51
98.9561412508
  0
ARC
  5
3A7
100
AcDbEntity
  8
0
100
AcDbCircle
 62
7
  6
BYLAYER
 10
104.1374287037
 20
123.0278907139
 40
4.675
100
AcDbArc
 50
180.0
 51
270.0
  0
ARC
  5
3A8
100
AcDbEntity
  8
0
100
AcDbCircle
 62
7
  6
BYLAYER
 10
97.401899842
 20
120.2319189718
 40
4.1972330079
100
AcDbArc
 50
180.502230698
 51
190.048049237
  0
ARC
  5
3A9
100
AcDbEntity
  8
0
100
AcDbCircle
 62
7
  6
BYLAYER
 10
97.6374287037
 20
120.1028907139
 40
4.0
100
AcDbArc
 50
180.0000013578
 51
269.9999999998
  0
ARC
  5
3AA
100
AcDbEntity
  8
0
100
AcDbCircle
 62
7
  6
BYLAYER
 10
104.1374287037
 20
123.0278907139
 40
3.0
100
AcDbArc
 50
223.8485290988
 51
270.0
  0
ARC
  5
3AB
100
AcDbEntity
  8
0
100
AcDbCircle
 62
7
  6
BYLAYER
 10
104.0983271039
 20
123.0672119634
 40
3.0
100
AcDbArc
 50
179.6790484415
 51
269.6790484441
  0
ARC
  5
3AC
100
AcDbEntity
  8
0
100
AcDbCircle
 62
7
  6
BYLAYER
 10
104.0983271039
 20
123.0672119634
 40
2.5000000395
100
AcDbArc
 50
179.6790541416
 51
269.679042746
  0
ARC
  5
3AD
100
AcDbEntity
  8
0
100
AcDbCircle
 62
7
  6
BYLAYER
 10
97.6374287037
 20
120.1028907139
 40
2.0
100
AcDbArc
 50
179.9836869364
 51
269.9999999996
  0
ARC
  5
3AE
100
AcDbEntity
  8
0
100
AcDbCircle
 62
7
  6
BYLAYER
 10
104.1374287037
 20
137.0278907139
 40
4.675
100
AcDbArc
 50
90.0
 51
180.0
  0
ARC
  5
3AF
100
AcDbEntity
  8
0
100
AcDbCircle
 62
7
  6
BYLAYER
 10
104.1374287037
 20
137.0278907139
 40
3.0
100
AcDbArc
 50
133.8485290957
 51
180.0
  0
ARC
  5
3B0
100
AcDbEntity
  8
0
100
AcDbCircle
 62
7
  6
BYLAYER
 10
104.1767499532
 20
137.0669923137
 40
3.0
100
AcDbArc
 50
89.6790484415
 51
179.6790484441
  0
ARC
  5
3B1
100
AcDbEntity
  8
0
100
AcDbCircle
 62
7
  6
BYLAYER
 10
104.1767499532
 20
137.0669923137
 40
2.5000000395
100
AcDbArc
 50
89.6790541417
 51
179.6790427459
  0
ARC
  5
3B2
100
AcDbEntity
  8
0
100
AcDbCircle
 62
7
  6
BYLAYER
 10
94.6374287037
 20
142.9528907139
 40
1.0
100
AcDbArc
 50
90.0
 51
180.0
  0
ARC
  5
3B3
100
AcDbEntity
  8
0
100
AcDbCircle
 62
7
  6
BYLAYER
 10
-3409.6064397315
 20
377.2498639641
 40
3545.9739244075
100
AcDbArc
 50
357.0032742431
 51
357.3885967978
  0
ARC
  5
3B4
100
AcDbEntity
  8
0
100
AcDbCircle
 62
7
  6
BYLAYER
 10
-3390.1757967672
 20
377.0357684784
 40
3527.5426101585
100
AcDbArc
 50
356.9875306499
 51
357.3748714037
  0
ARC
  5
3B5
100
AcDbEntity
  8
0
100
AcDbCircle
 62
7
  6
BYLAYER
 10
-230.3823854407
 20
175.867330187
 40
359.5497398365
100
AcDbArc
 50
359.0433353732
 51
359.7784647937
  0
ARC
  5
3B6
100
AcDbEntity
  8
0
100
AcDbCircle
 62
7
  6
BYLAYER
 10
52.3573608706
 20
190.1219742119
 40
38.4388215597
100
AcDbArc
 50
358.2172309002
 51
2.6068872283
  0
ARC
  5
3B7
100
AcDbEntity
  8
0
100
AcDbCircle
 62
7
  6
BYLAYER
 10
60.4068172219
 20
190.1210097131
 40
29.415720219
100
AcDbArc
 50
357.9634684882
 51
2.9830212509
  0
ARC
  5
3B8
100
AcDbEntity
  8
0
100
AcDbCircle
 62
7
  6
BYLAYER
 10
97.3766294426
 20
168.6708125522
 40
7.2049410389
100
AcDbArc
 50
89.9904011627
 51
126.3058959557
  0
ARC
  5
3B9
100
AcDbEntity
  8
0
100
AcDbCircle
 62
7
  6
BYLAYER
 10
104.1374287037
 20
167.0278907139
 40
4.675
100
AcDbArc
 50
90.0
 51
180.0
  0
ARC
  5
3BA
100
AcDbEntity
  8
0
100
AcDbCircle
 62
7
  6
BYLAYER
 10
104.1374287037
 20
153.0278907139
 40
4.675
100
AcDbArc
 50
180.0
 51
270.0
  0
ARC
  5
3BB
100
AcDbEntity
  8
0
100
AcDbCircle
 62
7
  6
BYLAYER
 10
97.4672311376
 20
169.8938758333
 40
4.3097121969
100
AcDbArc
 50
170.9375972822
 51
180.3941853353
  0
ARC
  5
3BC
100
AcDbEntity
  8
0
100
AcDbCircle
 62
7
  6
BYLAYER
 10
97.6374287037
 20
169.9528907139
 40
4.0
100
AcDbArc
 50
90.0
 51
180.0
  0
ARC
  5
3BD
100
AcDbEntity
  8
0
100
AcDbCircle
 62
7
  6
BYLAYER
 10
104.1374287037
 20
153.0278907139
 40
3.0
100
AcDbArc
 50
179.9999999973
 51
270.0
  0
ARC
  5
3BE
100
AcDbEntity
  8
0
100
AcDbCircle
 62
7
  6
BYLAYER
 10
104.1374287037
 20
167.0278907139
 40
3.0
100
AcDbArc
 50
89.9999999973
 51
180.0
  0
ARC
  5
3BF
100
AcDbEntity
  8
0
100
AcDbCircle
 62
7
  6
BYLAYER
 10
104.1374287037
 20
153.0278907139
 40
2.5000000395
100
AcDbArc
 50
180.0000056975
 51
269.9999943018
  0
ARC
  5
3C0
100
AcDbEntity
  8
0
100
AcDbCircle
 62
7
  6
BYLAYER
 10
104.1374287037
 20
167.0278907139
 40
2.5000000395
100
AcDbArc
 50
90.0000056975
 51
179.9999943018
  0
ARC
  5
3C1
100
AcDbEntity
  8
0
100
AcDbCircle
 62
7
  6
BYLAYER
 10
97.6374287037
 20
169.9528907139
 40
2.0
100
AcDbArc
 50
90.0
 51
180.0163883739
  0
ARC
  5
3C2
100
AcDbEntity
  8
0
100
AcDbCircle
 62
7
  6
BYLAYER
 10
94.6374287037
 20
147.1028907139
 40
1.0
100
AcDbArc
 50
180.0
 51
270.0
  0
ARC
  5
3C3
100
AcDbEntity
  8
0
100
AcDbCircle
 62
7
  6
BYLAYER
 10
49.2205078784
 20
225.5329755965
 40
110.9248218336
100
AcDbArc
 50
314.8874957613
 51
315.1248032739
  0
ARC
  5
3C4
100
AcDbEntity
  8
0
100
AcDbCircle
 62
7
  6
BYLAYER
 10
94.6374287037
 20
215.4704048558
 40
9.5
100
AcDbArc
 50
98.5782089924
 51
180.0
  0
ARC
  5
3C5
100
AcDbEntity
  8
0
100
AcDbCircle
 62
7
  6
BYLAYER
 10
103.7599767393
 20
206.250186755
 40
2.4980477554
100
AcDbArc
 50
132.8481090613
 51
137.0229575232
  0
ARC
  5
3C6
100
AcDbEntity
  8
0
100
AcDbCircle
 62
7
  6
BYLAYER
 10
103.1933228274
 20
209.5273059714
 40
1.7215448719
100
AcDbArc
 50
138.004657536
 51
139.4818998338
  0
ARC
  5
3C7
100
AcDbEntity
  8
0
100
AcDbCircle
 62
7
  6
BYLAYER
 10
99.6125144403
 20
209.8077654848
 40
1.3057401788
100
AcDbArc
 50
184.6795723312
 51
187.4133852188
  0
ARC
  5
3C8
100
AcDbEntity
  8
0
100
AcDbCircle
 62
7
  6
BYLAYER
 10
99.5583469415
 20
209.8036697417
 40
1.2514191471
100
AcDbArc
 50
180.0239465334
 51
184.6950047945
  0
ARC
  5
3C9
100
AcDbEntity
  8
0
100
AcDbCircle
 62
7
  6
BYLAYER
 10
97.194895811
 20
209.6292777552
 40
0.9219253509
100
AcDbArc
 50
359.9978113044
 51
7.9688376891
  0
ARC
  5
3CA
100
AcDbEntity
  8
0
100
AcDbCircle
 62
7
  6
BYLAYER
 10
102.6866006617
 20
209.7099043902
 40
0.9105281004
100
AcDbArc
 50
129.5101312801
 51
131.9881827863
  0
ARC
  5
3CB
100
AcDbEntity
  8
0
100
AcDbCircle
 62
7
  6
BYLAYER
 10
91.0966601541
 20
227.3081544229
 40
6.0407723935
100
AcDbArc
 50
341.0854548608
 51
359.9353636092
  0
ARC
  5
3CC
100
AcDbEntity
  8
0
100
AcDbCircle
 62
7
  6
BYLAYER
 10
91.1374287037
 20
227.3013397213
 40
3.0
100
AcDbArc
 50
330.0
 51
360.0
  0
ARC
  5
3CD
100
AcDbEntity
  8
0
100
AcDbCircle
 62
7
  6
BYLAYER
 10
104.7115655383
 20
205.4190070742
 40
3.7620352126
100
AcDbArc
 50
140.420355189
 51
142.5217551869
  0
ARC
  5
3CE
100
AcDbEntity
  8
0
100
AcDbCircle
 62
7
  6
BYLAYER
 10
104.2360153711
 20
205.8120264956
 40
3.1450974368
100
AcDbArc
 50
137.992615078
 51
140.4188752074
  0
ARC
  5
3CF
100
AcDbEntity
  8
0
100
AcDbCircle
 62
7
  6
BYLAYER
 10
104.1199681808
 20
205.9800738626
 40
2.9902707743
100
AcDbArc
 50
137.9639398206
 51
138.9081630629
  0
ARC
  5
3D0
100
AcDbEntity
  8
0
100
AcDbCircle
 62
7
  6
BYLAYER
 10
103.9972574474
 20
206.0251596206
 40
2.8250523567
100
AcDbArc
 50
136.9645392265
 51
137.9639635322
  0
ARC
  5
3D1
100
AcDbEntity
  8
0
100
AcDbCircle
 62
7
  6
BYLAYER
 10
108.4591354969
 20
210.9955832819
 40
2.1626207059
100
AcDbArc
 50
300.4314856057
 51
306.4478227134
  0
ARC
  5
3D2
100
AcDbEntity
  8
0
100
AcDbCircle
 62
7
  6
BYLAYER
 10
115.8262472987
 20
210.9837875253
 40
2.1483131303
100
AcDbArc
 50
300.4090666002
 51
306.4606944617
  0
ARC
  5
3D3
100
AcDbEntity
  8
0
100
AcDbCircle
 62
7
  6
BYLAYER
 10
106.1933722635
 20
209.4876998109
 40
1.7413934149
100
AcDbArc
 50
136.2583529564
 51
137.671752398
  0
ARC
  5
3D4
100
AcDbEntity
  8
0
100
AcDbCircle
 62
7
  6
BYLAYER
 10
108.4343482586
 20
209.6082208609
 40
1.5327267999
100
AcDbArc
 50
90.0143378966
 51
94.2251076648
  0
ARC
  5
3D5
100
AcDbEntity
  8
0
100
AcDbCircle
 62
7
  6
BYLAYER
 10
115.7915501699
 20
209.6094626947
 40
1.5314849679
100
AcDbArc
 50
90.0146006049
 51
94.2607782971
  0
ARC
  5
3D6
100
AcDbEntity
  8
0
100
AcDbCircle
 62
7
  6
BYLAYER
 10
108.4342215469
 20
209.5483925555
 40
1.5270099128
100
AcDbArc
 50
90.0096371546
 51
93.3969359901
  0
ARC
  5
3D7
100
AcDbEntity
  8
0
100
AcDbCircle
 62
7
  6
BYLAYER
 10
115.7914221881
 20
209.5496387321
 40
1.5257637371
100
AcDbArc
 50
90.0098493553
 51
93.4318163915
  0
ARC
  5
3D8
100
AcDbEntity
  8
0
100
AcDbCircle
 62
7
  6
BYLAYER
 10
116.4954929771
 20
206.18511224
 40
1.4883240516
100
AcDbArc
 50
148.091256842
 51
150.1526331768
  0
ARC
  5
3D9
100
AcDbEntity
  8
0
100
AcDbCircle
 62
7
  6
BYLAYER
 10
108.432132523
 20
209.7846851519
 40
1.3562636985
100
AcDbArc
 50
80.9645910404
 51
89.9225989353
  0
ARC
  5
3DA
100
AcDbEntity
  8
0
100
AcDbCircle
 62
7
  6
BYLAYER
 10
115.7893423901
 20
209.785450171
 40
1.3554986603
100
AcDbArc
 50
80.9969796129
 51
89.9231752184
  0
ARC
  5
3DB
100
AcDbEntity
  8
0
100
AcDbCircle
 62
7
  6
BYLAYER
 10
108.4325045238
 20
209.7261658639
 40
1.3492373729
100
AcDbArc
 50
81.9157120654
 51
89.9379930008
  0
ARC
  5
3DC
100
AcDbEntity
  8
0
100
AcDbCircle
 62
7
  6
BYLAYER
 10
115.789712859
 20
209.7269289821
 40
1.348474241
100
AcDbArc
 50
81.9482120224
 51
89.9385160155
  0
ARC
  5
3DD
100
AcDbEntity
  8
0
100
AcDbCircle
 62
7
  6
BYLAYER
 10
105.8767605954
 20
209.8395126958
 40
1.2673434687
100
AcDbArc
 50
124.0107890735
 51
126.8509708722
  0
ARC
  5
3DE
100
AcDbEntity
  8
0
100
AcDbCircle
 62
7
  6
BYLAYER
 10
112.2265829322
 20
206.5701761431
 40
1.1212150297
100
AcDbArc
 50
176.9418157725
 51
180.002639034
  0
ARC
  5
3DF
100
AcDbEntity
  8
0
100
AcDbCircle
 62
7
  6
BYLAYER
 10
112.2004870781
 20
206.571683713
 40
1.0950759164
100
AcDbArc
 50
173.7463948482
 51
176.9477389606
  0
ARC
  5
3E0
100
AcDbEntity
  8
0
100
AcDbCircle
 62
7
  6
BYLAYER
 10
111.835753542
 20
206.3194044366
 40
0.9720423224
100
AcDbArc
 50
72.6133659356
 51
81.3164244861
  0
ARC
  5
3E1
100
AcDbEntity
  8
0
100
AcDbCircle
 62
7
  6
BYLAYER
 10
111.8387250045
 20
206.3242409252
 40
0.9668924403
100
AcDbArc
 50
87.9460334668
 51
90.0018192548
  0
ARC
  5
3E2
100
AcDbEntity
  8
0
100
AcDbCircle
 62
7
  6
BYLAYER
 10
111.839163766
 20
206.3362506967
 40
0.9548746593
100
AcDbArc
 50
81.3660910277
 51
87.9465158821
  0
ARC
  5
3E3
100
AcDbEntity
  8
0
100
AcDbCircle
 62
7
  6
BYLAYER
 10
109.9284001315
 20
206.6205727774
 40
0.9195810832
100
AcDbArc
 50
169.9183321969
 51
179.9978964718
  0
ARC
  5
3E4
100
AcDbEntity
  8
0
100
AcDbCircle
 62
7
  6
BYLAYER
 10
109.8833273038
 20
206.628418327
 40
0.873830853
100
AcDbArc
 50
165.7051025036
 51
169.9074696224
  0
ARC
  5
3E5
100
AcDbEntity
  8
0
100
AcDbCircle
 62
7
  6
BYLAYER
 10
111.9079288301
 20
206.8901392032
 40
0.8407465646
100
AcDbArc
 50
269.9900144171
 51
279.0087296664
  0
ARC
  5
3E6
100
AcDbEntity
  8
0
100
AcDbCircle
 62
7
  6
BYLAYER
 10
109.8029947752
 20
206.894015732
 40
0.8397767451
100
AcDbArc
 50
269.9751330629
 51
282.0895062024
  0
ARC
  5
3E7
100
AcDbEntity
  8
0
100
AcDbCircle
 62
7
  6
BYLAYER
 10
111.8895881024
 20
206.5730195054
 40
0.7843400794
100
AcDbArc
 50
186.0245518174
 51
190.5514658632
  0
ARC
  5
3E8
100
AcDbEntity
  8
0
100
AcDbCircle
 62
7
  6
BYLAYER
 10
111.8389537786
 20
206.5114023206
 40
0.7797310875
100
AcDbArc
 50
90.0190665968
 51
94.1890246455
  0
ARC
  5
3E9
100
AcDbEntity
  8
0
100
AcDbCircle
 62
7
  6
BYLAYER
 10
111.8635785863
 20
206.5705091892
 40
0.7582107802
100
AcDbArc
 50
180.0290698381
 51
186.0421866847
  0
ARC
  5
3EA
100
AcDbEntity
  8
0
100
AcDbCircle
 62
7
  6
BYLAYER
 10
109.7119895467
 20
206.6486532737
 40
0.7057864157
100
AcDbArc
 50
192.6109309406
 51
197.8881779843
  0
ARC
  5
3EB
100
AcDbEntity
  8
0
100
AcDbCircle
 62
7
  6
BYLAYER
 10
109.6913843938
 20
206.5824800431
 40
0.7031518279
100
AcDbArc
 50
39.5316151008
 51
42.155113841
  0
ARC
  5
3EC
100
AcDbEntity
  8
0
100
AcDbCircle
 62
7
  6
BYLAYER
 10
109.702929945
 20
206.6537050905
 40
0.7029736527
100
AcDbArc
 50
90.0445050289
 51
96.6622672459
  0
ARC
  5
3ED
100
AcDbEntity
  8
0
100
AcDbCircle
 62
7
  6
BYLAYER
 10
109.7027114116
 20
206.5944557344
 40
0.6966777076
100
AcDbArc
 50
90.0269347203
 51
95.0868316179
  0
ARC
  5
3EE
100
AcDbEntity
  8
0
100
AcDbCircle
 62
7
  6
BYLAYER
 10
109.7017898976
 20
206.6919029233
 40
0.5992307361
100
AcDbArc
 50
82.0522408781
 51
89.9432037682
  0
ARC
  5
3EF
100
AcDbEntity
  8
0
100
AcDbCircle
 62
7
  6
BYLAYER
 10
113.8212353164
 20
206.5989388316
 40
0.5614436686
100
AcDbArc
 50
269.97826188
 51
281.6233465818
  0
ARC
  5
3F0
100
AcDbEntity
  8
0
100
AcDbCircle
 62
7
  6
BYLAYER
 10
115.7520077795
 20
206.6008829257
 40
0.5484052994
100
AcDbArc
 50
141.1339361277
 51
147.4500782619
  0
ARC
  5
3F1
100
AcDbEntity
  8
0
100
AcDbCircle
 62
7
  6
BYLAYER
 10
109.828733847
 20
206.7197292595
 40
0.5467328335
100
AcDbArc
 50
8.1139331734
 51
14.7680736013
  0
ARC
  5
3F2
100
AcDbEntity
  8
0
100
AcDbCircle
 62
7
  6
BYLAYER
 10
109.8441286846
 20
206.7220721062
 40
0.5311614541
100
AcDbArc
 50
0.0181179542
 51
8.098126557
  0
ARC
  5
3F3
100
AcDbEntity
  8
0
100
AcDbCircle
 62
7
  6
BYLAYER
 10
102.4874287037
 20
255.5892867601
 40
1.5
100
AcDbArc
 50
90.0
 51
270.0
  0
ARC
  5
3F4
100
AcDbEntity
  8
0
100
AcDbCircle
 62
7
  6
BYLAYER
 10
105.4874287037
 20
281.0892867601
 40
1.5
100
AcDbArc
 50
90.0
 51
270.0
  0
ARC
  5
3F5
100
AcDbEntity
  8
0
100
AcDbCircle
 62
7
  6
BYLAYER
 10
104.3874287037
 20
272.5892867601
 40
1.5
100
AcDbArc
 50
90.0
 51
270.0
  0
ARC
  5
3F6
100
AcDbEntity
  8
0
100
AcDbCircle
 62
7
  6
BYLAYER
 10
103.4874287037
 20
264.0892867601
 40
1.5
100
AcDbArc
 50
90.0
 51
270.0
  0
ARC
  5
3F7
100
AcDbEntity
  8
0
100
AcDbCircle
 62
7
  6
BYLAYER
 10
125.6374287037
 20
26.9395796622
 40
5.0
100
AcDbArc
 50
270.0
 51
358.7626031453
  0
ARC
  5
3F8
100
AcDbEntity
  8
0
100
AcDbCircle
 62
7
  6
BYLAYER
 10
125.6374287037
 20
26.9878907139
 40
5.0
100
AcDbArc
 50
270.0
 51
360.0
  0
ARC
  5
3F9
100
AcDbEntity
  8
0
100
AcDbCircle
 62
7
  6
BYLAYER
 10
173.0543495145
 20
64.5228058458
 40
110.9248218132
100
AcDbArc
 50
134.8874957613
 51
135.1248032739
  0
ARC
  5
3FA
100
AcDbEntity
  8
0
100
AcDbCircle
 62
7
  6
BYLAYER
 10
191.9785765843
 20
99.7386279871
 40
63.0478607116
100
AcDbArc
 50
163.9456848375
 51
181.7940337319
  0
ARC
  5
3FB
100
AcDbEntity
  8
0
100
AcDbCircle
 62
7
  6
BYLAYER
 10
190.6374287037
 20
96.8378907139
 40
60.0
100
AcDbArc
 50
161.0554712793
 51
180.0
  0
ARC
  5
3FC
100
AcDbEntity
  8
0
100
AcDbCircle
 62
7
  6
BYLAYER
 10
145.1374287037
 20
135.7962017656
 40
60.0
100
AcDbArc
 50
180.0
 51
198.9445287207
  0
ARC
  5
3FD
100
AcDbEntity
  8
0
100
AcDbCircle
 62
7
  6
BYLAYER
 10
144.9513160991
 20
132.7402519515
 40
56.2622410086
100
AcDbArc
 50
187.3153130688
 51
196.0613117476
  0
ARC
  5
3FE
100
AcDbEntity
  8
0
100
AcDbCircle
 62
7
  6
BYLAYER
 10
142.6253662938
 20
131.9848779532
 40
51.3082727562
100
AcDbArc
 50
190.4228780703
 51
191.1951595207
  0
ARC
  5
3FF
100
AcDbEntity
  8
0
100
AcDbCircle
 62
7
  6
BYLAYER
 10
133.0573008302
 20
135.2855966152
 40
44.969370775
100
AcDbArc
 50
179.3506790702
 51
192.4682646976
  0
ARC
  5
400
100
AcDbEntity
  8
0
100
AcDbCircle
 62
7
  6
BYLAYER
 10
149.6382060526
 20
96.1112764053
 40
20.6401377182
100
AcDbArc
 50
175.3007479482
 51
180.2538267158
  0
ARC
  5
401
100
AcDbEntity
  8
0
100
AcDbCircle
 62
7
  6
BYLAYER
 10
148.9853366903
 20
96.9226001999
 40
20.0414559599
100
AcDbArc
 50
177.5914090578
 51
182.6996545799
  0
ARC
  5
402
100
AcDbEntity
  8
0
100
AcDbCircle
 62
7
  6
BYLAYER
 10
118.1374287037
 20
123.0278907139
 40
4.675
100
AcDbArc
 50
270.0
 51
360.0
  0
ARC
  5
403
100
AcDbEntity
  8
0
100
AcDbCircle
 62
7
  6
BYLAYER
 10
118.1374287037
 20
137.0278907139
 40
4.675
100
AcDbArc
 50
0.0
 51
90.0
  0
ARC
  5
404
100
AcDbEntity
  8
0
100
AcDbCircle
 62
7
  6
BYLAYER
 10
124.8820992978
 20
120.2308799058
 40
4.1880826286
100
AcDbArc
 50
356.7510951664
 51
359.5108876215
  0
ARC
  5
405
100
AcDbEntity
  8
0
100
AcDbCircle
 62
7
  6
BYLAYER
 10
124.6374287037
 20
120.1028907139
 40
4.0
100
AcDbArc
 50
270.0
 51
360.0
  0
ARC
  5
406
100
AcDbEntity
  8
0
100
AcDbCircle
 62
7
  6
BYLAYER
 10
118.1374287037
 20
123.0278907139
 40
3.0
100
AcDbArc
 50
313.8485290951
 51
360.0
  0
ARC
  5
407
100
AcDbEntity
  8
0
100
AcDbCircle
 62
7
  6
BYLAYER
 10
118.1374287037
 20
137.0278907139
 40
3.0
100
AcDbArc
 50
43.8485290985
 51
90.0
  0
ARC
  5
408
100
AcDbEntity
  8
0
100
AcDbCircle
 62
7
  6
BYLAYER
 10
118.1765303035
 20
136.9885694644
 40
3.0
100
AcDbArc
 50
359.6790484415
 51
89.6790484441
  0
ARC
  5
409
100
AcDbEntity
  8
0
100
AcDbCircle
 62
7
  6
BYLAYER
 10
118.0981074542
 20
122.9887891141
 40
3.0
100
AcDbArc
 50
269.6790484415
 51
359.6790484441
  0
ARC
  5
40A
100
AcDbEntity
  8
0
100
AcDbCircle
 62
7
  6
BYLAYER
 10
118.1765303035
 20
136.9885694644
 40
2.5000000395
100
AcDbArc
 50
359.6790541416
 51
89.679042746
  0
ARC
  5
40B
100
AcDbEntity
  8
0
100
AcDbCircle
 62
7
  6
BYLAYER
 10
118.0981074542
 20
122.9887891141
 40
2.5000000395
100
AcDbArc
 50
269.6790541417
 51
359.6790427459
  0
ARC
  5
40C
100
AcDbEntity
  8
0
100
AcDbCircle
 62
7
  6
BYLAYER
 10
124.6374287037
 20
120.1028907139
 40
2.0
100
AcDbArc
 50
270.0
 51
0.0163883739
  0
ARC
  5
40D
100
AcDbEntity
  8
0
100
AcDbCircle
 62
7
  6
BYLAYER
 10
127.6374287037
 20
142.9528907139
 40
1.0
100
AcDbArc
 50
0.0
 51
90.0
  0
ARC
  5
40E
100
AcDbEntity
  8
0
100
AcDbCircle
 62
7
  6
BYLAYER
 10
7874.4964891309
 20
-86.8607007295
 40
7788.603117612
100
AcDbArc
 50
177.9707881658
 51
178.3626193247
  0
ARC
  5
40F
100
AcDbEntity
  8
0
100
AcDbCircle
 62
7
  6
BYLAYER
 10
7832.9264393006
 20
-86.7176713968
 40
7748.0324651153
100
AcDbArc
 50
177.960110281
 51
178.3543134403
  0
ARC
  5
410
100
AcDbEntity
  8
0
100
AcDbCircle
 62
7
  6
BYLAYER
 10
170.0867968954
 20
190.1208478327
 40
38.6080002345
100
AcDbArc
 50
177.4028704614
 51
181.7732819458
  0
ARC
  5
411
100
AcDbEntity
  8
0
100
AcDbCircle
 62
7
  6
BYLAYER
 10
161.7556802858
 20
190.121480357
 40
29.3034903946
100
AcDbArc
 50
177.0064616774
 51
182.0453103478
  0
ARC
  5
412
100
AcDbEntity
  8
0
100
AcDbCircle
 62
7
  6
BYLAYER
 10
124.898314513
 20
168.670304564
 40
7.2054132919
100
AcDbArc
 50
53.696958177
 51
90.0102864194
  0
ARC
  5
413
100
AcDbEntity
  8
0
100
AcDbCircle
 62
7
  6
BYLAYER
 10
118.1374287037
 20
153.0278907139
 40
4.675
100
AcDbArc
 50
270.0
 51
360.0
  0
ARC
  5
414
100
AcDbEntity
  8
0
100
AcDbCircle
 62
7
  6
BYLAYER
 10
118.1374287037
 20
167.0278907139
 40
4.675
100
AcDbArc
 50
0.0
 51
90.0
  0
ARC
  5
415
100
AcDbEntity
  8
0
100
AcDbCircle
 62
7
  6
BYLAYER
 10
124.8096441878
 20
169.8934061431
 40
4.3076913643
100
AcDbArc
 50
359.6116931384
 51
9.0957108633
  0
ARC
  5
416
100
AcDbEntity
  8
0
100
AcDbCircle
 62
7
  6
BYLAYER
 10
124.6374287037
 20
169.9528907139
 40
4.0
100
AcDbArc
 50
0.0000013578
 51
89.9999999998
  0
ARC
  5
417
100
AcDbEntity
  8
0
100
AcDbCircle
 62
7
  6
BYLAYER
 10
118.1374287037
 20
153.0278907139
 40
3.0
100
AcDbArc
 50
269.9999999973
 51
360.0
  0
ARC
  5
418
100
AcDbEntity
  8
0
100
AcDbCircle
 62
7
  6
BYLAYER
 10
118.1374287037
 20
167.0278907139
 40
3.0
100
AcDbArc
 50
0.0
 51
90.0
  0
ARC
  5
419
100
AcDbEntity
  8
0
100
AcDbCircle
 62
7
  6
BYLAYER
 10
118.1374287037
 20
167.0278907139
 40
2.5000000395
100
AcDbArc
 50
0.0000056975
 51
89.9999943018
  0
ARC
  5
41A
100
AcDbEntity
  8
0
100
AcDbCircle
 62
7
  6
BYLAYER
 10
118.1374287037
 20
153.0278907139
 40
2.5000000395
100
AcDbArc
 50
270.0000056975
 51
359.9999943018
  0
ARC
  5
41B
100
AcDbEntity
  8
0
100
AcDbCircle
 62
7
  6
BYLAYER
 10
124.6374287037
 20
169.9528907139
 40
2.0
100
AcDbArc
 50
359.9836869364
 51
89.9999999996
  0
ARC
  5
41C
100
AcDbEntity
  8
0
100
AcDbCircle
 62
7
  6
BYLAYER
 10
127.6374287037
 20
147.1028907139
 40
1.0
100
AcDbArc
 50
270.0
 51
360.0
  0
ARC
  5
41D
100
AcDbEntity
  8
0
100
AcDbCircle
 62
7
  6
BYLAYER
 10
173.0544364937
 20
225.5330625405
 40
110.9249448061
100
AcDbArc
 50
224.8751991386
 51
225.1125064492
  0
ARC
  5
41E
100
AcDbEntity
  8
0
100
AcDbCircle
 62
7
  6
BYLAYER
 10
127.6374287037
 20
215.4704048558
 40
9.5
100
AcDbArc
 50
0.0
 51
81.4217910076
  0
ARC
  5
41F
100
AcDbEntity
  8
0
100
AcDbCircle
 62
7
  6
BYLAYER
 10
131.1781972443
 20
227.3081544206
 40
6.0407723844
100
AcDbArc
 50
180.0646363692
 51
198.914543032
  0
ARC
  5
420
100
AcDbEntity
  8
0
100
AcDbCircle
 62
7
  6
BYLAYER
 10
131.1374287037
 20
227.3013397213
 40
3.0
100
AcDbArc
 50
180.0
 51
210.0
  0
ARC
  5
421
100
AcDbEntity
  8
0
100
AcDbCircle
 62
7
  6
BYLAYER
 10
120.2474358011
 20
209.4710604237
 40
2.0377166659
100
AcDbArc
 50
149.6264965873
 51
154.5625270527
  0
ARC
  5
422
100
AcDbEntity
  8
0
100
AcDbCircle
 62
7
  6
BYLAYER
 10
120.0676943016
 20
209.5575929443
 40
1.8382325704
100
AcDbArc
 50
154.5918248693
 51
156.4092338446
  0
ARC
  5
423
100
AcDbEntity
  8
0
100
AcDbCircle
 62
7
  6
BYLAYER
 10
119.7874287037
 20
255.5892867601
 40
1.5
100
AcDbArc
 50
270.0
 51
90.0
  0
ARC
  5
424
100
AcDbEntity
  8
0
100
AcDbCircle
 62
7
  6
BYLAYER
 10
118.9536370979
 20
206.5701692801
 40
1.111061195
100
AcDbArc
 50
176.8555899537
 51
180.0023092388
  0
ARC
  5
425
100
AcDbEntity
  8
0
100
AcDbCircle
 62
7
  6
BYLAYER
 10
118.9293006595
 20
206.5716177483
 40
1.0866819496
100
AcDbArc
 50
173.6350818753
 51
176.8614618021
  0
ARC
  5
426
100
AcDbEntity
  8
0
100
AcDbCircle
 62
7
  6
BYLAYER
 10
118.5743193747
 20
206.3174750046
 40
0.973971157
100
AcDbArc
 50
72.6305731698
 51
81.3249982249
  0
ARC
  5
427
100
AcDbEntity
  8
0
100
AcDbCircle
 62
7
  6
BYLAYER
 10
118.5772873935
 20
206.3222427413
 40
0.9688906241
100
AcDbArc
 50
87.9777172905
 51
90.0017675434
  0
ARC
  5
428
100
AcDbEntity
  8
0
100
AcDbCircle
 62
7
  6
BYLAYER
 10
118.577722393
 20
206.3342813163
 40
0.9568441968
100
AcDbArc
 50
81.3746506295
 51
87.978310667
  0
ARC
  5
429
100
AcDbEntity
  8
0
100
AcDbCircle
 62
7
  6
BYLAYER
 10
118.6464913415
 20
206.8975114506
 40
0.8481188118
100
AcDbArc
 50
269.9901477369
 51
278.9708010029
  0
ARC
  5
42A
100
AcDbEntity
  8
0
100
AcDbCircle
 62
7
  6
BYLAYER
 10
118.5775177454
 20
206.5099903858
 40
0.7811430225
100
AcDbArc
 50
90.0190883736
 51
94.2039189998
  0
ARC
  5
42B
100
AcDbEntity
  8
0
100
AcDbCircle
 62
7
  6
BYLAYER
 10
118.4209008373
 20
206.5905387859
 40
0.5802261404
100
AcDbArc
 50
192.5180884555
 51
198.6387000124
  0
ARC
  5
42C
100
AcDbEntity
  8
0
100
AcDbCircle
 62
7
  6
BYLAYER
 10
452.6562637336
 20
175.8673253243
 40
359.5487607773
100
AcDbArc
 50
180.2215412855
 51
180.9566664571
  0
ARC
  5
42D
100
AcDbEntity
  8
0
100
AcDbCircle
 62
7
  6
BYLAYER
 10
390.2999694695
 20
301.2910002785
 40
355.9876461866
100
AcDbArc
 50
214.5250763568
 51
215.7825030912
  0
ARC
  5
42E
100
AcDbEntity
  8
0
100
AcDbCircle
 62
7
  6
BYLAYER
 10
116.7874287037
 20
281.0892867601
 40
1.5
100
AcDbArc
 50
270.0
 51
90.0
  0
ARC
  5
42F
100
AcDbEntity
  8
0
100
AcDbCircle
 62
7
  6
BYLAYER
 10
117.8874287037
 20
272.5892867601
 40
1.5
100
AcDbArc
 50
270.0
 51
90.0
  0
ARC
  5
430
100
AcDbEntity
  8
0
100
AcDbCircle
 62
7
  6
BYLAYER
 10
118.7874287037
 20
264.0892867601
 40
1.5
100
AcDbArc
 50
270.0
 51
90.0
  0
ARC
  5
431
100
AcDbEntity
  8
0
100
AcDbCircle
 62
7
  6
BYLAYER
 10
3628.527289173
 20
377.0855871099
 40
3542.6159147739
100
AcDbArc
 50
182.6112205799
 51
182.9969083793
  0
ARC
  5
432
100
AcDbEntity
  8
0
100
AcDbCircle
 62
7
  6
BYLAYER
 10
3610.7490640619
 20
376.9520483967
 40
3525.8389712616
100
AcDbArc
 50
182.6250360103
 51
183.0125639166
  0
SPLINE
  5
433
100
AcDbEntity
  8
0
100
AcDbSpline
 62
7
  6
BYLAYER
 70
0
 71
3
 72
9
 73
5
 74
0
 42
0.0000001
 43
0.0000001
 44
0.0000000001
 40
0.0
 40
0.0
 40
0.0
 40
0.0
 40
0.4931766448
 40
1.0
 40
1.0
 40
1.0
 40
1.0
 10
110.9937641193
 20
212.0609025164
 30
0.0
 10
110.9937629256
 20
211.9583381622
 30
0.0
 10
110.9064140115
 20
211.7546021117
 30
0.0
 10
110.7541526408
 20
211.6051639256
 30
0.0
 10
110.6628431037
 20
211.5525118805
 30
0.0
  0
SPLINE
  5
434
100
AcDbEntity
  8
0
100
AcDbSpline
 62
7
  6
BYLAYER
 70
0
 71
3
 72
9
 73
5
 74
0
 42
0.0000001
 43
0.0000001
 44
0.0000000001
 40
0.0
 40
0.0
 40
0.0
 40
0.0
 40
0.4934670582
 40
1.0
 40
1.0
 40
1.0
 40
1.0
 10
117.0872458331
 20
207.8120075083
 30
0.0
 10
117.0872372366
 20
207.7756384769
 30
0.0
 10
117.0562792534
 20
207.7034474645
 30
0.0
 10
117.0021868388
 20
207.6505101958
 30
0.0
 10
116.9697199037
 20
207.6320825949
 30
0.0
  0
SPLINE
  5
435
100
AcDbEntity
  8
0
100
AcDbSpline
 62
7
  6
BYLAYER
 70
0
 71
3
 72
14
 73
10
 74
0
 42
0.0000001
 43
0.0000001
 44
0.0000000001
 40
0.0
 40
0.0
 40
0.0
 40
0.0
 40
0.1071141171
 40
0.215480818
 40
0.3279493004
 40
0.4461302775
 40
0.5718231499
 40
0.7060538266
 40
1.0
 40
1.0
 40
1.0
 40
1.0
 10
128.1374287037
 20
245.3578907139
 30
0.0
 10
128.1374287037
 20
245.8086890809
 30
0.0
 10
128.0214798316
 20
246.7195241827
 30
0.0
 10
127.5166963535
 20
248.0165045992
 30
0.0
 10
126.7241453594
 20
249.2142014633
 30
0.0
 10
125.6791355516
 20
250.2993149041
 30
0.0
 10
124.4111409678
 20
251.2691529081
 30
0.0
 10
122.3940440891
 20
252.4460350213
 30
0.0
 10
120.697820166
 20
253.0955484821
 30
0.0
 10
119.5124092239
 20
253.4493953751
 30
0.0
  0
SPLINE
  5
436
100
AcDbEntity
  8
0
100
AcDbSpline
 62
7
  6
BYLAYER
 70
0
 71
3
 72
11
 73
7
 74
0
 42
0.0000001
 43
0.0000001
 44
0.0000000001
 40
0.0
 40
0.0
 40
0.0
 40
0.0
 40
0.2441142816
 40
0.5004957692
 40
0.7566167229
 40
1.0
 40
1.0
 40
1.0
 40
1.0
 10
119.5124092239
 20
253.4493953751
 30
0.0
 10
118.1780729258
 20
253.8476967037
 30
0.0
 10
115.3692664298
 20
254.4289749712
 30
0.0
 10
111.0497764502
 20
254.7052483182
 30
0.0
 10
106.7359893596
 20
254.4059478368
 30
0.0
 10
103.9360897515
 20
253.8090080072
 30
0.0
 10
102.6084803832
 20
253.4028618049
 30
0.0
  0
SPLINE
  5
437
100
AcDbEntity
  8
0
100
AcDbSpline
 62
7
  6
BYLAYER
 70
0
 71
3
 72
14
 73
10
 74
0
 42
0.0000001
 43
0.0000001
 44
0.0000000001
 40
0.0
 40
0.0
 40
0.0
 40
0.0
 40
0.2934865827
 40
0.4275512216
 40
0.5531766171
 40
0.6714029749
 40
0.7840197802
 40
0.8926255162
 40
1.0
 40
1.0
 40
1.0
 40
1.0
 10
102.6084803832
 20
253.4028618049
 30
0.0
 10
101.4423627988
 20
253.0461196489
 30
0.0
 10
99.7744926801
 20
252.3946190444
 30
0.0
 10
97.7932337869
 20
251.2210329324
 30
0.0
 10
96.5482405457
 20
250.2558868363
 30
0.0
 10
95.5227195375
 20
249.1779628561
 30
0.0
 10
94.7454600616
 20
247.9900091982
 30
0.0
 10
94.2509785453
 20
246.7053036776
 30
0.0
 10
94.1374287037
 20
245.8040420742
 30
0.0
 10
94.1374287037
 20
245.3578907139
 30
0.0
  0
SPLINE
  5
438
100
AcDbEntity
  8
0
100
AcDbSpline
 62
7
  6
BYLAYER
 70
0
 71
3
 72
27
 73
23
 74
0
 42
0.0000001
 43
0.0000001
 44
0.0000000001
 40
0.0
 40
0.0
 40
0.0
 40
0.0
 40
0.0145937672
 40
0.030519191
 40
0.0485370509
 40
0.0691526575
 40
0.1190152739
 40
0.1801939501
 40
0.2511085305
 40
0.3296752454
 40
0.4134970591
 40
0.4999935436
 40
0.5864904872
 40
0.6703136356
 40
0.7488825357
 40
0.8197996505
 40
0.8809816068
 40
0.9308446576
 40
0.9514621629
 40
0.9694812099
 40
0.985407571
 40
1.0
 40
1.0
 40
1.0
 40
1.0
 10
125.1374287037
 20
245.3578907139
 30
0.0
 10
125.1374287037
 20
245.5174519856
 30
0.0
 10
125.103702978
 20
245.8520298503
 30
0.0
 10
124.9455641502
 20
246.3618983924
 30
0.0
 10
124.6674205458
 20
246.8928341381
 30
0.0
 10
124.0892259833
 20
247.6727651723
 30
0.0
 10
122.9951972819
 20
248.6316224127
 30
0.0
 10
121.268018899
 20
249.6350170183
 30
0.0
 10
119.1185495531
 20
250.483028079
 30
0.0
 10
116.6436108996
 20
251.1223289821
 30
0.0
 10
113.9466616795
 20
251.5187952803
 30
0.0
 10
111.1376395656
 20
251.6530693425
 30
0.0
 10
108.3286012542
 20
251.5188330106
 30
0.0
 10
105.631602652
 20
251.1224005827
 30
0.0
 10
103.1565926225
 20
250.4831133279
 30
0.0
 10
101.0070246974
 20
249.6351112437
 30
0.0
 10
99.2797819076
 20
248.6316891907
 30
0.0
 10
98.1856942576
 20
247.6728079703
 30
0.0
 10
97.6074586243
 20
246.892860736
 30
0.0
 10
97.3292744207
 20
246.3618941743
 30
0.0
 10
97.1711568542
 20
245.8520092113
 30
0.0
 10
97.1374287037
 20
245.5174373549
 30
0.0
 10
97.1374287037
 20
245.3578907139
 30
0.0
  0
SPLINE
  5
439
100
AcDbEntity
  8
0
100
AcDbSpline
 62
7
  6
BYLAYER
 70
0
 71
3
 72
11
 73
7
 74
0
 42
0.0000001
 43
0.0000001
 44
0.0000000001
 40
0.0
 40
0.0
 40
0.0
 40
0.0
 40
0.3070169699
 40
0.5588360105
 40
0.778661535
 40
1.0
 40
1.0
 40
1.0
 40
1.0
 10
109.0602719037
 20
210.0970574011
 30
0.0
 10
109.0355570439
 20
210.1817468319
 30
0.0
 10
108.9793634726
 20
210.3333357484
 30
0.0
 10
108.851625035
 20
210.5211600392
 30
0.0
 10
108.6834909786
 20
210.6378540796
 30
0.0
 10
108.5544628084
 20
210.6597629767
 30
0.0
 10
108.4908607037
 20
210.6597629767
 30
0.0
  0
SPLINE
  5
43A
100
AcDbEntity
  8
0
100
AcDbSpline
 62
7
  6
BYLAYER
 70
0
 71
3
 72
11
 73
7
 74
0
 42
0.0000001
 43
0.0000001
 44
0.0000000001
 40
0.0
 40
0.0
 40
0.0
 40
0.0
 40
0.2214113077
 40
0.4413132891
 40
0.6931214838
 40
1.0
 40
1.0
 40
1.0
 40
1.0
 10
108.4908607037
 20
210.6597629767
 30
0.0
 10
108.4271723187
 20
210.6597629767
 30
0.0
 10
108.2979777159
 20
210.6378494376
 30
0.0
 10
108.129535879
 20
210.5211905302
 30
0.0
 10
108.0014070422
 20
210.3333815135
 30
0.0
 10
107.944945269
 20
210.1817599249
 30
0.0
 10
107.9200943037
 20
210.0970574011
 30
0.0
  0
SPLINE
  5
43B
100
AcDbEntity
  8
0
100
AcDbSpline
 62
7
  6
BYLAYER
 70
0
 71
3
 72
9
 73
5
 74
0
 42
0.0000001
 43
0.0000001
 44
0.0000000001
 40
0.0
 40
0.0
 40
0.0
 40
0.0
 40
0.5113766841
 40
1.0
 40
1.0
 40
1.0
 40
1.0
 10
113.2312911037
 20
210.4531002444
 30
0.0
 10
113.1618811816
 20
210.5007347255
 30
0.0
 10
113.0133425258
 20
210.5776520437
 30
0.0
 10
112.8475300571
 20
210.6038012531
 30
0.0
 10
112.7670927037
 20
210.6038012531
 30
0.0
  0
SPLINE
  5
43C
100
AcDbEntity
  8
0
100
AcDbSpline
 62
7
  6
BYLAYER
 70
0
 71
3
 72
11
 73
7
 74
0
 42
0.0000001
 43
0.0000001
 44
0.0000000001
 40
0.0
 40
0.0
 40
0.0
 40
0.0
 40
0.2539901629
 40
0.5041024216
 40
0.7503417859
 40
1.0
 40
1.0
 40
1.0
 40
1.0
 10
112.7670927037
 20
210.6038012531
 30
0.0
 10
112.667828764
 20
210.6038012531
 30
0.0
 10
112.4694817627
 20
210.5568256712
 30
0.0
 10
112.2273274892
 20
210.3697683727
 30
0.0
 10
112.1199394134
 20
210.0876898199
 30
0.0
 10
112.1055631037
 20
209.8936666188
 30
0.0
 10
112.1055631037
 20
209.7960956828
 30
0.0
  0
SPLINE
  5
43D
100
AcDbEntity
  8
0
100
AcDbSpline
 62
7
  6
BYLAYER
 70
0
 71
3
 72
11
 73
7
 74
0
 42
0.0000001
 43
0.0000001
 44
0.0000000001
 40
0.0
 40
0.0
 40
0.0
 40
0.0
 40
0.3066487249
 40
0.5584389901
 40
0.778467832
 40
1.0
 40
1.0
 40
1.0
 40
1.0
 10
116.4201759037
 20
210.0970574011
 30
0.0
 10
116.3950983092
 20
210.1817817161
 30
0.0
 10
116.3381898311
 20
210.3334575615
 30
0.0
 10
116.2094110736
 20
210.5212410552
 30
0.0
 10
116.0404564456
 20
210.6378417415
 30
0.0
 10
115.9109841864
 20
210.6597629767
 30
0.0
 10
115.8471519037
 20
210.6597629767
 30
0.0
  0
SPLINE
  5
43E
100
AcDbEntity
  8
0
100
AcDbSpline
 62
7
  6
BYLAYER
 70
0
 71
3
 72
11
 73
7
 74
0
 42
0.0000001
 43
0.0000001
 44
0.0000000001
 40
0.0
 40
0.0
 40
0.0
 40
0.0
 40
0.221338465
 40
0.4411639896
 40
0.6929830301
 40
1.0
 40
1.0
 40
1.0
 40
1.0
 10
115.8471519037
 20
210.6597629767
 30
0.0
 10
115.7835497991
 20
210.6597629767
 30
0.0
 10
115.6545216288
 20
210.6378540796
 30
0.0
 10
115.4863875725
 20
210.5211600392
 30
0.0
 10
115.3586491348
 20
210.3333357484
 30
0.0
 10
115.3024555635
 20
210.1817468319
 30
0.0
 10
115.2777407037
 20
210.0970574011
 30
0.0
  0
SPLINE
  5
43F
100
AcDbEntity
  8
0
100
AcDbSpline
 62
7
  6
BYLAYER
 70
0
 71
3
 72
19
 73
15
 74
0
 42
0.0000001
 43
0.0000001
 44
0.0000000001
 40
0.0
 40
0.0
 40
0.0
 40
0.0
 40
0.0525507234
 40
0.1032023481
 40
0.1598211042
 40
0.2240698708
 40
0.2943101596
 40
0.3676581614
 40
0.4409994673
 40
0.5121341062
 40
0.6464142998
 40
0.7704052848
 40
0.886324989
 40
1.0
 40
1.0
 40
1.0
 40
1.0
 10
97.1215951037
 20
209.5237768365
 30
0.0
 10
97.1215951037
 20
209.5736074309
 30
0.0
 10
97.1009401949
 20
209.6739676865
 30
0.0
 10
96.9997111582
 20
209.7926553913
 30
0.0
 10
96.8592400701
 20
209.8772370998
 30
0.0
 10
96.6905923674
 20
209.9444310216
 30
0.0
 10
96.5024491733
 20
210.0032773049
 30
0.0
 10
96.3052664464
 20
210.0617477712
 30
0.0
 10
96.1094076722
 20
210.1279387224
 30
0.0
 10
95.8675013701
 20
210.2352183737
 30
0.0
 10
95.6003054163
 20
210.4013083961
 30
0.0
 10
95.3452628586
 20
210.6531036278
 30
0.0
 10
95.176986244
 20
210.9489039767
 30
0.0
 10
95.1374607037
 20
211.1684362498
 30
0.0
 10
95.1374607037
 20
211.2762272182
 30
0.0
  0
SPLINE
  5
440
100
AcDbEntity
  8
0
100
AcDbSpline
 62
7
  6
BYLAYER
 70
0
 71
3
 72
9
 73
5
 74
0
 42
0.0000001
 43
0.0000001
 44
0.0000000001
 40
0.0
 40
0.0
 40
0.0
 40
0.0
 40
0.5012933787
 40
1.0
 40
1.0
 40
1.0
 40
1.0
 10
96.6217231037
 20
208.4785641656
 30
0.0
 10
96.3766050428
 20
208.4785755461
 30
0.0
 10
95.8851126011
 20
208.5259670556
 30
0.0
 10
95.4223414006
 20
208.7141981246
 30
0.0
 10
95.2169343037
 20
208.8456222971
 30
0.0
  0
SPLINE
  5
441
100
AcDbEntity
  8
0
100
AcDbSpline
 62
7
  6
BYLAYER
 70
0
 71
3
 72
11
 73
7
 74
0
 42
0.0000001
 43
0.0000001
 44
0.0000000001
 40
0.0
 40
0.0
 40
0.0
 40
0.0
 40
0.2464038808
 40
0.4970823324
 40
0.7469108564
 40
1.0
 40
1.0
 40
1.0
 40
1.0
 10
98.1168239037
 20
209.6290911107
 30
0.0
 10
98.1168239037
 20
209.4566358155
 30
0.0
 10
98.0158996411
 20
209.1070179222
 30
0.0
 10
97.6590148649
 20
208.6994209408
 30
0.0
 10
97.1517346382
 20
208.5068384583
 30
0.0
 10
96.7988573389
 20
208.4785641656
 30
0.0
 10
96.6217231037
 20
208.4785641656
 30
0.0
  0
SPLINE
  5
442
100
AcDbEntity
  8
0
100
AcDbSpline
 62
7
  6
BYLAYER
 70
0
 71
3
 72
13
 73
9
 74
0
 42
0.0000001
 43
0.0000001
 44
0.0000000001
 40
0.0
 40
0.0
 40
0.0
 40
0.0
 40
0.2386642006
 40
0.4998036881
 40
0.6363831137
 40
0.7662971748
 40
0.8857955949
 40
1.0
 40
1.0
 40
1.0
 40
1.0
 10
96.7075183037
 20
211.6706057625
 30
0.0
 10
96.6508717611
 20
211.6706057625
 30
0.0
 10
96.5316819521
 20
211.6685344718
 30
0.0
 10
96.3842536916
 20
211.6266503967
 30
0.0
 10
96.2729189232
 20
211.5684696949
 30
0.0
 10
96.2000189571
 20
211.5118878617
 30
0.0
 10
96.1466624331
 20
211.4422067726
 30
0.0
 10
96.1326879037
 20
211.3861737156
 30
0.0
 10
96.1326879037
 20
211.359067494
 30
0.0
  0
SPLINE
  5
443
100
AcDbEntity
  8
0
100
AcDbSpline
 62
7
  6
BYLAYER
 70
0
 71
3
 72
9
 73
5
 74
0
 42
0.0000001
 43
0.0000001
 44
0.0000000001
 40
0.0
 40
0.0
 40
0.0
 40
0.0
 40
0.2490273264
 40
1.0
 40
1.0
 40
1.0
 40
1.0
 10
97.9398143037
 20
211.3317486424
 30
0.0
 10
97.841929105
 20
211.3733516939
 30
0.0
 10
97.4502888147
 20
211.5390528999
 30
0.0
 10
97.0282582741
 20
211.6706057625
 30
0.0
 10
96.7075183037
 20
211.6706057625
 30
0.0
  0
SPLINE
  5
444
100
AcDbEntity
  8
0
100
AcDbSpline
 62
7
  6
BYLAYER
 70
0
 71
3
 72
11
 73
7
 74
0
 42
0.0000001
 43
0.0000001
 44
0.0000000001
 40
0.0
 40
0.0
 40
0.0
 40
0.0
 40
0.2538807239
 40
0.5041513608
 40
0.7523429376
 40
1.0
 40
1.0
 40
1.0
 40
1.0
 10
100.0047775037
 20
210.5487201281
 30
0.0
 10
99.9006518024
 20
210.5487201281
 30
0.0
 10
99.693090368
 20
210.5213042426
 30
0.0
 10
99.4069589381
 20
210.3797807754
 30
0.0
 10
99.2303089446
 20
210.1156336648
 30
0.0
 10
99.1897199037
 20
209.9108887418
 30
0.0
 10
99.1897199037
 20
209.80931559
 30
0.0
  0
SPLINE
  5
445
100
AcDbEntity
  8
0
100
AcDbSpline
 62
7
  6
BYLAYER
 70
0
 71
3
 72
9
 73
5
 74
0
 42
0.0000001
 43
0.0000001
 44
0.0000000001
 40
0.0
 40
0.0
 40
0.0
 40
0.0
 40
0.5074344622
 40
1.0
 40
1.0
 40
1.0
 40
1.0
 10
100.6775951037
 20
210.3751048217
 30
0.0
 10
100.5731307469
 20
210.4309362249
 30
0.0
 10
100.3542355108
 20
210.5190595692
 30
0.0
 10
100.1197547985
 20
210.5487201281
 30
0.0
 10
100.0047775037
 20
210.5487201281
 30
0.0
  0
SPLINE
  5
446
100
AcDbEntity
  8
0
100
AcDbSpline
 62
7
  6
BYLAYER
 70
0
 71
3
 72
12
 73
8
 74
0
 42
0.0000001
 43
0.0000001
 44
0.0000000001
 40
0.0
 40
0.0
 40
0.0
 40
0.0
 40
0.2525716027
 40
0.5028930447
 40
0.6266372052
 40
0.7514478213
 40
1.0
 40
1.0
 40
1.0
 40
1.0
 10
99.8286703037
 20
208.4798850634
 30
0.0
 10
99.6523830943
 20
208.4798850634
 30
0.0
 10
99.3003048892
 20
208.5193672805
 30
0.0
 10
98.8864493039
 20
208.6914660454
 30
0.0
 10
98.6245463244
 20
208.9260527853
 30
0.0
 10
98.4246696853
 20
209.2120568797
 30
0.0
 10
98.3400541979
 20
209.4672553393
 30
0.0
 10
98.3176888828
 20
209.6392894027
 30
0.0
  0
SPLINE
  5
447
100
AcDbEntity
  8
0
100
AcDbSpline
 62
7
  6
BYLAYER
 70
0
 71
3
 72
9
 73
5
 74
0
 42
0.0000001
 43
0.0000001
 44
0.0000000001
 40
0.0
 40
0.0
 40
0.0
 40
0.0
 40
0.2549057686
 40
1.0
 40
1.0
 40
1.0
 40
1.0
 10
100.7177839037
 20
208.6521779106
 30
0.0
 10
100.6459795328
 20
208.6237951404
 30
0.0
 10
100.3596167247
 20
208.5246935062
 30
0.0
 10
100.054357783
 20
208.4798850634
 30
0.0
 10
99.8286703037
 20
208.4798850634
 30
0.0
  0
SPLINE
  5
448
100
AcDbEntity
  8
0
100
AcDbSpline
 62
7
  6
BYLAYER
 70
0
 71
3
 72
9
 73
5
 74
0
 42
0.0000001
 43
0.0000001
 44
0.0000000001
 40
0.0
 40
0.0
 40
0.0
 40
0.0
 40
0.7405782845
 40
1.0
 40
1.0
 40
1.0
 40
1.0
 10
102.4368559037
 20
210.5500410259
 30
0.0
 10
102.3478347507
 20
210.5500410259
 30
0.0
 10
102.2274000431
 20
210.5036299991
 30
0.0
 10
102.1313743946
 20
210.4322196418
 30
0.0
 10
102.107309343
 20
210.4123878345
 30
0.0
  0
SPLINE
  5
449
100
AcDbEntity
  8
0
100
AcDbSpline
 62
7
  6
BYLAYER
 70
0
 71
3
 72
9
 73
5
 74
0
 42
0.0000001
 43
0.0000001
 44
0.0000000001
 40
0.0
 40
0.0
 40
0.0
 40
0.0
 40
0.2616997067
 40
1.0
 40
1.0
 40
1.0
 40
1.0
 10
102.0774780143
 20
210.3866842819
 30
0.0
 10
102.0581248679
 20
210.3692769765
 30
0.0
 10
101.9869312347
 20
210.2997211676
 30
0.0
 10
101.9250006054
 20
210.2209547654
 30
0.0
 10
101.8846031037
 20
210.1596298589
 30
0.0
  0
SPLINE
  5
44A
100
AcDbEntity
  8
0
100
AcDbSpline
 62
7
  6
BYLAYER
 70
0
 71
3
 72
11
 73
7
 74
0
 42
0.0000001
 43
0.0000001
 44
0.0000000001
 40
0.0
 40
0.0
 40
0.0
 40
0.0
 40
0.2394905448
 40
0.489702455
 40
0.7518319606
 40
1.0
 40
1.0
 40
1.0
 40
1.0
 10
102.8640271037
 20
209.9877773109
 30
0.0
 10
102.8640271037
 20
210.0501528193
 30
0.0
 10
102.8638303095
 20
210.179545298
 30
0.0
 10
102.7802165192
 20
210.3636106408
 30
0.0
 10
102.6340705151
 20
210.5030412549
 30
0.0
 10
102.5014914727
 20
210.5500410259
 30
0.0
 10
102.4368559037
 20
210.5500410259
 30
0.0
  0
SPLINE
  5
44B
100
AcDbEntity
  8
0
100
AcDbSpline
 62
7
  6
BYLAYER
 70
0
 71
3
 72
9
 73
5
 74
0
 42
0.0000001
 43
0.0000001
 44
0.0000000001
 40
0.0
 40
0.0
 40
0.0
 40
0.0
 40
0.2407668464
 40
1.0
 40
1.0
 40
1.0
 40
1.0
 10
103.6899215037
 20
209.3422298981
 30
0.0
 10
103.6208180122
 20
209.3340260247
 30
0.0
 10
103.3356611652
 20
209.2849632493
 30
0.0
 10
103.0604519722
 20
209.1840490961
 30
0.0
 10
102.8640271037
 20
209.0862146152
 30
0.0
  0
SPLINE
  5
44C
100
AcDbEntity
  8
0
100
AcDbSpline
 62
7
  6
BYLAYER
 70
0
 71
3
 72
9
 73
5
 74
0
 42
0.0000001
 43
0.0000001
 44
0.0000000001
 40
0.0
 40
0.0
 40
0.0
 40
0.0
 40
0.4883405855
 40
1.0
 40
1.0
 40
1.0
 40
1.0
 10
101.4894927037
 20
205.5813154133
 30
0.0
 10
101.3847662593
 20
205.6836693112
 30
0.0
 10
101.2320566911
 20
205.9572156473
 30
0.0
 10
101.1933258899
 20
206.2592074955
 30
0.0
 10
101.1933256899
 20
206.4126375815
 30
0.0
  0
SPLINE
  5
44D
100
AcDbEntity
  8
0
100
AcDbSpline
 62
7
  6
BYLAYER
 70
0
 71
3
 72
13
 73
9
 74
0
 42
0.0000001
 43
0.0000001
 44
0.0000000001
 40
0.0
 40
0.0
 40
0.0
 40
0.0
 40
0.2376326192
 40
0.4972921773
 40
0.6314070927
 40
0.7606505226
 40
0.8824896121
 40
1.0
 40
1.0
 40
1.0
 40
1.0
 10
104.1572815037
 20
206.0594163934
 30
0.0
 10
103.9872019124
 20
205.9005454726
 30
0.0
 10
103.6007150203
 20
205.5956864793
 30
0.0
 10
103.015548107
 20
205.3668712017
 30
0.0
 10
102.5090959917
 20
205.2809853782
 30
0.0
 10
102.1292176198
 20
205.2838024669
 30
0.0
 10
101.7743914098
 20
205.3706441482
 30
0.0
 10
101.5718944422
 20
205.500968223
 30
0.0
 10
101.4894927037
 20
205.5813154133
 30
0.0
  0
SPLINE
  5
44E
100
AcDbEntity
  8
0
100
AcDbSpline
 62
7
  6
BYLAYER
 70
0
 71
3
 72
8
 73
4
 74
0
 42
0.0000001
 43
0.0000001
 44
0.0000000001
 40
0.0
 40
0.0
 40
0.0
 40
0.0
 40
1.0
 40
1.0
 40
1.0
 40
1.0
 10
104.5614239037
 20
206.5242974662
 30
0.0
 10
104.4405792244
 20
206.3582939312
 30
0.0
 10
104.3071631994
 20
206.1997591433
 30
0.0
 10
104.1572815037
 20
206.0594163934
 30
0.0
  0
SPLINE
  5
44F
100
AcDbEntity
  8
0
100
AcDbSpline
 62
7
  6
BYLAYER
 70
0
 71
3
 72
8
 73
4
 74
0
 42
0.0000001
 43
0.0000001
 44
0.0000000001
 40
0.0
 40
0.0
 40
0.0
 40
0.0
 40
1.0
 40
1.0
 40
1.0
 40
1.0
 10
104.9050575037
 20
207.1394392486
 30
0.0
 10
104.8654495892
 20
207.036215209
 30
0.0
 10
104.8154806046
 20
206.9370141194
 30
0.0
 10
104.7628175037
 20
206.8397999894
 30
0.0
  0
SPLINE
  5
450
100
AcDbEntity
  8
0
100
AcDbSpline
 62
7
  6
BYLAYER
 70
0
 71
3
 72
10
 73
6
 74
0
 42
0.0000001
 43
0.0000001
 44
0.0000000001
 40
0.0
 40
0.0
 40
0.0
 40
0.0
 40
0.2353745114
 40
0.6164766926
 40
1.0
 40
1.0
 40
1.0
 40
1.0
 10
109.7281231037
 20
205.8452623283
 30
0.0
 10
109.6535051017
 20
205.8452623283
 30
0.0
 10
109.4577449648
 20
205.8960099336
 30
0.0
 10
109.205634205
 20
206.1023459335
 30
0.0
 10
109.0775622262
 20
206.316123368
 30
0.0
 10
109.040322398
 20
206.4318637307
 30
0.0
  0
SPLINE
  5
451
100
AcDbEntity
  8
0
100
AcDbSpline
 62
7
  6
BYLAYER
 70
0
 71
3
 72
8
 73
4
 74
0
 42
0.0000001
 43
0.0000001
 44
0.0000000001
 40
0.0
 40
0.0
 40
0.0
 40
0.0
 40
1.0
 40
1.0
 40
1.0
 40
1.0
 10
109.0232301389
 20
206.4945593323
 30
0.0
 10
109.0140863161
 20
206.5356155504
 30
0.0
 10
109.0087951037
 20
206.5778552229
 30
0.0
 10
109.0087951037
 20
206.61991735
 30
0.0
  0
SPLINE
  5
452
100
AcDbEntity
  8
0
100
AcDbSpline
 62
7
  6
BYLAYER
 70
0
 71
3
 72
9
 73
5
 74
0
 42
0.0000001
 43
0.0000001
 44
0.0000000001
 40
0.0
 40
0.0
 40
0.0
 40
0.0
 40
0.5091162464
 40
1.0
 40
1.0
 40
1.0
 40
1.0
 10
110.3237247037
 20
206.0166730156
 30
0.0
 10
110.232720013
 20
205.961962065
 30
0.0
 10
110.0402525881
 20
205.8747359315
 30
0.0
 10
109.8305048918
 20
205.8452623283
 30
0.0
 10
109.7281231037
 20
205.8452623283
 30
0.0
  0
SPLINE
  5
453
100
AcDbEntity
  8
0
100
AcDbSpline
 62
7
  6
BYLAYER
 70
0
 71
3
 72
11
 73
7
 74
0
 42
0.0000001
 43
0.0000001
 44
0.0000000001
 40
0.0
 40
0.0
 40
0.0
 40
0.0
 40
0.2518313504
 40
0.503698765
 40
0.7512365827
 40
1.0
 40
1.0
 40
1.0
 40
1.0
 10
111.8585615037
 20
205.8452623283
 30
0.0
 10
111.7725611252
 20
205.8452623283
 30
0.0
 10
111.5999472635
 20
205.8712167053
 30
0.0
 10
111.3631506687
 20
205.9836378552
 30
0.0
 10
111.1912929824
 20
206.1823478319
 30
0.0
 10
111.1340589444
 20
206.3458745034
 30
0.0
 10
111.1185105721
 20
206.4293922016
 30
0.0
  0
SPLINE
  5
454
100
AcDbEntity
  8
0
100
AcDbSpline
 62
7
  6
BYLAYER
 70
0
 71
3
 72
9
 73
5
 74
0
 42
0.0000001
 43
0.0000001
 44
0.0000000001
 40
0.0
 40
0.0
 40
0.0
 40
0.0
 40
0.2546101005
 40
1.0
 40
1.0
 40
1.0
 40
1.0
 10
112.3024415037
 20
205.9285444647
 30
0.0
 10
112.266525542
 20
205.9148156839
 30
0.0
 10
112.1232569122
 20
205.866870951
 30
0.0
 10
111.9711279876
 20
205.8452623283
 30
0.0
 10
111.8585615037
 20
205.8452623283
 30
0.0
  0
SPLINE
  5
455
100
AcDbEntity
  8
0
100
AcDbSpline
 62
7
  6
BYLAYER
 70
0
 71
3
 72
10
 73
6
 74
0
 42
0.0000001
 43
0.0000001
 44
0.0000000001
 40
0.0
 40
0.0
 40
0.0
 40
0.0
 40
0.2395502952
 40
0.6297586815
 40
1.0
 40
1.0
 40
1.0
 40
1.0
 10
111.8585615037
 20
207.0927316162
 30
0.0
 10
111.8007865209
 20
207.0927316162
 30
0.0
 10
111.6492254929
 20
207.0437760523
 30
0.0
 10
111.4748394593
 20
206.8671252945
 30
0.0
 10
111.4033935037
 20
206.6862997899
 30
0.0
 10
111.4033935037
 20
206.5970046137
 30
0.0
  0
SPLINE
  5
456
100
AcDbEntity
  8
0
100
AcDbSpline
 62
7
  6
BYLAYER
 70
0
 71
3
 72
9
 73
5
 74
0
 42
0.0000001
 43
0.0000001
 44
0.0000000001
 40
0.0
 40
0.0
 40
0.0
 40
0.0
 40
0.5133652278
 40
1.0
 40
1.0
 40
1.0
 40
1.0
 10
112.2694783037
 20
206.946877022
 30
0.0
 10
112.2091993006
 20
206.9925997245
 30
0.0
 10
112.0789318332
 20
207.0672112321
 30
0.0
 10
111.9302800034
 20
207.0927316162
 30
0.0
 10
111.8585615037
 20
207.0927316162
 30
0.0
  0
SPLINE
  5
457
100
AcDbEntity
  8
0
100
AcDbSpline
 62
7
  6
BYLAYER
 70
0
 71
3
 72
10
 73
6
 74
0
 42
0.0000001
 43
0.0000001
 44
0.0000000001
 40
0.0
 40
0.0
 40
0.0
 40
0.0
 40
0.2368280401
 40
0.6184291641
 40
1.0
 40
1.0
 40
1.0
 40
1.0
 10
113.7975423037
 20
205.8452623283
 30
0.0
 10
113.7546979015
 20
205.8452623283
 30
0.0
 10
113.6426858931
 20
205.8682375202
 30
0.0
 10
113.4855425291
 20
205.9648959535
 30
0.0
 10
113.3942779451
 20
206.0730182731
 30
0.0
 10
113.3617069583
 20
206.1338806892
 30
0.0
  0
SPLINE
  5
458
100
AcDbEntity
  8
0
100
AcDbSpline
 62
7
  6
BYLAYER
 70
0
 71
3
 72
8
 73
4
 74
0
 42
0.0000001
 43
0.0000001
 44
0.0000000001
 40
0.0
 40
0.0
 40
0.0
 40
0.0
 40
1.0
 40
1.0
 40
1.0
 40
1.0
 10
113.3617069583
 20
206.1338806892
 30
0.0
 10
113.351774403
 20
206.1524407445
 30
0.0
 10
113.3430568033
 20
206.1717269509
 30
0.0
 10
113.3359531873
 20
206.1915428523
 30
0.0
  0
SPLINE
  5
459
100
AcDbEntity
  8
0
100
AcDbSpline
 62
7
  6
BYLAYER
 70
0
 71
3
 72
8
 73
4
 74
0
 42
0.0000001
 43
0.0000001
 44
0.0000000001
 40
0.0
 40
0.0
 40
0.0
 40
0.0
 40
1.0
 40
1.0
 40
1.0
 40
1.0
 10
113.3359531873
 20
206.1915428523
 30
0.0
 10
113.323396015
 20
206.2265717286
 30
0.0
 10
113.3157327037
 20
206.2641195493
 30
0.0
 10
113.3157327037
 20
206.3013311706
 30
0.0
  0
SPLINE
  5
45A
100
AcDbEntity
  8
0
100
AcDbSpline
 62
7
  6
BYLAYER
 70
0
 71
3
 72
9
 73
5
 74
0
 42
0.0000001
 43
0.0000001
 44
0.0000000001
 40
0.0
 40
0.0
 40
0.0
 40
0.0
 40
0.2592158284
 40
1.0
 40
1.0
 40
1.0
 40
1.0
 10
114.1560767037
 20
205.9422046711
 30
0.0
 10
114.1279244982
 20
205.9263847585
 30
0.0
 10
114.0160884373
 20
205.8713353182
 30
0.0
 10
113.8898279345
 20
205.8452623283
 30
0.0
 10
113.7975423037
 20
205.8452623283
 30
0.0
  0
SPLINE
  5
45B
100
AcDbEntity
  8
0
100
AcDbSpline
 62
7
  6
BYLAYER
 70
0
 71
3
 72
9
 73
5
 74
0
 42
0.0000001
 43
0.0000001
 44
0.0000000001
 40
0.0
 40
0.0
 40
0.0
 40
0.0
 40
0.4791734753
 40
1.0
 40
1.0
 40
1.0
 40
1.0
 10
115.5658335037
 20
207.0817147667
 30
0.0
 10
115.520503721
 20
207.0817147667
 30
0.0
 10
115.4256350665
 20
207.0500773314
 30
0.0
 10
115.3559629395
 20
206.9833429148
 30
0.0
 10
115.3250112132
 20
206.9450083458
 30
0.0
  0
SPLINE
  5
45C
100
AcDbEntity
  8
0
100
AcDbSpline
 62
7
  6
BYLAYER
 70
0
 71
3
 72
9
 73
5
 74
0
 42
0.0000001
 43
0.0000001
 44
0.0000000001
 40
0.0
 40
0.0
 40
0.0
 40
0.0
 40
0.2631633401
 40
1.0
 40
1.0
 40
1.0
 40
1.0
 10
115.2897443518
 20
206.8959437597
 30
0.0
 10
115.2765416564
 20
206.8752967518
 30
0.0
 10
115.2316257091
 20
206.7938964374
 30
0.0
 10
115.2045887037
 20
206.7004334453
 30
0.0
 10
115.2045887037
 20
206.631814798
 30
0.0
  0
SPLINE
  5
45D
100
AcDbEntity
  8
0
100
AcDbSpline
 62
7
  6
BYLAYER
 70
0
 71
3
 72
9
 73
5
 74
0
 42
0.0000001
 43
0.0000001
 44
0.0000000001
 40
0.0
 40
0.0
 40
0.0
 40
0.0
 40
0.5265151749
 40
1.0
 40
1.0
 40
1.0
 40
1.0
 10
115.8412815037
 20
206.9354214345
 30
0.0
 10
115.80585367
 20
206.979104412
 30
0.0
 10
115.7251445827
 20
207.0544995612
 30
0.0
 10
115.6164122071
 20
207.0817147667
 30
0.0
 10
115.5658335037
 20
207.0817147667
 30
0.0
  0
SPLINE
  5
45E
100
AcDbEntity
  8
0
100
AcDbSpline
 62
7
  6
BYLAYER
 70
0
 71
3
 72
10
 73
6
 74
0
 42
0.0000001
 43
0.0000001
 44
0.0000000001
 40
0.0
 40
0.0
 40
0.0
 40
0.0
 40
0.4900367181
 40
0.7512689406
 40
1.0
 40
1.0
 40
1.0
 40
1.0
 10
118.5966735037
 20
205.8452623283
 30
0.0
 10
118.4401042688
 20
205.8452623283
 30
0.0
 10
118.201840492
 20
205.9570174246
 30
0.0
 10
117.9782814735
 20
206.1845747566
 30
0.0
 10
117.8964228587
 20
206.3297684563
 30
0.0
 10
117.8711059593
 20
206.4050988597
 30
0.0
  0
SPLINE
  5
45F
100
AcDbEntity
  8
0
100
AcDbSpline
 62
7
  6
BYLAYER
 70
0
 71
3
 72
8
 73
4
 74
0
 42
0.0000001
 43
0.0000001
 44
0.0000000001
 40
0.0
 40
0.0
 40
0.0
 40
0.0
 40
1.0
 40
1.0
 40
1.0
 40
1.0
 10
117.8544680486
 20
206.4647760332
 30
0.0
 10
117.8468485273
 20
206.4992840172
 30
0.0
 10
117.8425759037
 20
206.5347853141
 30
0.0
 10
117.8425759037
 20
206.5701245001
 30
0.0
  0
SPLINE
  5
460
100
AcDbEntity
  8
0
100
AcDbSpline
 62
7
  6
BYLAYER
 70
0
 71
3
 72
9
 73
5
 74
0
 42
0.0000001
 43
0.0000001
 44
0.0000000001
 40
0.0
 40
0.0
 40
0.0
 40
0.0
 40
0.2545652355
 40
1.0
 40
1.0
 40
1.0
 40
1.0
 10
119.0428111037
 20
205.9285444647
 30
0.0
 10
119.0067020304
 20
205.9148142761
 30
0.0
 10
118.8626582245
 20
205.8668632619
 30
0.0
 10
118.7097964565
 20
205.8452623283
 30
0.0
 10
118.5966735037
 20
205.8452623283
 30
0.0
  0
SPLINE
  5
461
100
AcDbEntity
  8
0
100
AcDbSpline
 62
7
  6
BYLAYER
 70
0
 71
3
 72
10
 73
6
 74
0
 42
0.0000001
 43
0.0000001
 44
0.0000000001
 40
0.0
 40
0.0
 40
0.0
 40
0.0
 40
0.2394348037
 40
0.6295836889
 40
1.0
 40
1.0
 40
1.0
 40
1.0
 10
118.5966735037
 20
207.0927316162
 30
0.0
 10
118.5390036708
 20
207.0927316162
 30
0.0
 10
118.3876860063
 20
207.0437146586
 30
0.0
 10
118.2139397696
 20
206.8668521903
 30
0.0
 10
118.1428607037
 20
206.6862224151
 30
0.0
 10
118.1428607037
 20
206.5970046137
 30
0.0
  0
SPLINE
  5
462
100
AcDbEntity
  8
0
100
AcDbSpline
 62
7
  6
BYLAYER
 70
0
 71
3
 72
9
 73
5
 74
0
 42
0.0000001
 43
0.0000001
 44
0.0000000001
 40
0.0
 40
0.0
 40
0.0
 40
0.0
 40
0.5133128494
 40
1.0
 40
1.0
 40
1.0
 40
1.0
 10
119.0084927037
 20
206.946877022
 30
0.0
 10
118.9480507904
 20
206.9926095337
 30
0.0
 10
118.8174640532
 20
207.0672169415
 30
0.0
 10
118.6685357766
 20
207.0927316162
 30
0.0
 10
118.5966735037
 20
207.0927316162
 30
0.0
  0
SPLINE
  5
463
100
AcDbEntity
  8
0
100
AcDbSpline
 62
7
  6
BYLAYER
 70
0
 71
3
 72
8
 73
4
 74
0
 42
0.0000001
 43
0.0000001
 44
0.0000000001
 40
0.0
 40
0.0
 40
0.0
 40
0.0
 40
1.0
 40
1.0
 40
1.0
 40
1.0
 10
116.9697199037
 20
207.6320825949
 30
0.0
 10
116.9082195966
 20
207.5965638571
 30
0.0
 10
116.7848514304
 20
207.6017806017
 30
0.0
 10
116.7597455037
 20
207.6682152384
 30
0.0
  0
SPLINE
  5
464
100
AcDbEntity
  8
0
100
AcDbSpline
 62
7
  6
BYLAYER
 70
0
 71
3
 72
9
 73
5
 74
0
 42
0.0000001
 43
0.0000001
 44
0.0000000001
 40
0.0
 40
0.0
 40
0.0
 40
0.0
 40
0.4802614687
 40
1.0
 40
1.0
 40
1.0
 40
1.0
 10
119.0617759037
 20
210.3861216713
 30
0.0
 10
118.9805221775
 20
210.3861216713
 30
0.0
 10
118.8107631573
 20
210.3247760323
 30
0.0
 10
118.692851191
 20
210.1993648362
 30
0.0
 10
118.6390355618
 20
210.1298231977
 30
0.0
  0
SPLINE
  5
465
100
AcDbEntity
  8
0
100
AcDbSpline
 62
7
  6
BYLAYER
 70
0
 71
3
 72
9
 73
5
 74
0
 42
0.0000001
 43
0.0000001
 44
0.0000000001
 40
0.0
 40
0.0
 40
0.0
 40
0.0
 40
0.2689165707
 40
1.0
 40
1.0
 40
1.0
 40
1.0
 10
118.6390355618
 20
210.1298231977
 30
0.0
 10
118.6084683589
 20
210.0903236435
 30
0.0
 10
118.5045588448
 20
209.9359881616
 30
0.0
 10
118.4270388978
 20
209.7650560916
 30
0.0
 10
118.3830879037
 20
209.6365824435
 30
0.0
  0
SPLINE
  5
466
100
AcDbEntity
  8
0
100
AcDbSpline
 62
7
  6
BYLAYER
 70
0
 71
3
 72
9
 73
5
 74
0
 42
0.0000001
 43
0.0000001
 44
0.0000000001
 40
0.0
 40
0.0
 40
0.0
 40
0.0
 40
0.5154722978
 40
1.0
 40
1.0
 40
1.0
 40
1.0
 10
119.5521663037
 20
210.1970834001
 30
0.0
 10
119.481682386
 20
210.2558429446
 30
0.0
 10
119.3278603489
 20
210.3527408875
 30
0.0
 10
119.148031349
 20
210.3861216713
 30
0.0
 10
119.0617759037
 20
210.3861216713
 30
0.0
  0
SPLINE
  5
467
100
AcDbEntity
  8
0
100
AcDbSpline
 62
7
  6
BYLAYER
 70
0
 71
3
 72
11
 73
7
 74
0
 42
0.0000001
 43
0.0000001
 44
0.0000000001
 40
0.0
 40
0.0
 40
0.0
 40
0.0
 40
0.2536804334
 40
0.5039870411
 40
0.7528093805
 40
1.0
 40
1.0
 40
1.0
 40
1.0
 10
115.9284319037
 20
208.4798850634
 30
0.0
 10
115.7383664276
 20
208.4798850634
 30
0.0
 10
115.3594578722
 20
208.5246157032
 30
0.0
 10
114.8303930216
 20
208.7678134981
 30
0.0
 10
114.4883821613
 20
209.236650348
 30
0.0
 10
114.4044319037
 20
209.6108925823
 30
0.0
 10
114.4044319037
 20
209.7960956828
 30
0.0
  0
SPLINE
  5
468
100
AcDbEntity
  8
0
100
AcDbSpline
 62
7
  6
BYLAYER
 70
0
 71
3
 72
9
 73
5
 74
0
 42
0.0000001
 43
0.0000001
 44
0.0000000001
 40
0.0
 40
0.0
 40
0.0
 40
0.0
 40
0.4970987639
 40
1.0
 40
1.0
 40
1.0
 40
1.0
 10
117.1029279037
 20
208.8205049419
 30
0.0
 10
116.938966872
 20
208.6970504012
 30
0.0
 10
116.5510130889
 20
208.5235993384
 30
0.0
 10
116.1360695405
 20
208.4798850634
 30
0.0
 10
115.9284319037
 20
208.4798850634
 30
0.0
  0
SPLINE
  5
469
100
AcDbEntity
  8
0
100
AcDbSpline
 62
7
  6
BYLAYER
 70
0
 71
3
 72
9
 73
5
 74
0
 42
0.0000001
 43
0.0000001
 44
0.0000000001
 40
0.0
 40
0.0
 40
0.0
 40
0.0
 40
0.5032494535
 40
1.0
 40
1.0
 40
1.0
 40
1.0
 10
112.4988687037
 20
208.4785641656
 30
0.0
 10
112.167950512
 20
208.4785641656
 30
0.0
 10
111.4738513356
 20
208.7854801286
 30
0.0
 10
111.2724431037
 20
209.4861963554
 30
0.0
 10
111.2724431037
 20
209.8128411067
 30
0.0
  0
SPLINE
  5
46A
100
AcDbEntity
  8
0
100
AcDbSpline
 62
7
  6
BYLAYER
 70
0
 71
3
 72
9
 73
5
 74
0
 42
0.0000001
 43
0.0000001
 44
0.0000000001
 40
0.0
 40
0.0
 40
0.0
 40
0.0
 40
0.5129224072
 40
1.0
 40
1.0
 40
1.0
 40
1.0
 10
113.2312911037
 20
208.7336972887
 30
0.0
 10
113.1233895181
 20
208.6535721574
 30
0.0
 10
112.8907031698
 20
208.5231210936
 30
0.0
 10
112.6264946225
 20
208.4785641656
 30
0.0
 10
112.4988687037
 20
208.4785641656
 30
0.0
  0
SPLINE
  5
46B
100
AcDbEntity
  8
0
100
AcDbSpline
 62
7
  6
BYLAYER
 70
0
 71
3
 72
11
 73
7
 74
0
 42
0.0000001
 43
0.0000001
 44
0.0000000001
 40
0.0
 40
0.0
 40
0.0
 40
0.0
 40
0.2499886333
 40
0.5230819639
 40
0.7784492216
 40
1.0
 40
1.0
 40
1.0
 40
1.0
 10
110.6628431037
 20
211.5525118805
 30
0.0
 10
110.6156619886
 20
211.5253701754
 30
0.0
 10
110.5035277383
 20
211.4924031069
 30
0.0
 10
110.3328248918
 20
211.4897558089
 30
0.0
 10
110.1715401267
 20
211.53046204
 30
0.0
 10
110.089975456
 20
211.6092761063
 30
0.0
 10
110.0726607037
 20
211.6543006378
 30
0.0
  0
SPLINE
  5
46C
100
AcDbEntity
  8
0
100
AcDbSpline
 62
7
  6
BYLAYER
 70
0
 71
3
 72
11
 73
7
 74
0
 42
0.0000001
 43
0.0000001
 44
0.0000000001
 40
0.0
 40
0.0
 40
0.0
 40
0.0
 40
0.253686488
 40
0.5039896142
 40
0.7528085937
 40
1.0
 40
1.0
 40
1.0
 40
1.0
 10
108.5712383037
 20
208.4798850634
 30
0.0
 10
108.3811000757
 20
208.4798850634
 30
0.0
 10
108.0020595429
 20
208.5245332453
 30
0.0
 10
107.4726861998
 20
208.7675584198
 30
0.0
 10
107.1303774766
 20
209.2364489171
 30
0.0
 10
107.0463343037
 20
209.6108255237
 30
0.0
 10
107.0463343037
 20
209.7960956828
 30
0.0
  0
SPLINE
  5
46D
100
AcDbEntity
  8
0
100
AcDbSpline
 62
7
  6
BYLAYER
 70
0
 71
3
 72
9
 73
5
 74
0
 42
0.0000001
 43
0.0000001
 44
0.0000000001
 40
0.0
 40
0.0
 40
0.0
 40
0.0
 40
0.4970971994
 40
1.0
 40
1.0
 40
1.0
 40
1.0
 10
109.7439279037
 20
208.8205049419
 30
0.0
 10
109.5802796838
 20
208.6971112723
 30
0.0
 10
109.1929585407
 20
208.5236652235
 30
0.0
 10
108.7785874324
 20
208.4798850634
 30
0.0
 10
108.5712383037
 20
208.4798850634
 30
0.0
  0
SPLINE
  5
46E
100
AcDbEntity
  8
0
100
AcDbSpline
 62
7
  6
BYLAYER
 70
0
 71
3
 72
10
 73
6
 74
0
 42
0.0000001
 43
0.0000001
 44
0.0000000001
 40
0.0
 40
0.0
 40
0.0
 40
0.0
 40
0.24309602
 40
0.6207300095
 40
1.0
 40
1.0
 40
1.0
 40
1.0
 10
104.9059615037
 20
208.9813406403
 30
0.0
 10
104.8582889361
 20
209.0390410302
 30
0.0
 10
104.7122907909
 20
209.1669263987
 30
0.0
 10
104.4267054404
 20
209.2933897253
 30
0.0
 10
104.1962950763
 20
209.3375878434
 30
0.0
 10
104.0800655037
 20
209.3488406324
 30
0.0
  0
SPLINE
  5
46F
100
AcDbEntity
  8
0
100
AcDbSpline
 62
7
  6
BYLAYER
 70
0
 71
3
 72
9
 73
5
 74
0
 42
0.0000001
 43
0.0000001
 44
0.0000000001
 40
0.0
 40
0.0
 40
0.0
 40
0.0
 40
0.487933172
 40
1.0
 40
1.0
 40
1.0
 40
1.0
 10
105.4821455037
 20
210.6038012531
 30
0.0
 10
105.4102056512
 20
210.6038012531
 30
0.0
 10
105.2625451017
 20
210.5591632657
 30
0.0
 10
105.1457543774
 20
210.4663751597
 30
0.0
 10
105.0915947377
 20
210.4137758081
 30
0.0
  0
SPLINE
  5
470
100
AcDbEntity
  8
0
100
AcDbSpline
 62
7
  6
BYLAYER
 70
0
 71
3
 72
9
 73
5
 74
0
 42
0.0000001
 43
0.0000001
 44
0.0000000001
 40
0.0
 40
0.0
 40
0.0
 40
0.0
 40
0.2629957077
 40
1.0
 40
1.0
 40
1.0
 40
1.0
 10
105.0915947377
 20
210.4137758081
 30
0.0
 10
105.0728104741
 20
210.3955327014
 30
0.0
 10
105.0040841512
 20
210.3234201184
 30
0.0
 10
104.9444135239
 20
210.2428376528
 30
0.0
 10
104.9059615037
 20
210.1803395375
 30
0.0
  0
SPLINE
  5
471
100
AcDbEntity
  8
0
100
AcDbSpline
 62
7
  6
BYLAYER
 70
0
 71
3
 72
11
 73
7
 74
0
 42
0.0000001
 43
0.0000001
 44
0.0000000001
 40
0.0
 40
0.0
 40
0.0
 40
0.0
 40
0.24009762
 40
0.4886154242
 40
0.749999583
 40
1.0
 40
1.0
 40
1.0
 40
1.0
 10
105.8944159037
 20
210.0917691259
 30
0.0
 10
105.8944159037
 20
210.1501419445
 30
0.0
 10
105.8932052973
 20
210.270902369
 30
0.0
 10
105.8098621869
 20
210.4404033052
 30
0.0
 10
105.6671115552
 20
210.5635441377
 30
0.0
 10
105.542925902
 20
210.6038012531
 30
0.0
 10
105.4821455037
 20
210.6038012531
 30
0.0
  0
SPLINE
  5
472
100
AcDbEntity
  8
0
100
AcDbSpline
 62
7
  6
BYLAYER
 70
0
 71
3
 72
11
 73
7
 74
0
 42
0.0000001
 43
0.0000001
 44
0.0000000001
 40
0.0
 40
0.0
 40
0.0
 40
0.0
 40
0.2242325433
 40
0.4470971083
 40
0.698508344
 40
1.0
 40
1.0
 40
1.0
 40
1.0
 10
109.7096095037
 20
207.1099173394
 30
0.0
 10
109.6664927353
 20
207.1099173394
 30
0.0
 10
109.5792404478
 20
207.0957665109
 30
0.0
 10
109.4631892346
 20
207.0218945904
 30
0.0
 10
109.3709007379
 20
206.902010083
 30
0.0
 10
109.3276668109
 20
206.8040662573
 30
0.0
 10
109.3081759037
 20
206.7494683808
 30
0.0
  0
SPLINE
  5
473
100
AcDbEntity
  8
0
100
AcDbSpline
 62
7
  6
BYLAYER
 70
0
 71
3
 72
11
 73
7
 74
0
 42
0.0000001
 43
0.0000001
 44
0.0000000001
 40
0.0
 40
0.0
 40
0.0
 40
0.0
 40
0.309891266
 40
0.5619427787
 40
0.7801775282
 40
1.0
 40
1.0
 40
1.0
 40
1.0
 10
110.0568559037
 20
206.7494683808
 30
0.0
 10
110.0427885487
 20
206.8035471741
 30
0.0
 10
110.0102611493
 20
206.9002172644
 30
0.0
 10
109.9335047644
 20
207.0207224935
 30
0.0
 10
109.8297743289
 20
207.095945543
 30
0.0
 10
109.7492471139
 20
207.1099173394
 30
0.0
 10
109.7096095037
 20
207.1099173394
 30
0.0
  0
SPLINE
  5
474
100
AcDbEntity
  8
0
100
AcDbSpline
 62
7
  6
BYLAYER
 70
0
 71
3
 72
11
 73
7
 74
0
 42
0.0000001
 43
0.0000001
 44
0.0000000001
 40
0.0
 40
0.0
 40
0.0
 40
0.0
 40
0.2457705792
 40
0.4908306033
 40
0.7371832902
 40
1.0
 40
1.0
 40
1.0
 40
1.0
 10
103.7079839037
 20
208.1952284698
 30
0.0
 10
103.5998641234
 20
208.1952284698
 30
0.0
 10
103.3827699178
 20
208.1655243486
 30
0.0
 10
103.0823047976
 20
208.0309820705
 30
0.0
 10
102.835565537
 20
207.798367035
 30
0.0
 10
102.7418900244
 20
207.5872241313
 30
0.0
 10
102.7150143037
 20
207.4747724133
 30
0.0
  0
SPLINE
  5
475
100
AcDbEntity
  8
0
100
AcDbSpline
 62
7
  6
BYLAYER
 70
0
 71
3
 72
9
 73
5
 74
0
 42
0.0000001
 43
0.0000001
 44
0.0000000001
 40
0.0
 40
0.0
 40
0.0
 40
0.0
 40
0.5427424308
 40
1.0
 40
1.0
 40
1.0
 40
1.0
 10
102.5068463037
 20
206.6230025675
 30
0.0
 10
102.4902370662
 20
206.5905358138
 30
0.0
 10
102.4507822932
 20
206.5319590013
 30
0.0
 10
102.3817852802
 20
206.5088745014
 30
0.0
 10
102.3510607037
 20
206.5088745014
 30
0.0
  0
SPLINE
  5
476
100
AcDbEntity
  8
0
100
AcDbSpline
 62
7
  6
BYLAYER
 70
0
 71
3
 72
9
 73
5
 74
0
 42
0.0000001
 43
0.0000001
 44
0.0000000001
 40
0.0
 40
0.0
 40
0.0
 40
0.0
 40
0.4993769254
 40
1.0
 40
1.0
 40
1.0
 40
1.0
 10
109.8137179279
 20
209.9023805437
 30
0.0
 10
109.8037000657
 20
210.0752420841
 30
0.0
 10
109.6915464315
 20
210.4202540531
 30
0.0
 10
109.4447077814
 20
210.677659625
 30
0.0
 10
109.3051267807
 20
210.780850868
 30
0.0
  0
SPLINE
  5
477
100
AcDbEntity
  8
0
100
AcDbSpline
 62
7
  6
BYLAYER
 70
0
 71
3
 72
8
 73
4
 74
0
 42
0.0000001
 43
0.0000001
 44
0.0000000001
 40
0.0
 40
0.0
 40
0.0
 40
0.0
 40
1.0
 40
1.0
 40
1.0
 40
1.0
 10
109.3051267807
 20
210.780850868
 30
0.0
 10
109.1071837116
 20
210.9271887737
 30
0.0
 10
108.8659955593
 20
211.0275988632
 30
0.0
 10
108.6222474183
 20
211.0619948659
 30
0.0
  0
SPLINE
  5
478
100
AcDbEntity
  8
0
100
AcDbSpline
 62
7
  6
BYLAYER
 70
0
 71
3
 72
9
 73
5
 74
0
 42
0.0000001
 43
0.0000001
 44
0.0000000001
 40
0.0
 40
0.0
 40
0.0
 40
0.0
 40
0.2357595081
 40
1.0
 40
1.0
 40
1.0
 40
1.0
 10
126.2315243416
 20
225.255621294
 30
0.0
 10
126.3168908313
 20
225.2418047798
 30
0.0
 10
126.6793630119
 20
225.1855685352
 30
0.0
 10
127.0426265855
 20
225.1345315701
 30
0.0
 10
127.320514848
 20
225.0976434792
 30
0.0
  0
SPLINE
  5
479
100
AcDbEntity
  8
0
100
AcDbSpline
 62
7
  6
BYLAYER
 70
0
 71
3
 72
11
 73
7
 74
0
 42
0.0000001
 43
0.0000001
 44
0.0000000001
 40
0.0
 40
0.0
 40
0.0
 40
0.0
 40
0.2574482071
 40
0.4977594324
 40
0.7475360783
 40
1.0
 40
1.0
 40
1.0
 40
1.0
 10
107.9019248628
 20
209.6432746989
 30
0.0
 10
107.901923601
 20
209.5380692206
 30
0.0
 10
107.9523085257
 20
209.3284212004
 30
0.0
 10
108.1779276036
 20
209.1059637402
 30
0.0
 10
108.4619942471
 20
208.9868755923
 30
0.0
 10
108.6681080395
 20
208.9601906624
 30
0.0
 10
108.7712767037
 20
208.9601906624
 30
0.0
  0
SPLINE
  5
47A
100
AcDbEntity
  8
0
100
AcDbSpline
 62
7
  6
BYLAYER
 70
0
 71
3
 72
13
 73
9
 74
0
 42
0.0000001
 43
0.0000001
 44
0.0000000001
 40
0.0
 40
0.0
 40
0.0
 40
0.0
 40
0.2384687835
 40
0.3677582611
 40
0.5
 40
0.6322417389
 40
0.7615312165
 40
1.0
 40
1.0
 40
1.0
 40
1.0
 10
124.1564420272
 20
23.627048543
 30
0.0
 10
124.7468976621
 20
23.6638148789
 30
0.0
 10
125.6568401856
 20
23.8895125946
 30
0.0
 10
126.7422002224
 20
24.4995237508
 30
0.0
 10
127.5006593884
 20
25.1246600292
 30
0.0
 10
128.1257956668
 20
25.8831191953
 30
0.0
 10
128.7358068231
 20
26.9684792321
 30
0.0
 10
128.9615045387
 20
27.8784217556
 30
0.0
 10
128.9982708746
 20
28.4688773904
 30
0.0
  0
SPLINE
  5
47B
100
AcDbEntity
  8
0
100
AcDbSpline
 62
7
  6
BYLAYER
 70
0
 71
3
 72
18
 73
14
 74
0
 42
0.0000001
 43
0.0000001
 44
0.0000000001
 40
0.0
 40
0.0
 40
0.0
 40
0.0
 40
0.0056630965
 40
0.0205321028
 40
0.0443705903
 40
0.0769189176
 40
0.1179125397
 40
0.1670193961
 40
0.287953113
 40
0.4364177883
 40
0.60814372
 40
0.7978579537
 40
1.0
 40
1.0
 40
1.0
 40
1.0
 10
128.6374287037
 20
141.952891673
 30
0.0
 10
128.6374287037
 20
141.9550882453
 30
0.0
 10
128.6302261162
 20
141.9608666379
 30
0.0
 10
128.621047899
 20
141.9743672878
 30
0.0
 10
128.6015219049
 20
141.9947299025
 30
0.0
 10
128.5764241014
 20
142.0226358414
 30
0.0
 10
128.5436726084
 20
142.0572684269
 30
0.0
 10
128.4872347655
 20
142.1164968746
 30
0.0
 10
128.4012010644
 20
142.2051956346
 30
0.0
 10
128.2816183572
 20
142.3275542624
 30
0.0
 10
128.1429622408
 20
142.4685959222
 30
0.0
 10
127.9892997375
 20
142.6240728092
 30
0.0
 10
127.8821814454
 20
142.7319019843
 30
0.0
 10
127.8268630995
 20
142.7874659139
 30
0.0
  0
SPLINE
  5
47C
100
AcDbEntity
  8
0
100
AcDbSpline
 62
7
  6
BYLAYER
 70
0
 71
3
 72
17
 73
13
 74
0
 42
0.0000001
 43
0.0000001
 44
0.0000000001
 40
0.0
 40
0.0
 40
0.0
 40
0.0
 40
0.2007399314
 40
0.3897926215
 40
0.5614789338
 40
0.7106099694
 40
0.8323802559
 40
0.9224445986
 40
0.9545373396
 40
0.978029638
 40
0.9930752744
 40
1.0
 40
1.0
 40
1.0
 40
1.0
 10
127.5020333493
 20
143.1123653729
 30
0.0
 10
127.4448497344
 20
143.1693290272
 30
0.0
 10
127.333697112
 20
143.2798237564
 30
0.0
 10
127.1732801073
 20
143.4386833284
 30
0.0
 10
127.0272220991
 20
143.5825330702
 30
0.0
 10
126.8997869839
 20
143.7067910535
 30
0.0
 10
126.7951914353
 20
143.8073011162
 30
0.0
 10
126.7243164729
 20
143.875344281
 30
0.0
 10
126.6820810406
 20
143.9155722296
 30
0.0
 10
126.6612973564
 20
143.935516037
 30
0.0
 10
126.6476304177
 20
143.946512718
 30
0.0
 10
126.6402139886
 20
143.9528907139
 30
0.0
 10
126.6374296623
 20
143.9528907139
 30
0.0
  0
SPLINE
  5
47D
100
AcDbEntity
  8
0
100
AcDbSpline
 62
7
  6
BYLAYER
 70
0
 71
3
 72
11
 73
7
 74
0
 42
0.0000001
 43
0.0000001
 44
0.0000000001
 40
0.0
 40
0.0
 40
0.0
 40
0.0
 40
0.2332140294
 40
0.4766050139
 40
0.7336382308
 40
1.0
 40
1.0
 40
1.0
 40
1.0
 10
128.1373646589
 20
244.1569288196
 30
0.0
 10
128.1373646589
 20
243.9869135101
 30
0.0
 10
128.0548037555
 20
243.6350432652
 30
0.0
 10
127.713253181
 20
243.204406722
 30
0.0
 10
127.2165352014
 20
242.9225464533
 30
0.0
 10
126.8316090399
 20
242.8578907139
 30
0.0
 10
126.6374287037
 20
242.8578907139
 30
0.0
  0
SPLINE
  5
47E
100
AcDbEntity
  8
0
100
AcDbSpline
 62
7
  6
BYLAYER
 70
0
 71
3
 72
17
 73
13
 74
0
 42
0.0000001
 43
0.0000001
 44
0.0000000001
 40
0.0
 40
0.0
 40
0.0
 40
0.0
 40
0.0069247243
 40
0.0219703675
 40
0.0454626807
 40
0.0775554445
 40
0.167619849
 40
0.2893901944
 40
0.4385212707
 40
0.6102075836
 40
0.799260216
 40
1.0
 40
1.0
 40
1.0
 40
1.0
 10
95.6374277457
 20
143.9528907139
 30
0.0
 10
95.6346434094
 20
143.9528907139
 30
0.0
 10
95.6272269544
 20
143.9465126851
 30
0.0
 10
95.6135599605
 20
143.9355159574
 30
0.0
 10
95.5927761883
 20
143.915572058
 30
0.0
 10
95.5505405696
 20
143.8753439301
 30
0.0
 10
95.4796652977
 20
143.8073004704
 30
0.0
 10
95.3750693135
 20
143.7067899802
 30
0.0
 10
95.2476336994
 20
143.5825314921
 30
0.0
 10
95.1015751534
 20
143.4386812072
 30
0.0
 10
94.9411576089
 20
143.2798210907
 30
0.0
 10
94.8300046309
 20
143.1693260003
 30
0.0
 10
94.7728208451
 20
143.1123621714
 30
0.0
  0
SPLINE
  5
47F
100
AcDbEntity
  8
0
100
AcDbSpline
 62
7
  6
BYLAYER
 70
0
 71
3
 72
18
 73
14
 74
0
 42
0.0000001
 43
0.0000001
 44
0.0000000001
 40
0.0
 40
0.0
 40
0.0
 40
0.0
 40
0.2021421874
 40
0.3918564772
 40
0.5635824057
 40
0.712047038
 40
0.8329807015
 40
0.8820875314
 40
0.923081129
 40
0.9556294361
 40
0.9794679085
 40
0.9943369057
 40
1.0
 40
1.0
 40
1.0
 40
1.0
 10
94.4479911917
 20
142.787462783
 30
0.0
 10
94.3926730195
 20
142.7318990232
 30
0.0
 10
94.2855550845
 20
142.6240701988
 30
0.0
 10
94.1318931178
 20
142.4685938422
 30
0.0
 10
93.99323753
 20
142.3275527102
 30
0.0
 10
93.8736553076
 20
142.2051945706
 30
0.0
 10
93.7876219712
 20
142.1164961767
 30
0.0
 10
93.731184375
 20
142.0572679788
 30
0.0
 10
93.6984330292
 20
142.0226355414
 30
0.0
 10
93.6733353387
 20
141.9947297234
 30
0.0
 10
93.6538094341
 20
141.9743671961
 30
0.0
 10
93.6446312568
 20
141.9608666053
 30
0.0
 10
93.6374287037
 20
141.9550882355
 30
0.0
 10
93.6374287037
 20
141.9528916724
 30
0.0
  0
SPLINE
  5
480
100
AcDbEntity
  8
0
100
AcDbSpline
 62
7
  6
BYLAYER
 70
0
 71
3
 72
11
 73
7
 74
0
 42
0.0000001
 43
0.0000001
 44
0.0000000001
 40
0.0
 40
0.0
 40
0.0
 40
0.0
 40
0.2504959546
 40
0.4994530916
 40
0.7477903742
 40
1.0
 40
1.0
 40
1.0
 40
1.0
 10
106.7183514442
 20
210.1504947053
 30
0.0
 10
106.7119893869
 20
210.27376683
 30
0.0
 10
106.6609252877
 20
210.5185232047
 30
0.0
 10
106.4659394611
 20
210.8452516935
 30
0.0
 10
106.1350233475
 20
211.0378169374
 30
0.0
 10
105.8863909326
 20
211.0754024467
 30
0.0
 10
105.7621103037
 20
211.0754024467
 30
0.0
  0
SPLINE
  5
481
100
AcDbEntity
  8
0
100
AcDbSpline
 62
7
  6
BYLAYER
 70
0
 71
3
 72
9
 73
5
 74
0
 42
0.0000001
 43
0.0000001
 44
0.0000000001
 40
0.0
 40
0.0
 40
0.0
 40
0.0
 40
0.4950440755
 40
1.0
 40
1.0
 40
1.0
 40
1.0
 10
105.7621103037
 20
211.0754024467
 30
0.0
 10
105.6582011018
 20
211.0754024467
 30
0.0
 10
105.4467278194
 20
211.0445242808
 30
0.0
 10
105.2557464261
 20
210.9493177675
 30
0.0
 10
105.1678732867
 20
210.8900545804
 30
0.0
  0
SPLINE
  5
482
100
AcDbEntity
  8
0
100
AcDbSpline
 62
7
  6
BYLAYER
 70
0
 71
3
 72
9
 73
5
 74
0
 42
0.0000001
 43
0.0000001
 44
0.0000000001
 40
0.0
 40
0.0
 40
0.0
 40
0.0
 40
0.2420615491
 40
1.0
 40
1.0
 40
1.0
 40
1.0
 10
105.1166894735
 20
210.8536386039
 30
0.0
 10
105.100976145
 20
210.8418676833
 30
0.0
 10
105.037160195
 20
210.791779242
 30
0.0
 10
104.9777857543
 20
210.7361220347
 30
0.0
 10
104.9352768745
 20
210.691712692
 30
0.0
  0
SPLINE
  5
483
100
AcDbEntity
  8
0
100
AcDbSpline
 62
7
  6
BYLAYER
 70
0
 71
3
 72
9
 73
5
 74
0
 42
0.0000001
 43
0.0000001
 44
0.0000000001
 40
0.0
 40
0.0
 40
0.0
 40
0.0
 40
0.4934386229
 40
1.0
 40
1.0
 40
1.0
 40
1.0
 10
110.0521432804
 20
211.7666996454
 30
0.0
 10
110.0521444358
 20
211.8692207848
 30
0.0
 10
110.1390439597
 20
212.0728240446
 30
0.0
 10
110.2911406382
 20
212.2223489568
 30
0.0
 10
110.3824271037
 20
212.2747306954
 30
0.0
  0
SPLINE
  5
484
100
AcDbEntity
  8
0
100
AcDbSpline
 62
7
  6
BYLAYER
 70
0
 71
3
 72
9
 73
5
 74
0
 42
0.0000001
 43
0.0000001
 44
0.0000000001
 40
0.0
 40
0.0
 40
0.0
 40
0.0
 40
0.4993944193
 40
1.0
 40
1.0
 40
1.0
 40
1.0
 10
117.1712038383
 20
209.9016567506
 30
0.0
 10
117.1612072285
 20
210.0742494784
 30
0.0
 10
117.0494664035
 20
210.418714588
 30
0.0
 10
116.8034358899
 20
210.6760616708
 30
0.0
 10
116.6642596567
 20
210.7793249606
 30
0.0
  0
SPLINE
  5
485
100
AcDbEntity
  8
0
100
AcDbSpline
 62
7
  6
BYLAYER
 70
0
 71
3
 72
8
 73
4
 74
0
 42
0.0000001
 43
0.0000001
 44
0.0000000001
 40
0.0
 40
0.0
 40
0.0
 40
0.0
 40
1.0
 40
1.0
 40
1.0
 40
1.0
 10
116.6642596567
 20
210.7793249606
 30
0.0
 10
116.4657113001
 20
210.9266400303
 30
0.0
 10
116.2234160716
 20
211.0277016922
 30
0.0
 10
115.9785911085
 20
211.0621097884
 30
0.0
  0
SPLINE
  5
486
100
AcDbEntity
  8
0
100
AcDbSpline
 62
7
  6
BYLAYER
 70
0
 71
3
 72
11
 73
7
 74
0
 42
0.0000001
 43
0.0000001
 44
0.0000000001
 40
0.0
 40
0.0
 40
0.0
 40
0.0
 40
0.2332466128
 40
0.4766038331
 40
0.7336388487
 40
1.0
 40
1.0
 40
1.0
 40
1.0
 10
94.1374287037
 20
245.3578907139
 30
0.0
 10
94.1374287037
 20
245.1878492943
 30
0.0
 10
94.2199937657
 20
244.8359610729
 30
0.0
 10
94.5616392051
 20
244.4053999521
 30
0.0
 10
95.0583064679
 20
244.1235065927
 30
0.0
 10
95.4432461269
 20
244.0588526082
 30
0.0
 10
95.6374287037
 20
244.0588526082
 30
0.0
  0
SPLINE
  5
487
100
AcDbEntity
  8
0
100
AcDbSpline
 62
7
  6
BYLAYER
 70
0
 71
3
 72
11
 73
7
 74
0
 42
0.0000001
 43
0.0000001
 44
0.0000000001
 40
0.0
 40
0.0
 40
0.0
 40
0.0
 40
0.2573791102
 40
0.4978051826
 40
0.7475903822
 40
1.0
 40
1.0
 40
1.0
 40
1.0
 10
115.2604771814
 20
209.6434011293
 30
0.0
 10
115.2604759477
 20
209.5383689458
 30
0.0
 10
115.3108077112
 20
209.3290491129
 30
0.0
 10
115.5357270983
 20
209.1065592444
 30
0.0
 10
115.819198432
 20
208.9870416604
 30
0.0
 10
116.0250164884
 20
208.9601906624
 30
0.0
 10
116.1280207037
 20
208.9601906624
 30
0.0
  0
SPLINE
  5
488
100
AcDbEntity
  8
0
100
AcDbSpline
 62
7
  6
BYLAYER
 70
0
 71
3
 72
11
 73
7
 74
0
 42
0.0000001
 43
0.0000001
 44
0.0000000001
 40
0.0
 40
0.0
 40
0.0
 40
0.0
 40
0.2332140294
 40
0.4766050139
 40
0.7336382308
 40
1.0
 40
1.0
 40
1.0
 40
1.0
 10
97.1373646589
 20
244.1569288196
 30
0.0
 10
97.1373646589
 20
243.9869135101
 30
0.0
 10
97.0548037555
 20
243.6350432652
 30
0.0
 10
96.713253181
 20
243.204406722
 30
0.0
 10
96.2165352014
 20
242.9225464533
 30
0.0
 10
95.8316090399
 20
242.8578907139
 30
0.0
 10
95.6374287037
 20
242.8578907139
 30
0.0
  0
SPLINE
  5
489
100
AcDbEntity
  8
0
100
AcDbSpline
 62
7
  6
BYLAYER
 70
0
 71
3
 72
9
 73
5
 74
0
 42
0.0000001
 43
0.0000001
 44
0.0000000001
 40
0.0
 40
0.0
 40
0.0
 40
0.0
 40
0.2591199609
 40
1.0
 40
1.0
 40
1.0
 40
1.0
 10
127.3206655979
 20
225.0977305147
 30
0.0
 10
127.398284937
 20
225.0874274552
 30
0.0
 10
127.6978969749
 20
225.048146044
 30
0.0
 10
127.9978897957
 20
225.0116906303
 30
0.0
 10
128.2204158997
 20
224.9871327913
 30
0.0
  0
SPLINE
  5
48A
100
AcDbEntity
  8
0
100
AcDbSpline
 62
7
  6
BYLAYER
 70
0
 71
3
 72
9
 73
5
 74
0
 42
0.0000001
 43
0.0000001
 44
0.0000000001
 40
0.0
 40
0.0
 40
0.0
 40
0.0
 40
0.4929435011
 40
1.0
 40
1.0
 40
1.0
 40
1.0
 10
116.7526950418
 20
207.7074395595
 30
0.0
 10
116.7527000487
 20
207.7439208876
 30
0.0
 10
116.7839812063
 20
207.8163888236
 30
0.0
 10
116.8382918523
 20
207.8694019354
 30
0.0
 10
116.8708287037
 20
207.8880978779
 30
0.0
  0
SPLINE
  5
48B
100
AcDbEntity
  8
0
100
AcDbSpline
 62
7
  6
BYLAYER
 70
0
 71
3
 72
8
 73
4
 74
0
 42
0.0000001
 43
0.0000001
 44
0.0000000001
 40
0.0
 40
0.0
 40
0.0
 40
0.0
 40
1.0
 40
1.0
 40
1.0
 40
1.0
 10
109.5545194559
 20
209.1308950238
 30
0.0
 10
109.4099763853
 20
209.0460832563
 30
0.0
 10
109.253418371
 20
208.9774109789
 30
0.0
 10
109.0909654153
 20
208.9362433662
 30
0.0
  0
SPLINE
  5
48C
100
AcDbEntity
  8
0
100
AcDbSpline
 62
7
  6
BYLAYER
 70
0
 71
3
 72
8
 73
4
 74
0
 42
0.0000001
 43
0.0000001
 44
0.0000000001
 40
0.0
 40
0.0
 40
0.0
 40
0.0
 40
1.0
 40
1.0
 40
1.0
 40
1.0
 10
109.0909654153
 20
208.9362433662
 30
0.0
 10
108.9867968816
 20
208.9098457558
 30
0.0
 10
108.8787379397
 20
208.8946454962
 30
0.0
 10
108.7712767037
 20
208.8946454962
 30
0.0
  0
SPLINE
  5
48D
100
AcDbEntity
  8
0
100
AcDbSpline
 62
7
  6
BYLAYER
 70
0
 71
3
 72
11
 73
7
 74
0
 42
0.0000001
 43
0.0000001
 44
0.0000000001
 40
0.0
 40
0.0
 40
0.0
 40
0.0
 40
0.2524637049
 40
0.5022400166
 40
0.742550965
 40
1.0
 40
1.0
 40
1.0
 40
1.0
 10
108.7712767037
 20
208.8946454962
 30
0.0
 10
108.668107345
 20
208.8946454962
 30
0.0
 10
108.4619922081
 20
208.9213307771
 30
0.0
 10
108.1779239596
 20
209.0404205163
 30
0.0
 10
107.9523046193
 20
209.2628817042
 30
0.0
 10
107.9019222073
 20
209.4725324365
 30
0.0
 10
107.9019248629
 20
209.5777390516
 30
0.0
  0
SPLINE
  5
48E
100
AcDbEntity
  8
0
100
AcDbSpline
 62
7
  6
BYLAYER
 70
0
 71
3
 72
8
 73
4
 74
0
 42
0.0000001
 43
0.0000001
 44
0.0000000001
 40
0.0
 40
0.0
 40
0.0
 40
0.0
 40
1.0
 40
1.0
 40
1.0
 40
1.0
 10
108.343741643
 20
211.0727195089
 30
0.0
 10
108.0905751202
 20
211.057731682
 30
0.0
 10
107.8315804346
 20
210.9800033205
 30
0.0
 10
107.618673159
 20
210.842204862
 30
0.0
  0
SPLINE
  5
48F
100
AcDbEntity
  8
0
100
AcDbSpline
 62
7
  6
BYLAYER
 70
0
 71
3
 72
10
 73
6
 74
0
 42
0.0000001
 43
0.0000001
 44
0.0000000001
 40
0.0
 40
0.0
 40
0.0
 40
0.0
 40
0.2515412217
 40
0.5026945356
 40
1.0
 40
1.0
 40
1.0
 40
1.0
 10
107.618673159
 20
210.842204862
 30
0.0
 10
107.531445135
 20
210.7857488897
 30
0.0
 10
107.3702779156
 20
210.6498016142
 30
0.0
 10
107.1374547542
 20
210.3045864114
 30
0.0
 10
107.0561263303
 20
209.9930733845
 30
0.0
 10
107.047537346
 20
209.7878316608
 30
0.0
  0
SPLINE
  5
490
100
AcDbEntity
  8
0
100
AcDbSpline
 62
7
  6
BYLAYER
 70
0
 71
3
 72
9
 73
5
 74
0
 42
0.0000001
 43
0.0000001
 44
0.0000000001
 40
0.0
 40
0.0
 40
0.0
 40
0.0
 40
0.4678528996
 40
1.0
 40
1.0
 40
1.0
 40
1.0
 10
110.9735135037
 20
212.1069564725
 30
0.0
 10
110.957113247
 20
212.1487138816
 30
0.0
 10
110.8848314391
 20
212.2230206714
 30
0.0
 10
110.7909762146
 20
212.2511241135
 30
0.0
 10
110.740723855
 20
212.2599859509
 30
0.0
  0
SPLINE
  5
491
100
AcDbEntity
  8
0
100
AcDbSpline
 62
7
  6
BYLAYER
 70
0
 71
3
 72
9
 73
5
 74
0
 42
0.0000001
 43
0.0000001
 44
0.0000000001
 40
0.0
 40
0.0
 40
0.0
 40
0.0
 40
0.5205969567
 40
1.0
 40
1.0
 40
1.0
 40
1.0
 10
110.740723855
 20
212.2599859509
 30
0.0
 10
110.6780588103
 20
212.2710367242
 30
0.0
 10
110.5541872633
 20
212.2721351011
 30
0.0
 10
110.4331343194
 20
212.2385517183
 30
0.0
 10
110.3824271037
 20
212.2091855292
 30
0.0
  0
SPLINE
  5
492
100
AcDbEntity
  8
0
100
AcDbSpline
 62
7
  6
BYLAYER
 70
0
 71
3
 72
11
 73
7
 74
0
 42
0.0000001
 43
0.0000001
 44
0.0000000001
 40
0.0
 40
0.0
 40
0.0
 40
0.0
 40
0.2364409237
 40
0.4805599402
 40
0.7357576057
 40
1.0
 40
1.0
 40
1.0
 40
1.0
 10
129.0631691057
 20
170.5743838685
 30
0.0
 10
128.9891230023
 20
171.0366436861
 30
0.0
 10
128.681613503
 20
171.9586199616
 30
0.0
 10
127.7694688273
 20
173.1305879683
 30
0.0
 10
126.4592054981
 20
173.9474576097
 30
0.0
 10
125.4202203601
 20
174.1437151177
 30
0.0
 10
124.8970207712
 20
174.1436869549
 30
0.0
  0
SPLINE
  5
493
100
AcDbEntity
  8
0
100
AcDbSpline
 62
7
  6
BYLAYER
 70
0
 71
3
 72
11
 73
7
 74
0
 42
0.0000001
 43
0.0000001
 44
0.0000000001
 40
0.0
 40
0.0
 40
0.0
 40
0.0
 40
0.2389020451
 40
0.4908346896
 40
0.7522578656
 40
1.0
 40
1.0
 40
1.0
 40
1.0
 10
112.1055631037
 20
209.7960956828
 30
0.0
 10
112.1055631037
 20
209.7078912502
 30
0.0
 10
112.1142829898
 20
209.5234064523
 30
0.0
 10
112.2479761242
 20
209.2702180372
 30
0.0
 10
112.4605333504
 20
209.0791774456
 30
0.0
 10
112.6485300436
 20
209.0165926852
 30
0.0
 10
112.7399983037
 20
209.0165926852
 30
0.0
  0
SPLINE
  5
494
100
AcDbEntity
  8
0
100
AcDbSpline
 62
7
  6
BYLAYER
 70
0
 71
3
 72
9
 73
5
 74
0
 42
0.0000001
 43
0.0000001
 44
0.0000000001
 40
0.0
 40
0.0
 40
0.0
 40
0.0
 40
0.4812615552
 40
1.0
 40
1.0
 40
1.0
 40
1.0
 10
112.7399983037
 20
209.0165926852
 30
0.0
 10
112.8274817379
 20
209.0165926852
 30
0.0
 10
113.0115341899
 20
209.0544975782
 30
0.0
 10
113.1629033306
 20
209.1631815893
 30
0.0
 10
113.2312911037
 20
209.2281033934
 30
0.0
  0
SPLINE
  5
495
100
AcDbEntity
  8
0
100
AcDbSpline
 62
7
  6
BYLAYER
 70
0
 71
3
 72
12
 73
8
 74
0
 42
0.0000001
 43
0.0000001
 44
0.0000000001
 40
0.0
 40
0.0
 40
0.0
 40
0.0
 40
0.2217980818
 40
0.4522644158
 40
0.5781324738
 40
0.7156188756
 40
1.0
 40
1.0
 40
1.0
 40
1.0
 10
93.2765866164
 20
96.0196988297
 30
0.0
 10
93.1366328609
 20
96.0294246616
 30
0.0
 10
92.851836914
 20
96.0552832402
 30
0.0
 10
92.4925424365
 20
96.1442556394
 30
0.0
 10
92.2172782504
 20
96.2962564289
 30
0.0
 10
91.9496578769
 20
96.5183202389
 30
0.0
 10
91.7714583371
 20
96.7179438064
 30
0.0
 10
91.6374297544
 20
96.8379095651
 30
0.0
  0
SPLINE
  5
496
100
AcDbEntity
  8
0
100
AcDbSpline
 62
7
  6
BYLAYER
 70
0
 71
3
 72
9
 73
5
 74
0
 42
0.0000001
 43
0.0000001
 44
0.0000000001
 40
0.0
 40
0.0
 40
0.0
 40
0.0
 40
0.260686403
 40
1.0
 40
1.0
 40
1.0
 40
1.0
 10
113.2312911037
 20
209.1625582272
 30
0.0
 10
113.218839553
 20
209.1507377351
 30
0.0
 10
113.169953825
 20
209.1066088754
 30
0.0
 10
113.1162848774
 20
209.0676319887
 30
0.0
 10
113.0742609244
 20
209.0430393591
 30
0.0
  0
SPLINE
  5
497
100
AcDbEntity
  8
0
100
AcDbSpline
 62
7
  6
BYLAYER
 70
0
 71
3
 72
8
 73
4
 74
0
 42
0.0000001
 43
0.0000001
 44
0.0000000001
 40
0.0
 40
0.0
 40
0.0
 40
0.0
 40
1.0
 40
1.0
 40
1.0
 40
1.0
 10
113.0742609244
 20
209.0430393591
 30
0.0
 10
113.0229315169
 20
209.0130011305
 30
0.0
 10
112.9673628513
 20
208.9890459872
 30
0.0
 10
112.9099678533
 20
208.973463386
 30
0.0
  0
SPLINE
  5
498
100
AcDbEntity
  8
0
100
AcDbSpline
 62
7
  6
BYLAYER
 70
0
 71
3
 72
8
 73
4
 74
0
 42
0.0000001
 43
0.0000001
 44
0.0000000001
 40
0.0
 40
0.0
 40
0.0
 40
0.0
 40
1.0
 40
1.0
 40
1.0
 40
1.0
 10
112.9099678533
 20
208.973463386
 30
0.0
 10
112.8548172194
 20
208.9584901243
 30
0.0
 10
112.7971454033
 20
208.951047519
 30
0.0
 10
112.7399983037
 20
208.951047519
 30
0.0
  0
SPLINE
  5
499
100
AcDbEntity
  8
0
100
AcDbSpline
 62
7
  6
BYLAYER
 70
0
 71
3
 72
18
 73
14
 74
0
 42
0.0000001
 43
0.0000001
 44
0.0000000001
 40
0.0
 40
0.0
 40
0.0
 40
0.0
 40
0.0056630965
 40
0.0205321028
 40
0.0443705903
 40
0.0769189176
 40
0.1179125397
 40
0.1670193961
 40
0.287953113
 40
0.4364177883
 40
0.60814372
 40
0.7978579537
 40
1.0
 40
1.0
 40
1.0
 40
1.0
 10
93.6374287037
 20
148.1028897548
 30
0.0
 10
93.6374287037
 20
148.1006931825
 30
0.0
 10
93.6446312913
 20
148.0949147899
 30
0.0
 10
93.6538095085
 20
148.08141414
 30
0.0
 10
93.6733355026
 20
148.0610515252
 30
0.0
 10
93.6984333061
 20
148.0331455864
 30
0.0
 10
93.731184799
 20
147.9985130009
 30
0.0
 10
93.7876226419
 20
147.9392845532
 30
0.0
 10
93.873656343
 20
147.8505857932
 30
0.0
 10
93.9932390503
 20
147.7282271654
 30
0.0
 10
94.1318951666
 20
147.5871855056
 30
0.0
 10
94.2855576699
 20
147.4317086186
 30
0.0
 10
94.3926759621
 20
147.3238794435
 30
0.0
 10
94.447994308
 20
147.2683155139
 30
0.0
  0
SPLINE
  5
49A
100
AcDbEntity
  8
0
100
AcDbSpline
 62
7
  6
BYLAYER
 70
0
 71
3
 72
17
 73
13
 74
0
 42
0.0000001
 43
0.0000001
 44
0.0000000001
 40
0.0
 40
0.0
 40
0.0
 40
0.0
 40
0.2007399314
 40
0.3897926215
 40
0.5614789338
 40
0.7106099694
 40
0.8323802559
 40
0.9224445986
 40
0.9545373396
 40
0.978029638
 40
0.9930752744
 40
1.0
 40
1.0
 40
1.0
 40
1.0
 10
94.7728240582
 20
146.9434160549
 30
0.0
 10
94.8300076731
 20
146.8864524006
 30
0.0
 10
94.9411602954
 20
146.7759576714
 30
0.0
 10
95.1015773001
 20
146.6170980994
 30
0.0
 10
95.2476353083
 20
146.4732483576
 30
0.0
 10
95.3750704235
 20
146.3489903742
 30
0.0
 10
95.4796659722
 20
146.2484803116
 30
0.0
 10
95.5505409345
 20
146.1804371468
 30
0.0
 10
95.5927763669
 20
146.1402091982
 30
0.0
 10
95.613560051
 20
146.1202653908
 30
0.0
 10
95.6272269897
 20
146.1092687098
 30
0.0
 10
95.6346434188
 20
146.1028907139
 30
0.0
 10
95.6374277451
 20
146.1028907139
 30
0.0
  0
SPLINE
  5
49B
100
AcDbEntity
  8
0
100
AcDbSpline
 62
7
  6
BYLAYER
 70
0
 71
3
 72
17
 73
13
 74
0
 42
0.0000001
 43
0.0000001
 44
0.0000000001
 40
0.0
 40
0.0
 40
0.0
 40
0.0
 40
0.0069247243
 40
0.0219703675
 40
0.0454626807
 40
0.0775554445
 40
0.167619849
 40
0.2893901944
 40
0.4385212707
 40
0.6102075836
 40
0.799260216
 40
1.0
 40
1.0
 40
1.0
 40
1.0
 10
126.6374296617
 20
146.1028907139
 30
0.0
 10
126.640213998
 20
146.1028907139
 30
0.0
 10
126.6476304531
 20
146.1092687427
 30
0.0
 10
126.6612974469
 20
146.1202654704
 30
0.0
 10
126.6820812192
 20
146.1402093698
 30
0.0
 10
126.7243168378
 20
146.1804374976
 30
0.0
 10
126.7951921098
 20
146.2484809574
 30
0.0
 10
126.8997880939
 20
146.3489914475
 30
0.0
 10
127.0272237081
 20
146.4732499357
 30
0.0
 10
127.173282254
 20
146.6171002206
 30
0.0
 10
127.3336997986
 20
146.7759603371
 30
0.0
 10
127.4448527766
 20
146.8864554275
 30
0.0
 10
127.5020365624
 20
146.9434192564
 30
0.0
  0
SPLINE
  5
49C
100
AcDbEntity
  8
0
100
AcDbSpline
 62
7
  6
BYLAYER
 70
0
 71
3
 72
18
 73
14
 74
0
 42
0.0000001
 43
0.0000001
 44
0.0000000001
 40
0.0
 40
0.0
 40
0.0
 40
0.0
 40
0.2021421874
 40
0.3918564772
 40
0.5635824057
 40
0.712047038
 40
0.8329807015
 40
0.8820875314
 40
0.923081129
 40
0.9556294361
 40
0.9794679085
 40
0.9943369057
 40
1.0
 40
1.0
 40
1.0
 40
1.0
 10
127.8268662158
 20
147.2683186448
 30
0.0
 10
127.8821843879
 20
147.3238824046
 30
0.0
 10
127.989302323
 20
147.431711229
 30
0.0
 10
128.1429642897
 20
147.5871875856
 30
0.0
 10
128.2816198775
 20
147.7282287176
 30
0.0
 10
128.4012020999
 20
147.8505868572
 30
0.0
 10
128.4872354363
 20
147.9392852511
 30
0.0
 10
128.5436730325
 20
147.998513449
 30
0.0
 10
128.5764243783
 20
148.0331458864
 30
0.0
 10
128.6015220688
 20
148.0610517044
 30
0.0
 10
128.6210479734
 20
148.0814142317
 30
0.0
 10
128.6302261506
 20
148.0949148225
 30
0.0
 10
128.6374287037
 20
148.1006931923
 30
0.0
 10
128.6374287037
 20
148.1028897554
 30
0.0
  0
SPLINE
  5
49D
100
AcDbEntity
  8
0
100
AcDbSpline
 62
7
  6
BYLAYER
 70
0
 71
3
 72
11
 73
7
 74
0
 42
0.0000001
 43
0.0000001
 44
0.0000000001
 40
0.0
 40
0.0
 40
0.0
 40
0.0
 40
0.2477421344
 40
0.5091653104
 40
0.7610979549
 40
1.0
 40
1.0
 40
1.0
 40
1.0
 10
112.7399983037
 20
208.951047519
 30
0.0
 10
112.6485300436
 20
208.951047519
 30
0.0
 10
112.4605333504
 20
209.0136322794
 30
0.0
 10
112.2479761242
 20
209.204672871
 30
0.0
 10
112.1142829898
 20
209.4578612861
 30
0.0
 10
112.1055631037
 20
209.642346084
 30
0.0
 10
112.1055631037
 20
209.7305505166
 30
0.0
  0
SPLINE
  5
49E
100
AcDbEntity
  8
0
100
AcDbSpline
 62
7
  6
BYLAYER
 70
0
 71
3
 72
9
 73
5
 74
0
 42
0.0000001
 43
0.0000001
 44
0.0000000001
 40
0.0
 40
0.0
 40
0.0
 40
0.0
 40
0.237530704
 40
1.0
 40
1.0
 40
1.0
 40
1.0
 10
94.0547694748
 20
224.9871771854
 30
0.0
 10
94.1260972869
 20
224.9950499931
 30
0.0
 10
94.4262713064
 20
225.0292369368
 30
0.0
 10
94.7259911042
 20
225.0673231103
 30
0.0
 10
94.9543380026
 20
225.0976461101
 30
0.0
  0
SPLINE
  5
49F
100
AcDbEntity
  8
0
100
AcDbSpline
 62
7
  6
BYLAYER
 70
0
 71
3
 72
8
 73
4
 74
0
 42
0.0000001
 43
0.0000001
 44
0.0000000001
 40
0.0
 40
0.0
 40
0.0
 40
0.0
 40
1.0
 40
1.0
 40
1.0
 40
1.0
 10
113.2312911037
 20
210.9150086088
 30
0.0
 10
113.1576568473
 20
210.950473926
 30
0.0
 10
113.0813488271
 20
210.9809454808
 30
0.0
 10
113.0033332468
 20
211.0053044966
 30
0.0
  0
SPLINE
  5
4A0
100
AcDbEntity
  8
0
100
AcDbSpline
 62
7
  6
BYLAYER
 70
0
 71
3
 72
8
 73
4
 74
0
 42
0.0000001
 43
0.0000001
 44
0.0000000001
 40
0.0
 40
0.0
 40
0.0
 40
0.0
 40
1.0
 40
1.0
 40
1.0
 40
1.0
 10
113.0033332468
 20
211.0053044966
 30
0.0
 10
112.8560642547
 20
211.0512866927
 30
0.0
 10
112.7001109519
 20
211.0754024467
 30
0.0
 10
112.5458303037
 20
211.0754024467
 30
0.0
  0
SPLINE
  5
4A1
100
AcDbEntity
  8
0
100
AcDbSpline
 62
7
  6
BYLAYER
 70
0
 71
3
 72
9
 73
5
 74
0
 42
0.0000001
 43
0.0000001
 44
0.0000000001
 40
0.0
 40
0.0
 40
0.0
 40
0.0
 40
0.5038119867
 40
1.0
 40
1.0
 40
1.0
 40
1.0
 10
112.5458303037
 20
211.0754024467
 30
0.0
 10
112.2170691351
 20
211.0754024467
 30
0.0
 10
111.5160296498
 20
210.8231712867
 30
0.0
 10
111.2854084597
 20
210.1291279625
 30
0.0
 10
111.273515716
 20
209.8055602827
 30
0.0
  0
SPLINE
  5
4A2
100
AcDbEntity
  8
0
100
AcDbSpline
 62
7
  6
BYLAYER
 70
0
 71
3
 72
9
 73
5
 74
0
 42
0.0000001
 43
0.0000001
 44
0.0000000001
 40
0.0
 40
0.0
 40
0.0
 40
0.0
 40
0.2588180047
 40
1.0
 40
1.0
 40
1.0
 40
1.0
 10
94.9543432665
 20
225.097643071
 30
0.0
 10
95.0484514317
 20
225.11014005
 30
0.0
 10
95.4119197552
 20
225.1594351511
 30
0.0
 10
95.7749526585
 20
225.2121851959
 30
0.0
 10
96.0433255025
 20
225.2556210337
 30
0.0
  0
SPLINE
  5
4A3
100
AcDbEntity
  8
0
100
AcDbSpline
 62
7
  6
BYLAYER
 70
0
 71
3
 72
8
 73
4
 74
0
 42
0.0000001
 43
0.0000001
 44
0.0000000001
 40
0.0
 40
0.0
 40
0.0
 40
0.0
 40
1.0
 40
1.0
 40
1.0
 40
1.0
 10
116.9136594794
 20
209.1310101359
 30
0.0
 10
116.7686085765
 20
209.0459686256
 30
0.0
 10
116.6114324054
 20
208.9772593894
 30
0.0
 10
116.448397991
 20
208.9361302921
 30
0.0
  0
SPLINE
  5
4A4
100
AcDbEntity
  8
0
100
AcDbSpline
 62
7
  6
BYLAYER
 70
0
 71
3
 72
8
 73
4
 74
0
 42
0.0000001
 43
0.0000001
 44
0.0000000001
 40
0.0
 40
0.0
 40
0.0
 40
0.0
 40
1.0
 40
1.0
 40
1.0
 40
1.0
 10
116.448397991
 20
208.9361302921
 30
0.0
 10
116.3439852346
 20
208.9097898263
 30
0.0
 10
116.2357047036
 20
208.8946454962
 30
0.0
 10
116.1280207037
 20
208.8946454962
 30
0.0
  0
SPLINE
  5
4A5
100
AcDbEntity
  8
0
100
AcDbSpline
 62
7
  6
BYLAYER
 70
0
 71
3
 72
11
 73
7
 74
0
 42
0.0000001
 43
0.0000001
 44
0.0000000001
 40
0.0
 40
0.0
 40
0.0
 40
0.0
 40
0.2524094072
 40
0.5021942822
 40
0.7426200852
 40
1.0
 40
1.0
 40
1.0
 40
1.0
 10
116.1280207037
 20
208.8946454962
 30
0.0
 10
116.0250158079
 20
208.8946454962
 30
0.0
 10
115.8191964335
 20
208.9214968408
 30
0.0
 10
115.535723531
 20
209.0410159904
 30
0.0
 10
115.3108038915
 20
209.2635095028
 30
0.0
 10
115.2604745825
 20
209.4728319871
 30
0.0
 10
115.2604771816
 20
209.5778652804
 30
0.0
  0
SPLINE
  5
4A6
100
AcDbEntity
  8
0
100
AcDbSpline
 62
7
  6
BYLAYER
 70
0
 71
3
 72
8
 73
4
 74
0
 42
0.0000001
 43
0.0000001
 44
0.0000000001
 40
0.0
 40
0.0
 40
0.0
 40
0.0
 40
1.0
 40
1.0
 40
1.0
 40
1.0
 10
115.7000889214
 20
211.0726663799
 30
0.0
 10
115.4473330252
 20
211.0575492834
 30
0.0
 10
115.1888063869
 20
210.9798499682
 30
0.0
 10
114.9762609179
 20
210.8422327698
 30
0.0
  0
SPLINE
  5
4A7
100
AcDbEntity
  8
0
100
AcDbSpline
 62
7
  6
BYLAYER
 70
0
 71
3
 72
10
 73
6
 74
0
 42
0.0000001
 43
0.0000001
 44
0.0000000001
 40
0.0
 40
0.0
 40
0.0
 40
0.0
 40
0.2515328379
 40
0.502669361
 40
1.0
 40
1.0
 40
1.0
 40
1.0
 10
114.9762609179
 20
210.8422327698
 30
0.0
 10
114.8890616822
 20
210.7857737233
 30
0.0
 10
114.7279627302
 20
210.6498145782
 30
0.0
 10
114.4953511153
 20
210.3045373918
 30
0.0
 10
114.4142061042
 20
209.9930588394
 30
0.0
 10
114.4056330955
 20
209.7878437045
 30
0.0
  0
SPLINE
  5
4A8
100
AcDbEntity
  8
0
100
AcDbSpline
 62
7
  6
BYLAYER
 70
0
 71
3
 72
11
 73
7
 74
0
 42
0.0000001
 43
0.0000001
 44
0.0000000001
 40
0.0
 40
0.0
 40
0.0
 40
0.0
 40
0.2663617692
 40
0.5233949861
 40
0.7667859706
 40
1.0
 40
1.0
 40
1.0
 40
1.0
 10
95.6374287037
 20
242.8578907139
 30
0.0
 10
95.4432483676
 20
242.8578907139
 30
0.0
 10
95.058322206
 20
242.9225464533
 30
0.0
 10
94.5616042265
 20
243.204406722
 30
0.0
 10
94.220053652
 20
243.6350432652
 30
0.0
 10
94.1374927485
 20
243.9869135101
 30
0.0
 10
94.1374927485
 20
244.1569288196
 30
0.0
  0
SPLINE
  5
4A9
100
AcDbEntity
  8
0
100
AcDbSpline
 62
7
  6
BYLAYER
 70
0
 71
3
 72
9
 73
5
 74
0
 42
0.0000001
 43
0.0000001
 44
0.0000000001
 40
0.0
 40
0.0
 40
0.0
 40
0.0
 40
0.2647694513
 40
1.0
 40
1.0
 40
1.0
 40
1.0
 10
130.9102006262
 20
117.3383062662
 30
0.0
 10
130.9056330444
 20
117.2378562215
 30
0.0
 10
130.8915603961
 20
116.8583567302
 30
0.0
 10
130.8874126662
 20
116.4782993269
 30
0.0
 10
130.8954294566
 20
116.1991894229
 30
0.0
  0
SPLINE
  5
4AA
100
AcDbEntity
  8
0
100
AcDbSpline
 62
7
  6
BYLAYER
 70
0
 71
3
 72
9
 73
5
 74
0
 42
0.0000001
 43
0.0000001
 44
0.0000000001
 40
0.0
 40
0.0
 40
0.0
 40
0.0
 40
0.5122605445
 40
1.0
 40
1.0
 40
1.0
 40
1.0
 10
126.6374287037
 20
244.0588526082
 30
0.0
 10
126.8693007562
 20
244.0588526082
 30
0.0
 10
127.3272277663
 20
244.1498457686
 30
0.0
 10
127.7090192381
 20
244.4252345417
 30
0.0
 10
127.8509541953
 20
244.5943352732
 30
0.0
  0
SPLINE
  5
4AB
100
AcDbEntity
  8
0
100
AcDbSpline
 62
7
  6
BYLAYER
 70
0
 71
3
 72
9
 73
5
 74
0
 42
0.0000001
 43
0.0000001
 44
0.0000000001
 40
0.0
 40
0.0
 40
0.0
 40
0.0
 40
0.5072896209
 40
1.0
 40
1.0
 40
1.0
 40
1.0
 10
127.8509541953
 20
244.5943352732
 30
0.0
 10
127.9409941897
 20
244.7016085569
 30
0.0
 10
128.0859615802
 20
244.9436071484
 30
0.0
 10
128.1374287037
 20
245.2218630589
 30
0.0
 10
128.1374287037
 20
245.3578907139
 30
0.0
  0
SPLINE
  5
4AC
100
AcDbEntity
  8
0
100
AcDbSpline
 62
7
  6
BYLAYER
 70
0
 71
3
 72
9
 73
5
 74
0
 42
0.0000001
 43
0.0000001
 44
0.0000000001
 40
0.0
 40
0.0
 40
0.0
 40
0.0
 40
0.273274548
 40
1.0
 40
1.0
 40
1.0
 40
1.0
 10
119.7677327037
 20
210.8073667768
 30
0.0
 10
119.7424169221
 20
210.8366426635
 30
0.0
 10
119.6447293205
 20
210.9389402706
 30
0.0
 10
119.51997436
 20
211.0180444959
 30
0.0
 10
119.4218065688
 20
211.0489751551
 30
0.0
  0
SPLINE
  5
4AD
100
AcDbEntity
  8
0
100
AcDbSpline
 62
7
  6
BYLAYER
 70
0
 71
3
 72
8
 73
4
 74
0
 42
0.0000001
 43
0.0000001
 44
0.0000000001
 40
0.0
 40
0.0
 40
0.0
 40
0.0
 40
1.0
 40
1.0
 40
1.0
 40
1.0
 10
119.4218065688
 20
211.0489751551
 30
0.0
 10
119.3610676538
 20
211.0681127425
 30
0.0
 10
119.2965992213
 20
211.0776070657
 30
0.0
 10
119.2329167037
 20
211.0776070657
 30
0.0
  0
SPLINE
  5
4AE
100
AcDbEntity
  8
0
100
AcDbSpline
 62
7
  6
BYLAYER
 70
0
 71
3
 72
11
 73
7
 74
0
 42
0.0000001
 43
0.0000001
 44
0.0000000001
 40
0.0
 40
0.0
 40
0.0
 40
0.0
 40
0.2375752764
 40
0.4849442373
 40
0.7441294864
 40
1.0
 40
1.0
 40
1.0
 40
1.0
 10
119.2329167037
 20
211.0776070657
 30
0.0
 10
119.1553861121
 20
211.0776070657
 30
0.0
 10
118.9960784517
 20
211.0385016039
 30
0.0
 10
118.79424081
 20
210.8980862852
 30
0.0
 10
118.6254211075
 20
210.7135766875
 30
0.0
 10
118.5316193808
 20
210.5734426798
 30
0.0
 10
118.4894006511
 20
210.5014009605
 30
0.0
  0
SPLINE
  5
4AF
100
AcDbEntity
  8
0
100
AcDbSpline
 62
7
  6
BYLAYER
 70
0
 71
3
 72
9
 73
5
 74
0
 42
0.0000001
 43
0.0000001
 44
0.0000000001
 40
0.0
 40
0.0
 40
0.0
 40
0.0
 40
0.4927103791
 40
1.0
 40
1.0
 40
1.0
 40
1.0
 10
125.1374287037
 20
245.3578907139
 30
0.0
 10
125.1374287037
 20
245.2218630589
 30
0.0
 10
125.1888958272
 20
244.9436071484
 30
0.0
 10
125.3338632177
 20
244.7016085569
 30
0.0
 10
125.4239032122
 20
244.5943352732
 30
0.0
  0
SPLINE
  5
4B0
100
AcDbEntity
  8
0
100
AcDbSpline
 62
7
  6
BYLAYER
 70
0
 71
3
 72
9
 73
5
 74
0
 42
0.0000001
 43
0.0000001
 44
0.0000000001
 40
0.0
 40
0.0
 40
0.0
 40
0.0
 40
0.4877394555
 40
1.0
 40
1.0
 40
1.0
 40
1.0
 10
125.4239032122
 20
244.5943352732
 30
0.0
 10
125.5658381694
 20
244.4252345417
 30
0.0
 10
125.9476296411
 20
244.1498457686
 30
0.0
 10
126.4055566512
 20
244.0588526082
 30
0.0
 10
126.6374287037
 20
244.0588526082
 30
0.0
  0
SPLINE
  5
4B1
100
AcDbEntity
  8
0
100
AcDbSpline
 62
7
  6
BYLAYER
 70
0
 71
3
 72
9
 73
5
 74
0
 42
0.0000001
 43
0.0000001
 44
0.0000000001
 40
0.0
 40
0.0
 40
0.0
 40
0.0
 40
0.5122605445
 40
1.0
 40
1.0
 40
1.0
 40
1.0
 10
95.6374287037
 20
244.0588526082
 30
0.0
 10
95.8693007562
 20
244.0588526082
 30
0.0
 10
96.3272277664
 20
244.1498457686
 30
0.0
 10
96.7090192381
 20
244.4252345417
 30
0.0
 10
96.8509541953
 20
244.5943352732
 30
0.0
  0
SPLINE
  5
4B2
100
AcDbEntity
  8
0
100
AcDbSpline
 62
7
  6
BYLAYER
 70
0
 71
3
 72
9
 73
5
 74
0
 42
0.0000001
 43
0.0000001
 44
0.0000000001
 40
0.0
 40
0.0
 40
0.0
 40
0.0
 40
0.5072896209
 40
1.0
 40
1.0
 40
1.0
 40
1.0
 10
96.8509541953
 20
244.5943352732
 30
0.0
 10
96.9409941898
 20
244.7016085569
 30
0.0
 10
97.0859615803
 20
244.9436071484
 30
0.0
 10
97.1374287037
 20
245.2218630589
 30
0.0
 10
97.1374287037
 20
245.3578907139
 30
0.0
  0
SPLINE
  5
4B3
100
AcDbEntity
  8
0
100
AcDbSpline
 62
7
  6
BYLAYER
 70
0
 71
3
 72
20
 73
16
 74
0
 42
0.0000001
 43
0.0000001
 44
0.0000000001
 40
0.0
 40
0.0
 40
0.0
 40
0.0
 40
0.0200740693
 40
0.0435846369
 40
0.069381166
 40
0.0969985322
 40
0.1559749087
 40
0.2178257611
 40
0.281282291
 40
0.3456315222
 40
0.4756117254
 40
0.6062588106
 40
0.7371700138
 40
0.8683562962
 40
1.0
 40
1.0
 40
1.0
 40
1.0
 10
130.8954294566
 20
116.1991894229
 30
0.0
 10
130.9012648756
 20
116.0889300776
 30
0.0
 10
130.8868827059
 20
115.8485648897
 30
0.0
 10
130.8349937421
 20
115.4706138809
 30
0.0
 10
130.7593291901
 20
115.0541448114
 30
0.0
 10
130.6308792416
 20
114.4494328448
 30
0.0
 10
130.4391988108
 20
113.6556389125
 30
0.0
 10
130.1874350138
 20
112.6737912155
 30
0.0
 10
129.9190252708
 20
111.665724005
 30
0.0
 10
129.5442317124
 20
110.2982450285
 30
0.0
 10
129.0501546518
 20
108.580299623
 30
0.0
 10
128.4074958126
 20
106.5245366298
 30
0.0
 10
127.7063181993
 20
104.4811833008
 30
0.0
 10
126.9271564023
 20
102.4587412608
 30
0.0
 10
126.2821975505
 20
101.1621064047
 30
0.0
 10
125.9338746477
 20
100.5273110031
 30
0.0
  0
SPLINE
  5
4B4
100
AcDbEntity
  8
0
100
AcDbSpline
 62
7
  6
BYLAYER
 70
0
 71
3
 72
15
 73
11
 74
0
 42
0.0000001
 43
0.0000001
 44
0.0000000001
 40
0.0
 40
0.0
 40
0.0
 40
0.0
 40
0.156748635
 40
0.2994702095
 40
0.430575184
 40
0.5536187393
 40
0.6711266712
 40
0.7833290824
 40
0.8912351375
 40
1.0
 40
1.0
 40
1.0
 40
1.0
 10
125.9338746477
 20
100.5273110031
 30
0.0
 10
126.1507404228
 20
100.4769600838
 30
0.0
 10
126.5554754913
 20
100.3368680423
 30
0.0
 10
127.0981242263
 20
100.0522255191
 30
0.0
 10
127.5657399831
 20
99.734698763
 30
0.0
 10
127.9573647264
 20
99.3780197576
 30
0.0
 10
128.2806044792
 20
98.993784985
 30
0.0
 10
128.5536180628
 20
98.5990077613
 30
0.0
 10
128.7888701009
 20
98.194675573
 30
0.0
 10
128.9103652313
 20
97.9107548835
 30
0.0
 10
128.9615404112
 20
97.7649959779
 30
0.0
  0
SPLINE
  5
4B5
100
AcDbEntity
  8
0
100
AcDbSpline
 62
7
  6
BYLAYER
 70
0
 71
3
 72
11
 73
7
 74
0
 42
0.0000001
 43
0.0000001
 44
0.0000000001
 40
0.0
 40
0.0
 40
0.0
 40
0.0
 40
0.2505497742
 40
0.4999425086
 40
0.7493378636
 40
1.0
 40
1.0
 40
1.0
 40
1.0
 10
133.1296061034
 20
125.5903034443
 30
0.0
 10
132.9969124233
 20
124.9999611128
 30
0.0
 10
132.7108053325
 20
123.826702495
 30
0.0
 10
132.2135016911
 20
122.0860449402
 30
0.0
 10
131.6083498587
 20
120.3785098888
 30
0.0
 10
131.0997297038
 20
119.2804357371
 30
0.0
 10
130.8162999332
 20
118.7455453795
 30
0.0
  0
SPLINE
  5
4B6
100
AcDbEntity
  8
0
100
AcDbSpline
 62
7
  6
BYLAYER
 70
0
 71
3
 72
10
 73
6
 74
0
 42
0.0000001
 43
0.0000001
 44
0.0000000001
 40
0.0
 40
0.0
 40
0.0
 40
0.0
 40
0.2194429819
 40
0.5933910043
 40
1.0
 40
1.0
 40
1.0
 40
1.0
 10
117.0798991037
 20
207.7864200682
 30
0.0
 10
117.0751965308
 20
207.7989426331
 30
0.0
 10
117.0502678309
 20
207.8282758076
 30
0.0
 10
116.9892315842
 20
207.8459309581
 30
0.0
 10
116.941051076
 20
207.8444253172
 30
0.0
 10
116.9167866559
 20
207.8393703623
 30
0.0
  0
SPLINE
  5
4B7
100
AcDbEntity
  8
0
100
AcDbSpline
 62
7
  6
BYLAYER
 70
0
 71
3
 72
8
 73
4
 74
0
 42
0.0000001
 43
0.0000001
 44
0.0000000001
 40
0.0
 40
0.0
 40
0.0
 40
0.0
 40
1.0
 40
1.0
 40
1.0
 40
1.0
 10
116.9167866559
 20
207.8393703623
 30
0.0
 10
116.9008167275
 20
207.8360433813
 30
0.0
 10
116.8849060137
 20
207.8307950876
 30
0.0
 10
116.8708287037
 20
207.8225527117
 30
0.0
  0
SPLINE
  5
4B8
100
AcDbEntity
  8
0
100
AcDbSpline
 62
7
  6
BYLAYER
 70
0
 71
3
 72
9
 73
5
 74
0
 42
0.0000001
 43
0.0000001
 44
0.0000000001
 40
0.0
 40
0.0
 40
0.0
 40
0.0
 40
0.2428125494
 40
1.0
 40
1.0
 40
1.0
 40
1.0
 10
116.8708287037
 20
207.8225527117
 30
0.0
 10
116.8579822696
 20
207.815171045
 30
0.0
 10
116.8088566054
 20
207.7789327633
 30
0.0
 10
116.7707671326
 20
207.7254240511
 30
0.0
 10
116.7583470505
 20
207.6809218132
 30
0.0
  0
SPLINE
  5
4B9
100
AcDbEntity
  8
0
100
AcDbSpline
 62
7
  6
BYLAYER
 70
0
 71
3
 72
9
 73
5
 74
0
 42
0.0000001
 43
0.0000001
 44
0.0000000001
 40
0.0
 40
0.0
 40
0.0
 40
0.0
 40
0.256763281
 40
1.0
 40
1.0
 40
1.0
 40
1.0
 10
119.0428111037
 20
206.1463349943
 30
0.0
 10
119.0215290754
 20
206.1355953708
 30
0.0
 10
118.9372100812
 20
206.0967033076
 30
0.0
 10
118.8468941629
 20
206.0705548079
 30
0.0
 10
118.7787394411
 20
206.059766884
 30
0.0
  0
SPLINE
  5
4BA
100
AcDbEntity
  8
0
100
AcDbSpline
 62
7
  6
BYLAYER
 70
0
 71
3
 72
9
 73
5
 74
0
 42
0.0000001
 43
0.0000001
 44
0.0000000001
 40
0.0
 40
0.0
 40
0.0
 40
0.0
 40
0.2371288965
 40
1.0
 40
1.0
 40
1.0
 40
1.0
 10
118.6463455037
 20
206.0493926514
 30
0.0
 10
118.6160952351
 20
206.0493926514
 30
0.0
 10
118.4885769661
 20
206.0672191697
 30
0.0
 10
118.3736889067
 20
206.139572446
 30
0.0
 10
118.3036050891
 20
206.207094082
 30
0.0
  0
SPLINE
  5
4BB
100
AcDbEntity
  8
0
100
AcDbSpline
 62
7
  6
BYLAYER
 70
0
 71
3
 72
9
 73
5
 74
0
 42
0.0000001
 43
0.0000001
 44
0.0000000001
 40
0.0
 40
0.0
 40
0.0
 40
0.0
 40
0.2674783921
 40
1.0
 40
1.0
 40
1.0
 40
1.0
 10
118.3036050891
 20
206.207094082
 30
0.0
 10
118.2800584119
 20
206.2297799206
 30
0.0
 10
118.1988680597
 20
206.320223976
 30
0.0
 10
118.1428607037
 20
206.4419148196
 30
0.0
 10
118.1428607037
 20
206.5314594475
 30
0.0
  0
SPLINE
  5
4BC
100
AcDbEntity
  8
0
100
AcDbSpline
 62
7
  6
BYLAYER
 70
0
 71
3
 72
11
 73
7
 74
0
 42
0.0000001
 43
0.0000001
 44
0.0000000001
 40
0.0
 40
0.0
 40
0.0
 40
0.0
 40
0.2663617692
 40
0.5233949861
 40
0.7667859706
 40
1.0
 40
1.0
 40
1.0
 40
1.0
 10
126.6374287037
 20
242.8578907139
 30
0.0
 10
126.4432483676
 20
242.8578907139
 30
0.0
 10
126.058322206
 20
242.9225464533
 30
0.0
 10
125.5616042265
 20
243.204406722
 30
0.0
 10
125.220053652
 20
243.6350432652
 30
0.0
 10
125.1374927485
 20
243.9869135101
 30
0.0
 10
125.1374927485
 20
244.1569288196
 30
0.0
  0
SPLINE
  5
4BD
100
AcDbEntity
  8
0
100
AcDbSpline
 62
7
  6
BYLAYER
 70
0
 71
3
 72
8
 73
4
 74
0
 42
0.0000001
 43
0.0000001
 44
0.0000000001
 40
0.0
 40
0.0
 40
0.0
 40
0.0
 40
1.0
 40
1.0
 40
1.0
 40
1.0
 10
110.3372630031
 20
206.8553916547
 30
0.0
 10
110.3127042823
 20
206.9184589797
 30
0.0
 10
110.2767812657
 20
206.9778354272
 30
0.0
 10
110.2337067552
 20
207.0300389213
 30
0.0
  0
SPLINE
  5
4BE
100
AcDbEntity
  8
0
100
AcDbSpline
 62
7
  6
BYLAYER
 70
0
 71
3
 72
9
 73
5
 74
0
 42
0.0000001
 43
0.0000001
 44
0.0000000001
 40
0.0
 40
0.0
 40
0.0
 40
0.0
 40
0.2531331161
 40
1.0
 40
1.0
 40
1.0
 40
1.0
 10
110.212652362
 20
207.054393381
 30
0.0
 10
110.1848102743
 20
207.0851519603
 30
0.0
 10
110.0646687345
 20
207.196897866
 30
0.0
 10
109.9058943645
 20
207.2685523855
 30
0.0
 10
109.7846456161
 20
207.2853777795
 30
0.0
  0
SPLINE
  5
4BF
100
AcDbEntity
  8
0
100
AcDbSpline
 62
7
  6
BYLAYER
 70
0
 71
3
 72
8
 73
4
 74
0
 42
0.0000001
 43
0.0000001
 44
0.0000000001
 40
0.0
 40
0.0
 40
0.0
 40
0.0
 40
1.0
 40
1.0
 40
1.0
 40
1.0
 10
119.0084927037
 20
207.1902252061
 30
0.0
 10
118.9621681751
 20
207.2125374053
 30
0.0
 10
118.9141614875
 20
207.231707909
 30
0.0
 10
118.8650805082
 20
207.2470328446
 30
0.0
  0
SPLINE
  5
4C0
100
AcDbEntity
  8
0
100
AcDbSpline
 62
7
  6
BYLAYER
 70
0
 71
3
 72
9
 73
5
 74
0
 42
0.0000001
 43
0.0000001
 44
0.0000000001
 40
0.0
 40
0.0
 40
0.0
 40
0.0
 40
0.2541722975
 40
1.0
 40
1.0
 40
1.0
 40
1.0
 10
118.5202549526
 20
207.289031716
 30
0.0
 10
118.4724731239
 20
207.2855343855
 30
0.0
 10
118.2867302617
 20
207.2556712418
 30
0.0
 10
118.1061017259
 20
207.1585334473
 30
0.0
 10
118.0155606866
 20
207.0509883698
 30
0.0
  0
SPLINE
  5
4C1
100
AcDbEntity
  8
0
100
AcDbSpline
 62
7
  6
BYLAYER
 70
0
 71
3
 72
11
 73
7
 74
0
 42
0.0000001
 43
0.0000001
 44
0.0000000001
 40
0.0
 40
0.0
 40
0.0
 40
0.0
 40
0.2489824229
 40
0.4911547145
 40
0.7412964286
 40
1.0
 40
1.0
 40
1.0
 40
1.0
 10
88.6099228488
 20
215.4704048558
 30
0.0
 10
88.5814563161
 20
216.2113630815
 30
0.0
 10
88.7501713658
 20
217.6948333448
 30
0.0
 10
89.7433471776
 20
219.7181234894
 30
0.0
 10
91.4361011555
 20
221.2616927642
 30
0.0
 10
92.9041676059
 20
221.7953280896
 30
0.0
 10
93.6655688426
 20
221.9131003107
 30
0.0
  0
SPLINE
  5
4C2
100
AcDbEntity
  8
0
100
AcDbSpline
 62
7
  6
BYLAYER
 70
0
 71
3
 72
9
 73
5
 74
0
 42
0.0000001
 43
0.0000001
 44
0.0000000001
 40
0.0
 40
0.0
 40
0.0
 40
0.0
 40
0.2711597136
 40
1.0
 40
1.0
 40
1.0
 40
1.0
 10
115.9970687037
 20
207.1223660345
 30
0.0
 10
115.9799565846
 20
207.1406717692
 30
0.0
 10
115.9136999276
 20
207.2049662611
 30
0.0
 10
115.8310569449
 20
207.2538629571
 30
0.0
 10
115.7665187187
 20
207.2731328117
 30
0.0
  0
SPLINE
  5
4C3
100
AcDbEntity
  8
0
100
AcDbSpline
 62
7
  6
BYLAYER
 70
0
 71
3
 72
8
 73
4
 74
0
 42
0.0000001
 43
0.0000001
 44
0.0000000001
 40
0.0
 40
0.0
 40
0.0
 40
0.0
 40
1.0
 40
1.0
 40
1.0
 40
1.0
 10
115.7665187187
 20
207.2731328117
 30
0.0
 10
115.7262373904
 20
207.28516003
 30
0.0
 10
115.6837328502
 20
207.291133365
 30
0.0
 10
115.6416943037
 20
207.291133365
 30
0.0
  0
SPLINE
  5
4C4
100
AcDbEntity
  8
0
100
AcDbSpline
 62
7
  6
BYLAYER
 70
0
 71
3
 72
9
 73
5
 74
0
 42
0.0000001
 43
0.0000001
 44
0.0000000001
 40
0.0
 40
0.0
 40
0.0
 40
0.0
 40
0.483229584
 40
1.0
 40
1.0
 40
1.0
 40
1.0
 10
115.6416943037
 20
207.291133365
 30
0.0
 10
115.5846612424
 20
207.291133365
 30
0.0
 10
115.4668420649
 20
207.2486139863
 30
0.0
 10
115.3807622403
 20
207.1659791182
 30
0.0
 10
115.3405780413
 20
207.1200964539
 30
0.0
  0
SPLINE
  5
4C5
100
AcDbEntity
  8
0
100
AcDbSpline
 62
7
  6
BYLAYER
 70
0
 71
3
 72
9
 73
5
 74
0
 42
0.0000001
 43
0.0000001
 44
0.0000000001
 40
0.0
 40
0.0
 40
0.0
 40
0.0
 40
0.2593097412
 40
1.0
 40
1.0
 40
1.0
 40
1.0
 10
115.3405780413
 20
207.1200964539
 30
0.0
 10
115.3301060587
 20
207.108139454
 30
0.0
 10
115.2909722989
 20
207.0609340164
 30
0.0
 10
115.2560748851
 20
207.0103268115
 30
0.0
 10
115.2320680256
 20
206.9717925273
 30
0.0
  0
SPLINE
  5
4C6
100
AcDbEntity
  8
0
100
AcDbSpline
 62
7
  6
BYLAYER
 70
0
 71
3
 72
13
 73
9
 74
0
 42
0.0000001
 43
0.0000001
 44
0.0000000001
 40
0.0
 40
0.0
 40
0.0
 40
0.0
 40
0.0527209847
 40
0.1309475616
 40
0.2338755157
 40
0.3585940441
 40
0.6595597625
 40
1.0
 40
1.0
 40
1.0
 40
1.0
 10
88.0904222904
 20
135.7952201875
 30
0.0
 10
88.1042467114
 20
135.7844892155
 30
0.0
 10
88.1450430006
 20
135.7671724189
 30
0.0
 10
88.21965908
 20
135.7466746604
 30
0.0
 10
88.3194777418
 20
135.7269764571
 30
0.0
 10
88.4934103704
 20
135.7035525565
 30
0.0
 10
88.7476331284
 20
135.6892786121
 30
0.0
 10
88.9605794977
 20
135.687203387
 30
0.0
 10
89.0735689145
 20
135.6892420764
 30
0.0
  0
SPLINE
  5
4C7
100
AcDbEntity
  8
0
100
AcDbSpline
 62
7
  6
BYLAYER
 70
0
 71
3
 72
12
 73
8
 74
0
 42
0.0000001
 43
0.0000001
 44
0.0000000001
 40
0.0
 40
0.0
 40
0.0
 40
0.0
 40
0.0556160184
 40
0.136834007
 40
0.369427722
 40
0.6749979575
 40
1.0
 40
1.0
 40
1.0
 40
1.0
 10
89.8039622221
 20
189.075669097
 30
0.0
 10
89.8191424333
 20
189.0653364591
 30
0.0
 10
89.8609246065
 20
189.0469535194
 30
0.0
 10
89.9772946502
 20
189.0107195434
 30
0.0
 10
90.1790895395
 20
188.9732881882
 30
0.0
 10
90.4623771481
 20
188.9424812249
 30
0.0
 10
90.6703331053
 20
188.9298522321
 30
0.0
 10
90.7775765609
 20
188.9261358573
 30
0.0
  0
SPLINE
  5
4C8
100
AcDbEntity
  8
0
100
AcDbSpline
 62
7
  6
BYLAYER
 70
0
 71
3
 72
12
 73
8
 74
0
 42
0.0000001
 43
0.0000001
 44
0.0000000001
 40
0.0
 40
0.0
 40
0.0
 40
0.0
 40
0.0601331373
 40
0.1438952661
 40
0.3773511762
 40
0.6799058062
 40
1.0
 40
1.0
 40
1.0
 40
1.0
 10
89.7826804808
 20
191.6518058928
 30
0.0
 10
89.7969121731
 20
191.6661760147
 30
0.0
 10
89.8378445332
 20
191.6932849897
 30
0.0
 10
89.9532892493
 20
191.7460421445
 30
0.0
 10
90.1555580514
 20
191.8014814336
 30
0.0
 10
90.4400197527
 20
191.8464739983
 30
0.0
 10
90.6488824322
 20
191.8649284934
 30
0.0
 10
90.7564071768
 20
191.8702897783
 30
0.0
  0
SPLINE
  5
4C9
100
AcDbEntity
  8
0
100
AcDbSpline
 62
7
  6
BYLAYER
 70
0
 71
3
 72
12
 73
8
 74
0
 42
0.0000001
 43
0.0000001
 44
0.0000000001
 40
0.0
 40
0.0
 40
0.0
 40
0.0
 40
0.0564822553
 40
0.1368041993
 40
0.371369584
 40
0.6775597781
 40
1.0
 40
1.0
 40
1.0
 40
1.0
 10
88.609922849
 20
215.4704048509
 30
0.0
 10
88.6225175551
 20
215.4848189468
 30
0.0
 10
88.6604890874
 20
215.512794497
 30
0.0
 10
88.774262363
 20
215.5669375493
 30
0.0
 10
88.9790315018
 20
215.6215729901
 30
0.0
 10
89.2679050586
 20
215.6675449017
 30
0.0
 10
89.4806201965
 20
215.6841462521
 30
0.0
 10
89.5897896732
 20
215.6888887446
 30
0.0
  0
SPLINE
  5
4CA
100
AcDbEntity
  8
0
100
AcDbSpline
 62
7
  6
BYLAYER
 70
0
 71
3
 72
12
 73
8
 74
0
 42
0.0000001
 43
0.0000001
 44
0.0000000001
 40
0.0
 40
0.0
 40
0.0
 40
0.0
 40
0.0487530353
 40
0.1249173128
 40
0.3546997233
 40
0.661377073
 40
1.0
 40
1.0
 40
1.0
 40
1.0
 10
93.6655688426
 20
221.9131003107
 30
0.0
 10
93.6779596789
 20
221.8777997901
 30
0.0
 10
93.7033333698
 20
221.7852226238
 30
0.0
 10
93.7662465699
 20
221.5204615996
 30
0.0
 10
93.8584708659
 20
221.0593104225
 30
0.0
 10
93.9796477356
 20
220.398857209
 30
0.0
 10
94.0627383585
 20
219.9106594635
 30
0.0
 10
94.1051743732
 20
219.6542960522
 30
0.0
  0
SPLINE
  5
4CB
100
AcDbEntity
  8
0
100
AcDbSpline
 62
7
  6
BYLAYER
 70
0
 71
3
 72
12
 73
8
 74
0
 42
0.0000001
 43
0.0000001
 44
0.0000000001
 40
0.0
 40
0.0
 40
0.0
 40
0.0
 40
0.0487529864
 40
0.1249174463
 40
0.3547006119
 40
0.6613782959
 40
1.0
 40
1.0
 40
1.0
 40
1.0
 10
128.6092885503
 20
221.9131003129
 30
0.0
 10
128.5968975082
 20
221.8777992032
 30
0.0
 10
128.5715234145
 20
221.7852202784
 30
0.0
 10
128.5086091165
 20
221.5204538706
 30
0.0
 10
128.4163832746
 20
221.0592935244
 30
0.0
 10
128.2952046169
 20
220.3988286714
 30
0.0
 10
128.2121128796
 20
219.9106229237
 30
0.0
 10
128.1696764028
 20
219.6542558823
 30
0.0
  0
SPLINE
  5
4CC
100
AcDbEntity
  8
0
100
AcDbSpline
 62
7
  6
BYLAYER
 70
0
 71
3
 72
11
 73
7
 74
0
 42
0.0000001
 43
0.0000001
 44
0.0000000001
 40
0.0
 40
0.0
 40
0.0
 40
0.0
 40
0.2489776399
 40
0.4911559936
 40
0.7412997794
 40
1.0
 40
1.0
 40
1.0
 40
1.0
 10
133.6649345587
 20
215.4704048558
 30
0.0
 10
133.6934005392
 20
216.211348415
 30
0.0
 10
133.524687472
 20
217.6948221908
 30
0.0
 10
132.5314988548
 20
219.7181154508
 30
0.0
 10
130.8387463819
 20
221.2617068837
 30
0.0
 10
129.3706794862
 20
221.7953296244
 30
0.0
 10
128.6092885649
 20
221.9131003106
 30
0.0
  0
SPLINE
  5
4CD
100
AcDbEntity
  8
0
100
AcDbSpline
 62
7
  6
BYLAYER
 70
0
 71
3
 72
11
 73
7
 74
0
 42
0.0000001
 43
0.0000001
 44
0.0000000001
 40
0.0
 40
0.0
 40
0.0
 40
0.0
 40
0.2509953011
 40
0.5005077347
 40
0.7498525882
 40
1.0
 40
1.0
 40
1.0
 40
1.0
 10
91.4894051852
 20
118.8383462174
 30
0.0
 10
91.1922130621
 20
119.3582174306
 30
0.0
 10
90.6691082943
 20
120.4355826461
 30
0.0
 10
90.0586453243
 20
122.1191296274
 30
0.0
 10
89.5606551342
 20
123.8361165416
 30
0.0
 10
89.2779293341
 20
124.9941129754
 30
0.0
 10
89.1470354609
 20
125.5763821707
 30
0.0
  0
SPLINE
  5
4CE
100
AcDbEntity
  8
0
100
AcDbSpline
 62
7
  6
BYLAYER
 70
0
 71
3
 72
9
 73
5
 74
0
 42
0.0000001
 43
0.0000001
 44
0.0000000001
 40
0.0
 40
0.0
 40
0.0
 40
0.0
 40
0.2397734701
 40
1.0
 40
1.0
 40
1.0
 40
1.0
 10
91.3837699863
 20
117.3450718594
 30
0.0
 10
91.3899286847
 20
117.464565112
 30
0.0
 10
91.4176170645
 20
117.9628024355
 30
0.0
 10
91.4525144295
 20
118.4607755916
 30
0.0
 10
91.4894051852
 20
118.8383462174
 30
0.0
  0
SPLINE
  5
4CF
100
AcDbEntity
  8
0
100
AcDbSpline
 62
7
  6
BYLAYER
 70
0
 71
3
 72
10
 73
6
 74
0
 42
0.0000001
 43
0.0000001
 44
0.0000000001
 40
0.0
 40
0.0
 40
0.0
 40
0.0
 40
0.4383541912
 40
0.7036118617
 40
1.0
 40
1.0
 40
1.0
 40
1.0
 10
91.4893794195
 20
118.8383305626
 30
0.0
 10
91.5197535938
 20
119.1493956983
 30
0.0
 10
91.8105251092
 20
119.5987622203
 30
0.0
 10
92.234598656
 20
120.1608761547
 30
0.0
 10
92.461902806
 20
120.4932555134
 30
0.0
 10
92.5727678338
 20
120.6731625182
 30
0.0
  0
SPLINE
  5
4D0
100
AcDbEntity
  8
0
100
AcDbSpline
 62
7
  6
BYLAYER
 70
0
 71
3
 72
13
 73
9
 74
0
 42
0.0000001
 43
0.0000001
 44
0.0000000001
 40
0.0
 40
0.0
 40
0.0
 40
0.0
 40
0.2321283167
 40
0.4761796561
 40
0.6036196862
 40
0.7334921096
 40
0.866147226
 40
1.0
 40
1.0
 40
1.0
 40
1.0
 10
94.1051809779
 20
219.6542561523
 30
0.0
 10
93.6040430752
 20
219.5752625099
 30
0.0
 10
92.5832355695
 20
219.3470031405
 30
0.0
 10
91.3799273667
 20
218.758885606
 30
0.0
 10
90.5391060029
 20
218.0472621458
 30
0.0
 10
90.0088313764
 20
217.370658286
 30
0.0
 10
89.6520652116
 20
216.5707291414
 30
0.0
 10
89.576457984
 20
215.9811252919
 30
0.0
 10
89.5897895809
 20
215.688888741
 30
0.0
  0
SPLINE
  5
4D1
100
AcDbEntity
  8
0
100
AcDbSpline
 62
7
  6
BYLAYER
 70
0
 71
3
 72
13
 73
9
 74
0
 42
0.0000001
 43
0.0000001
 44
0.0000000001
 40
0.0
 40
0.0
 40
0.0
 40
0.0
 40
0.1338526585
 40
0.2665076125
 40
0.3963802995
 40
0.5238207494
 40
0.7678723061
 40
1.0
 40
1.0
 40
1.0
 40
1.0
 10
132.6850678267
 20
215.6888887391
 30
0.0
 10
132.6983994123
 20
215.981125051
 30
0.0
 10
132.6227923166
 20
216.570728335
 30
0.0
 10
132.2660259803
 20
217.3706574033
 30
0.0
 10
131.7357508725
 20
218.0472622911
 30
0.0
 10
130.8949290442
 20
218.7588883895
 30
0.0
 10
129.6916198998
 20
219.3470050448
 30
0.0
 10
128.6708130224
 20
219.5752627177
 30
0.0
 10
128.1696764415
 20
219.6542561511
 30
0.0
  0
SPLINE
  5
4D2
100
AcDbEntity
  8
0
100
AcDbSpline
 62
7
  6
BYLAYER
 70
0
 71
3
 72
12
 73
8
 74
0
 42
0.0000001
 43
0.0000001
 44
0.0000000001
 40
0.0
 40
0.0
 40
0.0
 40
0.0
 40
0.0564822544
 40
0.1368041977
 40
0.3713695817
 40
0.6775597766
 40
1.0
 40
1.0
 40
1.0
 40
1.0
 10
133.6649345601
 20
215.4704048542
 30
0.0
 10
133.6523398544
 20
215.48481895
 30
0.0
 10
133.6143683226
 20
215.5127945003
 30
0.0
 10
133.5005950476
 20
215.5669375522
 30
0.0
 10
133.2958259084
 20
215.6215729921
 30
0.0
 10
133.0069523506
 20
215.6675449022
 30
0.0
 10
132.7942372115
 20
215.6841462514
 30
0.0
 10
132.6850677342
 20
215.6888887431
 30
0.0
  0
SPLINE
  5
4D3
100
AcDbEntity
  8
0
100
AcDbSpline
 62
7
  6
BYLAYER
 70
0
 71
3
 72
12
 73
8
 74
0
 42
0.0000001
 43
0.0000001
 44
0.0000000001
 40
0.0
 40
0.0
 40
0.0
 40
0.0
 40
0.0601335446
 40
0.1438959012
 40
0.3773517423
 40
0.6799059019
 40
1.0
 40
1.0
 40
1.0
 40
1.0
 10
132.4921761408
 20
191.6518066863
 30
0.0
 10
132.4779443057
 20
191.6661766958
 30
0.0
 10
132.4370119349
 20
191.6932854772
 30
0.0
 10
132.3215676267
 20
191.7460422528
 30
0.0
 10
132.1193001268
 20
191.8014812172
 30
0.0
 10
131.8348402876
 20
191.8464736387
 30
0.0
 10
131.625979019
 20
191.8649281645
 30
0.0
 10
131.5184549315
 20
191.8702895439
 30
0.0
  0
SPLINE
  5
4D4
100
AcDbEntity
  8
0
100
AcDbSpline
 62
7
  6
BYLAYER
 70
0
 71
3
 72
12
 73
8
 74
0
 42
0.0000001
 43
0.0000001
 44
0.0000000001
 40
0.0
 40
0.0
 40
0.0
 40
0.0
 40
0.0556883913
 40
0.1370071414
 40
0.3697637188
 40
0.6752789522
 40
1.0
 40
1.0
 40
1.0
 40
1.0
 10
132.4708983887
 20
189.0756712775
 30
0.0
 10
132.4556987505
 20
189.0653246875
 30
0.0
 10
132.4138588765
 20
189.0469269708
 30
0.0
 10
132.2973779282
 20
189.0106794316
 30
0.0
 10
132.0955121039
 20
188.9732508846
 30
0.0
 10
131.8122795941
 20
188.9424644008
 30
0.0
 10
131.6044340681
 20
188.9298491495
 30
0.0
 10
131.4972832516
 20
188.9261359406
 30
0.0
  0
SPLINE
  5
4D5
100
AcDbEntity
  8
0
100
AcDbSpline
 62
7
  6
BYLAYER
 70
0
 71
3
 72
13
 73
9
 74
0
 42
0.0000001
 43
0.0000001
 44
0.0000000001
 40
0.0
 40
0.0
 40
0.0
 40
0.0
 40
0.0527012801
 40
0.1309149724
 40
0.2338539464
 40
0.3585840093
 40
0.6595600984
 40
1.0
 40
1.0
 40
1.0
 40
1.0
 10
134.18438218
 20
135.795391987
 30
0.0
 10
134.1705687805
 20
135.7846593367
 30
0.0
 10
134.1297501249
 20
135.7674060525
 30
0.0
 10
134.0551424323
 20
135.7469621132
 30
0.0
 10
133.9553430128
 20
135.7271780421
 30
0.0
 10
133.7814208929
 20
135.7036659448
 30
0.0
 10
133.5271981937
 20
135.6894930586
 30
0.0
 10
133.3142648851
 20
135.6873890077
 30
0.0
 10
133.2012830174
 20
135.6894336555
 30
0.0
  0
SPLINE
  5
4D6
100
AcDbEntity
  8
0
100
AcDbSpline
 62
7
  6
BYLAYER
 70
0
 71
3
 72
9
 73
5
 74
0
 42
0.0000001
 43
0.0000001
 44
0.0000000001
 40
0.0
 40
0.0
 40
0.0
 40
0.0
 40
0.2514935788
 40
1.0
 40
1.0
 40
1.0
 40
1.0
 10
130.1111122464
 20
122.6800242502
 30
0.0
 10
130.0791448266
 20
122.5054117603
 30
0.0
 10
129.9481383263
 20
121.8118174308
 30
0.0
 10
129.8039571021
 20
121.1208018394
 30
0.0
 10
129.6946933982
 20
120.6038968441
 30
0.0
  0
SPLINE
  5
4D7
100
AcDbEntity
  8
0
100
AcDbSpline
 62
7
  6
BYLAYER
 70
0
 71
3
 72
12
 73
8
 74
0
 42
0.0000001
 43
0.0000001
 44
0.0000000001
 40
0.0
 40
0.0
 40
0.0
 40
0.0
 40
0.0534270236
 40
0.1322114031
 40
0.3653993812
 40
0.6722583431
 40
1.0
 40
1.0
 40
1.0
 40
1.0
 10
133.1296062835
 20
125.5903033986
 30
0.0
 10
133.0969728006
 20
125.577875702
 30
0.0
 10
133.0111691458
 20
125.5617212702
 30
0.0
 10
132.7727848973
 20
125.5480466892
 30
0.0
 10
132.3678456108
 20
125.5759280767
 30
0.0
 10
131.8060128661
 20
125.6527626898
 30
0.0
 10
131.398325806
 20
125.7307213963
 30
0.0
 10
131.1888611199
 20
125.7755657035
 30
0.0
  0
SPLINE
  5
4D8
100
AcDbEntity
  8
0
100
AcDbSpline
 62
7
  6
BYLAYER
 70
0
 71
3
 72
13
 73
9
 74
0
 42
0.0000001
 43
0.0000001
 44
0.0000000001
 40
0.0
 40
0.0
 40
0.0
 40
0.0
 40
0.2977490829
 40
0.5624652376
 40
0.680796148
 40
0.7905046263
 40
0.8946326655
 40
1.0
 40
1.0
 40
1.0
 40
1.0
 10
129.6946934042
 20
120.6038968563
 30
0.0
 10
129.8093182863
 20
120.4191553258
 30
0.0
 10
130.0445274199
 20
120.0818111753
 30
0.0
 10
130.3476872178
 20
119.687911229
 30
0.0
 10
130.5562418745
 20
119.3945815036
 30
0.0
 10
130.6832994673
 20
119.1876008972
 30
0.0
 10
130.7785853867
 20
118.9736293712
 30
0.0
 10
130.8094079011
 20
118.8221643023
 30
0.0
 10
130.8163136151
 20
118.7455369099
 30
0.0
  0
SPLINE
  5
4D9
100
AcDbEntity
  8
0
100
AcDbSpline
 62
7
  6
BYLAYER
 70
0
 71
3
 72
12
 73
8
 74
0
 42
0.0000001
 43
0.0000001
 44
0.0000000001
 40
0.0
 40
0.0
 40
0.0
 40
0.0
 40
0.1264799139
 40
0.2520320506
 40
0.501868745
 40
0.7510552245
 40
1.0
 40
1.0
 40
1.0
 40
1.0
 10
129.711911117
 20
182.5951797886
 30
0.0
 10
129.651453163
 20
182.4906730394
 30
0.0
 10
129.5527296205
 20
182.2699387809
 30
0.0
 10
129.4055838022
 20
181.8136893674
 30
0.0
 10
129.2853490081
 20
181.2280437314
 30
0.0
 10
129.205496681
 20
180.5179971051
 30
0.0
 10
129.1873139917
 20
180.0423433668
 30
0.0
 10
129.186346961
 20
179.8047089573
 30
0.0
  0
SPLINE
  5
4DA
100
AcDbEntity
  8
0
100
AcDbSpline
 62
7
  6
BYLAYER
 70
0
 71
3
 72
9
 73
5
 74
0
 42
0.0000001
 43
0.0000001
 44
0.0000000001
 40
0.0
 40
0.0
 40
0.0
 40
0.0
 40
0.2611333461
 40
1.0
 40
1.0
 40
1.0
 40
1.0
 10
114.1560767037
 20
206.1454528344
 30
0.0
 10
114.1386144795
 20
206.1335687916
 30
0.0
 10
114.0698942652
 20
206.0908993599
 30
0.0
 10
113.9928820729
 20
206.0611029738
 30
0.0
 10
113.9343533342
 20
206.0490085568
 30
0.0
  0
SPLINE
  5
4DB
100
AcDbEntity
  8
0
100
AcDbSpline
 62
7
  6
BYLAYER
 70
0
 71
3
 72
9
 73
5
 74
0
 42
0.0000001
 43
0.0000001
 44
0.0000000001
 40
0.0
 40
0.0
 40
0.0
 40
0.0
 40
0.2370415446
 40
1.0
 40
1.0
 40
1.0
 40
1.0
 10
113.8210223037
 20
206.0374952034
 30
0.0
 10
113.8040388946
 20
206.0374952034
 30
0.0
 10
113.7324864827
 20
206.0515313059
 30
0.0
 10
113.6739443381
 20
206.1048018766
 30
0.0
 10
113.6444294502
 20
206.1508129915
 30
0.0
  0
SPLINE
  5
4DC
100
AcDbEntity
  8
0
100
AcDbSpline
 62
7
  6
BYLAYER
 70
0
 71
3
 72
9
 73
5
 74
0
 42
0.0000001
 43
0.0000001
 44
0.0000000001
 40
0.0
 40
0.0
 40
0.0
 40
0.0
 40
0.2641148833
 40
1.0
 40
1.0
 40
1.0
 40
1.0
 10
113.6444294502
 20
206.1508129915
 30
0.0
 10
113.6390383391
 20
206.1592172597
 30
0.0
 10
113.6204337995
 20
206.1920349208
 30
0.0
 10
113.6092431037
 20
206.2299982411
 30
0.0
 10
113.6092431037
 20
206.2578181421
 30
0.0
  0
SPLINE
  5
4DD
100
AcDbEntity
  8
0
100
AcDbSpline
 62
7
  6
BYLAYER
 70
0
 71
3
 72
9
 73
5
 74
0
 42
0.0000001
 43
0.0000001
 44
0.0000000001
 40
0.0
 40
0.0
 40
0.0
 40
0.0
 40
0.4943153311
 40
1.0
 40
1.0
 40
1.0
 40
1.0
 10
96.6217231037
 20
212.3655041646
 30
0.0
 10
96.8456171331
 20
212.3655041646
 30
0.0
 10
97.3000801964
 20
212.3153887319
 30
0.0
 10
97.7317248861
 20
212.165977755
 30
0.0
 10
97.9398143037
 20
212.0702710207
 30
0.0
  0
SPLINE
  5
4DE
100
AcDbEntity
  8
0
100
AcDbSpline
 62
7
  6
BYLAYER
 70
0
 71
3
 72
11
 73
7
 74
0
 42
0.0000001
 43
0.0000001
 44
0.0000000001
 40
0.0
 40
0.0
 40
0.0
 40
0.0
 40
0.2458316207
 40
0.4968314521
 40
0.7469508971
 40
1.0
 40
1.0
 40
1.0
 40
1.0
 10
95.1374607037
 20
211.2762272182
 30
0.0
 10
95.1374607037
 20
211.4437653502
 30
0.0
 10
95.244975327
 20
211.7837835852
 30
0.0
 10
95.6081527047
 20
212.1655912012
 30
0.0
 10
96.1056340106
 20
212.3408258261
 30
0.0
 10
96.4492661436
 20
212.3655041646
 30
0.0
 10
96.6217231037
 20
212.3655041646
 30
0.0
  0
SPLINE
  5
4DF
100
AcDbEntity
  8
0
100
AcDbSpline
 62
7
  6
BYLAYER
 70
0
 71
3
 72
9
 73
5
 74
0
 42
0.0000001
 43
0.0000001
 44
0.0000000001
 40
0.0
 40
0.0
 40
0.0
 40
0.0
 40
0.2555922608
 40
1.0
 40
1.0
 40
1.0
 40
1.0
 10
130.1912704038
 20
183.4144285435
 30
0.0
 10
130.1507438494
 20
183.3451803069
 30
0.0
 10
129.9914748954
 20
183.0746647591
 30
0.0
 10
129.8321826479
 20
182.8041565757
 30
0.0
 10
129.7151650452
 20
182.6018816315
 30
0.0
  0
SPLINE
  5
4E0
100
AcDbEntity
  8
0
100
AcDbSpline
 62
7
  6
BYLAYER
 70
0
 71
3
 72
11
 73
7
 74
0
 42
0.0000001
 43
0.0000001
 44
0.0000000001
 40
0.0
 40
0.0
 40
0.0
 40
0.0
 40
0.2418613444
 40
0.4999267552
 40
0.763973955
 40
1.0
 40
1.0
 40
1.0
 40
1.0
 10
96.5467647037
 20
209.1743447275
 30
0.0
 10
96.6060607713
 20
209.1743447275
 30
0.0
 10
96.7296408864
 20
209.1734544561
 30
0.0
 10
96.9107037129
 20
209.2342105623
 30
0.0
 10
97.0634659137
 20
209.34521699
 30
0.0
 10
97.1215951037
 20
209.4659113833
 30
0.0
 10
97.1215951037
 20
209.5237768365
 30
0.0
  0
SPLINE
  5
4E1
100
AcDbEntity
  8
0
100
AcDbSpline
 62
7
  6
BYLAYER
 70
0
 71
3
 72
9
 73
5
 74
0
 42
0.0000001
 43
0.0000001
 44
0.0000000001
 40
0.0
 40
0.0
 40
0.0
 40
0.0
 40
0.2486178352
 40
1.0
 40
1.0
 40
1.0
 40
1.0
 10
95.2169343037
 20
209.662140098
 30
0.0
 10
95.3148066404
 20
209.5959448451
 30
0.0
 10
95.7167089258
 20
209.3465864354
 30
0.0
 10
96.189669642
 20
209.1743447275
 30
0.0
 10
96.5467647037
 20
209.1743447275
 30
0.0
  0
SPLINE
  5
4E2
100
AcDbEntity
  8
0
100
AcDbSpline
 62
7
  6
BYLAYER
 70
0
 71
3
 72
11
 73
7
 74
0
 42
0.0000001
 43
0.0000001
 44
0.0000000001
 40
0.0
 40
0.0
 40
0.0
 40
0.0
 40
0.3123292604
 40
0.5194106106
 40
0.70054742
 40
1.0
 40
1.0
 40
1.0
 40
1.0
 10
129.6946933982
 20
120.6038968441
 30
0.0
 10
129.6112069545
 20
120.6397135444
 30
0.0
 10
129.475633827
 20
120.7078574178
 30
0.0
 10
129.3096272254
 20
120.8279221384
 30
0.0
 10
129.1701166328
 20
120.9712123017
 30
0.0
 10
129.1102476002
 20
121.1101117615
 30
0.0
 10
129.1089959144
 20
121.1972024621
 30
0.0
  0
SPLINE
  5
4E3
100
AcDbEntity
  8
0
100
AcDbSpline
 62
7
  6
BYLAYER
 70
0
 71
3
 72
9
 73
5
 74
0
 42
0.0000001
 43
0.0000001
 44
0.0000000001
 40
0.0
 40
0.0
 40
0.0
 40
0.0
 40
0.2401543341
 40
1.0
 40
1.0
 40
1.0
 40
1.0
 10
130.9101070925
 20
117.3383045335
 30
0.0
 10
130.9043628164
 20
117.4510705645
 30
0.0
 10
130.8805921552
 20
117.9206258001
 30
0.0
 10
130.848309051
 20
118.3898164768
 30
0.0
 10
130.8162210721
 20
118.7456255997
 30
0.0
  0
SPLINE
  5
4E4
100
AcDbEntity
  8
0
100
AcDbSpline
 62
7
  6
BYLAYER
 70
0
 71
3
 72
18
 73
14
 74
0
 42
0.0000001
 43
0.0000001
 44
0.0000000001
 40
0.0
 40
0.0
 40
0.0
 40
0.0
 40
0.0523113914
 40
0.1022957662
 40
0.1576862343
 40
0.2205069366
 40
0.2895350766
 40
0.3622354679
 40
0.5074178831
 40
0.643386194
 40
0.7694230851
 40
0.8869482149
 40
1.0
 40
1.0
 40
1.0
 40
1.0
 10
96.1326879037
 20
211.359067494
 30
0.0
 10
96.1326879037
 20
211.3118832612
 30
0.0
 10
96.1511841748
 20
211.21737199
 30
0.0
 10
96.2434573851
 20
211.1038162543
 30
0.0
 10
96.3732255242
 20
211.0225680678
 30
0.0
 10
96.5299578253
 20
210.9587265659
 30
0.0
 10
96.7062210678
 20
210.9038748061
 30
0.0
 10
96.9552179557
 20
210.8338193015
 30
0.0
 10
97.259451468
 20
210.7337714167
 30
0.0
 10
97.5820294627
 20
210.5529063728
 30
0.0
 10
97.842981869
 20
210.3270805565
 30
0.0
 10
98.0294620155
 20
210.060313938
 30
0.0
 10
98.0937817093
 20
209.8580750183
 30
0.0
 10
98.1079186971
 20
209.7570884047
 30
0.0
  0
SPLINE
  5
4E5
100
AcDbEntity
  8
0
100
AcDbSpline
 62
7
  6
BYLAYER
 70
0
 71
3
 72
13
 73
9
 74
0
 42
0.0000001
 43
0.0000001
 44
0.0000000001
 40
0.0
 40
0.0
 40
0.0
 40
0.0
 40
0.2588795363
 40
0.5145994745
 40
0.6344055119
 40
0.7603739833
 40
0.8838853015
 40
1.0
 40
1.0
 40
1.0
 40
1.0
 10
130.8953278447
 20
116.1992280867
 30
0.0
 10
130.7821465429
 20
116.0321507679
 30
0.0
 10
130.417551182
 20
115.7929805519
 30
0.0
 10
129.9037964438
 20
115.7739473753
 30
0.0
 10
129.5296630701
 20
115.8984726508
 30
0.0
 10
129.2874888917
 20
116.0625961213
 30
0.0
 10
129.1140282586
 20
116.2970291251
 30
0.0
 10
129.0707464061
 20
116.4855391561
 30
0.0
 10
129.0700580292
 20
116.576051247
 30
0.0
  0
SPLINE
  5
4E6
100
AcDbEntity
  8
0
100
AcDbSpline
 62
7
  6
BYLAYER
 70
0
 71
3
 72
9
 73
5
 74
0
 42
0.0000001
 43
0.0000001
 44
0.0000000001
 40
0.0
 40
0.0
 40
0.0
 40
0.0
 40
0.2161498736
 40
1.0
 40
1.0
 40
1.0
 40
1.0
 10
125.9336885696
 20
100.5274442048
 30
0.0
 10
125.9107029102
 20
100.5385611457
 30
0.0
 10
125.8050273443
 20
100.5913632548
 30
0.0
 10
125.7012461426
 20
100.6479036315
 30
0.0
 10
125.6207565805
 20
100.6936733622
 30
0.0
  0
SPLINE
  5
4E7
100
AcDbEntity
  8
0
100
AcDbSpline
 62
7
  6
BYLAYER
 70
0
 71
3
 72
9
 73
5
 74
0
 42
0.0000001
 43
0.0000001
 44
0.0000000001
 40
0.0
 40
0.0
 40
0.0
 40
0.0
 40
0.7508405668
 40
1.0
 40
1.0
 40
1.0
 40
1.0
 10
99.9763295037
 20
209.054488087
 30
0.0
 10
100.1675123937
 20
209.054488087
 30
0.0
 10
100.419385022
 20
209.1250189004
 30
0.0
 10
100.6580203469
 20
209.2112201381
 30
0.0
 10
100.7177839037
 20
209.2325095087
 30
0.0
  0
SPLINE
  5
4E8
100
AcDbEntity
  8
0
100
AcDbSpline
 62
7
  6
BYLAYER
 70
0
 71
3
 72
9
 73
5
 74
0
 42
0.0000001
 43
0.0000001
 44
0.0000000001
 40
0.0
 40
0.0
 40
0.0
 40
0.0
 40
0.4952043858
 40
1.0
 40
1.0
 40
1.0
 40
1.0
 10
99.1897199037
 20
209.80931559
 30
0.0
 10
99.1897199037
 20
209.611924682
 30
0.0
 10
99.3399534502
 20
209.1794203333
 30
0.0
 10
99.7751154848
 20
209.054488087
 30
0.0
 10
99.9763295037
 20
209.054488087
 30
0.0
  0
SPLINE
  5
4E9
100
AcDbEntity
  8
0
100
AcDbSpline
 62
7
  6
BYLAYER
 70
0
 71
3
 72
11
 73
7
 74
0
 42
0.0000001
 43
0.0000001
 44
0.0000000001
 40
0.0
 40
0.0
 40
0.0
 40
0.0
 40
0.2499740917
 40
0.4999723692
 40
0.749983762
 40
1.0
 40
1.0
 40
1.0
 40
1.0
 10
125.2678285702
 20
99.4999884395
 30
0.0
 10
124.8946692993
 20
98.9640322107
 30
0.0
 10
124.1562685555
 20
97.8865597338
 30
0.0
 10
123.038457049
 20
96.2773095356
 30
0.0
 10
121.9060394027
 20
94.678181065
 30
0.0
 10
121.1483481812
 20
93.6140152515
 30
0.0
 10
120.7671618341
 20
93.08360247
 30
0.0
  0
SPLINE
  5
4EA
100
AcDbEntity
  8
0
100
AcDbSpline
 62
7
  6
BYLAYER
 70
0
 71
3
 72
9
 73
5
 74
0
 42
0.0000001
 43
0.0000001
 44
0.0000000001
 40
0.0
 40
0.0
 40
0.0
 40
0.0
 40
0.2485502225
 40
1.0
 40
1.0
 40
1.0
 40
1.0
 10
99.7943519037
 20
211.1409476129
 30
0.0
 10
99.8690517109
 20
211.1409476129
 30
0.0
 10
100.1695165759
 20
211.1272608201
 30
0.0
 10
100.4667075801
 20
211.0556410162
 30
0.0
 10
100.6775951037
 20
210.9748252006
 30
0.0
  0
SPLINE
  5
4EB
100
AcDbEntity
  8
0
100
AcDbSpline
 62
7
  6
BYLAYER
 70
0
 71
3
 72
11
 73
7
 74
0
 42
0.0000001
 43
0.0000001
 44
0.0000000001
 40
0.0
 40
0.0
 40
0.0
 40
0.0
 40
0.246543004
 40
0.4962283352
 40
0.7473230849
 40
1.0
 40
1.0
 40
1.0
 40
1.0
 10
98.3069279037
 20
209.8031467163
 30
0.0
 10
98.3069279037
 20
209.9858254034
 30
0.0
 10
98.3896698935
 20
210.3559949447
 30
0.0
 10
98.7210145341
 20
210.8225201677
 30
0.0
 10
99.2319536695
 20
211.0863098068
 30
0.0
 10
99.6071282293
 20
211.1409476129
 30
0.0
 10
99.7943519037
 20
211.1409476129
 30
0.0
  0
SPLINE
  5
4EC
100
AcDbEntity
  8
0
100
AcDbSpline
 62
7
  6
BYLAYER
 70
0
 71
3
 72
8
 73
4
 74
0
 42
0.0000001
 43
0.0000001
 44
0.0000000001
 40
0.0
 40
0.0
 40
0.0
 40
0.0
 40
1.0
 40
1.0
 40
1.0
 40
1.0
 10
125.9336576682
 20
100.5274553497
 30
0.0
 10
125.7246499689
 20
100.1769226322
 30
0.0
 10
125.4994680484
 20
99.8359952199
 30
0.0
 10
125.2678285702
 20
99.4999884395
 30
0.0
  0
SPLINE
  5
4ED
100
AcDbEntity
  8
0
100
AcDbSpline
 62
7
  6
BYLAYER
 70
0
 71
3
 72
11
 73
7
 74
0
 42
0.0000001
 43
0.0000001
 44
0.0000000001
 40
0.0
 40
0.0
 40
0.0
 40
0.0
 40
0.2530257827
 40
0.5020762899
 40
0.7510472468
 40
1.0
 40
1.0
 40
1.0
 40
1.0
 10
102.7272063037
 20
211.1409476129
 30
0.0
 10
102.8569149999
 20
211.1409476129
 30
0.0
 10
103.1163737665
 20
211.0989862232
 30
0.0
 10
103.4579555037
 20
210.8908936787
 30
0.0
 10
103.6482898964
 20
210.5434357088
 30
0.0
 10
103.6899215037
 20
210.2872505965
 30
0.0
 10
103.6899215037
 20
210.1596298589
 30
0.0
  0
SPLINE
  5
4EE
100
AcDbEntity
  8
0
100
AcDbSpline
 62
7
  6
BYLAYER
 70
0
 71
3
 72
9
 73
5
 74
0
 42
0.0000001
 43
0.0000001
 44
0.0000000001
 40
0.0
 40
0.0
 40
0.0
 40
0.0
 40
0.5248340615
 40
1.0
 40
1.0
 40
1.0
 40
1.0
 10
101.8846031037
 20
210.7113185849
 30
0.0
 10
101.9948912924
 20
210.8403370555
 30
0.0
 10
102.244713938
 20
211.0616828669
 30
0.0
 10
102.5735362416
 20
211.1409476129
 30
0.0
 10
102.7272063037
 20
211.1409476129
 30
0.0
  0
SPLINE
  5
4EF
100
AcDbEntity
  8
0
100
AcDbSpline
 62
7
  6
BYLAYER
 70
0
 71
3
 72
12
 73
8
 74
0
 42
0.0000001
 43
0.0000001
 44
0.0000000001
 40
0.0
 40
0.0
 40
0.0
 40
0.0
 40
0.2174698963
 40
0.32799829
 40
0.4425107387
 40
0.6926328691
 40
1.0
 40
1.0
 40
1.0
 40
1.0
 10
129.0675400365
 20
97.8023759434
 30
0.0
 10
129.204678901
 20
97.787080608
 30
0.0
 10
129.4107670458
 20
97.7509055521
 30
0.0
 10
129.6780100232
 20
97.6625500615
 30
0.0
 10
129.9482241558
 20
97.5264844386
 30
0.0
 10
130.2887161745
 20
97.264435736
 30
0.0
 10
130.5248078493
 20
96.997169061
 30
0.0
 10
130.6374050308
 20
96.8379242501
 30
0.0
  0
SPLINE
  5
4F0
100
AcDbEntity
  8
0
100
AcDbSpline
 62
7
  6
BYLAYER
 70
0
 71
3
 72
9
 73
5
 74
0
 42
0.0000001
 43
0.0000001
 44
0.0000000001
 40
0.0
 40
0.0
 40
0.0
 40
0.0
 40
0.284183991
 40
1.0
 40
1.0
 40
1.0
 40
1.0
 10
128.9615328454
 20
97.7648089019
 30
0.0
 10
128.9694000657
 20
97.7710212788
 30
0.0
 10
128.998036033
 20
97.7913349106
 30
0.0
 10
129.0338165607
 20
97.8038242532
 30
0.0
 10
129.0590486093
 20
97.802880217
 30
0.0
  0
SPLINE
  5
4F1
100
AcDbEntity
  8
0
100
AcDbSpline
 62
7
  6
BYLAYER
 70
0
 71
3
 72
9
 73
5
 74
0
 42
0.0000001
 43
0.0000001
 44
0.0000000001
 40
0.0
 40
0.0
 40
0.0
 40
0.0
 40
0.4894750589
 40
1.0
 40
1.0
 40
1.0
 40
1.0
 10
104.7402399037
 20
208.6151646687
 30
0.0
 10
104.8451204308
 20
208.5126550941
 30
0.0
 10
104.9982846328
 20
208.2399976053
 30
0.0
 10
105.0389070543
 20
207.9383639591
 30
0.0
 10
105.0389075342
 20
207.7854004627
 30
0.0
  0
SPLINE
  5
4F2
100
AcDbEntity
  8
0
100
AcDbSpline
 62
7
  6
BYLAYER
 70
0
 71
3
 72
9
 73
5
 74
0
 42
0.0000001
 43
0.0000001
 44
0.0000000001
 40
0.0
 40
0.0
 40
0.0
 40
0.0
 40
0.4845709022
 40
1.0
 40
1.0
 40
1.0
 40
1.0
 10
102.0611615037
 20
208.1471983783
 30
0.0
 10
102.199931342
 20
208.2766922261
 30
0.0
 10
102.5046391378
 20
208.5267100833
 30
0.0
 10
102.8612330734
 20
208.6995466108
 30
0.0
 10
103.0515969994
 20
208.7667904955
 30
0.0
  0
SPLINE
  5
4F3
100
AcDbEntity
  8
0
100
AcDbSpline
 62
7
  6
BYLAYER
 70
0
 71
3
 72
11
 73
7
 74
0
 42
0.0000001
 43
0.0000001
 44
0.0000000001
 40
0.0
 40
0.0
 40
0.0
 40
0.0
 40
0.2643897282
 40
0.5241228078
 40
0.768192406
 40
1.0
 40
1.0
 40
1.0
 40
1.0
 10
103.0515969994
 20
208.7667904955
 30
0.0
 10
103.1990084522
 20
208.8188619092
 30
0.0
 10
103.5004318447
 20
208.8981196827
 30
0.0
 10
103.956453821
 20
208.9321979492
 30
0.0
 10
104.3912742565
 20
208.8593276599
 30
0.0
 10
104.6420628435
 20
208.7108197789
 30
0.0
 10
104.7402399037
 20
208.6151646687
 30
0.0
  0
SPLINE
  5
4F4
100
AcDbEntity
  8
0
100
AcDbSpline
 62
7
  6
BYLAYER
 70
0
 71
3
 72
8
 73
4
 74
0
 42
0.0000001
 43
0.0000001
 44
0.0000000001
 40
0.0
 40
0.0
 40
0.0
 40
0.0
 40
1.0
 40
1.0
 40
1.0
 40
1.0
 10
101.6949503037
 20
207.7325504546
 30
0.0
 10
101.749569603
 20
207.8054747795
 30
0.0
 10
101.8064397025
 20
207.8768210738
 30
0.0
 10
101.866329553
 20
207.9454827866
 30
0.0
  0
SPLINE
  5
4F5
100
AcDbEntity
  8
0
100
AcDbSpline
 62
7
  6
BYLAYER
 70
0
 71
3
 72
8
 73
4
 74
0
 42
0.0000001
 43
0.0000001
 44
0.0000000001
 40
0.0
 40
0.0
 40
0.0
 40
0.0
 40
1.0
 40
1.0
 40
1.0
 40
1.0
 10
101.8990236608
 20
207.9823537487
 30
0.0
 10
101.9506362844
 20
208.0395936588
 30
0.0
 10
102.0045957091
 20
208.0948478185
 30
0.0
 10
102.0611615037
 20
208.1471983783
 30
0.0
  0
SPLINE
  5
4F6
100
AcDbEntity
  8
0
100
AcDbSpline
 62
7
  6
BYLAYER
 70
0
 71
3
 72
8
 73
4
 74
0
 42
0.0000001
 43
0.0000001
 44
0.0000000001
 40
0.0
 40
0.0
 40
0.0
 40
0.0
 40
1.0
 40
1.0
 40
1.0
 40
1.0
 10
101.3382207037
 20
207.1178489714
 30
0.0
 10
101.378781168
 20
207.2211230357
 30
0.0
 10
101.4316520505
 20
207.3193668895
 30
0.0
 10
101.4858799037
 20
207.4161657715
 30
0.0
  0
SPLINE
  5
4F7
100
AcDbEntity
  8
0
100
AcDbSpline
 62
7
  6
BYLAYER
 70
0
 71
3
 72
11
 73
7
 74
0
 42
0.0000001
 43
0.0000001
 44
0.0000000001
 40
0.0
 40
0.0
 40
0.0
 40
0.0
 40
0.2843129179
 40
0.5468139081
 40
0.7777400407
 40
1.0
 40
1.0
 40
1.0
 40
1.0
 10
130.6374424916
 20
96.8376434859
 30
0.0
 10
130.5037071926
 20
96.7178773687
 30
0.0
 10
130.2748328832
 20
96.4594150145
 30
0.0
 10
129.8678040183
 20
96.1666116856
 30
0.0
 10
129.4227446576
 20
96.0570839472
 30
0.0
 10
129.1382593354
 20
96.0295598064
 30
0.0
 10
128.9982719999
 20
96.0195852983
 30
0.0
  0
SPLINE
  5
4F8
100
AcDbEntity
  8
0
100
AcDbSpline
 62
7
  6
BYLAYER
 70
0
 71
3
 72
15
 73
11
 74
0
 42
0.0000001
 43
0.0000001
 44
0.0000000001
 40
0.0
 40
0.0
 40
0.0
 40
0.0
 40
0.0915695352
 40
0.190847011
 40
0.2988365382
 40
0.4178162534
 40
0.4818878715
 40
0.5490825014
 40
0.6920080498
 40
1.0
 40
1.0
 40
1.0
 40
1.0
 10
128.9661235612
 20
95.9786390327
 30
0.0
 10
128.8515794744
 20
95.7181035037
 30
0.0
 10
128.5522382486
 20
95.2007260514
 30
0.0
 10
127.9382540184
 20
94.4956237299
 30
0.0
 10
127.1204047513
 20
93.8847037149
 30
0.0
 10
126.302731903
 20
93.4843904726
 30
0.0
 10
125.5609658618
 20
93.2474814694
 30
0.0
 10
124.7306080976
 20
93.0522425957
 30
0.0
 10
123.1259005635
 20
92.8648774568
 30
0.0
 10
121.7163351535
 20
92.9594627515
 30
0.0
 10
120.767161834
 20
93.08360247
 30
0.0
  0
SPLINE
  5
4F9
100
AcDbEntity
  8
0
100
AcDbSpline
 62
7
  6
BYLAYER
 70
0
 71
3
 72
9
 73
5
 74
0
 42
0.0000001
 43
0.0000001
 44
0.0000000001
 40
0.0
 40
0.0
 40
0.0
 40
0.0
 40
0.3945172151
 40
1.0
 40
1.0
 40
1.0
 40
1.0
 10
128.9982708746
 20
96.0198385843
 30
0.0
 10
128.9914540504
 20
96.0182391521
 30
0.0
 10
128.97809554
 20
96.0040116938
 30
0.0
 10
128.9703620452
 20
95.9885140498
 30
0.0
 10
128.9661235612
 20
95.9786390327
 30
0.0
  0
SPLINE
  5
4FA
100
AcDbEntity
  8
0
100
AcDbSpline
 62
7
  6
BYLAYER
 70
0
 71
3
 72
8
 73
4
 74
0
 42
0.0000001
 43
0.0000001
 44
0.0000000001
 40
0.0
 40
0.0
 40
0.0
 40
0.0
 40
1.0
 40
1.0
 40
1.0
 40
1.0
 10
120.7671514204
 20
93.0836098205
 30
0.0
 10
122.2727559138
 20
95.2166489924
 30
0.0
 10
123.6477180441
 20
97.4390371361
 30
0.0
 10
125.070138413
 20
99.6284254739
 30
0.0
  0
SPLINE
  5
4FB
100
AcDbEntity
  8
0
100
AcDbSpline
 62
7
  6
BYLAYER
 70
0
 71
3
 72
8
 73
4
 74
0
 42
0.0000001
 43
0.0000001
 44
0.0000000001
 40
0.0
 40
0.0
 40
0.0
 40
0.0
 40
1.0
 40
1.0
 40
1.0
 40
1.0
 10
109.7023839037
 20
207.3566785312
 30
0.0
 10
109.7396747802
 20
207.3566785312
 30
0.0
 10
109.777105893
 20
207.3530285212
 30
0.0
 10
109.8137631685
 20
207.3461835502
 30
0.0
  0
SPLINE
  5
4FC
100
AcDbEntity
  8
0
100
AcDbSpline
 62
7
  6
BYLAYER
 70
0
 71
3
 72
9
 73
5
 74
0
 42
0.0000001
 43
0.0000001
 44
0.0000000001
 40
0.0
 40
0.0
 40
0.0
 40
0.0
 40
0.7475308841
 40
1.0
 40
1.0
 40
1.0
 40
1.0
 10
109.8137631685
 20
207.3461835502
 30
0.0
 10
109.9348208057
 20
207.3235785964
 30
0.0
 10
110.0912721289
 20
207.2453080747
 30
0.0
 10
110.2070985666
 20
207.1278125677
 30
0.0
 10
110.2335789267
 20
207.0957389618
 30
0.0
  0
SPLINE
  5
4FD
100
AcDbEntity
  8
0
100
AcDbSpline
 62
7
  6
BYLAYER
 70
0
 71
3
 72
8
 73
4
 74
0
 42
0.0000001
 43
0.0000001
 44
0.0000000001
 40
0.0
 40
0.0
 40
0.0
 40
0.0
 40
1.0
 40
1.0
 40
1.0
 40
1.0
 10
110.2335789267
 20
207.0957389618
 30
0.0
 10
110.2902596079
 20
207.0270860497
 30
0.0
 10
110.334738871
 20
206.9451890508
 30
0.0
 10
110.3574056774
 20
206.8590952772
 30
0.0
  0
SPLINE
  5
4FE
100
AcDbEntity
  8
0
100
AcDbSpline
 62
7
  6
BYLAYER
 70
0
 71
3
 72
8
 73
4
 74
0
 42
0.0000001
 43
0.0000001
 44
0.0000000001
 40
0.0
 40
0.0
 40
0.0
 40
0.0
 40
1.0
 40
1.0
 40
1.0
 40
1.0
 10
109.0365522427
 20
206.8441782759
 30
0.0
 10
109.066570212
 20
206.9618268664
 30
0.0
 10
109.125044151
 20
207.0784860382
 30
0.0
 10
109.2116464712
 20
207.1635877859
 30
0.0
  0
SPLINE
  5
4FF
100
AcDbEntity
  8
0
100
AcDbSpline
 62
7
  6
BYLAYER
 70
0
 71
3
 72
8
 73
4
 74
0
 42
0.0000001
 43
0.0000001
 44
0.0000000001
 40
0.0
 40
0.0
 40
0.0
 40
0.0
 40
1.0
 40
1.0
 40
1.0
 40
1.0
 10
109.2116464712
 20
207.1635877859
 30
0.0
 10
109.3188595283
 20
207.2689431449
 30
0.0
 10
109.4720621929
 20
207.3345943558
 30
0.0
 10
109.6213732977
 20
207.3519317512
 30
0.0
  0
SPLINE
  5
500
100
AcDbEntity
  8
0
100
AcDbSpline
 62
7
  6
BYLAYER
 70
0
 71
3
 72
9
 73
5
 74
0
 42
0.0000001
 43
0.0000001
 44
0.0000000001
 40
0.0
 40
0.0
 40
0.0
 40
0.0
 40
0.5000103881
 40
1.0
 40
1.0
 40
1.0
 40
1.0
 10
97.2046757733
 20
99.6563237707
 30
0.0
 10
97.9157341179
 20
98.5663938633
 30
0.0
 10
99.3114358364
 20
96.3697100279
 30
0.0
 10
100.7556391502
 20
94.2034679254
 30
0.0
 10
101.5076955734
 20
93.1414784845
 30
0.0
  0
SPLINE
  5
501
100
AcDbEntity
  8
0
100
AcDbSpline
 62
7
  6
BYLAYER
 70
0
 71
3
 72
9
 73
5
 74
0
 42
0.0000001
 43
0.0000001
 44
0.0000000001
 40
0.0
 40
0.0
 40
0.0
 40
0.0
 40
0.4877996502
 40
1.0
 40
1.0
 40
1.0
 40
1.0
 10
109.8026303037
 20
206.1197842322
 30
0.0
 10
109.8931947656
 20
206.1197842322
 30
0.0
 10
110.0803065688
 20
206.1503962271
 30
0.0
 10
110.2464210384
 20
206.2402208258
 30
0.0
 10
110.3237247037
 20
206.2956025962
 30
0.0
  0
SPLINE
  5
502
100
AcDbEntity
  8
0
100
AcDbSpline
 62
7
  6
BYLAYER
 70
0
 71
3
 72
11
 73
7
 74
0
 42
0.0000001
 43
0.0000001
 44
0.0000000001
 40
0.0
 40
0.0
 40
0.0
 40
0.0
 40
0.3001120981
 40
0.5514294933
 40
0.7750489603
 40
1.0
 40
1.0
 40
1.0
 40
1.0
 10
109.3023055037
 20
206.558227052
 30
0.0
 10
109.3272035851
 20
206.4917035719
 30
0.0
 10
109.3821555837
 20
206.3723091222
 30
0.0
 10
109.4978018118
 20
206.2266291294
 30
0.0
 10
109.6417104397
 20
206.1370317207
 30
0.0
 10
109.7493891477
 20
206.1197842322
 30
0.0
 10
109.8026303037
 20
206.1197842322
 30
0.0
  0
SPLINE
  5
503
100
AcDbEntity
  8
0
100
AcDbSpline
 62
7
  6
BYLAYER
 70
0
 71
3
 72
9
 73
5
 74
0
 42
0.0000001
 43
0.0000001
 44
0.0000000001
 40
0.0
 40
0.0
 40
0.0
 40
0.0
 40
0.7429567658
 40
1.0
 40
1.0
 40
1.0
 40
1.0
 10
111.8386943037
 20
207.3566785312
 30
0.0
 10
111.9487930178
 20
207.3566785312
 30
0.0
 10
112.0985778468
 20
207.329990924
 30
0.0
 10
112.2351674691
 20
207.272314485
 30
0.0
 10
112.2694783037
 20
207.2557703723
 30
0.0
  0
SPLINE
  5
504
100
AcDbEntity
  8
0
100
AcDbSpline
 62
7
  6
BYLAYER
 70
0
 71
3
 72
11
 73
7
 74
0
 42
0.0000001
 43
0.0000001
 44
0.0000000001
 40
0.0
 40
0.0
 40
0.0
 40
0.0
 40
0.2495924095
 40
0.4949209182
 40
0.7467551044
 40
1.0
 40
1.0
 40
1.0
 40
1.0
 10
111.1119274262
 20
206.6909697001
 30
0.0
 10
111.1217857356
 20
206.7807920525
 30
0.0
 10
111.1624743256
 20
206.9581706107
 30
0.0
 10
111.3182793357
 20
207.1901741446
 30
0.0
 10
111.5635980231
 20
207.3243660728
 30
0.0
 10
111.7470102435
 20
207.3566785312
 30
0.0
 10
111.8386943037
 20
207.3566785312
 30
0.0
  0
SPLINE
  5
505
100
AcDbEntity
  8
0
100
AcDbSpline
 62
7
  6
BYLAYER
 70
0
 71
3
 72
9
 73
5
 74
0
 42
0.0000001
 43
0.0000001
 44
0.0000000001
 40
0.0
 40
0.0
 40
0.0
 40
0.0
 40
0.7422973029
 40
1.0
 40
1.0
 40
1.0
 40
1.0
 10
111.9077823037
 20
206.1149378176
 30
0.0
 10
112.0088642528
 20
206.1149378176
 30
0.0
 10
112.1466216315
 20
206.1407083471
 30
0.0
 10
112.2711430469
 20
206.1960090448
 30
0.0
 10
112.3024415037
 20
206.2118801605
 30
0.0
  0
SPLINE
  5
506
100
AcDbEntity
  8
0
100
AcDbSpline
 62
7
  6
BYLAYER
 70
0
 71
3
 72
10
 73
6
 74
0
 42
0.0000001
 43
0.0000001
 44
0.0000000001
 40
0.0
 40
0.0
 40
0.0
 40
0.0
 40
0.237675127
 40
0.6283173279
 40
1.0
 40
1.0
 40
1.0
 40
1.0
 10
111.4033935037
 20
206.5970046137
 30
0.0
 10
111.4033935037
 20
206.5376140901
 30
0.0
 10
111.4522876471
 20
206.3812153223
 30
0.0
 10
111.6271629606
 20
206.1935476546
 30
0.0
 10
111.8149058265
 20
206.1149378176
 30
0.0
 10
111.9077823037
 20
206.1149378176
 30
0.0
  0
SPLINE
  5
507
100
AcDbEntity
  8
0
100
AcDbSpline
 62
7
  6
BYLAYER
 70
0
 71
3
 72
13
 73
9
 74
0
 42
0.0000001
 43
0.0000001
 44
0.0000000001
 40
0.0
 40
0.0
 40
0.0
 40
0.0
 40
0.2384687835
 40
0.3677582611
 40
0.5
 40
0.6322417389
 40
0.7615312165
 40
1.0
 40
1.0
 40
1.0
 40
1.0
 10
93.2765865329
 20
28.4688773904
 30
0.0
 10
93.3133528687
 20
27.8784217555
 30
0.0
 10
93.5390505844
 20
26.968479232
 30
0.0
 10
94.1490617407
 20
25.8831191952
 30
0.0
 10
94.7741980191
 20
25.1246600292
 30
0.0
 10
95.5326571851
 20
24.4995237508
 30
0.0
 10
96.6180172219
 20
23.8895125946
 30
0.0
 10
97.5279597454
 20
23.6638148789
 30
0.0
 10
98.1184153803
 20
23.627048543
 30
0.0
  0
SPLINE
  5
508
100
AcDbEntity
  8
0
100
AcDbSpline
 62
7
  6
BYLAYER
 70
0
 71
3
 72
9
 73
5
 74
0
 42
0.0000001
 43
0.0000001
 44
0.0000000001
 40
0.0
 40
0.0
 40
0.0
 40
0.0
 40
0.3399002089
 40
1.0
 40
1.0
 40
1.0
 40
1.0
 10
93.3087794961
 20
95.9785354955
 30
0.0
 10
93.3063650936
 20
95.9840101753
 30
0.0
 10
93.2987821333
 20
95.9991700608
 30
0.0
 10
93.2879034478
 20
96.0170426016
 30
0.0
 10
93.2765865328
 20
96.0196795169
 30
0.0
  0
SPLINE
  5
509
100
AcDbEntity
  8
0
100
AcDbSpline
 62
7
  6
BYLAYER
 70
0
 71
3
 72
13
 73
9
 74
0
 42
0.0000001
 43
0.0000001
 44
0.0000000001
 40
0.0
 40
0.0
 40
0.0
 40
0.0
 40
0.1529049544
 40
0.3020267633
 40
0.4436844345
 40
0.5752144113
 40
0.8050092826
 40
1.0
 40
1.0
 40
1.0
 40
1.0
 10
101.5076974263
 20
93.1414650149
 30
0.0
 10
101.0386152178
 20
93.0769368551
 30
0.0
 10
100.107229511
 20
92.9808579176
 30
0.0
 10
98.7312052288
 20
92.9596045981
 30
0.0
 10
97.4262098193
 20
93.0935607289
 30
0.0
 10
95.9103202859
 20
93.4708015612
 30
0.0
 10
94.3649694087
 20
94.3339446734
 30
0.0
 10
93.5524299978
 20
95.4260392826
 30
0.0
 10
93.3087777667
 20
95.9785245355
 30
0.0
  0
SPLINE
  5
50A
100
AcDbEntity
  8
0
100
AcDbSpline
 62
7
  6
BYLAYER
 70
0
 71
3
 72
9
 73
5
 74
0
 42
0.0000001
 43
0.0000001
 44
0.0000000001
 40
0.0
 40
0.0
 40
0.0
 40
0.0
 40
0.4887784852
 40
1.0
 40
1.0
 40
1.0
 40
1.0
 10
113.8210223037
 20
206.1030403696
 30
0.0
 10
113.879049014
 20
206.1030403696
 30
0.0
 10
113.9986135267
 20
206.1217609231
 30
0.0
 10
114.1059026306
 20
206.1768516727
 30
0.0
 10
114.1560767037
 20
206.2109980006
 30
0.0
  0
SPLINE
  5
50B
100
AcDbEntity
  8
0
100
AcDbSpline
 62
7
  6
BYLAYER
 70
0
 71
3
 72
8
 73
4
 74
0
 42
0.0000001
 43
0.0000001
 44
0.0000000001
 40
0.0
 40
0.0
 40
0.0
 40
0.0
 40
1.0
 40
1.0
 40
1.0
 40
1.0
 10
113.6092431037
 20
206.3233633083
 30
0.0
 10
113.6092431037
 20
206.2214959507
 30
0.0
 10
113.7191549461
 20
206.1030403696
 30
0.0
 10
113.8210223037
 20
206.1030403696
 30
0.0
  0
SPLINE
  5
50C
100
AcDbEntity
  8
0
100
AcDbSpline
 62
7
  6
BYLAYER
 70
0
 71
3
 72
9
 73
5
 74
0
 42
0.0000001
 43
0.0000001
 44
0.0000000001
 40
0.0
 40
0.0
 40
0.0
 40
0.0
 40
0.4778957759
 40
1.0
 40
1.0
 40
1.0
 40
1.0
 10
115.6416943037
 20
207.3566785312
 30
0.0
 10
115.7058056828
 20
207.3566785312
 30
0.0
 10
115.8419555147
 20
207.3259508268
 30
0.0
 10
115.9492377325
 20
207.2390785087
 30
0.0
 10
115.9970687037
 20
207.1879112007
 30
0.0
  0
SPLINE
  5
50D
100
AcDbEntity
  8
0
100
AcDbSpline
 62
7
  6
BYLAYER
 70
0
 71
3
 72
9
 73
5
 74
0
 42
0.0000001
 43
0.0000001
 44
0.0000000001
 40
0.0
 40
0.0
 40
0.0
 40
0.0
 40
0.2435263484
 40
1.0
 40
1.0
 40
1.0
 40
1.0
 10
115.2045887037
 20
206.9913831581
 30
0.0
 10
115.2279563416
 20
207.0320842136
 30
0.0
 10
115.3277459045
 20
207.1910106253
 30
0.0
 10
115.4959076131
 20
207.3566785312
 30
0.0
 10
115.6416943037
 20
207.3566785312
 30
0.0
  0
SPLINE
  5
50E
100
AcDbEntity
  8
0
100
AcDbSpline
 62
7
  6
BYLAYER
 70
0
 71
3
 72
9
 73
5
 74
0
 42
0.0000001
 43
0.0000001
 44
0.0000000001
 40
0.0
 40
0.0
 40
0.0
 40
0.0
 40
0.2259215462
 40
1.0
 40
1.0
 40
1.0
 40
1.0
 10
93.2070507399
 20
97.802883142
 30
0.0
 10
93.2156152481
 20
97.8039495577
 30
0.0
 10
93.2543024378
 20
97.8034101708
 30
0.0
 10
93.2899777501
 20
97.7832501523
 30
0.0
 10
93.3132437368
 20
97.7649975792
 30
0.0
  0
SPLINE
  5
50F
100
AcDbEntity
  8
0
100
AcDbSpline
 62
7
  6
BYLAYER
 70
0
 71
3
 72
9
 73
5
 74
0
 42
0.0000001
 43
0.0000001
 44
0.0000000001
 40
0.0
 40
0.0
 40
0.0
 40
0.0
 40
0.7429706857
 40
1.0
 40
1.0
 40
1.0
 40
1.0
 10
118.5772575037
 20
207.3566785312
 30
0.0
 10
118.6874665749
 20
207.3566785312
 30
0.0
 10
118.8373959923
 20
207.329993819
 30
0.0
 10
118.9741428143
 20
207.2723149891
 30
0.0
 10
119.0084927037
 20
207.2557703723
 30
0.0
  0
SPLINE
  5
510
100
AcDbEntity
  8
0
100
AcDbSpline
 62
7
  6
BYLAYER
 70
0
 71
3
 72
11
 73
7
 74
0
 42
0.0000001
 43
0.0000001
 44
0.0000000001
 40
0.0
 40
0.0
 40
0.0
 40
0.0
 40
0.2495653335
 40
0.4949582436
 40
0.7468045676
 40
1.0
 40
1.0
 40
1.0
 40
1.0
 10
117.8493170342
 20
206.6920877797
 30
0.0
 10
117.8593451132
 20
206.781853122
 30
0.0
 10
117.9005323617
 20
206.9591010903
 30
0.0
 10
118.0569535676
 20
207.1905437944
 30
0.0
 10
118.3022734376
 20
207.3244409326
 30
0.0
 10
118.4856199371
 20
207.3566785312
 30
0.0
 10
118.5772575037
 20
207.3566785312
 30
0.0
  0
SPLINE
  5
511
100
AcDbEntity
  8
0
100
AcDbSpline
 62
7
  6
BYLAYER
 70
0
 71
3
 72
12
 73
8
 74
0
 42
0.0000001
 43
0.0000001
 44
0.0000000001
 40
0.0
 40
0.0
 40
0.0
 40
0.0
 40
0.1665301263
 40
0.3113976447
 40
0.4402037267
 40
0.5601269725
 40
1.0
 40
1.0
 40
1.0
 40
1.0
 10
91.6374523858
 20
96.8379263426
 30
0.0
 10
91.6957092451
 20
96.9259689576
 30
0.0
 10
91.8207083012
 20
97.0795942123
 30
0.0
 10
92.0117609465
 20
97.2835416728
 30
0.0
 10
92.2066846538
 20
97.4406043193
 30
0.0
 10
92.5726774092
 20
97.6786569217
 30
0.0
 10
92.9288573205
 20
97.7836560483
 30
0.0
 10
93.2070507399
 20
97.802883142
 30
0.0
  0
SPLINE
  5
512
100
AcDbEntity
  8
0
100
AcDbSpline
 62
7
  6
BYLAYER
 70
0
 71
3
 72
9
 73
5
 74
0
 42
0.0000001
 43
0.0000001
 44
0.0000000001
 40
0.0
 40
0.0
 40
0.0
 40
0.0
 40
0.7423631519
 40
1.0
 40
1.0
 40
1.0
 40
1.0
 10
118.6463455037
 20
206.1149378176
 30
0.0
 10
118.7478683784
 20
206.1149378176
 30
0.0
 10
118.8862027838
 20
206.1406951873
 30
0.0
 10
119.0113558401
 20
206.1960067821
 30
0.0
 10
119.0428111037
 20
206.2118801605
 30
0.0
  0
SPLINE
  5
513
100
AcDbEntity
  8
0
100
AcDbSpline
 62
7
  6
BYLAYER
 70
0
 71
3
 72
10
 73
6
 74
0
 42
0.0000001
 43
0.0000001
 44
0.0000000001
 40
0.0
 40
0.0
 40
0.0
 40
0.0
 40
0.2377467442
 40
0.6284223374
 40
1.0
 40
1.0
 40
1.0
 40
1.0
 10
118.1428607037
 20
206.5970046137
 30
0.0
 10
118.1428607037
 20
206.537652117
 30
0.0
 10
118.1916241968
 20
206.3813738701
 30
0.0
 10
118.3660462722
 20
206.1936376946
 30
0.0
 10
118.5535826688
 20
206.1149378176
 30
0.0
 10
118.6463455037
 20
206.1149378176
 30
0.0
  0
SPLINE
  5
514
100
AcDbEntity
  8
0
100
AcDbSpline
 62
7
  6
BYLAYER
 70
0
 71
3
 72
8
 73
4
 74
0
 42
0.0000001
 43
0.0000001
 44
0.0000000001
 40
0.0
 40
0.0
 40
0.0
 40
0.0
 40
1.0
 40
1.0
 40
1.0
 40
1.0
 10
116.8708287037
 20
207.8880978779
 30
0.0
 10
116.9318601105
 20
207.9238322475
 30
0.0
 10
117.0550358716
 20
207.9181739761
 30
0.0
 10
117.0798991037
 20
207.8519652344
 30
0.0
  0
SPLINE
  5
515
100
AcDbEntity
  8
0
100
AcDbSpline
 62
7
  6
BYLAYER
 70
0
 71
3
 72
12
 73
8
 74
0
 42
0.0000001
 43
0.0000001
 44
0.0000000001
 40
0.0
 40
0.0
 40
0.0
 40
0.0
 40
0.0540599858
 40
0.13369565
 40
0.3683273605
 40
0.6748098304
 40
1.0
 40
1.0
 40
1.0
 40
1.0
 10
89.1470352801
 20
125.5763821248
 30
0.0
 10
89.1801985394
 20
125.5637947656
 30
0.0
 10
89.2673510059
 20
125.5475949798
 30
0.0
 10
89.5085992301
 20
125.5341996994
 30
0.0
 10
89.916342568
 20
125.5628179624
 30
0.0
 10
90.4793361789
 20
125.640322242
 30
0.0
 10
90.8866840011
 20
125.7184438608
 30
0.0
 10
91.0953145035
 20
125.7631904976
 30
0.0
  0
SPLINE
  5
516
100
AcDbEntity
  8
0
100
AcDbSpline
 62
7
  6
BYLAYER
 70
0
 71
3
 72
9
 73
5
 74
0
 42
0.0000001
 43
0.0000001
 44
0.0000000001
 40
0.0
 40
0.0
 40
0.0
 40
0.0
 40
0.2498860635
 40
1.0
 40
1.0
 40
1.0
 40
1.0
 10
131.1888560445
 20
125.7755667901
 30
0.0
 10
131.3691104881
 20
126.598695655
 30
0.0
 10
132.0710375462
 20
129.8969878587
 30
0.0
 10
132.7155911104
 20
133.207061528
 30
0.0
 10
133.2012813205
 20
135.689433847
 30
0.0
  0
SPLINE
  5
517
100
AcDbEntity
  8
0
100
AcDbSpline
 62
7
  6
BYLAYER
 70
0
 71
3
 72
9
 73
5
 74
0
 42
0.0000001
 43
0.0000001
 44
0.0000000001
 40
0.0
 40
0.0
 40
0.0
 40
0.0
 40
0.2489209355
 40
1.0
 40
1.0
 40
1.0
 40
1.0
 10
130.1111139957
 20
122.6800234092
 30
0.0
 10
130.2312852649
 20
122.9244197373
 30
0.0
 10
130.6831910037
 20
123.9211704503
 30
0.0
 10
131.0130739417
 20
124.9728365305
 30
0.0
 10
131.1888611199
 20
125.7755657035
 30
0.0
  0
SPLINE
  5
518
100
AcDbEntity
  8
0
100
AcDbSpline
 62
7
  6
BYLAYER
 70
0
 71
3
 72
9
 73
5
 74
0
 42
0.0000001
 43
0.0000001
 44
0.0000000001
 40
0.0
 40
0.0
 40
0.0
 40
0.0
 40
0.475527011
 40
1.0
 40
1.0
 40
1.0
 40
1.0
 10
119.2329167037
 20
211.1431522319
 30
0.0
 10
119.3303124764
 20
211.1431522319
 30
0.0
 10
119.5385109987
 20
211.0933820598
 30
0.0
 10
119.6974694339
 20
210.9541663777
 30
0.0
 10
119.7677327037
 20
210.872911943
 30
0.0
  0
SPLINE
  5
519
100
AcDbEntity
  8
0
100
AcDbSpline
 62
7
  6
BYLAYER
 70
0
 71
3
 72
11
 73
7
 74
0
 42
0.0000001
 43
0.0000001
 44
0.0000000001
 40
0.0
 40
0.0
 40
0.0
 40
0.0
 40
0.2368778941
 40
0.5005875225
 40
0.7579278062
 40
1.0
 40
1.0
 40
1.0
 40
1.0
 10
118.3830879037
 20
210.3588012584
 30
0.0
 10
118.421327096
 20
210.4464266444
 30
0.0
 10
118.5162987697
 20
210.6256414026
 30
0.0
 10
118.6985928585
 20
210.8730105793
 30
0.0
 10
118.9329372012
 20
211.0789092661
 30
0.0
 10
119.1352145761
 20
211.1431522319
 30
0.0
 10
119.2329167037
 20
211.1431522319
 30
0.0
  0
SPLINE
  5
51A
100
AcDbEntity
  8
0
100
AcDbSpline
 62
7
  6
BYLAYER
 70
0
 71
3
 72
9
 73
5
 74
0
 42
0.0000001
 43
0.0000001
 44
0.0000000001
 40
0.0
 40
0.0
 40
0.0
 40
0.0
 40
0.4956944999
 40
1.0
 40
1.0
 40
1.0
 40
1.0
 10
114.4044319037
 20
209.7960956828
 30
0.0
 10
114.4044319037
 20
210.1269733049
 30
0.0
 10
114.6465733154
 20
210.8379764144
 30
0.0
 10
115.3420659649
 20
211.1117820265
 30
0.0
 10
115.6777668274
 20
211.1367149849
 30
0.0
  0
SPLINE
  5
51B
100
AcDbEntity
  8
0
100
AcDbSpline
 62
7
  6
BYLAYER
 70
0
 71
3
 72
9
 73
5
 74
0
 42
0.0000001
 43
0.0000001
 44
0.0000000001
 40
0.0
 40
0.0
 40
0.0
 40
0.0
 40
0.2506658627
 40
1.0
 40
1.0
 40
1.0
 40
1.0
 10
116.1280207037
 20
208.9601906624
 30
0.0
 10
116.2157928618
 20
208.9601906624
 30
0.0
 10
116.5660389815
 20
209.0003007979
 30
0.0
 10
116.8918411991
 20
209.1656751412
 30
0.0
 10
117.1029279037
 20
209.3215202195
 30
0.0
  0
SPLINE
  5
51C
100
AcDbEntity
  8
0
100
AcDbSpline
 62
7
  6
BYLAYER
 70
0
 71
3
 72
9
 73
5
 74
0
 42
0.0000001
 43
0.0000001
 44
0.0000000001
 40
0.0
 40
0.0
 40
0.0
 40
0.0
 40
0.251104851
 40
1.0
 40
1.0
 40
1.0
 40
1.0
 10
91.0953089821
 20
125.7631893134
 30
0.0
 10
91.1535322598
 20
125.4977940187
 30
0.0
 10
91.4167938153
 20
124.4480831785
 30
0.0
 10
91.8048558939
 20
123.4291351616
 30
0.0
 10
92.1637141409
 20
122.7025889947
 30
0.0
  0
SPLINE
  5
51D
100
AcDbEntity
  8
0
100
AcDbSpline
 62
7
  6
BYLAYER
 70
0
 71
3
 72
9
 73
5
 74
0
 42
0.0000001
 43
0.0000001
 44
0.0000000001
 40
0.0
 40
0.0
 40
0.0
 40
0.0
 40
0.7501151927
 40
1.0
 40
1.0
 40
1.0
 40
1.0
 10
89.0735706844
 20
135.6892424169
 30
0.0
 10
89.5626039653
 20
133.2040080522
 30
0.0
 10
90.2102459779
 20
129.8898632742
 30
0.0
 10
90.9145035749
 20
126.5873689289
 30
0.0
 10
91.0953145035
 20
125.7631904976
 30
0.0
  0
SPLINE
  5
51E
100
AcDbEntity
  8
0
100
AcDbSpline
 62
7
  6
BYLAYER
 70
0
 71
3
 72
11
 73
7
 74
0
 42
0.0000001
 43
0.0000001
 44
0.0000000001
 40
0.0
 40
0.0
 40
0.0
 40
0.0
 40
0.2515154302
 40
0.5030076824
 40
0.7499437867
 40
1.0
 40
1.0
 40
1.0
 40
1.0
 10
116.001459674
 20
211.1242492135
 30
0.0
 10
116.1525813794
 20
211.1004766679
 30
0.0
 10
116.448727243
 20
211.0037983936
 30
0.0
 10
116.8278372614
 20
210.738439323
 30
0.0
 10
117.1038369066
 20
210.3641398965
 30
0.0
 10
117.1729722
 20
210.0580585255
 30
0.0
 10
117.1729723477
 20
209.9059659935
 30
0.0
  0
SPLINE
  5
51F
100
AcDbEntity
  8
0
100
AcDbSpline
 62
7
  6
BYLAYER
 70
0
 71
3
 72
9
 73
5
 74
0
 42
0.0000001
 43
0.0000001
 44
0.0000000001
 40
0.0
 40
0.0
 40
0.0
 40
0.0
 40
0.2477901086
 40
1.0
 40
1.0
 40
1.0
 40
1.0
 10
112.5458303037
 20
211.1409476129
 30
0.0
 10
112.6042620923
 20
211.1409476129
 30
0.0
 10
112.8400295043
 20
211.1277965647
 30
0.0
 10
113.0714815734
 20
211.0575246844
 30
0.0
 10
113.2312911037
 20
210.980553775
 30
0.0
  0
SPLINE
  5
520
100
AcDbEntity
  8
0
100
AcDbSpline
 62
7
  6
BYLAYER
 70
0
 71
3
 72
9
 73
5
 74
0
 42
0.0000001
 43
0.0000001
 44
0.0000000001
 40
0.0
 40
0.0
 40
0.0
 40
0.0
 40
0.4963340177
 40
1.0
 40
1.0
 40
1.0
 40
1.0
 10
111.2724431037
 20
209.8128411067
 30
0.0
 10
111.2724431037
 20
210.1457739684
 30
0.0
 10
111.485496193
 20
210.8700959324
 30
0.0
 10
112.2079792783
 20
211.1409476129
 30
0.0
 10
112.5458303037
 20
211.1409476129
 30
0.0
  0
SPLINE
  5
521
100
AcDbEntity
  8
0
100
AcDbSpline
 62
7
  6
BYLAYER
 70
0
 71
3
 72
9
 73
5
 74
0
 42
0.0000001
 43
0.0000001
 44
0.0000000001
 40
0.0
 40
0.0
 40
0.0
 40
0.0
 40
0.2556597049
 40
1.0
 40
1.0
 40
1.0
 40
1.0
 10
92.0835870036
 20
183.4144285435
 30
0.0
 10
92.124455136
 20
183.3445966483
 30
0.0
 10
92.2850325212
 20
183.0718779172
 30
0.0
 10
92.4454973889
 20
182.7990870619
 30
0.0
 10
92.5634599016
 20
182.5951797886
 30
0.0
  0
SPLINE
  5
522
100
AcDbEntity
  8
0
100
AcDbSpline
 62
7
  6
BYLAYER
 70
0
 71
3
 72
8
 73
4
 74
0
 42
0.0000001
 43
0.0000001
 44
0.0000000001
 40
0.0
 40
0.0
 40
0.0
 40
0.0
 40
1.0
 40
1.0
 40
1.0
 40
1.0
 10
93.1379779904
 20
121.1321044911
 30
0.0
 10
93.1550068639
 20
121.1741732702
 30
0.0
 10
93.1651563701
 20
121.2200109506
 30
0.0
 10
93.1657714963
 20
121.2653914126
 30
0.0
  0
SPLINE
  5
523
100
AcDbEntity
  8
0
100
AcDbSpline
 62
7
  6
BYLAYER
 70
0
 71
3
 72
11
 73
7
 74
0
 42
0.0000001
 43
0.0000001
 44
0.0000000001
 40
0.0
 40
0.0
 40
0.0
 40
0.0
 40
0.249648929
 40
0.5223442908
 40
0.777881488
 40
1.0
 40
1.0
 40
1.0
 40
1.0
 10
110.3824271037
 20
212.2747306954
 30
0.0
 10
110.4295273424
 20
212.3020079674
 30
0.0
 10
110.541667596
 20
212.335091677
 30
0.0
 10
110.7125107544
 20
212.3374733404
 30
0.0
 10
110.8739284673
 20
212.2962547789
 30
0.0
 10
110.9558103977
 20
212.2175762891
 30
0.0
 10
110.9735135037
 20
212.1725016387
 30
0.0
  0
SPLINE
  5
524
100
AcDbEntity
  8
0
100
AcDbSpline
 62
7
  6
BYLAYER
 70
0
 71
3
 72
9
 73
5
 74
0
 42
0.0000001
 43
0.0000001
 44
0.0000000001
 40
0.0
 40
0.0
 40
0.0
 40
0.0
 40
0.2511800063
 40
1.0
 40
1.0
 40
1.0
 40
1.0
 10
92.293409865
 20
122.0233010062
 30
0.0
 10
92.3157915197
 20
121.9100537635
 30
0.0
 10
92.4062094242
 20
121.4594512504
 30
0.0
 10
92.5010849223
 20
121.0097582321
 30
0.0
 10
92.572767836
 20
120.6731625076
 30
0.0
  0
SPLINE
  5
525
100
AcDbEntity
  8
0
100
AcDbSpline
 62
7
  6
BYLAYER
 70
0
 71
3
 72
9
 73
5
 74
0
 42
0.0000001
 43
0.0000001
 44
0.0000000001
 40
0.0
 40
0.0
 40
0.0
 40
0.0
 40
0.4956862739
 40
1.0
 40
1.0
 40
1.0
 40
1.0
 10
107.0463343037
 20
209.7960956828
 30
0.0
 10
107.0463343037
 20
210.1271982752
 30
0.0
 10
107.2893768193
 20
210.8385803757
 30
0.0
 10
107.9854687298
 20
211.1120392415
 30
0.0
 10
108.3214242673
 20
211.1367821503
 30
0.0
  0
SPLINE
  5
526
100
AcDbEntity
  8
0
100
AcDbSpline
 62
7
  6
BYLAYER
 70
0
 71
3
 72
12
 73
8
 74
0
 42
0.0000001
 43
0.0000001
 44
0.0000000001
 40
0.0
 40
0.0
 40
0.0
 40
0.0
 40
0.1264799183
 40
0.2520320547
 40
0.5018687497
 40
0.7510552276
 40
1.0
 40
1.0
 40
1.0
 40
1.0
 10
92.5629462774
 20
182.5951797886
 30
0.0
 10
92.6234044621
 20
182.4906731678
 30
0.0
 10
92.7221276383
 20
182.2699386985
 30
0.0
 10
92.8692737058
 20
181.8136894035
 30
0.0
 10
92.9895083671
 20
181.2280437055
 30
0.0
 10
93.0693607364
 20
180.5179971028
 30
0.0
 10
93.0875434157
 20
180.042343364
 30
0.0
 10
93.0885104465
 20
179.8047089572
 30
0.0
  0
SPLINE
  5
527
100
AcDbEntity
  8
0
100
AcDbSpline
 62
7
  6
BYLAYER
 70
0
 71
3
 72
9
 73
5
 74
0
 42
0.0000001
 43
0.0000001
 44
0.0000000001
 40
0.0
 40
0.0
 40
0.0
 40
0.0
 40
0.2506386217
 40
1.0
 40
1.0
 40
1.0
 40
1.0
 10
108.7712767037
 20
208.9601906624
 30
0.0
 10
108.8588623168
 20
208.9601906624
 30
0.0
 10
109.2084174843
 20
209.0004577183
 30
0.0
 10
109.5332177211
 20
209.1660401089
 30
0.0
 10
109.7439279037
 20
209.3215202195
 30
0.0
  0
SPLINE
  5
528
100
AcDbEntity
  8
0
100
AcDbSpline
 62
7
  6
BYLAYER
 70
0
 71
3
 72
11
 73
7
 74
0
 42
0.0000001
 43
0.0000001
 44
0.0000000001
 40
0.0
 40
0.0
 40
0.0
 40
0.0
 40
0.251535377
 40
0.5030207575
 40
0.7499377866
 40
1.0
 40
1.0
 40
1.0
 40
1.0
 10
108.6451267242
 20
211.1241196185
 30
0.0
 10
108.7961151956
 20
211.1002817216
 30
0.0
 10
109.0919668982
 20
211.0035954067
 30
0.0
 10
109.4707149533
 20
210.7384380564
 30
0.0
 10
109.7464425322
 20
210.3644559368
 30
0.0
 10
109.8154874621
 20
210.0586462264
 30
0.0
 10
109.8154876133
 20
209.9066828313
 30
0.0
  0
SPLINE
  5
529
100
AcDbEntity
  8
0
100
AcDbSpline
 62
7
  6
BYLAYER
 70
0
 71
3
 72
9
 73
5
 74
0
 42
0.0000001
 43
0.0000001
 44
0.0000000001
 40
0.0
 40
0.0
 40
0.0
 40
0.0
 40
0.5228733188
 40
1.0
 40
1.0
 40
1.0
 40
1.0
 10
104.9059615037
 20
210.7258593899
 30
0.0
 10
105.0202979297
 20
210.8513638872
 30
0.0
 10
105.277482098
 20
211.0650921495
 30
0.0
 10
105.6071873275
 20
211.1409476129
 30
0.0
 10
105.7621103037
 20
211.1409476129
 30
0.0
  0
SPLINE
  5
52A
100
AcDbEntity
  8
0
100
AcDbSpline
 62
7
  6
BYLAYER
 70
0
 71
3
 72
12
 73
8
 74
0
 42
0.0000001
 43
0.0000001
 44
0.0000000001
 40
0.0
 40
0.0
 40
0.0
 40
0.0
 40
0.2520873123
 40
0.3777724075
 40
0.501595775
 40
0.7510364696
 40
1.0
 40
1.0
 40
1.0
 40
1.0
 10
105.7621103037
 20
211.1409476129
 30
0.0
 10
105.8913650235
 20
211.1409476129
 30
0.0
 10
106.0876217698
 20
211.1088341157
 30
0.0
 10
106.3211028792
 20
210.9969018511
 30
0.0
 10
106.5196587293
 20
210.8308883405
 30
0.0
 10
106.6774733093
 20
210.5421093444
 30
0.0
 10
106.7198607037
 20
210.2855201389
 30
0.0
 10
106.7198607037
 20
210.1578671005
 30
0.0
  0
SPLINE
  5
52B
100
AcDbEntity
  8
0
100
AcDbSpline
 62
7
  6
BYLAYER
 70
0
 71
3
 72
9
 73
5
 74
0
 42
0.0000001
 43
0.0000001
 44
0.0000000001
 40
0.0
 40
0.0
 40
0.0
 40
0.0
 40
0.2270220021
 40
1.0
 40
1.0
 40
1.0
 40
1.0
 10
129.0700570347
 20
116.5760151596
 30
0.0
 10
129.0742006475
 20
116.9257032548
 30
0.0
 10
129.0889195331
 20
118.4660704135
 30
0.0
 10
129.0997011928
 20
120.0064681194
 30
0.0
 10
129.1090294515
 20
121.197153963
 30
0.0
  0
SPLINE
  5
52C
100
AcDbEntity
  8
0
100
AcDbSpline
 62
7
  6
BYLAYER
 70
0
 71
3
 72
17
 73
13
 74
0
 42
0.0000001
 43
0.0000001
 44
0.0000000001
 40
0.0
 40
0.0
 40
0.0
 40
0.0
 40
0.1298187934
 40
0.2597247879
 40
0.3894522327
 40
0.5189399568
 40
0.647938041
 40
0.7753773878
 40
0.8375693014
 40
0.8974773154
 40
0.9530489012
 40
1.0
 40
1.0
 40
1.0
 40
1.0
 10
125.6206984799
 20
100.6936866217
 30
0.0
 10
125.9367421944
 20
101.3248619272
 30
0.0
 10
126.4557160652
 20
102.6437588126
 30
0.0
 10
127.0545175546
 20
104.6757609573
 30
0.0
 10
127.5319414299
 20
106.7381086673
 30
0.0
 10
127.9245610485
 20
108.8124554707
 30
0.0
 10
128.2631553784
 20
110.8834845201
 30
0.0
 10
128.5296182467
 20
112.5954103166
 30
0.0
 10
128.7395663658
 20
113.9358635589
 30
0.0
 10
128.8875992187
 20
114.8906928769
 30
0.0
 10
129.0109907
 20
115.7647692632
 30
0.0
 10
129.0676258207
 20
116.3207589531
 30
0.0
 10
129.0700581519
 20
116.5760402875
 30
0.0
  0
SPLINE
  5
52D
100
AcDbEntity
  8
0
100
AcDbSpline
 62
7
  6
BYLAYER
 70
0
 71
3
 72
8
 73
4
 74
0
 42
0.0000001
 43
0.0000001
 44
0.0000000001
 40
0.0
 40
0.0
 40
0.0
 40
0.0
 40
1.0
 40
1.0
 40
1.0
 40
1.0
 10
125.070178108
 20
99.6283994747
 30
0.0
 10
125.2733408778
 20
99.9726269313
 30
0.0
 10
125.4418574278
 20
100.3362163715
 30
0.0
 10
125.6208077571
 20
100.6936299029
 30
0.0
  0
SPLINE
  5
52E
100
AcDbEntity
  8
0
100
AcDbSpline
 62
7
  6
BYLAYER
 70
0
 71
3
 72
11
 73
7
 74
0
 42
0.0000001
 43
0.0000001
 44
0.0000000001
 40
0.0
 40
0.0
 40
0.0
 40
0.0
 40
0.2179028815
 40
0.4497401401
 40
0.7087485047
 40
1.0
 40
1.0
 40
1.0
 40
1.0
 10
129.0634506475
 20
119.9935257505
 30
0.0
 10
129.0381570062
 20
119.5480038785
 30
0.0
 10
128.8361902766
 20
118.6304802511
 30
0.0
 10
128.0683534436
 20
117.3674079607
 30
0.0
 10
126.7879230322
 20
116.3471609189
 30
0.0
 10
125.6652915242
 20
116.0293708141
 30
0.0
 10
125.0701816342
 20
115.9894319626
 30
0.0
  0
SPLINE
  5
52F
100
AcDbEntity
  8
0
100
AcDbSpline
 62
7
  6
BYLAYER
 70
0
 71
3
 72
11
 73
7
 74
0
 42
0.0000001
 43
0.0000001
 44
0.0000000001
 40
0.0
 40
0.0
 40
0.0
 40
0.0
 40
0.2526183503
 40
0.5026590491
 40
0.7530062406
 40
1.0
 40
1.0
 40
1.0
 40
1.0
 10
96.6217231037
 20
212.2999589984
 30
0.0
 10
96.4543159228
 20
212.2999589984
 30
0.0
 10
96.1206310085
 20
212.2763842439
 30
0.0
 10
95.6362317855
 20
212.1142167565
 30
0.0
 10
95.2708778171
 20
211.7559019924
 30
0.0
 10
95.1513063548
 20
211.4319938226
 30
0.0
 10
95.1395637703
 20
211.268735748
 30
0.0
  0
SPLINE
  5
530
100
AcDbEntity
  8
0
100
AcDbSpline
 62
7
  6
BYLAYER
 70
0
 71
3
 72
9
 73
5
 74
0
 42
0.0000001
 43
0.0000001
 44
0.0000000001
 40
0.0
 40
0.0
 40
0.0
 40
0.0
 40
0.5056846689
 40
1.0
 40
1.0
 40
1.0
 40
1.0
 10
97.9398143037
 20
212.0047258545
 30
0.0
 10
97.7317248861
 20
212.1004325888
 30
0.0
 10
97.3000801964
 20
212.2498435657
 30
0.0
 10
96.8456171331
 20
212.2999589984
 30
0.0
 10
96.6217231037
 20
212.2999589984
 30
0.0
  0
SPLINE
  5
531
100
AcDbEntity
  8
0
100
AcDbSpline
 62
7
  6
BYLAYER
 70
0
 71
3
 72
17
 73
13
 74
0
 42
0.0000001
 43
0.0000001
 44
0.0000000001
 40
0.0
 40
0.0
 40
0.0
 40
0.0
 40
0.1131450824
 40
0.2315775543
 40
0.358635419
 40
0.4954010192
 40
0.6407357871
 40
0.7811496979
 40
0.8431708827
 40
0.8979676442
 40
0.9477276028
 40
1.0
 40
1.0
 40
1.0
 40
1.0
 10
98.0972228619
 20
209.7528554665
 30
0.0
 10
98.0768024273
 20
209.8504711184
 30
0.0
 10
98.0018255269
 20
210.0443635564
 30
0.0
 10
97.8075449599
 20
210.2979170421
 30
0.0
 10
97.5443198017
 20
210.5121541803
 30
0.0
 10
97.2238849891
 20
210.6827241032
 30
0.0
 10
96.8679005992
 20
210.7949288968
 30
0.0
 10
96.571626792
 20
210.8747084314
 30
0.0
 10
96.3620984193
 20
210.9628117676
 30
0.0
 10
96.237814363
 20
211.0436050926
 30
0.0
 10
96.1501624542
 20
211.1554376884
 30
0.0
 10
96.1326879037
 20
211.2474482336
 30
0.0
 10
96.1326879037
 20
211.2935223278
 30
0.0
  0
SPLINE
  5
532
100
AcDbEntity
  8
0
100
AcDbSpline
 62
7
  6
BYLAYER
 70
0
 71
3
 72
9
 73
5
 74
0
 42
0.0000001
 43
0.0000001
 44
0.0000000001
 40
0.0
 40
0.0
 40
0.0
 40
0.0
 40
0.2568208839
 40
1.0
 40
1.0
 40
1.0
 40
1.0
 10
112.3024415037
 20
206.1463349943
 30
0.0
 10
112.2812630438
 20
206.1355956218
 30
0.0
 10
112.1973615968
 20
206.0967088707
 30
0.0
 10
112.1074395898
 20
206.070551773
 30
0.0
 10
112.0395770879
 20
206.0597636725
 30
0.0
  0
SPLINE
  5
533
100
AcDbEntity
  8
0
100
AcDbSpline
 62
7
  6
BYLAYER
 70
0
 71
3
 72
9
 73
5
 74
0
 42
0.0000001
 43
0.0000001
 44
0.0000000001
 40
0.0
 40
0.0
 40
0.0
 40
0.0
 40
0.7475649911
 40
1.0
 40
1.0
 40
1.0
 40
1.0
 10
96.5467647037
 20
209.1087995613
 30
0.0
 10
96.2843583572
 20
209.1087995613
 30
0.0
 10
95.9324287326
 20
209.2032235599
 30
0.0
 10
95.6180605232
 20
209.3575872278
 30
0.0
 10
95.5401000953
 20
209.3997016287
 30
0.0
  0
SPLINE
  5
534
100
AcDbEntity
  8
0
100
AcDbSpline
 62
7
  6
BYLAYER
 70
0
 71
3
 72
9
 73
5
 74
0
 42
0.0000001
 43
0.0000001
 44
0.0000000001
 40
0.0
 40
0.0
 40
0.0
 40
0.0
 40
0.2535105399
 40
1.0
 40
1.0
 40
1.0
 40
1.0
 10
95.5401000953
 20
209.3997016287
 30
0.0
 10
95.5119580363
 20
209.4149040331
 30
0.0
 10
95.4018141523
 20
209.4764700743
 30
0.0
 10
95.2949512584
 20
209.5438287241
 30
0.0
 10
95.2169343037
 20
209.5965949318
 30
0.0
  0
SPLINE
  5
535
100
AcDbEntity
  8
0
100
AcDbSpline
 62
7
  6
BYLAYER
 70
0
 71
3
 72
9
 73
5
 74
0
 42
0.0000001
 43
0.0000001
 44
0.0000000001
 40
0.0
 40
0.0
 40
0.0
 40
0.0
 40
0.4814970962
 40
1.0
 40
1.0
 40
1.0
 40
1.0
 10
97.1215951037
 20
209.4582316703
 30
0.0
 10
97.1215951037
 20
209.41974138
 30
0.0
 10
97.0971572392
 20
209.3393969832
 30
0.0
 10
97.0433604762
 20
209.2782375215
 30
0.0
 10
97.0124194009
 20
209.2506580521
 30
0.0
  0
SPLINE
  5
536
100
AcDbEntity
  8
0
100
AcDbSpline
 62
7
  6
BYLAYER
 70
0
 71
3
 72
9
 73
5
 74
0
 42
0.0000001
 43
0.0000001
 44
0.0000000001
 40
0.0
 40
0.0
 40
0.0
 40
0.0
 40
0.5209968942
 40
1.0
 40
1.0
 40
1.0
 40
1.0
 10
97.0124194009
 20
209.2506580521
 30
0.0
 10
96.9480261501
 20
209.1932608326
 30
0.0
 10
96.7940696294
 20
209.1112879822
 30
0.0
 10
96.6260726766
 20
209.1087995613
 30
0.0
 10
96.5467647037
 20
209.1087995613
 30
0.0
  0
SPLINE
  5
537
100
AcDbEntity
  8
0
100
AcDbSpline
 62
7
  6
BYLAYER
 70
0
 71
3
 72
9
 73
5
 74
0
 42
0.0000001
 43
0.0000001
 44
0.0000000001
 40
0.0
 40
0.0
 40
0.0
 40
0.0
 40
0.2371132868
 40
1.0
 40
1.0
 40
1.0
 40
1.0
 10
111.9077823037
 20
206.0493926514
 30
0.0
 10
111.8774726508
 20
206.0493926514
 30
0.0
 10
111.7496985346
 20
206.0672401432
 30
0.0
 10
111.6345284921
 20
206.1396365385
 30
0.0
 10
111.5642573267
 20
206.2072511702
 30
0.0
  0
SPLINE
  5
538
100
AcDbEntity
  8
0
100
AcDbSpline
 62
7
  6
BYLAYER
 70
0
 71
3
 72
9
 73
5
 74
0
 42
0.0000001
 43
0.0000001
 44
0.0000000001
 40
0.0
 40
0.0
 40
0.0
 40
0.0
 40
0.2675201851
 40
1.0
 40
1.0
 40
1.0
 40
1.0
 10
111.5642573267
 20
206.2072511702
 30
0.0
 10
111.5406975145
 20
206.2299203264
 30
0.0
 10
111.4594591903
 20
206.3202814647
 30
0.0
 10
111.4033935037
 20
206.4419396901
 30
0.0
 10
111.4033935037
 20
206.5314594475
 30
0.0
  0
SPLINE
  5
539
100
AcDbEntity
  8
0
100
AcDbSpline
 62
7
  6
BYLAYER
 70
0
 71
3
 72
8
 73
4
 74
0
 42
0.0000001
 43
0.0000001
 44
0.0000000001
 40
0.0
 40
0.0
 40
0.0
 40
0.0
 40
1.0
 40
1.0
 40
1.0
 40
1.0
 10
112.2694783037
 20
207.1902252061
 30
0.0
 10
112.2232055362
 20
207.2125371636
 30
0.0
 10
112.1752492511
 20
207.2317085472
 30
0.0
 10
112.126217459
 20
207.2470342062
 30
0.0
  0
SPLINE
  5
53A
100
AcDbEntity
  8
0
100
AcDbSpline
 62
7
  6
BYLAYER
 70
0
 71
3
 72
9
 73
5
 74
0
 42
0.0000001
 43
0.0000001
 44
0.0000000001
 40
0.0
 40
0.0
 40
0.0
 40
0.0
 40
0.2542193903
 40
1.0
 40
1.0
 40
1.0
 40
1.0
 10
111.7819966417
 20
207.2890503473
 30
0.0
 10
111.7341991068
 20
207.285564353
 30
0.0
 10
111.5484368847
 20
207.2557182011
 30
0.0
 10
111.3677367542
 20
207.158471199
 30
0.0
 10
111.277373855
 20
207.0507651563
 30
0.0
  0
SPLINE
  5
53B
100
AcDbEntity
  8
0
100
AcDbSpline
 62
7
  6
BYLAYER
 70
0
 71
3
 72
8
 73
4
 74
0
 42
0.0000001
 43
0.0000001
 44
0.0000000001
 40
0.0
 40
0.0
 40
0.0
 40
0.0
 40
1.0
 40
1.0
 40
1.0
 40
1.0
 10
96.6719488181
 20
100.6789768324
 30
0.0
 10
96.8451211241
 20
100.3358345773
 30
0.0
 10
97.0085971029
 20
99.9869117467
 30
0.0
 10
97.2046757733
 20
99.6563237707
 30
0.0
  0
SPLINE
  5
53C
100
AcDbEntity
  8
0
100
AcDbSpline
 62
7
  6
BYLAYER
 70
0
 71
3
 72
17
 73
13
 74
0
 42
0.0000001
 43
0.0000001
 44
0.0000000001
 40
0.0
 40
0.0
 40
0.0
 40
0.0
 40
0.0470927175
 40
0.1026855106
 40
0.1625861471
 40
0.2247615197
 40
0.3521495993
 40
0.4810929272
 40
0.6105446996
 40
0.7402586498
 40
0.870169689
 40
1.0
 40
1.0
 40
1.0
 40
1.0
 10
93.2047657798
 20
116.5377370074
 30
0.0
 10
93.2071748802
 20
116.2819695225
 30
0.0
 10
93.2632326396
 20
115.7256705168
 30
0.0
 10
93.3863789638
 20
114.8516798164
 30
0.0
 10
93.5341804214
 20
113.8979187403
 30
0.0
 10
93.744120026
 20
112.5593999033
 30
0.0
 10
94.0113102959
 20
110.8502070174
 30
0.0
 10
94.3524338234
 20
108.7827256114
 30
0.0
 10
94.7486203417
 20
106.7120109613
 30
0.0
 10
95.2299138022
 20
104.6532161497
 30
0.0
 10
95.832473424
 20
102.6247754003
 30
0.0
 10
96.3541558927
 20
101.3084674998
 30
0.0
 10
96.6718943823
 20
100.6789508493
 30
0.0
  0
SPLINE
  5
53D
100
AcDbEntity
  8
0
100
AcDbSpline
 62
7
  6
BYLAYER
 70
0
 71
3
 72
11
 73
7
 74
0
 42
0.0000001
 43
0.0000001
 44
0.0000000001
 40
0.0
 40
0.0
 40
0.0
 40
0.0
 40
0.2882922007
 40
0.5483474266
 40
0.7820200136
 40
1.0
 40
1.0
 40
1.0
 40
1.0
 10
97.2046757733
 20
115.9894319626
 30
0.0
 10
96.6625639058
 20
116.0258140253
 30
0.0
 10
95.633943765
 20
116.2963720013
 30
0.0
 10
94.412035265
 20
117.1693053582
 30
0.0
 10
93.6148319884
 20
118.2741495752
 30
0.0
 10
93.3407469607
 20
119.0950995644
 30
0.0
 10
93.2690449074
 20
119.4996109676
 30
0.0
  0
SPLINE
  5
53E
100
AcDbEntity
  8
0
100
AcDbSpline
 62
7
  6
BYLAYER
 70
0
 71
3
 72
9
 73
5
 74
0
 42
0.0000001
 43
0.0000001
 44
0.0000000001
 40
0.0
 40
0.0
 40
0.0
 40
0.0
 40
0.5047956142
 40
1.0
 40
1.0
 40
1.0
 40
1.0
 10
99.9763295037
 20
208.9889429208
 30
0.0
 10
99.7751154848
 20
208.9889429208
 30
0.0
 10
99.3399534502
 20
209.1138751671
 30
0.0
 10
99.1897199037
 20
209.5463795158
 30
0.0
 10
99.1897199037
 20
209.7437704238
 30
0.0
  0
SPLINE
  5
53F
100
AcDbEntity
  8
0
100
AcDbSpline
 62
7
  6
BYLAYER
 70
0
 71
3
 72
8
 73
4
 74
0
 42
0.0000001
 43
0.0000001
 44
0.0000000001
 40
0.0
 40
0.0
 40
0.0
 40
0.0
 40
1.0
 40
1.0
 40
1.0
 40
1.0
 10
100.7177839037
 20
209.1669643425
 30
0.0
 10
100.6339159353
 20
209.1370883385
 30
0.0
 10
100.550188973
 20
209.1067061217
 30
0.0
 10
100.4653876863
 20
209.0795924073
 30
0.0
  0
SPLINE
  5
540
100
AcDbEntity
  8
0
100
AcDbSpline
 62
7
  6
BYLAYER
 70
0
 71
3
 72
8
 73
4
 74
0
 42
0.0000001
 43
0.0000001
 44
0.0000000001
 40
0.0
 40
0.0
 40
0.0
 40
0.0
 40
1.0
 40
1.0
 40
1.0
 40
1.0
 10
100.4653876863
 20
209.0795924073
 30
0.0
 10
100.3074671759
 20
209.0291001119
 30
0.0
 10
100.142125642
 20
208.9889429208
 30
0.0
 10
99.9763295037
 20
208.9889429208
 30
0.0
  0
SPLINE
  5
541
100
AcDbEntity
  8
0
100
AcDbSpline
 62
7
  6
BYLAYER
 70
0
 71
3
 72
11
 73
7
 74
0
 42
0.0000001
 43
0.0000001
 44
0.0000000001
 40
0.0
 40
0.0
 40
0.0
 40
0.0
 40
0.2523661008
 40
0.5034555805
 40
0.7527859585
 40
1.0
 40
1.0
 40
1.0
 40
1.0
 10
99.7943519037
 20
211.0754024467
 30
0.0
 10
99.6120117691
 20
211.0754024467
 30
0.0
 10
99.2466125265
 20
211.0232410398
 30
0.0
 10
98.7458917787
 20
210.7746808273
 30
0.0
 10
98.4095044018
 20
210.3300338895
 30
0.0
 10
98.3165592543
 20
209.9724699584
 30
0.0
 10
98.3082488107
 20
209.7940457339
 30
0.0
  0
SPLINE
  5
542
100
AcDbEntity
  8
0
100
AcDbSpline
 62
7
  6
BYLAYER
 70
0
 71
3
 72
9
 73
5
 74
0
 42
0.0000001
 43
0.0000001
 44
0.0000000001
 40
0.0
 40
0.0
 40
0.0
 40
0.0
 40
0.2546318701
 40
1.0
 40
1.0
 40
1.0
 40
1.0
 10
100.6775951037
 20
210.9092800344
 30
0.0
 10
100.6061386802
 20
210.9366633952
 30
0.0
 10
100.3211039633
 20
211.0322924054
 30
0.0
 10
100.0183548512
 20
211.0754024467
 30
0.0
 10
99.7943519037
 20
211.0754024467
 30
0.0
  0
SPLINE
  5
543
100
AcDbEntity
  8
0
100
AcDbSpline
 62
7
  6
BYLAYER
 70
0
 71
3
 72
8
 73
4
 74
0
 42
0.0000001
 43
0.0000001
 44
0.0000000001
 40
0.0
 40
0.0
 40
0.0
 40
0.0
 40
1.0
 40
1.0
 40
1.0
 40
1.0
 10
97.0095149739
 20
99.5290030591
 30
0.0
 10
96.7867579288
 20
99.8521302769
 30
0.0
 10
96.5670772072
 20
100.1780035548
 30
0.0
 10
96.366987599
 20
100.5156365637
 30
0.0
  0
SPLINE
  5
544
100
AcDbEntity
  8
0
100
AcDbSpline
 62
7
  6
BYLAYER
 70
0
 71
3
 72
19
 73
15
 74
0
 42
0.0000001
 43
0.0000001
 44
0.0000000001
 40
0.0
 40
0.0
 40
0.0
 40
0.0
 40
0.131644809
 40
0.2628198075
 40
0.3937031166
 40
0.5243152221
 40
0.6542596912
 40
0.7185961395
 40
0.7820440438
 40
0.8438941307
 40
0.9028690259
 40
0.9563042465
 40
0.9798450526
 40
1.0
 40
1.0
 40
1.0
 40
1.0
 10
96.3667675316
 20
100.5154918125
 30
0.0
 10
96.0162532587
 20
101.1480909196
 30
0.0
 10
95.3699971249
 20
102.4422439936
 30
0.0
 10
94.5904644362
 20
104.4614739748
 30
0.0
 10
93.8863718425
 20
106.5006347482
 30
0.0
 10
93.2413655302
 20
108.5523871124
 30
0.0
 10
92.7456021778
 20
110.2671321061
 30
0.0
 10
92.3702707503
 20
111.6323777016
 30
0.0
 10
92.1019525381
 20
112.6390250359
 30
0.0
 10
91.8504935491
 20
113.6197040402
 30
0.0
 10
91.626628873
 20
114.5503954232
 30
0.0
 10
91.4771671023
 20
115.2829148716
 30
0.0
 10
91.4052478441
 20
115.8115721606
 30
0.0
 10
91.3917900017
 20
116.0522764308
 30
0.0
 10
91.3976847976
 20
116.1628445267
 30
0.0
  0
SPLINE
  5
545
100
AcDbEntity
  8
0
100
AcDbSpline
 62
7
  6
BYLAYER
 70
0
 71
3
 72
15
 73
11
 74
0
 42
0.0000001
 43
0.0000001
 44
0.0000000001
 40
0.0
 40
0.0
 40
0.0
 40
0.0
 40
0.1080695078
 40
0.2155460873
 40
0.3279165649
 40
0.4457245485
 40
0.5686560841
 40
0.6996732001
 40
0.8426973831
 40
1.0
 40
1.0
 40
1.0
 40
1.0
 10
93.313323639
 20
97.7651864957
 30
0.0
 10
93.3646857197
 20
97.9104960182
 30
0.0
 10
93.4874593639
 20
98.1935447037
 30
0.0
 10
93.7249809354
 20
98.597083838
 30
0.0
 10
93.9971632629
 20
98.9947111192
 30
0.0
 10
94.3189636562
 20
99.3836410955
 30
0.0
 10
94.7146975058
 20
99.739842939
 30
0.0
 10
95.1896918505
 20
100.0508274573
 30
0.0
 10
95.7382729155
 20
100.3313148403
 30
0.0
 10
96.1474011074
 20
100.4685532265
 30
0.0
 10
96.3667675316
 20
100.5154918125
 30
0.0
  0
SPLINE
  5
546
100
AcDbEntity
  8
0
100
AcDbSpline
 62
7
  6
BYLAYER
 70
0
 71
3
 72
9
 73
5
 74
0
 42
0.0000001
 43
0.0000001
 44
0.0000000001
 40
0.0
 40
0.0
 40
0.0
 40
0.0
 40
0.2327329145
 40
1.0
 40
1.0
 40
1.0
 40
1.0
 10
91.3976847976
 20
116.1628445267
 30
0.0
 10
91.4005907197
 20
116.2545324898
 30
0.0
 10
91.4078153186
 20
116.64866691
 30
0.0
 10
91.3969628441
 20
117.0429323384
 30
0.0
 10
91.3837670693
 20
117.3450702948
 30
0.0
  0
SPLINE
  5
547
100
AcDbEntity
  8
0
100
AcDbSpline
 62
7
  6
BYLAYER
 70
0
 71
3
 72
9
 73
5
 74
0
 42
0.0000001
 43
0.0000001
 44
0.0000000001
 40
0.0
 40
0.0
 40
0.0
 40
0.0
 40
0.2572954293
 40
1.0
 40
1.0
 40
1.0
 40
1.0
 10
110.3237247037
 20
206.23005743
 30
0.0
 10
110.3099352366
 20
206.2201784016
 30
0.0
 10
110.255495619
 20
206.1829879567
 30
0.0
 10
110.1975417879
 20
206.1508565411
 30
0.0
 10
110.1529433284
 20
206.1306434463
 30
0.0
  0
SPLINE
  5
548
100
AcDbEntity
  8
0
100
AcDbSpline
 62
7
  6
BYLAYER
 70
0
 71
3
 72
8
 73
4
 74
0
 42
0.0000001
 43
0.0000001
 44
0.0000000001
 40
0.0
 40
0.0
 40
0.0
 40
0.0
 40
1.0
 40
1.0
 40
1.0
 40
1.0
 10
110.1529433284
 20
206.1306434463
 30
0.0
 10
110.0972602988
 20
206.1054065577
 30
0.0
 10
110.0386432024
 20
206.08572944
 30
0.0
 10
109.9788771775
 20
206.0728638811
 30
0.0
  0
SPLINE
  5
549
100
AcDbEntity
  8
0
100
AcDbSpline
 62
7
  6
BYLAYER
 70
0
 71
3
 72
9
 73
5
 74
0
 42
0.0000001
 43
0.0000001
 44
0.0000000001
 40
0.0
 40
0.0
 40
0.0
 40
0.0
 40
0.2194160945
 40
1.0
 40
1.0
 40
1.0
 40
1.0
 10
96.3670347432
 20
100.5156859541
 30
0.0
 10
96.3897525376
 20
100.526817298
 30
0.0
 10
96.4925744859
 20
100.5789985179
 30
0.0
 10
96.5937905215
 20
100.63431546
 30
0.0
 10
96.6719203684
 20
100.6789891399
 30
0.0
  0
SPLINE
  5
54A
100
AcDbEntity
  8
0
100
AcDbSpline
 62
7
  6
BYLAYER
 70
0
 71
3
 72
9
 73
5
 74
0
 42
0.0000001
 43
0.0000001
 44
0.0000000001
 40
0.0
 40
0.0
 40
0.0
 40
0.0
 40
0.2592318529
 40
1.0
 40
1.0
 40
1.0
 40
1.0
 10
109.8026303037
 20
206.054239066
 30
0.0
 10
109.7839066648
 20
206.054239066
 30
0.0
 10
109.7117445877
 20
206.0580552938
 30
0.0
 10
109.6404250882
 20
206.0798531769
 30
0.0
 10
109.5933226128
 20
206.1052304835
 30
0.0
  0
SPLINE
  5
54B
100
AcDbEntity
  8
0
100
AcDbSpline
 62
7
  6
BYLAYER
 70
0
 71
3
 72
9
 73
5
 74
0
 42
0.0000001
 43
0.0000001
 44
0.0000000001
 40
0.0
 40
0.0
 40
0.0
 40
0.0
 40
0.2372361798
 40
1.0
 40
1.0
 40
1.0
 40
1.0
 10
109.5933226128
 20
206.1052304835
 30
0.0
 10
109.5778429906
 20
206.1135704086
 30
0.0
 10
109.5147555522
 20
206.1527690699
 30
0.0
 10
109.4620515069
 20
206.2073128536
 30
0.0
 10
109.4282024049
 20
206.2525934827
 30
0.0
  0
SPLINE
  5
54C
100
AcDbEntity
  8
0
100
AcDbSpline
 62
7
  6
BYLAYER
 70
0
 71
3
 72
9
 73
5
 74
0
 42
0.0000001
 43
0.0000001
 44
0.0000000001
 40
0.0
 40
0.0
 40
0.0
 40
0.0
 40
0.2282175288
 40
1.0
 40
1.0
 40
1.0
 40
1.0
 10
109.4282024049
 20
206.2525934827
 30
0.0
 10
109.4158302601
 20
206.2691439513
 30
0.0
 10
109.3649476262
 20
206.3441617251
 30
0.0
 10
109.3268004586
 20
206.4272354919
 30
0.0
 10
109.3023055037
 20
206.4926818858
 30
0.0
  0
SPLINE
  5
54D
100
AcDbEntity
  8
0
100
AcDbSpline
 62
7
  6
BYLAYER
 70
0
 71
3
 72
9
 73
5
 74
0
 42
0.0000001
 43
0.0000001
 44
0.0000000001
 40
0.0
 40
0.0
 40
0.0
 40
0.0
 40
0.2527483092
 40
1.0
 40
1.0
 40
1.0
 40
1.0
 10
109.6409402229
 20
207.2883895558
 30
0.0
 10
109.5980498907
 20
207.2845900902
 30
0.0
 10
109.4303860093
 20
207.2547845598
 30
0.0
 10
109.2700931344
 20
207.1656908056
 30
0.0
 10
109.1855020183
 20
207.0705584826
 30
0.0
  0
SPLINE
  5
54E
100
AcDbEntity
  8
0
100
AcDbSpline
 62
7
  6
BYLAYER
 70
0
 71
3
 72
8
 73
4
 74
0
 42
0.0000001
 43
0.0000001
 44
0.0000000001
 40
0.0
 40
0.0
 40
0.0
 40
0.0
 40
1.0
 40
1.0
 40
1.0
 40
1.0
 10
109.1855020183
 20
207.0705584826
 30
0.0
 10
109.1257910154
 20
207.0034066744
 30
0.0
 10
109.0817032605
 20
206.9208784787
 30
0.0
 10
109.0532798671
 20
206.8356324822
 30
0.0
  0
SPLINE
  5
54F
100
AcDbEntity
  8
0
100
AcDbSpline
 62
7
  6
BYLAYER
 70
0
 71
3
 72
9
 73
5
 74
0
 42
0.0000001
 43
0.0000001
 44
0.0000000001
 40
0.0
 40
0.0
 40
0.0
 40
0.0
 40
0.432497919
 40
1.0
 40
1.0
 40
1.0
 40
1.0
 10
93.1379779904
 20
121.1321044911
 30
0.0
 10
93.0982989143
 20
121.0329630363
 30
0.0
 10
92.9216552543
 20
120.8422963838
 30
0.0
 10
92.7017808557
 20
120.7278378909
 30
0.0
 10
92.572767836
 20
120.6731625076
 30
0.0
  0
SPLINE
  5
550
100
AcDbEntity
  8
0
100
AcDbSpline
 62
7
  6
BYLAYER
 70
0
 71
3
 72
13
 73
9
 74
0
 42
0.0000001
 43
0.0000001
 44
0.0000000001
 40
0.0
 40
0.0
 40
0.0
 40
0.0
 40
0.2522177193
 40
0.5151758506
 40
0.6399149834
 40
0.7673847124
 40
0.8887548441
 40
1.0
 40
1.0
 40
1.0
 40
1.0
 10
91.3977776399
 20
116.1628848613
 30
0.0
 10
91.5078091708
 20
116.0027453249
 30
0.0
 10
91.8660893268
 20
115.7661700957
 30
0.0
 10
92.3794822822
 20
115.7448154082
 30
0.0
 10
92.7588618723
 20
115.8732551051
 30
0.0
 10
92.9990655909
 20
116.0404853148
 30
0.0
 10
93.1641623768
 20
116.2713342923
 30
0.0
 10
93.2041688323
 20
116.4520605028
 30
0.0
 10
93.204806348
 20
116.5377566368
 30
0.0
  0
SPLINE
  5
551
100
AcDbEntity
  8
0
100
AcDbSpline
 62
7
  6
BYLAYER
 70
0
 71
3
 72
9
 73
5
 74
0
 42
0.0000001
 43
0.0000001
 44
0.0000000001
 40
0.0
 40
0.0
 40
0.0
 40
0.0
 40
0.2609423603
 40
1.0
 40
1.0
 40
1.0
 40
1.0
 10
93.1657714916
 20
121.2653949489
 30
0.0
 10
93.1688694681
 20
120.8541803152
 30
0.0
 10
93.1809825996
 20
119.278300488
 30
0.0
 10
93.1913573582
 20
117.7023970323
 30
0.0
 10
93.204828081
 20
116.5377735015
 30
0.0
  0
SPLINE
  5
552
100
AcDbEntity
  8
0
100
AcDbSpline
 62
7
  6
BYLAYER
 70
0
 71
3
 72
9
 73
5
 74
0
 42
0.0000001
 43
0.0000001
 44
0.0000000001
 40
0.0
 40
0.0
 40
0.0
 40
0.0
 40
0.4941238551
 40
1.0
 40
1.0
 40
1.0
 40
1.0
 10
102.7272063037
 20
211.0754024467
 30
0.0
 10
102.6225520537
 20
211.0754024467
 30
0.0
 10
102.4089306561
 20
211.0423771458
 30
0.0
 10
102.218730878
 20
210.9405553245
 30
0.0
 10
102.1319871519
 20
210.8776647457
 30
0.0
  0
SPLINE
  5
553
100
AcDbEntity
  8
0
100
AcDbSpline
 62
7
  6
BYLAYER
 70
0
 71
3
 72
9
 73
5
 74
0
 42
0.0000001
 43
0.0000001
 44
0.0000000001
 40
0.0
 40
0.0
 40
0.0
 40
0.0
 40
0.2399793523
 40
1.0
 40
1.0
 40
1.0
 40
1.0
 10
102.1319871519
 20
210.8776647457
 30
0.0
 10
102.1128659967
 20
210.8638016046
 30
0.0
 10
102.0348973166
 20
210.803683063
 30
0.0
 10
101.9639238738
 20
210.7347247417
 30
0.0
 10
101.913872028
 20
210.6791403335
 30
0.0
  0
SPLINE
  5
554
100
AcDbEntity
  8
0
100
AcDbSpline
 62
7
  6
BYLAYER
 70
0
 71
3
 72
9
 73
5
 74
0
 42
0.0000001
 43
0.0000001
 44
0.0000000001
 40
0.0
 40
0.0
 40
0.0
 40
0.0
 40
0.4982999336
 40
1.0
 40
1.0
 40
1.0
 40
1.0
 10
103.6881318071
 20
210.1579893893
 30
0.0
 10
103.6747230995
 20
210.3984838279
 30
0.0
 10
103.4960044713
 20
210.9154628013
 30
0.0
 10
102.9697178062
 20
211.0754024467
 30
0.0
 10
102.7272063037
 20
211.0754024467
 30
0.0
  0
SPLINE
  5
555
100
AcDbEntity
  8
0
100
AcDbSpline
 62
7
  6
BYLAYER
 70
0
 71
3
 72
11
 73
7
 74
0
 42
0.0000001
 43
0.0000001
 44
0.0000000001
 40
0.0
 40
0.0
 40
0.0
 40
0.0
 40
0.2776732633
 40
0.5363581671
 40
0.7746031965
 40
1.0
 40
1.0
 40
1.0
 40
1.0
 10
97.3778364958
 20
174.1436867559
 30
0.0
 10
96.8279132648
 20
174.1437158757
 30
0.0
 10
95.7534733003
 20
173.9304060838
 30
0.0
 10
94.441915652
 20
173.071665974
 30
0.0
 10
93.5711371396
 20
171.9036358439
 30
0.0
 10
93.2817117233
 20
171.0135046284
 30
0.0
 10
93.2113154537
 20
170.5726990148
 30
0.0
  0
SPLINE
  5
556
100
AcDbEntity
  8
0
100
AcDbSpline
 62
7
  6
BYLAYER
 70
0
 71
3
 72
29
 73
25
 74
0
 42
0.0000001
 43
0.0000001
 44
0.0000000001
 40
0.0
 40
0.0
 40
0.0
 40
0.0
 40
0.0073428932
 40
0.0186307745
 40
0.033863537
 40
0.0529479325
 40
0.0757403056
 40
0.1020716848
 40
0.1644420221
 40
0.2380057651
 40
0.3203207219
 40
0.4086387077
 40
0.5000077826
 40
0.5913763549
 40
0.6796931997
 40
0.7620073817
 40
0.8355706131
 40
0.8979396533
 40
0.9242700326
 40
0.9470607317
 40
0.9661433602
 40
0.9813738555
 40
0.9926594458
 40
1.0
 40
1.0
 40
1.0
 40
1.0
 10
99.4049022531
 20
225.6335498746
 30
0.0
 10
99.4566251233
 20
225.6083421419
 30
0.0
 10
99.5987734057
 20
225.5692841669
 30
0.0
 10
99.8594889462
 20
225.5223698932
 30
0.0
 10
100.2146712737
 20
225.4795761348
 30
0.0
 10
100.6603973968
 20
225.4403905363
 30
0.0
 10
101.1938074082
 20
225.4055538411
 30
0.0
 10
102.0664150567
 20
225.3624728338
 30
0.0
 10
103.3373679112
 20
225.3221416451
 30
0.0
 10
105.0472558532
 20
225.2893700725
 30
0.0
 10
106.9606735776
 20
225.2685014802
 30
0.0
 10
109.0136808758
 20
225.2569174789
 30
0.0
 10
111.137661288
 20
225.2532486888
 30
0.0
 10
113.2616325895
 20
225.2569183159
 30
0.0
 10
115.3146214616
 20
225.2684751895
 30
0.0
 10
117.2280182121
 20
225.2894773715
 30
0.0
 10
118.937889273
 20
225.3220635124
 30
0.0
 10
120.2088194054
 20
225.362457845
 30
0.0
 10
121.0813914613
 20
225.4056225073
 30
0.0
 10
121.6147686338
 20
225.4404182937
 30
0.0
 10
122.0604570443
 20
225.4795218442
 30
0.0
 10
122.4155929447
 20
225.5222951284
 30
0.0
 10
122.6762457534
 20
225.5692669556
 30
0.0
 10
122.818342133
 20
225.6083722476
 30
0.0
 10
122.8700408797
 20
225.6335876374
 30
0.0
  0
SPLINE
  5
557
100
AcDbEntity
  8
0
100
AcDbSpline
 62
7
  6
BYLAYER
 70
0
 71
3
 72
11
 73
7
 74
0
 42
0.0000001
 43
0.0000001
 44
0.0000000001
 40
0.0
 40
0.0
 40
0.0
 40
0.0
 40
0.2463039702
 40
0.4914171843
 40
0.7376404801
 40
1.0
 40
1.0
 40
1.0
 40
1.0
 10
102.4955583037
 20
206.0074204858
 30
0.0
 10
102.6054595143
 20
206.0074204858
 30
0.0
 10
102.8257390393
 20
206.0334912949
 30
0.0
 10
103.1356593272
 20
206.1565993983
 30
0.0
 10
103.3993116626
 20
206.3758538616
 30
0.0
 10
103.5113730321
 20
206.5804610984
 30
0.0
 10
103.5490367037
 20
206.6913020383
 30
0.0
  0
SPLINE
  5
558
100
AcDbEntity
  8
0
100
AcDbSpline
 62
7
  6
BYLAYER
 70
0
 71
3
 72
9
 73
5
 74
0
 42
0.0000001
 43
0.0000001
 44
0.0000000001
 40
0.0
 40
0.0
 40
0.0
 40
0.0
 40
0.5334228452
 40
1.0
 40
1.0
 40
1.0
 40
1.0
 10
103.8127455037
 20
207.66645248
 30
0.0
 10
103.8257836249
 20
207.6861461659
 30
0.0
 10
103.856104637
 20
207.7208828757
 30
0.0
 10
103.9013635415
 20
207.7338713524
 30
0.0
 10
103.9220223038
 20
207.7338713523
 30
0.0
  0
SPLINE
  5
559
100
AcDbEntity
  8
0
100
AcDbSpline
 62
7
  6
BYLAYER
 70
0
 71
3
 72
8
 73
4
 74
0
 42
0.0000001
 43
0.0000001
 44
0.0000000001
 40
0.0
 40
0.0
 40
0.0
 40
0.0
 40
1.0
 40
1.0
 40
1.0
 40
1.0
 10
101.4858799037
 20
207.3506206053
 30
0.0
 10
101.441420718
 20
207.2712591846
 30
0.0
 10
101.3979520443
 20
207.1910695625
 30
0.0
 10
101.3613420523
 20
207.1077955403
 30
0.0
  0
SPLINE
  5
55A
100
AcDbEntity
  8
0
100
AcDbSpline
 62
7
  6
BYLAYER
 70
0
 71
3
 72
11
 73
7
 74
0
 42
0.0000001
 43
0.0000001
 44
0.0000000001
 40
0.0
 40
0.0
 40
0.0
 40
0.0
 40
0.2317977288
 40
0.4758848129
 40
0.7356380478
 40
1.0
 40
1.0
 40
1.0
 40
1.0
 10
104.7402399037
 20
208.5496195025
 30
0.0
 10
104.6419486136
 20
208.6453859083
 30
0.0
 10
104.3907931111
 20
208.7940122936
 30
0.0
 10
103.9553859606
 20
208.8667276598
 30
0.0
 10
103.4988284176
 20
208.8323272829
 30
0.0
 10
103.1970971436
 20
208.7527698485
 30
0.0
 10
103.0495640027
 20
208.7005263068
 30
0.0
  0
SPLINE
  5
55B
100
AcDbEntity
  8
0
100
AcDbSpline
 62
7
  6
BYLAYER
 70
0
 71
3
 72
9
 73
5
 74
0
 42
0.0000001
 43
0.0000001
 44
0.0000000001
 40
0.0
 40
0.0
 40
0.0
 40
0.0
 40
0.5153715273
 40
1.0
 40
1.0
 40
1.0
 40
1.0
 10
103.0495640027
 20
208.7005263068
 30
0.0
 10
102.8596209807
 20
208.6332648349
 30
0.0
 10
102.5038054146
 20
208.4605194027
 30
0.0
 10
102.1996945496
 20
208.2109260957
 30
0.0
 10
102.0611615037
 20
208.0816532121
 30
0.0
  0
SPLINE
  5
55C
100
AcDbEntity
  8
0
100
AcDbSpline
 62
7
  6
BYLAYER
 70
0
 71
3
 72
11
 73
7
 74
0
 42
0.0000001
 43
0.0000001
 44
0.0000000001
 40
0.0
 40
0.0
 40
0.0
 40
0.0
 40
0.2623595199
 40
0.5085828157
 40
0.7536960298
 40
1.0
 40
1.0
 40
1.0
 40
1.0
 10
103.5490367037
 20
206.6257568721
 30
0.0
 10
103.5113730321
 20
206.5149159322
 30
0.0
 10
103.3993116626
 20
206.3103086954
 30
0.0
 10
103.1356593272
 20
206.0910542321
 30
0.0
 10
102.8257390393
 20
205.9679461287
 30
0.0
 10
102.6054595144
 20
205.9418753196
 30
0.0
 10
102.4955583037
 20
205.9418753196
 30
0.0
  0
SPLINE
  5
55D
100
AcDbEntity
  8
0
100
AcDbSpline
 62
7
  6
BYLAYER
 70
0
 71
3
 72
9
 73
5
 74
0
 42
0.0000001
 43
0.0000001
 44
0.0000000001
 40
0.0
 40
0.0
 40
0.0
 40
0.0
 40
0.737702132
 40
1.0
 40
1.0
 40
1.0
 40
1.0
 10
103.9220223037
 20
207.6683261861
 30
0.0
 10
103.9011708349
 20
207.6683261862
 30
0.0
 10
103.8720929295
 20
207.6599672062
 30
0.0
 10
103.8496334397
 20
207.6427166689
 30
0.0
 10
103.8440854114
 20
207.6377987202
 30
0.0
  0
SPLINE
  5
55E
100
AcDbEntity
  8
0
100
AcDbSpline
 62
7
  6
BYLAYER
 70
0
 71
3
 72
8
 73
4
 74
0
 42
0.0000001
 43
0.0000001
 44
0.0000000001
 40
0.0
 40
0.0
 40
0.0
 40
0.0
 40
1.0
 40
1.0
 40
1.0
 40
1.0
 10
103.8440854114
 20
207.6377987202
 30
0.0
 10
103.8320109286
 20
207.6270955148
 30
0.0
 10
103.8216527368
 20
207.6143614188
 30
0.0
 10
103.8127455037
 20
207.6009073138
 30
0.0
  0
ELLIPSE
  5
55F
100
AcDbEntity
  8
0
100
AcDbEllipse
 62
7
  6
BYLAYER
 10
124.7809012095
 20
169.7777288808
 30
0.0
 11
3.0054326823
 21
3.0054326823
 31
0.0
 40
0.9999238505
 41
-0.7853600872
 42
0.7853600872
  0
ELLIPSE
  5
560
100
AcDbEntity
  8
0
100
AcDbEllipse
 62
7
  6
BYLAYER
 10
97.489592764
 20
120.2300547742
 30
0.0
 11
3.0054326823
 21
3.0054326823
 31
0.0
 40
0.9999238505
 41
-2.4232434648
 42
-2.3562325664
  0
ELLIPSE
  5
561
100
AcDbEntity
  8
0
100
AcDbEllipse
 62
7
  6
BYLAYER
 10
124.7852646434
 20
120.2300547742
 30
0.0
 11
-3.0054326823
 21
3.0054326823
 31
0.0
 40
0.9999238505
 41
8.6394178736
 42
8.7064287719
  0
ELLIPSE
  5
562
100
AcDbEntity
  8
0
100
AcDbEllipse
 62
7
  6
BYLAYER
 10
97.5375905369
 20
120.278052547
 30
0.0
 11
3.0054326823
 21
3.0054326823
 31
0.0
 40
0.9999238505
 41
2.3562325664
 42
3.9269527408
  0
ELLIPSE
  5
563
100
AcDbEntity
  8
0
100
AcDbEllipse
 62
7
  6
BYLAYER
 10
97.4939561979
 20
169.7777288808
 30
0.0
 11
3.0054326823
 21
-3.0054326823
 31
0.0
 40
0.9999238505
 41
8.6394178736
 42
10.2101380479
  0
ELLIPSE
  5
564
100
AcDbEntity
  8
0
100
AcDbEllipse
 62
7
  6
BYLAYER
 10
124.7372668706
 20
120.278052547
 30
0.0
 11
-3.0054326823
 21
3.0054326823
 31
0.0
 40
0.9999238505
 41
8.6394178736
 42
10.210138048
  0
ENDSEC
  0
SECTION
  2
OBJECTS
  0
DICTIONARY
  5
C
100
AcDbDictionary
280
0
281
1
  3
ACAD_GROUP
350
D
  3
ACAD_MLINESTYLE
350
17
  3
ACAD_LAYOUT
350
1A
  3
ACAD_PLOTSETTINGS
350
19
  3
ACAD_PLOTSTYLENAME
350
E
  0
DICTIONARY
  5
D
102
{ACAD_REACTORS
330
C
102
}
100
AcDbDictionary
280
0
281
1
  0
ACDBDICTIONARYWDFLT
  5
E
102
{ACAD_REACTORS
330
C
102
}
100
AcDbDictionary
281
1
  3
Normal
350
F
100
AcDbDictionaryWithDefault
340
F
  0
DICTIONARY
  5
17
102
{ACAD_REACTORS
330
C
102
}
100
AcDbDictionary
280
0
281
1
  3
Standard
350
18
  0
DICTIONARY
  5
19
102
{ACAD_REACTORS
330
C
102
}
100
AcDbDictionary
281
1
  0
DICTIONARY
  5
1A
102
{ACAD_REACTORS
330
C
102
}
100
AcDbDictionary
281
1
  3
Model
350
565
  3
Layout1
350
566
  0
ACDBPLACEHOLDER
  5
F
102
{ACAD_REACTORS
330
E
102
}
  0
MLINESTYLE
  5
18
102
{ACAD_REACTORS
330
17
102
}
100
AcDbMlineStyle
  2
STANDARD
 70
0
  3

 62
256
 51
90.0
 52
90.0
 71
2
 49
0.5
 62
256
  6
BYLAYER
 49
-0.5
 62
256
  6
BYLAYER
  0
LAYOUT
  5
565
102
{ACAD_REACTORS
330
1A
102
}
100
AcDbPlotSettings
  1

  2
none_device
  4

  6

 40
0.0
 41
0.0
 42
0.0
 43
0.0
 44
210.0
 45
297.0
 46
0.0
 47
0.0
 48
0.0
 49
0.0
140
0.0
141
0.0
142
1.0
143
1.0
 70
1024
 72
1
 73
0
 74
0
  7

 75
0
147
1.0
148
0.0
149
0.0
100
AcDbLayout
  1
Model
 70
0
 71
0
 10
0.0
 20
0.0
 11
210.0
 21
297.0
 12
0.0
 22
0.0
 32
0.0
 14
0.0
 24
0.0
 34
0.0
 15
0.0
 25
0.0
 35
0.0
146
0.0
 13
0.0
 23
0.0
 33
0.0
 16
1.0
 26
0.0
 36
0.0
 17
0.0
 27
1.0
 37
0.0
 76
0
330
212
345
0
346
0
  0
LAYOUT
  5
566
102
{ACAD_REACTORS
330
1A
102
}
100
AcDbPlotSettings
  1

  2
none_device
  4

  6

 40
0.0
 41
0.0
 42
0.0
 43
0.0
 44
210.0
 45
297.0
 46
0.0
 47
0.0
 48
0.0
 49
0.0
140
0.0
141
0.0
142
1.0
143
1.0
 70
0
 72
1
 73
0
 74
0
  7

 75
0
147
1.0
148
0.0
149
0.0
100
AcDbLayout
  1
Layout1
 70
0
 71
1
 10
0.0
 20
0.0
 11
210.0
 21
297.0
 12
0.0
 22
0.0
 32
0.0
 14
0.0
 24
0.0
 34
0.0
 15
0.0
 25
0.0
 35
0.0
146
0.0
 13
0.0
 23
0.0
 33
0.0
 16
1.0
 26
0.0
 36
0.0
 17
0.0
 27
1.0
 37
0.0
 76
0
330
213
345
0
346
0
  0
ENDSEC
  0
EOF
