999
DXF file: C:\Users\sesa63760\Dev\_Creo\CAD\MCADPD0005307_3D-CAD\drw0001_1.dxf
999
Pro/ENGINEER 2019471 by Parametric Technology Corporation
  0
SECTION
  2
HEADER
  9
$ACADVER
  1
AC1024
  9
$DWGCODEPAGE
  3
ANSI_1252
  9
$EXTMAX
 10
128.9653048692
 20
182.393788315
 30
0.0
  9
$EXTMIN
 10
0.0
 20
0.0
 30
0.0
  9
$LIMMIN
 10
0.0
 20
0.0
  9
$LIMMAX
 10
128.9653048692
 20
182.393788315
  9
$VIEWCTR
 10
64.4826524346
 20
91.1968941575
  9
$VIEWSIZE
 40
182.393788315
  9
$CLAYER
  8
0
  9
$LTSCALE
 40
11.8893728679
  9
$CELTYPE
  6
BYLAYER
  9
$DIMSCALE
 40
1.0
  9
$DIMASZ
 40
1.5353012484
  9
$DIMEXO
 40
1.0
  9
$DIMDLI
 40
8.2144757997
  9
$DIMEXE
 40
1.0
  9
$DIMCEN
 40
1.945533742
  9
$DIMLFAC
 40
1.0
  9
$DIMBLK
  1
_FILLED
  9
$DIMALT
 70
0
  9
$DIMALTF
 40
0.0393700787
  9
$DIMTXT
 40
2.1494217478
  9
$DIMTOL
 70
1
  9
$DIMLIM
 70
0
  9
$DIMTFAC
 40
1.0
  9
$DIMTP
 40
0.01
  9
$DIMTM
 40
0.01
  9
$DIMGAP
 40
0.625
  9
$DIMDSEP
 70
46
  9
$AUNITS
 70
0
  9
$PDMODE
 70
3
  9
$PDSIZE
 40
0.3125
  9
$HANDSEED
  5
372
  9
$TILEMODE
 70
1
  9
$MEASUREMENT
 70
1
  9
$INSUNITS
 70
4
  0
ENDSEC
  0
SECTION
  2
CLASSES
  0
CLASS
  1
ACDBDICTIONARYWDFLT
  2
AcDbDictionaryWithDefault
  3
AutoCAD 2000
 90
0
 91
1
280
0
281
0
  0
CLASS
  1
ACDBPLACEHOLDER
  2
AcDbPlaceHolder
  3
AutoCAD 2000
 90
0
 91
1
280
0
281
0
  0
CLASS
  1
LAYOUT
  2
AcDbLayout
  3
AutoCAD 2000
 90
0
 91
0
280
0
281
0
  0
ENDSEC
  0
SECTION
  2
TABLES
  0
TABLE
  2
VPORT
  5
8
100
AcDbSymbolTable
 70
2
  0
VPORT
  5
1F4
100
AcDbSymbolTableRecord
100
AcDbViewportTableRecord
  2
*ACTIVE
 70
0
 10
0.0
 20
0.0
 11
1.0
 21
1.0
 12
64.4826524346
 22
91.1968941575
 13
0.0
 23
0.0
 14
1.0
 24
1.0
 15
0.0
 25
0.0
 16
0.0
 26
0.0
 36
1.0
 17
0.0
 27
0.0
 37
0.0
 40
182.393788315
 41
0.7070707071
 42
50.0
 43
0.0
 44
0.0
 50
0.0
 51
0.0
 71
0
 72
100
 73
1
 74
1
 75
0
 76
0
 77
0
 78
0
  0
ENDTAB
  0
TABLE
  2
LTYPE
  5
5
100
AcDbSymbolTable
 70
6
  0
LTYPE
  5
14
100
AcDbSymbolTableRecord
100
AcDbLinetypeTableRecord
  2
BYBLOCK
 70
0
  3

 72
65
 73
0
 40
0.0
  0
LTYPE
  5
15
100
AcDbSymbolTableRecord
100
AcDbLinetypeTableRecord
  2
BYLAYER
 70
0
  3

 72
65
 73
0
 40
0.0
  0
LTYPE
  5
16
100
AcDbSymbolTableRecord
100
AcDbLinetypeTableRecord
  2
CONTINUOUS
 70
64
  3
Solid line
 72
65
 73
0
 40
0.0
  0
LTYPE
  5
1F5
100
AcDbSymbolTableRecord
100
AcDbLinetypeTableRecord
  2
CENTER
 70
64
  3
____ _ ____ _ ____ _ ____ _ ____ _ ____ _ ____
 72
65
 73
4
 40
0.6
 49
0.375
 74
0
 49
-0.075
 74
0
 49
0.075
 74
0
 49
-0.075
 74
0
  0
LTYPE
  5
1F6
100
AcDbSymbolTableRecord
100
AcDbLinetypeTableRecord
  2
HIDDEN
 70
64
  3
- - - - - - - - - - - - - - - - - - - -
 72
65
 73
2
 40
0.2
 49
0.1
 74
0
 49
-0.1
 74
0
  0
LTYPE
  5
1F7
100
AcDbSymbolTableRecord
100
AcDbLinetypeTableRecord
  2
PHANTOM
 70
64
  3
_____ _ _ _____ _ _ _____ _ _ _____
 72
65
 73
6
 40
0.8
 49
0.45
 74
0
 49
-0.05
 74
0
 49
0.1
 74
0
 49
-0.05
 74
0
 49
0.1
 74
0
 49
-0.05
 74
0
  0
LTYPE
  5
1F8
100
AcDbSymbolTableRecord
100
AcDbLinetypeTableRecord
  2
DOT
 70
64
  3
. . . . . . . . . . . . . . . . . . . .
 72
65
 73
2
 40
0.2
 49
0.1
 74
0
 49
-0.1
 74
0
  0
LTYPE
  5
1F9
100
AcDbSymbolTableRecord
100
AcDbLinetypeTableRecord
  2
DASHED
 70
64
  3
- - - - - - - - - - - - - - - - - - - -
 72
65
 73
2
 40
0.2
 49
0.1
 74
0
 49
-0.1
 74
0
  0
ENDTAB
  0
TABLE
  2
LAYER
  5
2
100
AcDbSymbolTable
 70
36
  0
LAYER
  5
10
100
AcDbSymbolTableRecord
100
AcDbLayerTableRecord
  2
0
 70
0
 62
7
  6
CONTINUOUS
370
-3
390
F
  0
LAYER
  5
1FA
100
AcDbSymbolTableRecord
100
AcDbLayerTableRecord
  2
DEFAULT_1
 70
0
 62
7
  6
CENTER
370
-3
390
F
  0
LAYER
  5
1FB
100
AcDbSymbolTableRecord
100
AcDbLayerTableRecord
  2
DEFAULT_2
 70
0
 62
7
  6
HIDDEN
370
-3
390
F
  0
LAYER
  5
1FC
100
AcDbSymbolTableRecord
100
AcDbLayerTableRecord
  2
DEFAULT_3
 70
0
 62
7
  6
PHANTOM
370
-3
390
F
  0
LAYER
  5
1FD
100
AcDbSymbolTableRecord
100
AcDbLayerTableRecord
  2
00_COMPONENTS
 70
0
 62
7
  6
CONTINUOUS
370
-3
390
F
  0
LAYER
  5
1FE
100
AcDbSymbolTableRecord
100
AcDbLayerTableRecord
  2
01_1_DEFAULT_DATUMS
 70
0
 62
7
  6
CONTINUOUS
370
-3
390
F
  0
LAYER
  5
1FF
100
AcDbSymbolTableRecord
100
AcDbLayerTableRecord
  2
01_PLANES
 70
0
 62
7
  6
CONTINUOUS
370
-3
390
F
  0
LAYER
  5
200
100
AcDbSymbolTableRecord
100
AcDbLayerTableRecord
  2
02_COORD_SYS
 70
0
 62
7
  6
CONTINUOUS
370
-3
390
F
  0
LAYER
  5
201
100
AcDbSymbolTableRecord
100
AcDbLayerTableRecord
  2
03_AXES
 70
0
 62
7
  6
CONTINUOUS
370
-3
390
F
  0
LAYER
  5
202
100
AcDbSymbolTableRecord
100
AcDbLayerTableRecord
  2
04_POINTS
 70
0
 62
7
  6
CONTINUOUS
370
-3
390
F
  0
LAYER
  5
203
100
AcDbSymbolTableRecord
100
AcDbLayerTableRecord
  2
05_CURVES
 70
0
 62
7
  6
CONTINUOUS
370
-3
390
F
  0
LAYER
  5
204
100
AcDbSymbolTableRecord
100
AcDbLayerTableRecord
  2
06_SURFS
 70
0
 62
7
  6
CONTINUOUS
370
-3
390
F
  0
LAYER
  5
205
100
AcDbSymbolTableRecord
100
AcDbLayerTableRecord
  2
07_COSMETICS
 70
0
 62
7
  6
CONTINUOUS
370
-3
390
F
  0
LAYER
  5
206
100
AcDbSymbolTableRecord
100
AcDbLayerTableRecord
  2
10_NOTES
 70
0
 62
7
  6
CONTINUOUS
370
-3
390
F
  0
LAYER
  5
207
100
AcDbSymbolTableRecord
100
AcDbLayerTableRecord
  2
11_NOTES_PUB
 70
0
 62
7
  6
CONTINUOUS
370
-3
390
F
  0
LAYER
  5
208
100
AcDbSymbolTableRecord
100
AcDbLayerTableRecord
  2
13_REF_GTOL
 70
0
 62
7
  6
CONTINUOUS
370
-3
390
F
  0
LAYER
  5
209
100
AcDbSymbolTableRecord
100
AcDbLayerTableRecord
  2
16_MISC
 70
0
 62
7
  6
CONTINUOUS
370
-3
390
F
  0
LAYER
  5
20A
100
AcDbSymbolTableRecord
100
AcDbLayerTableRecord
  2
17_NO_PRINT
 70
0
 62
7
  6
CONTINUOUS
370
-3
390
F
  0
LAYER
  5
20B
100
AcDbSymbolTableRecord
100
AcDbLayerTableRecord
  2
18_DATUM_CAMS_JOINTS
 70
0
 62
7
  6
CONTINUOUS
370
-3
390
F
  0
LAYER
  5
20C
100
AcDbSymbolTableRecord
100
AcDbLayerTableRecord
  2
19_DATUM_FUNCTIONAL
 70
0
 62
7
  6
CONTINUOUS
370
-3
390
F
  0
LAYER
  5
20D
100
AcDbSymbolTableRecord
100
AcDbLayerTableRecord
  2
20_DATUM_KINEMATIC_SCHEME
 70
0
 62
7
  6
CONTINUOUS
370
-3
390
F
  0
ENDTAB
  0
TABLE
  2
STYLE
  5
3
100
AcDbSymbolTable
 70
1
  0
STYLE
  5
11
100
AcDbSymbolTableRecord
100
AcDbTextStyleTableRecord
  2
STANDARD
 70
0
 40
0.0
 41
1.0
 50
0.0
 71
0
 42
0.2
  3
ARIAL.TTF
  4

  0
STYLE
  5
20E
100
AcDbSymbolTableRecord
100
AcDbTextStyleTableRecord
  2
TEXTSTYLE_1
 70
0
 40
0.0
 41
0.8
 50
0.0
 71
0
 42
0.2
  3
gdt
  4

  0
ENDTAB
  0
TABLE
  2
VIEW
  5
6
100
AcDbSymbolTable
 70
0
  0
ENDTAB
  0
TABLE
  2
UCS
  5
7
100
AcDbSymbolTable
 70
0
  0
ENDTAB
  0
TABLE
  2
APPID
  5
9
100
AcDbSymbolTable
 70
1
  0
APPID
  5
20F
100
AcDbSymbolTableRecord
100
AcDbRegAppTableRecord
  2
ACAD
 70
0
  0
ENDTAB
  0
TABLE
  2
BLOCK_RECORD
  5
1
100
AcDbSymbolTable
 70
0
  0
BLOCK_RECORD
  5
210
100
AcDbSymbolTableRecord
100
AcDbBlockTableRecord
  2
*Model_Space
  0
BLOCK_RECORD
  5
211
100
AcDbSymbolTableRecord
100
AcDbBlockTableRecord
  2
*Paper_Space
  0
BLOCK_RECORD
  5
212
100
AcDbSymbolTableRecord
100
AcDbBlockTableRecord
  2
_FILLED
  0
ENDTAB
  0
TABLE
  2
DIMSTYLE
  5
A
100
AcDbSymbolTable
 70
1
100
AcDbDimStyleTable
 71
0
  0
DIMSTYLE
105
213
100
AcDbSymbolTableRecord
100
AcDbDimStyleTableRecord
  2
STANDARD
 70
0
  3

  4

 40
1.0
 41
1.5353012484
 42
1.0
 43
0.38
 44
1.0
 45
0.0
 46
0.0
 47
0.01
 48
0.01
140
2.1494217478
141
0.09
142
0.0
143
25.4
144
1.0
145
0.0
146
1.0
147
0.625
 71
1
 72
0
 73
0
 74
0
 75
0
 76
0
 77
1
 78
8
 79
2
170
0
171
1
172
0
173
0
174
0
175
0
176
0
177
0
178
0
270
2
179
2
271
2
272
2
273
2
274
2
275
0
280
0
281
0
282
0
283
1
284
8
285
0
286
0
287
3
288
0
340
11
278
46
341
212
342
212
343
212
344
212
  0
ENDTAB
  0
ENDSEC
  0
SECTION
  2
BLOCKS
  0
BLOCK
  5
20
100
AcDbEntity
  8
0
100
AcDbBlockBegin
  2
*Model_Space
 70
0
 10
0.0
 20
0.0
 30
0.0
  3
*Model_Space
  1

  0
ENDBLK
  5
21
100
AcDbEntity
  8
0
100
AcDbBlockEnd
  0
BLOCK
  5
1C
100
AcDbEntity
  8
0
100
AcDbBlockBegin
  2
*Paper_Space
 70
0
 10
0.0
 20
0.0
 30
0.0
  3
*Paper_Space
  1

  0
ENDBLK
  5
1D
100
AcDbEntity
  8
0
100
AcDbBlockEnd
  0
BLOCK
  5
214
100
AcDbEntity
  8
0
100
AcDbBlockBegin
  2
_FILLED
 70
64
 10
0.0
 20
0.0
  3
_FILLED
  1

  0
SOLID
  5
215
100
AcDbEntity
  8
0
  6
BYBLOCK
 62
0
100
AcDbTrace
 10
0.0
 20
0.0
 11
-1.0
 21
0.25
 12
-1.0
 22
-0.25
 13
-1.0
 23
-0.25
  0
ENDBLK
  5
216
100
AcDbEntity
  8
0
  6
BYBLOCK
 62
0
100
AcDbBlockEnd
  0
ENDSEC
  0
SECTION
  2
ENTITIES
  0
LINE
  5
217
100
AcDbEntity
  8
0
100
AcDbLine
 62
7
  6
BYLAYER
 10
49.9633666945
 20
30.0448931718
 11
42.1851597179
 21
34.5355414716
  0
LINE
  5
218
100
AcDbEntity
  8
0
100
AcDbLine
 62
7
  6
BYLAYER
 10
49.9633666945
 20
33.7191540489
 11
42.1851597179
 21
38.2098023486
  0
LINE
  5
219
100
AcDbEntity
  8
0
100
AcDbLine
 62
7
  6
BYLAYER
 10
56.3370903954
 20
149.5860091886
 11
53.8358293837
 21
148.1419140903
  0
LINE
  5
21A
100
AcDbEntity
  8
0
100
AcDbLine
 62
7
  6
BYLAYER
 10
58.0824484499
 20
149.9404954699
 11
56.8574560022
 21
149.2332499722
  0
LINE
  5
21B
100
AcDbEntity
  8
0
100
AcDbLine
 62
7
  6
BYLAYER
 10
54.4533029556
 20
147.845219849
 11
53.2283105079
 21
147.1379743513
  0
LINE
  5
21C
100
AcDbEntity
  8
0
100
AcDbLine
 62
7
  6
BYLAYER
 10
53.511154398
 20
146.9746780494
 11
54.5947260782
 21
147.6002747164
  0
LINE
  5
21D
100
AcDbEntity
  8
0
100
AcDbLine
 62
7
  6
BYLAYER
 10
57.2817206597
 20
149.1516025011
 11
58.3652923399
 21
149.7771991681
  0
LINE
  5
21E
100
AcDbEntity
  8
0
100
AcDbLine
 62
7
  6
BYLAYER
 10
51.8132408113
 20
144.6879835235
 11
52.181008503
 21
144.9003130318
  0
LINE
  5
21F
100
AcDbEntity
  8
0
100
AcDbLine
 62
7
  6
BYLAYER
 10
15.272127627
 20
57.037199326
 11
57.6280001633
 21
32.5835781302
  0
LINE
  5
220
100
AcDbEntity
  8
0
100
AcDbLine
 62
7
  6
BYLAYER
 10
14.9614591459
 20
57.7238785477
 11
57.3173316822
 21
33.2702573519
  0
LINE
  5
221
100
AcDbEntity
  8
0
100
AcDbLine
 62
7
  6
BYLAYER
 10
14.9614591459
 20
57.7238785477
 11
14.9614591459
 21
87.1179655644
  0
LINE
  5
222
100
AcDbEntity
  8
0
100
AcDbLine
 62
7
  6
BYLAYER
 10
70.7876597811
 20
30.2694765771
 11
62.5143330318
 21
35.045975944
  0
LINE
  5
223
100
AcDbEntity
  8
0
100
AcDbLine
 62
7
  6
BYLAYER
 10
51.7586469913
 20
44.5751143178
 11
48.9302080908
 21
46.2080773359
  0
LINE
  5
224
100
AcDbEntity
  8
0
100
AcDbLine
 62
7
  6
BYLAYER
 10
37.5536148643
 20
52.7762079066
 11
34.7251759638
 21
54.4091709247
  0
LINE
  5
225
100
AcDbEntity
  8
0
100
AcDbLine
 62
7
  6
BYLAYER
 10
23.3485827374
 20
60.9773014955
 11
20.5201438368
 21
62.6102645135
  0
LINE
  5
226
100
AcDbEntity
  8
0
100
AcDbLine
 62
7
  6
BYLAYER
 10
19.035213414
 20
64.4012683759
 11
19.035213414
 21
69.615833299
  0
LINE
  5
227
100
AcDbEntity
  8
0
100
AcDbLine
 62
7
  6
BYLAYER
 10
19.035213414
 20
69.615833299
 11
24.8335131602
 21
66.268259112
  0
LINE
  5
228
100
AcDbEntity
  8
0
100
AcDbLine
 62
7
  6
BYLAYER
 10
33.240245541
 20
61.4147397102
 11
39.0385452872
 21
58.0671655231
  0
LINE
  5
229
100
AcDbEntity
  8
0
100
AcDbLine
 62
7
  6
BYLAYER
 10
47.4452776679
 20
53.2136461213
 11
53.2435774141
 21
49.8660719343
  0
LINE
  5
22A
100
AcDbEntity
  8
0
100
AcDbLine
 62
7
  6
BYLAYER
 10
24.084500518
 20
105.8770476823
 11
24.084500518
 21
104.81559454
  0
LINE
  5
22B
100
AcDbEntity
  8
0
100
AcDbLine
 62
7
  6
BYLAYER
 10
24.3004384747
 20
109.387997538
 11
24.3004384747
 21
105.8770371443
  0
LINE
  5
22C
100
AcDbEntity
  8
0
100
AcDbLine
 62
7
  6
BYLAYER
 10
24.8335131602
 20
66.268259112
 11
24.8335131602
 21
61.0536941888
  0
LINE
  5
22D
100
AcDbEntity
  8
0
100
AcDbLine
 62
7
  6
BYLAYER
 10
25.179126963
 20
104.6523046827
 11
25.1791269649
 21
108.1632650753
  0
LINE
  5
22E
100
AcDbEntity
  8
0
100
AcDbLine
 62
7
  6
BYLAYER
 10
25.6430791618
 20
102.1966823486
 11
25.6430791618
 21
97.6303729293
  0
LINE
  5
22F
100
AcDbEntity
  8
0
100
AcDbLine
 62
7
  6
BYLAYER
 10
26.3105113552
 20
102.7743921129
 11
26.3105113552
 21
101.7129389706
  0
LINE
  5
230
100
AcDbEntity
  8
0
100
AcDbLine
 62
7
  6
BYLAYER
 10
27.3711665222
 20
101.1005832777
 11
27.3711665222
 21
95.2217324215
  0
LINE
  5
231
100
AcDbEntity
  8
0
100
AcDbLine
 62
7
  6
BYLAYER
 10
29.0772590545
 20
86.4799666687
 11
29.0772590545
 21
86.4079943221
  0
LINE
  5
232
100
AcDbEntity
  8
0
100
AcDbLine
 62
7
  6
BYLAYER
 10
43.7336218994
 20
121.663319209
 11
25.3862212628
 21
111.0705057431
  0
LINE
  5
233
100
AcDbEntity
  8
0
100
AcDbLine
 62
7
  6
BYLAYER
 10
43.6419495336
 20
121.2721960618
 11
25.8862190244
 21
111.0209814641
  0
LINE
  5
234
100
AcDbEntity
  8
0
100
AcDbLine
 62
7
  6
BYLAYER
 10
29.5930791618
 20
93.9389395816
 11
29.5930791618
 21
93.8744618106
  0
LINE
  5
235
100
AcDbEntity
  8
0
100
AcDbLine
 62
7
  6
BYLAYER
 10
31.1999922905
 20
43.4964513584
 11
31.1999922905
 21
47.1707122355
  0
LINE
  5
236
100
AcDbEntity
  8
0
100
AcDbLine
 62
7
  6
BYLAYER
 10
31.4810694944
 20
86.6013408441
 11
31.4810694944
 21
87.1025616402
  0
LINE
  5
237
100
AcDbEntity
  8
0
100
AcDbLine
 62
7
  6
BYLAYER
 10
33.240245541
 20
56.200174787
 11
33.240245541
 21
61.4147397102
  0
LINE
  5
238
100
AcDbEntity
  8
0
100
AcDbLine
 62
7
  6
BYLAYER
 10
82.4195179033
 20
40.3327528185
 11
81.6063276673
 21
40.802237799
  0
LINE
  5
239
100
AcDbEntity
  8
0
100
AcDbLine
 62
7
  6
BYLAYER
 10
39.0385452872
 20
58.0671655231
 11
39.0385452872
 21
52.8526006
  0
LINE
  5
23A
100
AcDbEntity
  8
0
100
AcDbLine
 62
7
  6
BYLAYER
 10
57.3173316822
 20
62.6643443686
 11
14.9614591459
 21
87.1179655644
  0
LINE
  5
23B
100
AcDbEntity
  8
0
100
AcDbLine
 62
7
  6
BYLAYER
 10
16.0221149017
 20
88.9550854209
 11
58.377987438
 21
64.5014642251
  0
LINE
  5
23C
100
AcDbEntity
  8
0
100
AcDbLine
 62
7
  6
BYLAYER
 10
41.4426506414
 20
41.9279826349
 11
41.4426506414
 21
41.0470068313
  0
LINE
  5
23D
100
AcDbEntity
  8
0
100
AcDbLine
 62
7
  6
BYLAYER
 10
42.1851597179
 20
38.2098023486
 11
42.1851597179
 21
34.5355414716
  0
LINE
  5
23E
100
AcDbEntity
  8
0
100
AcDbLine
 62
7
  6
BYLAYER
 10
42.9842046584
 20
110.2045917376
 11
42.9842046584
 21
116.9167605602
  0
LINE
  5
23F
100
AcDbEntity
  8
0
100
AcDbLine
 62
7
  6
BYLAYER
 10
43.2194535574
 20
78.3151515783
 11
43.2194535574
 21
78.243138474
  0
LWPOLYLINE
  5
240
100
AcDbEntity
  8
0
100
AcDbPolyline
 62
7
  6
BYLAYER
 90
6
 70
0
 10
46.5852333038
 20
134.587641199
 10
46.1384447068
 20
130.9302082967
 10
45.0076622952
 20
126.5145577337
 10
44.322961898
 20
124.1777575922
 10
43.1624489761
 20
119.2263912475
 10
42.9842073775
 20
116.920673506
  0
LINE
  5
241
100
AcDbEntity
  8
0
100
AcDbLine
 62
7
  6
BYLAYER
 10
16.0221149017
 20
88.9550854209
 11
27.1517629475
 21
95.38075236
  0
LINE
  5
242
100
AcDbEntity
  8
0
100
AcDbLine
 62
7
  6
BYLAYER
 10
98.0818678976
 20
46.0277009165
 11
94.1926972035
 21
48.2730638668
  0
LINE
  5
243
100
AcDbEntity
  8
0
100
AcDbLine
 62
7
  6
BYLAYER
 10
29.0772590545
 20
86.4799666687
 11
29.2099049849
 21
86.4033852375
  0
LINE
  5
244
100
AcDbEntity
  8
0
100
AcDbLine
 62
7
  6
BYLAYER
 10
43.2194535574
 20
78.3151515783
 11
43.352191414
 21
78.2385170747
  0
LINE
  5
245
100
AcDbEntity
  8
0
100
AcDbLine
 62
7
  6
BYLAYER
 10
57.3616480603
 20
70.1503364879
 11
57.4943859169
 21
70.0737019843
  0
LINE
  5
246
100
AcDbEntity
  8
0
100
AcDbLine
 62
7
  6
BYLAYER
 10
98.0818678976
 20
48.9131997164
 11
96.6916481914
 21
49.7158252802
  0
LINE
  5
247
100
AcDbEntity
  8
0
100
AcDbLine
 62
7
  6
BYLAYER
 10
45.6232639974
 20
78.4367079046
 11
45.6232639974
 21
78.9377465498
  0
LINE
  5
248
100
AcDbEntity
  8
0
100
AcDbLine
 62
7
  6
BYLAYER
 10
47.4452776679
 20
47.9990811982
 11
47.4452776679
 21
53.2136461213
  0
LINE
  5
249
100
AcDbEntity
  8
0
100
AcDbLine
 62
7
  6
BYLAYER
 10
49.9633666945
 20
33.7191540489
 11
49.9633666945
 21
30.0448931718
  0
LINE
  5
24A
100
AcDbEntity
  8
0
100
AcDbLine
 62
7
  6
BYLAYER
 10
46.5853031543
 20
134.5878197562
 11
46.9218318454
 21
148.1658069936
  0
LINE
  5
24B
100
AcDbEntity
  8
0
100
AcDbLine
 62
7
  6
BYLAYER
 10
47.3178147996
 20
133.5782428644
 11
47.6544640254
 21
147.1479813198
  0
LINE
  5
24C
100
AcDbEntity
  8
0
100
AcDbLine
 62
7
  6
BYLAYER
 10
51.8132408113
 20
144.6879835235
 11
51.8149643306
 21
144.7459696387
  0
LINE
  5
24D
100
AcDbEntity
  8
0
100
AcDbLine
 62
7
  6
BYLAYER
 10
99.1425236534
 20
50.2326777827
 11
98.3646895146
 21
50.6817503728
  0
LINE
  5
24E
100
AcDbEntity
  8
0
100
AcDbLine
 62
7
  6
BYLAYER
 10
61.3124333293
 20
75.6261762045
 11
27.3711665222
 21
95.2217324215
  0
LINE
  5
24F
100
AcDbEntity
  8
0
100
AcDbLine
 62
7
  6
BYLAYER
 10
52.5255163114
 20
150.7062585283
 11
52.5255163114
 21
150.2980073197
  0
LINE
  5
250
100
AcDbEntity
  8
0
100
AcDbLine
 62
7
  6
BYLAYER
 10
53.2435774141
 20
49.8660719343
 11
53.2435774141
 21
44.6515070111
  0
LINE
  5
251
100
AcDbEntity
  8
0
100
AcDbLine
 62
7
  6
BYLAYER
 10
53.7110170318
 20
34.8449982355
 11
53.7110170318
 21
32.2085871873
  0
LINE
  5
252
100
AcDbEntity
  8
0
100
AcDbLine
 62
7
  6
BYLAYER
 10
54.4533029556
 20
147.5186245259
 11
54.4533029556
 21
147.845219849
  0
LINE
  5
253
100
AcDbEntity
  8
0
100
AcDbLine
 62
7
  6
BYLAYER
 10
52.0960847013
 20
144.5246872216
 11
52.0978082206
 21
144.5826733369
  0
LINE
  5
254
100
AcDbEntity
  8
0
100
AcDbLine
 62
7
  6
BYLAYER
 10
30.2098708629
 20
86.368639149
 11
31.4810694944
 21
87.1025616402
  0
LINE
  5
255
100
AcDbEntity
  8
0
100
AcDbLine
 62
7
  6
BYLAYER
 10
70.7876597811
 20
71.6661491256
 11
67.1920754001
 21
73.7420137735
  0
LINE
  5
256
100
AcDbEntity
  8
0
100
AcDbLine
 62
7
  6
BYLAYER
 10
60.1103562172
 20
82.1990309045
 11
26.3105113552
 21
101.7129389706
  0
LINE
  5
257
100
AcDbEntity
  8
0
100
AcDbLine
 62
7
  6
BYLAYER
 10
70.7876597811
 20
76.2385626615
 11
70.7523042949
 21
76.2589746992
  0
LINE
  5
258
100
AcDbEntity
  8
0
100
AcDbLine
 62
7
  6
BYLAYER
 10
56.1305379123
 20
149.6577912483
 11
56.1305379123
 21
150.0660424569
  0
LINE
  5
259
100
AcDbEntity
  8
0
100
AcDbLine
 62
7
  6
BYLAYER
 10
57.2817206597
 20
148.9883061993
 11
57.2817206597
 21
149.1516025011
  0
LINE
  5
25A
100
AcDbEntity
  8
0
100
AcDbLine
 62
7
  6
BYLAYER
 10
57.3173316822
 20
62.6643443686
 11
57.3173316822
 21
33.2702573519
  0
LINE
  5
25B
100
AcDbEntity
  8
0
100
AcDbLine
 62
7
  6
BYLAYER
 10
57.3616480603
 20
70.1503364879
 11
57.3616480603
 21
70.0783233836
  0
LINE
  5
25C
100
AcDbEntity
  8
0
100
AcDbLine
 62
7
  6
BYLAYER
 10
59.7654585003
 20
70.2718928142
 11
59.7654585003
 21
70.7729314594
  0
LINE
  5
25D
100
AcDbEntity
  8
0
100
AcDbLine
 62
7
  6
BYLAYER
 10
60.1103562172
 20
82.1990309045
 11
60.1103562172
 21
83.2604840468
  0
LINE
  5
25E
100
AcDbEntity
  8
0
100
AcDbLine
 62
7
  6
BYLAYER
 10
60.1103562172
 20
83.2604840468
 11
26.3105113552
 21
102.7743921129
  0
LINE
  5
25F
100
AcDbEntity
  8
0
100
AcDbLine
 62
7
  6
BYLAYER
 10
63.363052121
 20
82.6073039386
 11
25.179126963
 21
104.6523046827
  0
LINE
  5
260
100
AcDbEntity
  8
0
100
AcDbLine
 62
7
  6
BYLAYER
 10
63.3630521189
 20
86.1182643334
 11
25.1791269649
 21
108.1632650753
  0
LINE
  5
261
100
AcDbEntity
  8
0
100
AcDbLine
 62
7
  6
BYLAYER
 10
61.3124333293
 20
75.6261762045
 11
61.3124333293
 21
81.6462114049
  0
LINE
  5
262
100
AcDbEntity
  8
0
100
AcDbLine
 62
7
  6
BYLAYER
 10
63.363052121
 20
82.6073039386
 11
63.3630521189
 21
86.1182643334
  0
LINE
  5
263
100
AcDbEntity
  8
0
100
AcDbLine
 62
7
  6
BYLAYER
 10
63.5343459688
 20
74.9101187508
 11
63.5343459688
 21
74.2789055936
  0
LINE
  5
264
100
AcDbEntity
  8
0
100
AcDbLine
 62
7
  6
BYLAYER
 10
24.5985625443
 20
60.8535160627
 11
24.8335131602
 21
61.0536941888
  0
LINE
  5
265
100
AcDbEntity
  8
0
100
AcDbLine
 62
7
  6
BYLAYER
 10
19.035213414
 20
64.4012683759
 11
23.5512236672
 21
67.0085725477
  0
LINE
  5
266
100
AcDbEntity
  8
0
100
AcDbLine
 62
7
  6
BYLAYER
 10
25.8862308003
 20
109.3880116473
 11
64.0701559582
 21
87.3430109033
  0
LINE
  5
267
100
AcDbEntity
  8
0
100
AcDbLine
 62
7
  6
BYLAYER
 10
67.4343459688
 20
74.9101190436
 11
67.4343459688
 21
74.2789055936
  0
LINE
  5
268
100
AcDbEntity
  8
0
100
AcDbLine
 62
7
  6
BYLAYER
 10
67.6056928081
 20
82.6073141366
 11
67.6056928099
 21
86.1182745314
  0
LINE
  5
269
100
AcDbEntity
  8
0
100
AcDbLine
 62
7
  6
BYLAYER
 10
69.6562933472
 20
81.6462237326
 11
69.6562933472
 21
75.6261962607
  0
LINE
  5
26A
100
AcDbEntity
  8
0
100
AcDbLine
 62
7
  6
BYLAYER
 10
70.7876597811
 20
76.2385626615
 11
70.7876597811
 21
71.6661491256
  0
LINE
  5
26B
100
AcDbEntity
  8
0
100
AcDbLine
 62
7
  6
BYLAYER
 10
70.7876597811
 20
39.8225548575
 11
70.7876597811
 21
30.2694765771
  0
LINE
  5
26C
100
AcDbEntity
  8
0
100
AcDbLine
 62
7
  6
BYLAYER
 10
70.8583792911
 20
83.2605098819
 11
70.8583792911
 21
82.1990567396
  0
LINE
  5
26D
100
AcDbEntity
  8
0
100
AcDbLine
 62
7
  6
BYLAYER
 10
44.3518716587
 20
78.2037122224
 11
45.6232639974
 21
78.9377465498
  0
LINE
  5
26E
100
AcDbEntity
  8
0
100
AcDbLine
 62
7
  6
BYLAYER
 10
24.8335131602
 20
65.1005745884
 11
20.5201438368
 21
62.6102645135
  0
LINE
  5
26F
100
AcDbEntity
  8
0
100
AcDbLine
 62
7
  6
BYLAYER
 10
66.8985830829
 20
87.343017702
 11
105.0821902925
 21
109.388202011
  0
LINE
  5
270
100
AcDbEntity
  8
0
100
AcDbLine
 62
7
  6
BYLAYER
 10
23.3485827374
 20
60.9773014955
 11
24.8335131602
 21
61.8346213573
  0
LINE
  5
271
100
AcDbEntity
  8
0
100
AcDbLine
 62
7
  6
BYLAYER
 10
105.7893000155
 20
108.1634588382
 11
67.6056928099
 21
86.1182745314
  0
LINE
  5
272
100
AcDbEntity
  8
0
100
AcDbLine
 62
7
  6
BYLAYER
 10
51.8785834625
 20
150.4303457525
 11
51.9003621625
 21
150.3459452533
  0
LINE
  5
273
100
AcDbEntity
  8
0
100
AcDbLine
 62
7
  6
BYLAYER
 10
74.1817581998
 20
36.5156862056
 11
74.1817581998
 21
32.2290485157
  0
LINE
  5
274
100
AcDbEntity
  8
0
100
AcDbLine
 62
7
  6
BYLAYER
 10
76.0908605451
 20
135.2298311389
 11
76.0908605451
 21
135.3530527607
  0
LINE
  5
275
100
AcDbEntity
  8
0
100
AcDbLine
 62
7
  6
BYLAYER
 10
75.6331149974
 20
130.994865065
 11
75.1653484707
 21
117.5008255229
  0
LINE
  5
276
100
AcDbEntity
  8
0
100
AcDbLine
 62
7
  6
BYLAYER
 10
105.7893000176
 20
104.6524984457
 11
67.6056928081
 21
82.6073141366
  0
LINE
  5
277
100
AcDbEntity
  8
0
100
AcDbLine
 62
7
  6
BYLAYER
 10
104.65794271
 20
102.7745804369
 11
70.8583792911
 21
83.2605098819
  0
LINE
  5
278
100
AcDbEntity
  8
0
100
AcDbLine
 62
7
  6
BYLAYER
 10
104.65794271
 20
101.7131272947
 11
70.8583792911
 21
82.1990567396
  0
LINE
  5
279
100
AcDbEntity
  8
0
100
AcDbLine
 62
7
  6
BYLAYER
 10
58.9366055549
 20
107.6223903568
 11
46.5864035875
 21
114.7526214798
  0
LINE
  5
27A
100
AcDbEntity
  8
0
100
AcDbLine
 62
7
  6
BYLAYER
 10
78.6364343591
 20
136.5807308099
 11
78.6364343591
 21
136.8227317146
  0
LINE
  5
27B
100
AcDbEntity
  8
0
100
AcDbLine
 62
7
  6
BYLAYER
 10
78.9929370684
 20
135.6756320116
 11
78.9929370684
 21
136.0470678223
  0
LINE
  5
27C
100
AcDbEntity
  8
0
100
AcDbLine
 62
7
  6
BYLAYER
 10
38.8035946713
 20
52.6524224739
 11
39.0385452872
 21
52.8526006
  0
LINE
  5
27D
100
AcDbEntity
  8
0
100
AcDbLine
 62
7
  6
BYLAYER
 10
33.240245541
 20
56.200174787
 11
37.7562557942
 21
58.8074789589
  0
LINE
  5
27E
100
AcDbEntity
  8
0
100
AcDbLine
 62
7
  6
BYLAYER
 10
58.4940661616
 20
70.038897132
 11
59.7654585003
 21
70.7729314594
  0
LINE
  5
27F
100
AcDbEntity
  8
0
100
AcDbLine
 62
7
  6
BYLAYER
 10
103.5972775335
 20
95.2219156465
 11
69.6562933472
 21
75.6261962607
  0
LINE
  5
280
100
AcDbEntity
  8
0
100
AcDbLine
 62
7
  6
BYLAYER
 10
102.536622072
 20
94.5687251703
 11
70.7876597811
 21
76.2385626615
  0
LINE
  5
281
100
AcDbEntity
  8
0
100
AcDbLine
 62
7
  6
BYLAYER
 10
51.9003621625
 20
150.3459452533
 11
53.0041227518
 21
148.2616340836
  0
LINE
  5
282
100
AcDbEntity
  8
0
100
AcDbLine
 62
7
  6
BYLAYER
 10
84.3830271156
 20
121.3721509937
 11
84.0465214941
 21
134.4084047664
  0
LINE
  5
283
100
AcDbEntity
  8
0
100
AcDbLine
 62
7
  6
BYLAYER
 10
82.4195179033
 20
40.3327528185
 11
82.4195179033
 21
41.2717305982
  0
LINE
  5
284
100
AcDbEntity
  8
0
100
AcDbLine
 62
7
  6
BYLAYER
 10
39.0385452872
 20
56.8994809995
 11
34.7251759638
 21
54.4091709247
  0
LINE
  5
285
100
AcDbEntity
  8
0
100
AcDbLine
 62
7
  6
BYLAYER
 10
37.5536148643
 20
52.7762079066
 11
39.0385452872
 21
53.6335277685
  0
LINE
  5
286
100
AcDbEntity
  8
0
100
AcDbLine
 62
7
  6
BYLAYER
 10
114.9462944151
 20
97.1609965348
 11
102.536622072
 21
89.9963116344
  0
LINE
  5
287
100
AcDbEntity
  8
0
100
AcDbLine
 62
7
  6
BYLAYER
 10
58.377987438
 20
64.5014642251
 11
70.7876597811
 21
71.6661491256
  0
LINE
  5
288
100
AcDbEntity
  8
0
100
AcDbLine
 62
7
  6
BYLAYER
 10
102.5012665858
 20
94.589137208
 11
102.536622072
 21
94.5687251703
  0
LWPOLYLINE
  5
289
100
AcDbEntity
  8
0
100
AcDbPolyline
 62
7
  6
BYLAYER
 90
3
 70
0
 10
87.9842042895
 20
116.9151928974
 10
87.9160521677
 20
117.8504960575
 10
86.5250029281
 20
121.5594186813
  0
LINE
  5
28A
100
AcDbEntity
  8
0
100
AcDbLine
 62
7
  6
BYLAYER
 10
87.9842046584
 20
110.2045917376
 11
87.9842046584
 21
116.9167550208
  0
LINE
  5
28B
100
AcDbEntity
  8
0
100
AcDbLine
 62
7
  6
BYLAYER
 10
90.9047639499
 20
46.3747860489
 11
90.9047639499
 21
45.231682665
  0
LINE
  5
28C
100
AcDbEntity
  8
0
100
AcDbLine
 62
7
  6
BYLAYER
 10
53.0086267983
 20
44.4513288851
 11
53.2435774141
 21
44.6515070111
  0
LINE
  5
28D
100
AcDbEntity
  8
0
100
AcDbLine
 62
7
  6
BYLAYER
 10
47.4452776679
 20
47.9990811982
 11
51.9612879212
 21
50.6063853701
  0
LINE
  5
28E
100
AcDbEntity
  8
0
100
AcDbLine
 62
7
  6
BYLAYER
 10
53.2435774141
 20
48.6983874107
 11
48.9302080908
 21
46.2080773359
  0
LINE
  5
28F
100
AcDbEntity
  8
0
100
AcDbLine
 62
7
  6
BYLAYER
 10
42.2056089746
 20
41.487498401
 11
41.4426506414
 21
41.0470068313
  0
LINE
  5
290
100
AcDbEntity
  8
0
100
AcDbLine
 62
7
  6
BYLAYER
 10
47.3178147996
 20
133.5782428644
 11
75.1653484707
 21
117.5008255229
  0
LINE
  5
291
100
AcDbEntity
  8
0
100
AcDbLine
 62
7
  6
BYLAYER
 10
114.9462944151
 20
97.1609965348
 11
105.7235917424
 21
102.4856059468
  0
LINE
  5
292
100
AcDbEntity
  8
0
100
AcDbLine
 62
7
  6
BYLAYER
 10
105.9509291215
 20
102.8616430052
 11
115.6962816899
 21
97.2352883617
  0
LWPOLYLINE
  5
293
100
AcDbEntity
  8
0
100
AcDbPolyline
 62
7
  6
BYLAYER
 90
4
 70
0
 10
85.3191848175
 20
117.7080226556
 10
85.2588086825
 20
117.7816613272
 10
84.7287945147
 20
118.9422362777
 10
84.3831118411
 20
121.3717659982
  0
LINE
  5
294
100
AcDbEntity
  8
0
100
AcDbLine
 62
7
  6
BYLAYER
 10
84.3652839766
 20
122.3409600892
 11
84.3820057294
 21
122.3132113048
  0
LINE
  5
295
100
AcDbEntity
  8
0
100
AcDbLine
 62
7
  6
BYLAYER
 10
98.0818678976
 20
48.9131997164
 11
98.0818678976
 21
46.0277009165
  0
LINE
  5
296
100
AcDbEntity
  8
0
100
AcDbLine
 62
7
  6
BYLAYER
 10
99.1425236534
 20
50.2326777827
 11
99.1425236534
 21
51.1308304415
  0
LINE
  5
297
100
AcDbEntity
  8
0
100
AcDbLine
 62
7
  6
BYLAYER
 10
102.536622072
 20
94.5687251703
 11
102.536622072
 21
89.9963116344
  0
LINE
  5
298
100
AcDbEntity
  8
0
100
AcDbLine
 62
7
  6
BYLAYER
 10
102.536622072
 20
58.1527173663
 11
102.536622072
 21
48.5996390859
  0
LINE
  5
299
100
AcDbEntity
  8
0
100
AcDbLine
 62
7
  6
BYLAYER
 10
51.7586469913
 20
44.5751143178
 11
53.2435774141
 21
45.4324341796
  0
LINE
  5
29A
100
AcDbEntity
  8
0
100
AcDbLine
 62
7
  6
BYLAYER
 10
42.1851597179
 20
38.2098023486
 11
45.0339928886
 21
39.8545671287
  0
LINE
  5
29B
100
AcDbEntity
  8
0
100
AcDbLine
 62
7
  6
BYLAYER
 10
84.3583834284
 20
122.326849338
 11
84.3820057294
 21
122.3132113048
  0
LINE
  5
29C
100
AcDbEntity
  8
0
100
AcDbLine
 62
7
  6
BYLAYER
 10
105.0821785166
 20
111.0211718278
 11
86.6009606472
 21
121.6910665544
  0
LINE
  5
29D
100
AcDbEntity
  8
0
100
AcDbLine
 62
7
  6
BYLAYER
 10
105.5821700331
 20
111.0706997124
 11
85.5722000533
 21
122.6231999142
  0
LINE
  5
29E
100
AcDbEntity
  8
0
100
AcDbLine
 62
7
  6
BYLAYER
 10
84.3580568134
 20
122.3395024306
 11
84.3820057294
 21
122.3132113048
  0
LINE
  5
29F
100
AcDbEntity
  8
0
100
AcDbLine
 62
7
  6
BYLAYER
 10
86.5249786983
 20
121.5594589812
 11
86.5256115343
 21
121.5584054758
  0
LINE
  5
2A0
100
AcDbEntity
  8
0
100
AcDbLine
 62
7
  6
BYLAYER
 10
103.5972775335
 20
95.2219156465
 11
103.5972775335
 21
101.1007556248
  0
LINE
  5
2A1
100
AcDbEntity
  8
0
100
AcDbLine
 62
7
  6
BYLAYER
 10
104.65794271
 20
101.7131272947
 11
104.65794271
 21
102.7745804369
  0
LINE
  5
2A2
100
AcDbEntity
  8
0
100
AcDbLine
 62
7
  6
BYLAYER
 10
105.3253301551
 20
102.1968465047
 11
105.3253301551
 21
97.6305360982
  0
LINE
  5
2A3
100
AcDbEntity
  8
0
100
AcDbLine
 62
7
  6
BYLAYER
 10
105.7893000176
 20
104.6524984457
 11
105.7893000155
 21
108.1634588382
  0
LINE
  5
2A4
100
AcDbEntity
  8
0
100
AcDbLine
 62
7
  6
BYLAYER
 10
106.6679708422
 20
109.3881811029
 11
106.6679708422
 21
105.8772207093
  0
LINE
  5
2A5
100
AcDbEntity
  8
0
100
AcDbLine
 62
7
  6
BYLAYER
 10
106.8839087989
 20
105.8772101713
 11
106.8839087989
 21
104.815757029
  0
LINE
  5
2A6
100
AcDbEntity
  8
0
100
AcDbLine
 62
7
  6
BYLAYER
 10
52.8121998652
 20
35.363918829
 11
49.9633666945
 21
33.7191540489
  0
LINE
  5
2A7
100
AcDbEntity
  8
0
100
AcDbLine
 62
7
  6
BYLAYER
 10
52.0960847013
 20
144.5246872216
 11
51.8132408113
 21
144.6879835235
  0
LINE
  5
2A8
100
AcDbEntity
  8
0
100
AcDbLine
 62
7
  6
BYLAYER
 10
75.6331149974
 20
130.994865065
 11
52.0978082206
 21
144.5826733369
  0
LINE
  5
2A9
100
AcDbEntity
  8
0
100
AcDbLine
 62
7
  6
BYLAYER
 10
51.8149643306
 20
144.7459696387
 11
47.6544640254
 21
147.1479813198
  0
LINE
  5
2AA
100
AcDbEntity
  8
0
100
AcDbLine
 62
7
  6
BYLAYER
 10
49.0677710158
 20
149.5400086057
 11
53.2283105079
 21
147.1379743513
  0
LINE
  5
2AB
100
AcDbEntity
  8
0
100
AcDbLine
 62
7
  6
BYLAYER
 10
53.511154398
 20
146.9746780494
 11
77.0465100622
 21
133.3868415192
  0
LINE
  5
2AC
100
AcDbEntity
  8
0
100
AcDbLine
 62
7
  6
BYLAYER
 10
54.9335840272
 20
34.1391648196
 11
53.7110081999
 21
33.4333145499
  0
LINE
  5
2AD
100
AcDbEntity
  8
0
100
AcDbLine
 62
7
  6
BYLAYER
 10
53.7110170318
 20
32.2085871873
 11
49.9633666945
 21
30.0448931718
  0
LINE
  5
2AE
100
AcDbEntity
  8
0
100
AcDbLine
 62
7
  6
BYLAYER
 10
114.9462944151
 20
65.3174022668
 11
102.536622072
 21
58.1527173663
  0
LINE
  5
2AF
100
AcDbEntity
  8
0
100
AcDbLine
 62
7
  6
BYLAYER
 10
58.377987438
 20
32.6578699571
 11
70.7876597811
 21
39.8225548575
  0
LINE
  5
2B0
100
AcDbEntity
  8
0
100
AcDbLine
 62
7
  6
BYLAYER
 10
75.9494397777
 20
135.2714039299
 11
54.5947260782
 21
147.6002747164
  0
LINE
  5
2B1
100
AcDbEntity
  8
0
100
AcDbLine
 62
7
  6
BYLAYER
 10
54.4533029556
 20
147.845219849
 11
76.0908605451
 21
135.3530527607
  0
LINE
  5
2B2
100
AcDbEntity
  8
0
100
AcDbLine
 62
7
  6
BYLAYER
 10
78.4950135916
 20
136.7410828838
 11
56.8574560022
 21
149.2332499722
  0
LINE
  5
2B3
100
AcDbEntity
  8
0
100
AcDbLine
 62
7
  6
BYLAYER
 10
57.2817206597
 20
149.1516025011
 11
78.6364343591
 21
136.8227317146
  0
LINE
  5
2B4
100
AcDbEntity
  8
0
100
AcDbLine
 62
7
  6
BYLAYER
 10
81.9006378643
 20
136.1893684919
 11
58.3652923399
 21
149.7771991681
  0
LINE
  5
2B5
100
AcDbEntity
  8
0
100
AcDbLine
 62
7
  6
BYLAYER
 10
58.0824484499
 20
149.9404954699
 11
53.9218997294
 21
152.3425350523
  0
LINE
  5
2B6
100
AcDbEntity
  8
0
100
AcDbLine
 62
7
  6
BYLAYER
 10
82.9006228618
 20
136.2884231249
 11
59.3652753729
 21
149.8762549372
  0
LINE
  5
2B7
100
AcDbEntity
  8
0
100
AcDbLine
 62
7
  6
BYLAYER
 10
59.0824314828
 20
150.039551239
 11
54.9219313242
 21
152.4415627848
  0
LINE
  5
2B8
100
AcDbEntity
  8
0
100
AcDbLine
 62
7
  6
BYLAYER
 10
116.006950171
 20
67.1545221233
 11
116.006950171
 21
96.5486091399
  0
LINE
  5
2B9
100
AcDbEntity
  8
0
100
AcDbLine
 62
7
  6
BYLAYER
 10
98.0818678976
 20
48.9131997164
 11
99.1425236534
 21
50.2326777827
  0
LINE
  5
2BA
100
AcDbEntity
  8
0
100
AcDbLine
 62
7
  6
BYLAYER
 10
99.1425236534
 20
51.1308304415
 11
90.9047639499
 21
46.3747860489
  0
LINE
  5
2BB
100
AcDbEntity
  8
0
100
AcDbLine
 62
7
  6
BYLAYER
 10
82.4195179033
 20
41.2717305982
 11
74.1817581998
 21
36.5156862056
  0
LINE
  5
2BC
100
AcDbEntity
  8
0
100
AcDbLine
 62
7
  6
BYLAYER
 10
90.9047639499
 20
45.231682665
 11
82.4195179033
 21
40.3327528185
  0
LINE
  5
2BD
100
AcDbEntity
  8
0
100
AcDbLine
 62
7
  6
BYLAYER
 10
102.536622072
 20
48.5996390859
 11
98.0818678976
 21
46.0277009165
  0
LINE
  5
2BE
100
AcDbEntity
  8
0
100
AcDbLine
 62
7
  6
BYLAYER
 10
74.1817581998
 20
32.2290485157
 11
70.7876597811
 21
30.2694765771
  0
LINE
  5
2BF
100
AcDbEntity
  8
0
100
AcDbLine
 62
7
  6
BYLAYER
 10
52.5255163113
 20
150.2980073197
 11
56.1305379123
 21
149.6577912483
  0
LINE
  5
2C0
100
AcDbEntity
  8
0
100
AcDbLine
 62
7
  6
BYLAYER
 10
56.1305379123
 20
150.0660424569
 11
52.5255163113
 21
150.7062585283
  0
ARC
  5
2C1
100
AcDbEntity
  8
0
100
AcDbCircle
 62
7
  6
BYLAYER
 10
70.7047331858
 20
150.5615313992
 40
21.3794098101
100
AcDbArc
 50
299.4836651564
 51
299.9991811363
  0
ARC
  5
2C2
100
AcDbEntity
  8
0
100
AcDbCircle
 62
7
  6
BYLAYER
 10
57.2570256894
 20
67.9122312259
 40
2.9909836621
100
AcDbArc
 50
119.9979725076
 51
120.9392469856
  0
ARC
  5
2C3
100
AcDbEntity
  8
0
100
AcDbCircle
 62
7
  6
BYLAYER
 10
43.1148311863
 20
76.0770463166
 40
2.9909836617
100
AcDbArc
 50
119.9979725075
 51
120.9392469857
  0
ARC
  5
2C4
100
AcDbEntity
  8
0
100
AcDbCircle
 62
7
  6
BYLAYER
 10
28.9726362081
 20
84.2418622199
 40
2.9909827202
100
AcDbArc
 50
119.9979724085
 51
120.939271573
  0
ARC
  5
2C5
100
AcDbEntity
  8
0
100
AcDbCircle
 62
7
  6
BYLAYER
 10
57.1938569686
 20
68.0167071656
 40
2.8688964705
100
AcDbArc
 50
120.9299297576
 51
123.1898248132
  0
ARC
  5
2C6
100
AcDbEntity
  8
0
100
AcDbCircle
 62
7
  6
BYLAYER
 10
43.0516624656
 20
76.181522256
 40
2.8688964705
100
AcDbArc
 50
120.9299297576
 51
123.1898248132
  0
ARC
  5
2C7
100
AcDbEntity
  8
0
100
AcDbCircle
 62
7
  6
BYLAYER
 10
28.9094674535
 20
84.3463381475
 40
2.8688955213
100
AcDbArc
 50
120.9299546856
 51
123.1898250609
  0
ARC
  5
2C8
100
AcDbEntity
  8
0
100
AcDbCircle
 62
7
  6
BYLAYER
 10
77.7201488735
 20
136.6953932339
 40
1.5499333131
100
AcDbArc
 50
299.9960760572
 51
301.3503382563
  0
ARC
  5
2C9
100
AcDbEntity
  8
0
100
AcDbCircle
 62
7
  6
BYLAYER
 10
52.2479954246
 20
149.83969107
 40
0.4462575649
100
AcDbArc
 50
119.9862982584
 51
122.598186008
  0
ARC
  5
2CA
100
AcDbEntity
  8
0
100
AcDbCircle
 62
7
  6
BYLAYER
 10
52.2245073558
 20
149.875768759
 40
0.4032093083
100
AcDbArc
 50
122.5482611058
 51
128.0096249411
  0
SPLINE
  5
2CB
100
AcDbEntity
  8
0
100
AcDbSpline
 62
7
  6
BYLAYER
 70
0
 71
3
 72
11
 73
7
 74
0
 42
0.0000001
 43
0.0000001
 44
0.0000000001
 40
0.0
 40
0.0
 40
0.0
 40
0.0
 40
0.2372542275
 40
0.5000017852
 40
0.7627483734
 40
1.0
 40
1.0
 40
1.0
 40
1.0
 10
116.006950171
 20
67.1545221233
 30
0.0
 10
116.006950171
 20
66.9806332054
 30
0.0
 10
115.9417543092
 20
66.6139235047
 30
0.0
 10
115.7143477247
 20
66.098708182
 30
0.0
 10
115.3818648506
 20
65.644160533
 30
0.0
 10
115.0968852093
 20
65.4043453833
 30
0.0
 10
114.9462944151
 20
65.3174022668
 30
0.0
  0
SPLINE
  5
2CC
100
AcDbEntity
  8
0
100
AcDbSpline
 62
7
  6
BYLAYER
 70
0
 71
3
 72
11
 73
7
 74
0
 42
0.0000001
 43
0.0000001
 44
0.0000000001
 40
0.0
 40
0.0
 40
0.0
 40
0.0
 40
0.2895396729
 40
0.5491163863
 40
0.7822545095
 40
1.0
 40
1.0
 40
1.0
 40
1.0
 10
58.377987438
 20
32.6578699571
 30
0.0
 10
58.3122084852
 20
32.6198926876
 30
0.0
 10
58.1812437738
 20
32.5576722562
 30
0.0
 10
57.9800301617
 20
32.5089675144
 30
0.0
 10
57.7911353354
 20
32.5137110286
 30
0.0
 10
57.677510743
 20
32.5550907166
 30
0.0
 10
57.6280421279
 20
32.5836508153
 30
0.0
  0
SPLINE
  5
2CD
100
AcDbEntity
  8
0
100
AcDbSpline
 62
7
  6
BYLAYER
 70
0
 71
3
 72
15
 73
11
 74
0
 42
0.0000001
 43
0.0000001
 44
0.0000000001
 40
0.0
 40
0.0
 40
0.0
 40
0.0
 40
0.1141469224
 40
0.2373360366
 40
0.366976904
 40
0.5000005214
 40
0.6330240662
 40
0.7626647219
 40
0.8858535023
 40
1.0
 40
1.0
 40
1.0
 40
1.0
 10
61.3124333293
 20
75.6261762045
 30
0.0
 10
61.5980160831
 20
75.4612986548
 30
0.0
 10
62.222575211
 20
75.1705111931
 30
0.0
 10
63.2395544783
 20
74.8613510339
 30
0.0
 10
64.340646333
 20
74.6711679682
 30
0.0
 10
65.4843703739
 20
74.6069258278
 30
0.0
 10
66.6280935005
 20
74.6711733965
 30
0.0
 10
67.729182654
 20
74.8613616904
 30
0.0
 10
68.7461575431
 20
75.170526684
 30
0.0
 10
69.3707128449
 20
75.461317265
 30
0.0
 10
69.6562933472
 20
75.6261962607
 30
0.0
  0
SPLINE
  5
2CE
100
AcDbEntity
  8
0
100
AcDbSpline
 62
7
  6
BYLAYER
 70
0
 71
3
 72
15
 73
11
 74
0
 42
0.0000001
 43
0.0000001
 44
0.0000000001
 40
0.0
 40
0.0
 40
0.0
 40
0.0
 40
0.1141405141
 40
0.2373476232
 40
0.3669842077
 40
0.5000101334
 40
0.6330272782
 40
0.76267533
 40
0.8858453194
 40
1.0
 40
1.0
 40
1.0
 40
1.0
 10
40.9123463152
 20
78.8715566308
 30
0.0
 10
41.1180521089
 20
78.7527950214
 30
0.0
 10
41.5679811535
 20
78.5433440951
 30
0.0
 10
42.3005572782
 20
78.3206006785
 30
0.0
 10
43.0937615331
 20
78.1836363927
 30
0.0
 10
43.9176132498
 20
78.1373486553
 30
0.0
 10
44.7414967865
 20
78.1836057981
 30
0.0
 10
45.5346093933
 20
78.3206638121
 30
0.0
 10
46.267180615
 20
78.543342653
 30
0.0
 10
46.7170348902
 20
78.7528453863
 30
0.0
 10
46.9227642184
 20
78.8716251939
 30
0.0
  0
SPLINE
  5
2CF
100
AcDbEntity
  8
0
100
AcDbSpline
 62
7
  6
BYLAYER
 70
0
 71
3
 72
15
 73
11
 74
0
 42
0.0000001
 43
0.0000001
 44
0.0000000001
 40
0.0
 40
0.0
 40
0.0
 40
0.0
 40
0.1141407728
 40
0.2373484858
 40
0.3669861008
 40
0.5000130319
 40
0.6330308313
 40
0.7626789854
 40
0.885848716
 40
1.0
 40
1.0
 40
1.0
 40
1.0
 10
26.7701518123
 20
87.0363717212
 30
0.0
 10
26.9758581153
 20
86.9176098178
 30
0.0
 10
27.4257887982
 20
86.7081578429
 30
0.0
 10
28.1583692044
 20
86.4854142528
 30
0.0
 10
28.9515792004
 20
86.3484498758
 30
0.0
 10
29.7754368468
 20
86.3021636281
 30
0.0
 10
30.5993240531
 20
86.3484233222
 30
0.0
 10
31.3924376365
 20
86.4854836248
 30
0.0
 10
32.1250002534
 20
86.7081654336
 30
0.0
 10
32.5748482815
 20
86.9176632046
 30
0.0
 10
32.7805718219
 20
87.0364389998
 30
0.0
  0
SPLINE
  5
2D0
100
AcDbEntity
  8
0
100
AcDbSpline
 62
7
  6
BYLAYER
 70
0
 71
3
 72
15
 73
11
 74
0
 42
0.0000001
 43
0.0000001
 44
0.0000000001
 40
0.0
 40
0.0
 40
0.0
 40
0.0
 40
0.1141405141
 40
0.2373476232
 40
0.3669842077
 40
0.5000101334
 40
0.6330272782
 40
0.76267533
 40
0.8858453194
 40
1.0
 40
1.0
 40
1.0
 40
1.0
 10
55.0545408182
 20
70.7067415404
 30
0.0
 10
55.2602466118
 20
70.587979931
 30
0.0
 10
55.7101756564
 20
70.3785290047
 30
0.0
 10
56.4427517811
 20
70.1557855881
 30
0.0
 10
57.2359560361
 20
70.0188213023
 30
0.0
 10
58.0598077528
 20
69.9725335649
 30
0.0
 10
58.8836912894
 20
70.0187907077
 30
0.0
 10
59.6768038962
 20
70.1558487217
 30
0.0
 10
60.4093751179
 20
70.3785275626
 30
0.0
 10
60.8592293931
 20
70.5880302959
 30
0.0
 10
61.0649587214
 20
70.7068101035
 30
0.0
  0
SPLINE
  5
2D1
100
AcDbEntity
  8
0
100
AcDbSpline
 62
7
  6
BYLAYER
 70
0
 71
3
 72
11
 73
7
 74
0
 42
0.0000001
 43
0.0000001
 44
0.0000000001
 40
0.0
 40
0.0
 40
0.0
 40
0.0
 40
0.2372518718
 40
0.4999985497
 40
0.7627460178
 40
1.0
 40
1.0
 40
1.0
 40
1.0
 10
16.0221149017
 20
88.9550854209
 30
0.0
 10
15.8715239519
 20
88.8681422144
 30
0.0
 10
15.5865441515
 20
88.6283268498
 30
0.0
 10
15.2540612846
 20
88.1737789729
 30
0.0
 10
15.0266549011
 20
87.658563758
 30
0.0
 10
14.9614591459
 20
87.2918543025
 30
0.0
 10
14.9614591459
 20
87.1179655644
 30
0.0
  0
SPLINE
  5
2D2
100
AcDbEntity
  8
0
100
AcDbSpline
 62
7
  6
BYLAYER
 70
0
 71
3
 72
11
 73
7
 74
0
 42
0.0000001
 43
0.0000001
 44
0.0000000001
 40
0.0
 40
0.0
 40
0.0
 40
0.0
 40
0.2895411595
 40
0.5491183966
 40
0.7822559144
 40
1.0
 40
1.0
 40
1.0
 40
1.0
 10
14.9614591459
 20
57.7238785477
 30
0.0
 10
14.9614591459
 20
57.6479202698
 30
0.0
 10
14.9730572081
 20
57.5033849914
 30
0.0
 10
15.0314868703
 20
57.3047682465
 30
0.0
 10
15.1300467172
 20
57.1435465411
 30
0.0
 10
15.2226993196
 20
57.0658330311
 30
0.0
 10
15.2721695905
 20
57.0372720117
 30
0.0
  0
SPLINE
  5
2D3
100
AcDbEntity
  8
0
100
AcDbSpline
 62
7
  6
BYLAYER
 70
0
 71
3
 72
9
 73
5
 74
0
 42
0.0000001
 43
0.0000001
 44
0.0000000001
 40
0.0
 40
0.0
 40
0.0
 40
0.0
 40
0.2467887033
 40
1.0
 40
1.0
 40
1.0
 40
1.0
 10
59.3652251195
 20
149.8761676918
 30
0.0
 10
59.3464189575
 20
149.8870208025
 30
0.0
 10
59.2681196629
 20
149.9273187968
 30
0.0
 10
59.1819675019
 20
149.951878508
 30
0.0
 10
59.1163973636
 20
149.9614819205
 30
0.0
  0
SPLINE
  5
2D4
100
AcDbEntity
  8
0
100
AcDbSpline
 62
7
  6
BYLAYER
 70
0
 71
3
 72
9
 73
5
 74
0
 42
0.0000001
 43
0.0000001
 44
0.0000000001
 40
0.0
 40
0.0
 40
0.0
 40
0.0
 40
0.4605348695
 40
1.0
 40
1.0
 40
1.0
 40
1.0
 10
59.1163973636
 20
149.9614819205
 30
0.0
 10
58.9973080389
 20
149.9789237613
 30
0.0
 10
58.7293345727
 20
149.9549731062
 30
0.0
 10
58.487391774
 20
149.8476928885
 30
0.0
 10
58.3652923399
 20
149.7771991681
 30
0.0
  0
SPLINE
  5
2D5
100
AcDbEntity
  8
0
100
AcDbSpline
 62
7
  6
BYLAYER
 70
0
 71
3
 72
15
 73
11
 74
0
 42
0.0000001
 43
0.0000001
 44
0.0000000001
 40
0.0
 40
0.0
 40
0.0
 40
0.0
 40
0.1141469224
 40
0.2373360366
 40
0.366976904
 40
0.5000005214
 40
0.6330240662
 40
0.7626647219
 40
0.8858535023
 40
1.0
 40
1.0
 40
1.0
 40
1.0
 10
32.9573692673
 20
41.0469864352
 30
0.0
 10
33.2477924067
 20
40.8793143507
 30
0.0
 10
33.8829372826
 20
40.583598288
 30
0.0
 10
34.9171534867
 20
40.2691981261
 30
0.0
 10
36.0369079151
 20
40.0757916186
 30
0.0
 10
37.2000171093
 20
40.0104606284
 30
0.0
 10
38.3631253736
 20
40.0757971389
 30
0.0
 10
39.4828770551
 20
40.2692089632
 30
0.0
 10
40.5170888067
 20
40.5836140414
 30
0.0
 10
41.1522297916
 20
40.8793332764
 30
0.0
 10
41.4426506414
 20
41.0470068313
 30
0.0
  0
SPLINE
  5
2D6
100
AcDbEntity
  8
0
100
AcDbSpline
 62
7
  6
BYLAYER
 70
0
 71
3
 72
11
 73
7
 74
0
 42
0.0000001
 43
0.0000001
 44
0.0000000001
 40
0.0
 40
0.0
 40
0.0
 40
0.0
 40
0.2502561334
 40
0.5004121986
 40
0.7502821874
 40
1.0
 40
1.0
 40
1.0
 40
1.0
 10
46.9220848049
 20
148.1656796225
 30
0.0
 10
46.9262083325
 20
148.3296140934
 30
0.0
 10
46.9720651195
 20
148.6576799359
 30
0.0
 10
47.1494133824
 20
149.1205208339
 30
0.0
 10
47.4242389095
 20
149.5324194564
 30
0.0
 10
47.6625017846
 20
149.7611250934
 30
0.0
 10
47.7916428711
 20
149.8616165202
 30
0.0
  0
SPLINE
  5
2D7
100
AcDbEntity
  8
0
100
AcDbSpline
 62
7
  6
BYLAYER
 70
0
 71
3
 72
11
 73
7
 74
0
 42
0.0000001
 43
0.0000001
 44
0.0000000001
 40
0.0
 40
0.0
 40
0.0
 40
0.0
 40
0.2496601748
 40
0.4994736406
 40
0.7496348686
 40
1.0
 40
1.0
 40
1.0
 40
1.0
 10
82.9006257608
 20
136.2884289132
 30
0.0
 10
83.0659260336
 20
136.1929807585
 30
0.0
 10
83.3757704335
 20
135.9624393686
 30
0.0
 10
83.7409411122
 20
135.5128831455
 30
0.0
 10
83.9796369091
 20
134.9842274685
 30
0.0
 10
84.0411068045
 20
134.6011305472
 30
0.0
 10
84.0462303387
 20
134.4097818391
 30
0.0
  0
SPLINE
  5
2D8
100
AcDbEntity
  8
0
100
AcDbSpline
 62
7
  6
BYLAYER
 70
0
 71
3
 72
9
 73
5
 74
0
 42
0.0000001
 43
0.0000001
 44
0.0000000001
 40
0.0
 40
0.0
 40
0.0
 40
0.0
 40
0.2446796677
 40
1.0
 40
1.0
 40
1.0
 40
1.0
 10
86.5256115343
 20
121.5584054758
 30
0.0
 10
86.3879075645
 20
121.7878609296
 30
0.0
 10
85.7922103105
 20
122.7057725273
 30
0.0
 10
85.0731169176
 20
123.54131425
 30
0.0
 10
84.4840988197
 20
124.1205210254
 30
0.0
  0
SPLINE
  5
2D9
100
AcDbEntity
  8
0
100
AcDbSpline
 62
7
  6
BYLAYER
 70
0
 71
3
 72
11
 73
7
 74
0
 42
0.0000001
 43
0.0000001
 44
0.0000000001
 40
0.0
 40
0.0
 40
0.0
 40
0.0
 40
0.2496802414
 40
0.5005670233
 40
0.7509624877
 40
1.0
 40
1.0
 40
1.0
 40
1.0
 10
52.482774764
 20
152.5755864263
 30
0.0
 10
52.6758599476
 20
152.6582977141
 30
0.0
 10
53.0846693762
 20
152.7770172369
 30
0.0
 10
53.7203067221
 20
152.8133049004
 30
0.0
 10
54.3482460275
 20
152.7104018052
 30
0.0
 10
54.7404469602
 20
152.5463337444
 30
0.0
 10
54.9218999777
 20
152.4415913164
 30
0.0
  0
SPLINE
  5
2DA
100
AcDbEntity
  8
0
100
AcDbSpline
 62
7
  6
BYLAYER
 70
0
 71
3
 72
9
 73
5
 74
0
 42
0.0000001
 43
0.0000001
 44
0.0000000001
 40
0.0
 40
0.0
 40
0.0
 40
0.0
 40
0.514496935
 40
1.0
 40
1.0
 40
1.0
 40
1.0
 10
52.482792812
 20
152.5756014796
 30
0.0
 10
51.6266431493
 20
152.2089099068
 30
0.0
 10
49.9994318558
 20
151.4054329263
 30
0.0
 10
48.4851846543
 20
150.4013831248
 30
0.0
 10
47.7915947493
 20
149.8615924126
 30
0.0
  0
SPLINE
  5
2DB
100
AcDbEntity
  8
0
100
AcDbSpline
 62
7
  6
BYLAYER
 70
0
 71
3
 72
11
 73
7
 74
0
 42
0.0000001
 43
0.0000001
 44
0.0000000001
 40
0.0
 40
0.0
 40
0.0
 40
0.0
 40
0.2550463361
 40
0.5043102758
 40
0.7520369707
 40
1.0
 40
1.0
 40
1.0
 40
1.0
 10
105.5821700331
 20
111.0706997124
 30
0.0
 10
105.7363038509
 20
110.9817125243
 30
0.0
 10
106.0259551403
 20
110.7768669156
 30
0.0
 10
106.3789320305
 20
110.3813961558
 30
0.0
 10
106.6127773663
 20
109.9094019612
 30
0.0
 10
106.6679708422
 20
109.561215599
 30
0.0
 10
106.6679708422
 20
109.3881811029
 30
0.0
  0
SPLINE
  5
2DC
100
AcDbEntity
  8
0
100
AcDbSpline
 62
7
  6
BYLAYER
 70
0
 71
3
 72
11
 73
7
 74
0
 42
0.0000001
 43
0.0000001
 44
0.0000000001
 40
0.0
 40
0.0
 40
0.0
 40
0.0
 40
0.2479491859
 40
0.4956850196
 40
0.7449575083
 40
1.0
 40
1.0
 40
1.0
 40
1.0
 10
24.3004384747
 20
109.387997538
 30
0.0
 10
24.3004384747
 20
109.5610205928
 30
0.0
 10
24.3556361212
 20
109.9091972578
 30
0.0
 10
24.5894587336
 20
110.3812000624
 30
0.0
 10
24.9424451906
 20
110.7766700531
 30
0.0
 10
25.2320919965
 20
110.9815197009
 30
0.0
 10
25.3862212628
 20
111.0705057431
 30
0.0
  0
SPLINE
  5
2DD
100
AcDbEntity
  8
0
100
AcDbSpline
 62
7
  6
BYLAYER
 70
0
 71
3
 72
12
 73
8
 74
0
 42
0.0000001
 43
0.0000001
 44
0.0000000001
 40
0.0
 40
0.0
 40
0.0
 40
0.0
 40
0.108160086
 40
0.2183661675
 40
0.4513442184
 40
0.7104418196
 40
1.0
 40
1.0
 40
1.0
 40
1.0
 10
24.084556384
 20
104.81559454
 30
0.0
 10
24.0845563858
 20
104.6717196325
 30
0.0
 10
24.109505517
 20
104.3806356033
 30
0.0
 10
24.2608563474
 20
103.7971704034
 30
0.0
 10
24.6488335958
 20
103.0815600228
 30
0.0
 10
25.3718630445
 20
102.3223292791
 30
0.0
 10
25.9769413741
 20
101.9055213322
 30
0.0
 10
26.3105113552
 20
101.7129389706
 30
0.0
  0
SPLINE
  5
2DE
100
AcDbEntity
  8
0
100
AcDbSpline
 62
7
  6
BYLAYER
 70
0
 71
3
 72
9
 73
5
 74
0
 42
0.0000001
 43
0.0000001
 44
0.0000000001
 40
0.0
 40
0.0
 40
0.0
 40
0.0
 40
0.2479287466
 40
1.0
 40
1.0
 40
1.0
 40
1.0
 10
24.084556384
 20
105.8770476823
 30
0.0
 10
24.0845563831
 20
105.9422513102
 30
0.0
 10
24.0946210545
 20
106.205184613
 30
0.0
 10
24.1460406015
 20
106.466242456
 30
0.0
 10
24.2049932435
 20
106.6550423135
 30
0.0
  0
SPLINE
  5
2DF
100
AcDbEntity
  8
0
100
AcDbSpline
 62
7
  6
BYLAYER
 70
0
 71
3
 72
17
 73
13
 74
0
 42
0.0000001
 43
0.0000001
 44
0.0000000001
 40
0.0
 40
0.0
 40
0.0
 40
0.0
 40
0.0428602147
 40
0.0874876839
 40
0.1353118989
 40
0.1872716973
 40
0.3045196919
 40
0.4381766023
 40
0.5825182578
 40
0.7296726182
 40
0.8713106955
 40
1.0
 40
1.0
 40
1.0
 40
1.0
 10
63.5344341384
 20
74.2789059041
 30
0.0
 10
63.5344343133
 20
74.2233943807
 30
0.0
 10
63.5491633823
 20
74.1095800975
 30
0.0
 10
63.6145331331
 20
73.945322197
 30
0.0
 10
63.7203327724
 20
73.7895128506
 30
0.0
 10
63.9197454203
 20
73.5895318331
 30
0.0
 10
64.259342008
 20
73.3827149971
 30
0.0
 10
64.7477380971
 20
73.2195553599
 30
0.0
 10
65.2958279942
 20
73.1425334019
 30
0.0
 10
65.8592690755
 20
73.1580425834
 30
0.0
 10
66.3919737782
 20
73.2646622971
 30
0.0
 10
66.7188646694
 20
73.399498843
 30
0.0
 10
66.8632099329
 20
73.4828361223
 30
0.0
  0
SPLINE
  5
2E0
100
AcDbEntity
  8
0
100
AcDbSpline
 62
7
  6
BYLAYER
 70
0
 71
3
 72
14
 73
10
 74
0
 42
0.0000001
 43
0.0000001
 44
0.0000000001
 40
0.0
 40
0.0
 40
0.0
 40
0.0
 40
0.0904458198
 40
0.1874902212
 40
0.2956455526
 40
0.4167259106
 40
0.550318648
 40
0.6943384231
 40
1.0
 40
1.0
 40
1.0
 40
1.0
 10
29.5931673313
 20
93.8744621211
 30
0.0
 10
29.5931675695
 20
93.7988831638
 30
0.0
 10
29.6215296647
 20
93.6411079126
 30
0.0
 10
29.7431590148
 20
93.4220929806
 30
0.0
 10
29.9348913224
 20
93.2247387774
 30
0.0
 10
30.1879497447
 20
93.0546584488
 30
0.0
 10
30.4929014943
 20
92.9171564223
 30
0.0
 10
30.962003552
 20
92.7809721615
 30
0.0
 10
31.3407790593
 20
92.7451194504
 30
0.0
 10
31.5961669197
 20
92.7491094333
 30
0.0
  0
SPLINE
  5
2E1
100
AcDbEntity
  8
0
100
AcDbSpline
 62
7
  6
BYLAYER
 70
0
 71
3
 72
9
 73
5
 74
0
 42
0.0000001
 43
0.0000001
 44
0.0000000001
 40
0.0
 40
0.0
 40
0.0
 40
0.0
 40
0.4795024867
 40
1.0
 40
1.0
 40
1.0
 40
1.0
 10
54.8097321263
 20
71.6252767772
 30
0.0
 10
54.8097321197
 20
71.4874295652
 30
0.0
 10
54.8672063995
 20
71.1979134412
 30
0.0
 10
55.0203922087
 20
70.9484471532
 30
0.0
 10
55.1144226448
 20
70.8320506469
 30
0.0
  0
SPLINE
  5
2E2
100
AcDbEntity
  8
0
100
AcDbSpline
 62
7
  6
BYLAYER
 70
0
 71
3
 72
9
 73
5
 74
0
 42
0.0000001
 43
0.0000001
 44
0.0000000001
 40
0.0
 40
0.0
 40
0.0
 40
0.0
 40
0.2395660953
 40
1.0
 40
1.0
 40
1.0
 40
1.0
 10
55.1144226448
 20
70.8320506469
 30
0.0
 10
55.1371941971
 20
70.8038626555
 30
0.0
 10
55.2359705022
 20
70.6892173642
 30
0.0
 10
55.3486009273
 20
70.5868436706
 30
0.0
 10
55.4389823986
 20
70.5156989926
 30
0.0
  0
SPLINE
  5
2E3
100
AcDbEntity
  8
0
100
AcDbSpline
 62
7
  6
BYLAYER
 70
0
 71
3
 72
9
 73
5
 74
0
 42
0.0000001
 43
0.0000001
 44
0.0000000001
 40
0.0
 40
0.0
 40
0.0
 40
0.0
 40
0.2635244366
 40
1.0
 40
1.0
 40
1.0
 40
1.0
 10
60.5833199121
 20
70.442994966
 30
0.0
 10
60.6244472375
 20
70.4722677313
 30
0.0
 10
60.7772188245
 20
70.5877800648
 30
0.0
 10
60.9163541457
 20
70.7222738818
 30
0.0
 10
61.0050133644
 20
70.8320156841
 30
0.0
  0
SPLINE
  5
2E4
100
AcDbEntity
  8
0
100
AcDbSpline
 62
7
  6
BYLAYER
 70
0
 71
3
 72
9
 73
5
 74
0
 42
0.0000001
 43
0.0000001
 44
0.0000000001
 40
0.0
 40
0.0
 40
0.0
 40
0.0
 40
0.5204991954
 40
1.0
 40
1.0
 40
1.0
 40
1.0
 10
61.0050133644
 20
70.8320156841
 30
0.0
 10
61.0990519998
 20
70.9484160933
 30
0.0
 10
61.252251929
 20
71.1978917984
 30
0.0
 10
61.3097321197
 20
71.4874229507
 30
0.0
 10
61.3097321263
 20
71.6252767772
 30
0.0
  0
SPLINE
  5
2E5
100
AcDbEntity
  8
0
100
AcDbSpline
 62
7
  6
BYLAYER
 70
0
 71
3
 72
9
 73
5
 74
0
 42
0.0000001
 43
0.0000001
 44
0.0000000001
 40
0.0
 40
0.0
 40
0.0
 40
0.0
 40
0.4795024867
 40
1.0
 40
1.0
 40
1.0
 40
1.0
 10
26.5253431205
 20
87.954906958
 30
0.0
 10
26.5253431139
 20
87.817059746
 30
0.0
 10
26.5828173936
 20
87.527543622
 30
0.0
 10
26.7360032028
 20
87.2780773341
 30
0.0
 10
26.8300336389
 20
87.1616808277
 30
0.0
  0
SPLINE
  5
2E6
100
AcDbEntity
  8
0
100
AcDbSpline
 62
7
  6
BYLAYER
 70
0
 71
3
 72
9
 73
5
 74
0
 42
0.0000001
 43
0.0000001
 44
0.0000000001
 40
0.0
 40
0.0
 40
0.0
 40
0.0
 40
0.239566059
 40
1.0
 40
1.0
 40
1.0
 40
1.0
 10
26.8300336389
 20
87.1616808277
 30
0.0
 10
26.8528052751
 20
87.1334927324
 30
0.0
 10
26.951581973
 20
87.0188470124
 30
0.0
 10
27.0642128902
 20
86.916472983
 30
0.0
 10
27.1545947639
 20
86.8453280941
 30
0.0
  0
SPLINE
  5
2E7
100
AcDbEntity
  8
0
100
AcDbSpline
 62
7
  6
BYLAYER
 70
0
 71
3
 72
9
 73
5
 74
0
 42
0.0000001
 43
0.0000001
 44
0.0000000001
 40
0.0
 40
0.0
 40
0.0
 40
0.0
 40
0.2635347604
 40
1.0
 40
1.0
 40
1.0
 40
1.0
 10
32.2985802997
 20
86.7723756427
 30
0.0
 10
32.339748691
 20
86.8016674311
 30
0.0
 10
32.4926658128
 20
86.9172544905
 30
0.0
 10
32.6319301546
 20
87.0518534825
 30
0.0
 10
32.7206592297
 20
87.1616890297
 30
0.0
  0
SPLINE
  5
2E8
100
AcDbEntity
  8
0
100
AcDbSpline
 62
7
  6
BYLAYER
 70
0
 71
3
 72
9
 73
5
 74
0
 42
0.0000001
 43
0.0000001
 44
0.0000000001
 40
0.0
 40
0.0
 40
0.0
 40
0.0
 40
0.5204971236
 40
1.0
 40
1.0
 40
1.0
 40
1.0
 10
32.7206592297
 20
87.1616890297
 30
0.0
 10
32.8146877432
 20
87.2780846218
 30
0.0
 10
32.9678702569
 20
87.5275486975
 30
0.0
 10
33.0253431139
 20
87.817061299
 30
0.0
 10
33.0253431205
 20
87.954906958
 30
0.0
  0
SPLINE
  5
2E9
100
AcDbEntity
  8
0
100
AcDbSpline
 62
7
  6
BYLAYER
 70
0
 71
3
 72
9
 73
5
 74
0
 42
0.0000001
 43
0.0000001
 44
0.0000000001
 40
0.0
 40
0.0
 40
0.0
 40
0.0
 40
0.4795024867
 40
1.0
 40
1.0
 40
1.0
 40
1.0
 10
40.6675376234
 20
79.7900918676
 30
0.0
 10
40.6675376168
 20
79.6522446556
 30
0.0
 10
40.7250118966
 20
79.3627285316
 30
0.0
 10
40.8781977057
 20
79.1132622437
 30
0.0
 10
40.9722281419
 20
78.9968657373
 30
0.0
  0
SPLINE
  5
2EA
100
AcDbEntity
  8
0
100
AcDbSpline
 62
7
  6
BYLAYER
 70
0
 71
3
 72
9
 73
5
 74
0
 42
0.0000001
 43
0.0000001
 44
0.0000000001
 40
0.0
 40
0.0
 40
0.0
 40
0.0
 40
0.2395660953
 40
1.0
 40
1.0
 40
1.0
 40
1.0
 10
40.9722281419
 20
78.9968657373
 30
0.0
 10
40.9949996941
 20
78.9686777459
 30
0.0
 10
41.0937759992
 20
78.8540324546
 30
0.0
 10
41.2064064244
 20
78.751658761
 30
0.0
 10
41.2967878957
 20
78.680514083
 30
0.0
  0
SPLINE
  5
2EB
100
AcDbEntity
  8
0
100
AcDbSpline
 62
7
  6
BYLAYER
 70
0
 71
3
 72
9
 73
5
 74
0
 42
0.0000001
 43
0.0000001
 44
0.0000000001
 40
0.0
 40
0.0
 40
0.0
 40
0.0
 40
0.2635244366
 40
1.0
 40
1.0
 40
1.0
 40
1.0
 10
46.4411254092
 20
78.6078100564
 30
0.0
 10
46.4822527346
 20
78.6370828217
 30
0.0
 10
46.6350243216
 20
78.7525951552
 30
0.0
 10
46.7741596427
 20
78.8870889722
 30
0.0
 10
46.8628188614
 20
78.9968307745
 30
0.0
  0
SPLINE
  5
2EC
100
AcDbEntity
  8
0
100
AcDbSpline
 62
7
  6
BYLAYER
 70
0
 71
3
 72
9
 73
5
 74
0
 42
0.0000001
 43
0.0000001
 44
0.0000000001
 40
0.0
 40
0.0
 40
0.0
 40
0.0
 40
0.5204991954
 40
1.0
 40
1.0
 40
1.0
 40
1.0
 10
46.8628188614
 20
78.9968307745
 30
0.0
 10
46.9568574969
 20
79.1132311837
 30
0.0
 10
47.1100574261
 20
79.3627068888
 30
0.0
 10
47.1675376168
 20
79.6522380411
 30
0.0
 10
47.1675376234
 20
79.7900918676
 30
0.0
  0
SPLINE
  5
2ED
100
AcDbEntity
  8
0
100
AcDbSpline
 62
7
  6
BYLAYER
 70
0
 71
3
 72
9
 73
5
 74
0
 42
0.0000001
 43
0.0000001
 44
0.0000000001
 40
0.0
 40
0.0
 40
0.0
 40
0.0
 40
0.248101021
 40
1.0
 40
1.0
 40
1.0
 40
1.0
 10
31.2000363953
 20
47.1707122355
 30
0.0
 10
31.2000363946
 20
47.2199604882
 30
0.0
 10
31.207308048
 20
47.4184174918
 30
0.0
 10
31.2443959085
 20
47.615597897
 30
0.0
 10
31.2870858658
 20
47.7586150017
 30
0.0
  0
SPLINE
  5
2EE
100
AcDbEntity
  8
0
100
AcDbSpline
 62
7
  6
BYLAYER
 70
0
 71
3
 72
12
 73
8
 74
0
 42
0.0000001
 43
0.0000001
 44
0.0000000001
 40
0.0
 40
0.0
 40
0.0
 40
0.0
 40
0.108160086
 40
0.2183661675
 40
0.4513442184
 40
0.7104418196
 40
1.0
 40
1.0
 40
1.0
 40
1.0
 10
31.2000363953
 20
43.4964513585
 30
0.0
 10
31.2000363967
 20
43.3828659051
 30
0.0
 10
31.2197330792
 20
43.1530627242
 30
0.0
 10
31.3392205769
 20
42.6924323032
 30
0.0
 10
31.6455184046
 20
42.1274767396
 30
0.0
 10
32.2163311272
 20
41.5280840472
 30
0.0
 10
32.6940245454
 20
41.1990251417
 30
0.0
 10
32.9573692673
 20
41.0469864352
 30
0.0
  0
SPLINE
  5
2EF
100
AcDbEntity
  8
0
100
AcDbSpline
 62
7
  6
BYLAYER
 70
0
 71
3
 72
12
 73
8
 74
0
 42
0.0000001
 43
0.0000001
 44
0.0000000001
 40
0.0
 40
0.0
 40
0.0
 40
0.0
 40
0.108160086
 40
0.2183661675
 40
0.4513442184
 40
0.7104418196
 40
1.0
 40
1.0
 40
1.0
 40
1.0
 10
25.6431225314
 20
97.6303729294
 30
0.0
 10
25.6431225328
 20
97.5186805669
 30
0.0
 10
25.6624909373
 20
97.292707439
 30
0.0
 10
25.7799869767
 20
96.8397541917
 30
0.0
 10
26.0811798406
 20
96.2842145541
 30
0.0
 10
26.6424790178
 20
95.69481174
 30
0.0
 10
27.112210879
 20
95.3712371496
 30
0.0
 10
27.3711665222
 20
95.2217324215
 30
0.0
  0
SPLINE
  5
2F0
100
AcDbEntity
  8
0
100
AcDbSpline
 62
7
  6
BYLAYER
 70
0
 71
3
 72
11
 73
7
 74
0
 42
0.0000001
 43
0.0000001
 44
0.0000000001
 40
0.0
 40
0.0
 40
0.0
 40
0.0
 40
0.2177442246
 40
0.4508817658
 40
0.7104588047
 40
1.0
 40
1.0
 40
1.0
 40
1.0
 10
115.6962397253
 20
97.2352156766
 30
0.0
 10
115.7457100134
 20
97.2066546121
 30
0.0
 10
115.8383626797
 20
97.1289411089
 30
0.0
 10
115.9369224445
 20
96.9677193576
 30
0.0
 10
115.9953521993
 20
96.7691026816
 30
0.0
 10
116.006950171
 20
96.6245674284
 30
0.0
 10
116.006950171
 20
96.5486091399
 30
0.0
  0
SPLINE
  5
2F1
100
AcDbEntity
  8
0
100
AcDbSpline
 62
7
  6
BYLAYER
 70
0
 71
3
 72
11
 73
7
 74
0
 42
0.0000001
 43
0.0000001
 44
0.0000000001
 40
0.0
 40
0.0
 40
0.0
 40
0.0
 40
0.2895041175
 40
0.5489630382
 40
0.7820646732
 40
1.0
 40
1.0
 40
1.0
 40
1.0
 10
66.8632099329
 20
73.4828361223
 30
0.0
 10
66.9487128804
 20
73.5322009774
 30
0.0
 10
67.103845862
 20
73.6391763921
 30
0.0
 10
67.2894519696
 20
73.8339677601
 30
0.0
 10
67.4069680413
 20
74.0497054056
 30
0.0
 10
67.4341977132
 20
74.2045822663
 30
0.0
 10
67.4342356808
 20
74.2789051649
 30
0.0
  0
SPLINE
  5
2F2
100
AcDbEntity
  8
0
100
AcDbSpline
 62
7
  6
BYLAYER
 70
0
 71
3
 72
12
 73
8
 74
0
 42
0.0000001
 43
0.0000001
 44
0.0000000001
 40
0.0
 40
0.0
 40
0.0
 40
0.0
 40
0.2895577052
 40
0.5486551371
 40
0.7816333826
 40
0.8918396704
 40
1.0
 40
1.0
 40
1.0
 40
1.0
 10
103.5972775335
 20
95.2219156465
 30
0.0
 10
103.8562283341
 20
95.3714200686
 30
0.0
 10
104.3259512812
 20
95.6949934182
 30
0.0
 10
104.8872390571
 20
96.2843918821
 30
0.0
 10
105.1884253175
 20
96.8399259295
 30
0.0
 10
105.3059188017
 20
97.2928742536
 30
0.0
 10
105.3252867869
 20
97.5188449246
 30
0.0
 10
105.3252867855
 20
97.6305360982
 30
0.0
  0
SPLINE
  5
2F3
100
AcDbEntity
  8
0
100
AcDbSpline
 62
7
  6
BYLAYER
 70
0
 71
3
 72
15
 73
11
 74
0
 42
0.0000001
 43
0.0000001
 44
0.0000000001
 40
0.0
 40
0.0
 40
0.0
 40
0.0
 40
0.1141469224
 40
0.2373360366
 40
0.366976904
 40
0.5000005214
 40
0.6330240662
 40
0.7626647219
 40
0.8858535023
 40
1.0
 40
1.0
 40
1.0
 40
1.0
 10
60.1103562172
 20
82.1990309045
 30
0.0
 10
60.4782255272
 20
81.9866462642
 30
0.0
 10
61.2827423699
 20
81.6120725848
 30
0.0
 10
62.5927495618
 20
81.2138323797
 30
0.0
 10
64.0111051712
 20
80.9688508034
 30
0.0
 10
65.4843768171
 20
80.8860982159
 30
0.0
 10
66.9576472852
 20
80.9688577959
 30
0.0
 10
68.3759994152
 20
81.2138461066
 30
0.0
 10
69.6860009672
 20
81.6120925391
 30
0.0
 10
70.4905128814
 20
81.9866702367
 30
0.0
 10
70.8583792911
 20
82.1990567396
 30
0.0
  0
SPLINE
  5
2F4
100
AcDbEntity
  8
0
100
AcDbSpline
 62
7
  6
BYLAYER
 70
0
 71
3
 72
12
 73
8
 74
0
 42
0.0000001
 43
0.0000001
 44
0.0000000001
 40
0.0
 40
0.0
 40
0.0
 40
0.0
 40
0.2895577052
 40
0.5486551371
 40
0.7816333826
 40
0.8918396704
 40
1.0
 40
1.0
 40
1.0
 40
1.0
 10
104.65794271
 20
101.7131272947
 30
0.0
 10
104.9915064532
 20
101.905709262
 30
0.0
 10
105.5965733003
 20
102.3225156107
 30
0.0
 10
106.3195880625
 20
103.0817407506
 30
0.0
 10
106.7075568046
 20
103.7973439303
 30
0.0
 10
106.8589043436
 20
104.3808027886
 30
0.0
 10
106.8838529347
 20
104.6718836528
 30
0.0
 10
106.8838529329
 20
104.815757029
 30
0.0
  0
SPLINE
  5
2F5
100
AcDbEntity
  8
0
100
AcDbSpline
 62
7
  6
BYLAYER
 70
0
 71
3
 72
9
 73
5
 74
0
 42
0.0000001
 43
0.0000001
 44
0.0000000001
 40
0.0
 40
0.0
 40
0.0
 40
0.0
 40
0.2537425515
 40
1.0
 40
1.0
 40
1.0
 40
1.0
 10
106.7634108186
 20
106.655221653
 30
0.0
 10
106.7833012032
 20
106.5915227652
 30
0.0
 10
106.8527037167
 20
106.337781089
 30
0.0
 10
106.8838529304
 20
106.0734694925
 30
0.0
 10
106.8838529329
 20
105.8772101713
 30
0.0
  0
SPLINE
  5
2F6
100
AcDbEntity
  8
0
100
AcDbSpline
 62
7
  6
BYLAYER
 70
0
 71
3
 72
11
 73
7
 74
0
 42
0.0000001
 43
0.0000001
 44
0.0000000001
 40
0.0
 40
0.0
 40
0.0
 40
0.0
 40
0.2895421522
 40
0.5491196247
 40
0.782256727
 40
1.0
 40
1.0
 40
1.0
 40
1.0
 10
78.4950135916
 20
136.7410828838
 30
0.0
 10
78.5695651656
 20
136.6980414863
 30
0.0
 10
78.7048516602
 20
136.6047582415
 30
0.0
 10
78.8666812612
 20
136.4348662406
 30
0.0
 10
78.9690687846
 20
136.2467773301
 30
0.0
 10
78.9928419628
 20
136.1118054352
 30
0.0
 10
78.9928419484
 20
136.0470678229
 30
0.0
  0
SPLINE
  5
2F7
100
AcDbEntity
  8
0
100
AcDbSpline
 62
7
  6
BYLAYER
 70
0
 71
3
 72
12
 73
8
 74
0
 42
0.0000001
 43
0.0000001
 44
0.0000000001
 40
0.0
 40
0.0
 40
0.0
 40
0.0
 40
0.202532546
 40
0.3268366346
 40
0.4622431026
 40
0.7434914067
 40
1.0
 40
1.0
 40
1.0
 40
1.0
 10
53.0041227518
 20
148.2616340836
 30
0.0
 10
53.0327133651
 20
148.207644355
 30
0.0
 10
53.1151114887
 20
148.1412400886
 30
0.0
 10
53.2438286246
 20
148.0888266326
 30
0.0
 10
53.4041778094
 20
148.0534913862
 30
0.0
 10
53.6096447489
 20
148.0548805601
 30
0.0
 10
53.7688212594
 20
148.1032271626
 30
0.0
 10
53.8358293837
 20
148.1419140903
 30
0.0
  0
SPLINE
  5
2F8
100
AcDbEntity
  8
0
100
AcDbSpline
 62
7
  6
BYLAYER
 70
0
 71
3
 72
11
 73
7
 74
0
 42
0.0000001
 43
0.0000001
 44
0.0000000001
 40
0.0
 40
0.0
 40
0.0
 40
0.0
 40
0.28902243
 40
0.5489778136
 40
0.7823276364
 40
1.0
 40
1.0
 40
1.0
 40
1.0
 10
56.3370903954
 20
149.5860091886
 30
0.0
 10
56.3589766159
 20
149.5986451285
 30
0.0
 10
56.3987077967
 20
149.6261295494
 30
0.0
 10
56.4463781003
 20
149.6760302847
 30
0.0
 10
56.4765001021
 20
149.7313959806
 30
0.0
 10
56.4835324219
 20
149.7710965116
 30
0.0
 10
56.4835281131
 20
149.7901296859
 30
0.0
  0
SPLINE
  5
2F9
100
AcDbEntity
  8
0
100
AcDbSpline
 62
7
  6
BYLAYER
 70
0
 71
3
 72
11
 73
7
 74
0
 42
0.0000001
 43
0.0000001
 44
0.0000000001
 40
0.0
 40
0.0
 40
0.0
 40
0.0
 40
0.2372531816
 40
0.5000006935
 40
0.7627478297
 40
1.0
 40
1.0
 40
1.0
 40
1.0
 10
75.9494397777
 20
135.2714039299
 30
0.0
 10
76.1401899362
 20
135.1612767659
 30
0.0
 10
76.5837485705
 20
135.0005498759
 30
0.0
 10
77.2929451635
 20
134.9237090491
 30
0.0
 10
78.0021404416
 20
135.0005532645
 30
0.0
 10
78.4456969948
 20
135.1612823186
 30
0.0
 10
78.6364455462
 20
135.2714103887
 30
0.0
  0
SPLINE
  5
2FA
100
AcDbEntity
  8
0
100
AcDbSpline
 62
7
  6
BYLAYER
 70
0
 71
3
 72
10
 73
6
 74
0
 42
0.0000001
 43
0.0000001
 44
0.0000000001
 40
0.0
 40
0.0
 40
0.0
 40
0.0
 40
0.28385449
 40
0.5445433081
 40
1.0
 40
1.0
 40
1.0
 40
1.0
 10
78.6364455462
 20
135.2714103887
 30
0.0
 10
78.7038711976
 20
135.3103383743
 30
0.0
 10
78.8286446373
 20
135.3939016292
 30
0.0
 10
79.0304361831
 20
135.579963541
 30
0.0
 10
79.1367910152
 20
135.7555305291
 30
0.0
 10
79.1696859921
 20
135.8760455764
 30
0.0
  0
SPLINE
  5
2FB
100
AcDbEntity
  8
0
100
AcDbSpline
 62
7
  6
BYLAYER
 70
0
 71
3
 72
9
 73
5
 74
0
 42
0.0000001
 43
0.0000001
 44
0.0000000001
 40
0.0
 40
0.0
 40
0.0
 40
0.0
 40
0.2528464247
 40
1.0
 40
1.0
 40
1.0
 40
1.0
 10
79.1696859921
 20
135.8760455764
 30
0.0
 10
79.1735225113
 20
135.8901011662
 30
0.0
 10
79.1869013492
 20
135.9461635126
 30
0.0
 10
79.1928307711
 20
136.0040145607
 30
0.0
 10
79.1928307578
 20
136.0470678215
 30
0.0
  0
SPLINE
  5
2FC
100
AcDbEntity
  8
0
100
AcDbSpline
 62
7
  6
BYLAYER
 70
0
 71
3
 72
11
 73
7
 74
0
 42
0.0000001
 43
0.0000001
 44
0.0000000001
 40
0.0
 40
0.0
 40
0.0
 40
0.0
 40
0.2362339405
 40
0.4978381176
 40
0.7606133251
 40
1.0
 40
1.0
 40
1.0
 40
1.0
 10
53.511154398
 20
146.9746780494
 30
0.0
 10
53.3151072324
 20
146.8614908412
 30
0.0
 10
52.9431477882
 20
146.5509078707
 30
0.0
 10
52.5052306713
 20
145.9617648349
 30
0.0
 10
52.1995622551
 20
145.2910279519
 30
0.0
 10
52.1046235599
 20
144.8119686676
 30
0.0
 10
52.0978082206
 20
144.5826733369
 30
0.0
  0
SPLINE
  5
2FD
100
AcDbEntity
  8
0
100
AcDbSpline
 62
7
  6
BYLAYER
 70
0
 71
3
 72
11
 73
7
 74
0
 42
0.0000001
 43
0.0000001
 44
0.0000000001
 40
0.0
 40
0.0
 40
0.0
 40
0.0
 40
0.2191938996
 40
0.4529191412
 40
0.7118640126
 40
1.0
 40
1.0
 40
1.0
 40
1.0
 10
78.9928419484
 20
136.0470678229
 30
0.0
 10
78.9928419345
 20
135.9845608738
 30
0.0
 10
78.9707918062
 20
135.8545580801
 30
0.0
 10
78.875366709
 20
135.67236238
 30
0.0
 10
78.7239199055
 20
135.5065277435
 30
0.0
 10
78.5966999976
 20
135.4145006469
 30
0.0
 10
78.5265320765
 20
135.3717469802
 30
0.0
  0
SPLINE
  5
2FE
100
AcDbEntity
  8
0
100
AcDbSpline
 62
7
  6
BYLAYER
 70
0
 71
3
 72
11
 73
7
 74
0
 42
0.0000001
 43
0.0000001
 44
0.0000000001
 40
0.0
 40
0.0
 40
0.0
 40
0.0
 40
0.2177842329
 40
0.4509131332
 40
0.7102976891
 40
1.0
 40
1.0
 40
1.0
 40
1.0
 10
61.3097321263
 20
71.6252767772
 30
0.0
 10
61.3097321323
 20
71.7490662662
 30
0.0
 10
61.2639831376
 20
72.0070828372
 30
0.0
 10
61.0683743581
 20
72.3665756904
 30
0.0
 10
60.7591557316
 20
72.6915412009
 30
0.0
 10
60.5004271259
 20
72.8697376413
 30
0.0
 10
60.3578196221
 20
72.952070263
 30
0.0
  0
SPLINE
  5
2FF
100
AcDbEntity
  8
0
100
AcDbSpline
 62
7
  6
BYLAYER
 70
0
 71
3
 72
9
 73
5
 74
0
 42
0.0000001
 43
0.0000001
 44
0.0000000001
 40
0.0
 40
0.0
 40
0.0
 40
0.0
 40
0.26571728
 40
1.0
 40
1.0
 40
1.0
 40
1.0
 10
61.0649587214
 20
70.7068101035
 30
0.0
 10
61.1371872786
 20
70.7485119562
 30
0.0
 10
61.4039378839
 20
70.913752323
 30
0.0
 10
61.6499655493
 20
71.1148578396
 30
0.0
 10
61.8066825588
 20
71.2838502783
 30
0.0
  0
SPLINE
  5
300
100
AcDbEntity
  8
0
100
AcDbSpline
 62
7
  6
BYLAYER
 70
0
 71
3
 72
15
 73
11
 74
0
 42
0.0000001
 43
0.0000001
 44
0.0000000001
 40
0.0
 40
0.0
 40
0.0
 40
0.0
 40
0.1276312024
 40
0.2454205027
 40
0.3574407875
 40
0.4690221316
 40
0.5855751159
 40
0.7114283507
 40
0.8493417949
 40
1.0
 40
1.0
 40
1.0
 40
1.0
 10
61.8066825588
 20
71.2838502783
 30
0.0
 10
61.908564764
 20
71.3937127775
 30
0.0
 10
62.085969686
 20
71.6237989959
 30
0.0
 10
62.2620495052
 20
72.0092707593
 30
0.0
 10
62.3280646244
 20
72.4098117541
 30
0.0
 10
62.2799621493
 20
72.8114562528
 30
0.0
 10
62.1209256363
 20
73.2001921359
 30
0.0
 10
61.8582675452
 20
73.5654970724
 30
0.0
 10
61.5008933024
 20
73.8992579547
 30
0.0
 10
61.2180938163
 20
74.0883858878
 30
0.0
 10
61.0649234345
 20
74.1768168483
 30
0.0
  0
SPLINE
  5
301
100
AcDbEntity
  8
0
100
AcDbSpline
 62
7
  6
BYLAYER
 70
0
 71
3
 72
11
 73
7
 74
0
 42
0.0000001
 43
0.0000001
 44
0.0000000001
 40
0.0
 40
0.0
 40
0.0
 40
0.0
 40
0.2231567833
 40
0.4591669312
 40
0.7172967223
 40
1.0
 40
1.0
 40
1.0
 40
1.0
 10
47.7916838146
 20
149.8615647214
 30
0.0
 10
47.8672277206
 20
149.9202826067
 30
0.0
 10
48.0444417113
 20
150.0152846769
 30
0.0
 10
48.3516571075
 20
150.0688217081
 30
0.0
 10
48.6863965823
 20
150.0365220027
 30
0.0
 10
48.9085393771
 20
149.963986156
 30
0.0
 10
49.0199566125
 20
149.916254475
 30
0.0
  0
SPLINE
  5
302
100
AcDbEntity
  8
0
100
AcDbSpline
 62
7
  6
BYLAYER
 70
0
 71
3
 72
11
 73
7
 74
0
 42
0.0000001
 43
0.0000001
 44
0.0000000001
 40
0.0
 40
0.0
 40
0.0
 40
0.0
 40
0.2177842329
 40
0.4509131332
 40
0.7102976891
 40
1.0
 40
1.0
 40
1.0
 40
1.0
 10
33.0253431205
 20
87.954906958
 30
0.0
 10
33.0253431264
 20
88.078696447
 30
0.0
 10
32.9795941317
 20
88.336713018
 30
0.0
 10
32.7839853522
 20
88.6962058713
 30
0.0
 10
32.4747667258
 20
89.0211713817
 30
0.0
 10
32.21603812
 20
89.1993678221
 30
0.0
 10
32.0734306163
 20
89.2817004438
 30
0.0
  0
SPLINE
  5
303
100
AcDbEntity
  8
0
100
AcDbSpline
 62
7
  6
BYLAYER
 70
0
 71
3
 72
9
 73
5
 74
0
 42
0.0000001
 43
0.0000001
 44
0.0000000001
 40
0.0
 40
0.0
 40
0.0
 40
0.0
 40
0.2656637269
 40
1.0
 40
1.0
 40
1.0
 40
1.0
 10
32.7805718219
 20
87.0364389998
 30
0.0
 10
32.8525951885
 20
87.0780221488
 30
0.0
 10
33.1186559502
 20
87.2428047893
 30
0.0
 10
33.36410668
 20
87.4432468614
 30
0.0
 10
33.5205924559
 20
87.6116462259
 30
0.0
  0
SPLINE
  5
304
100
AcDbEntity
  8
0
100
AcDbSpline
 62
7
  6
BYLAYER
 70
0
 71
3
 72
15
 73
11
 74
0
 42
0.0000001
 43
0.0000001
 44
0.0000000001
 40
0.0
 40
0.0
 40
0.0
 40
0.0
 40
0.1276779708
 40
0.2454945957
 40
0.3575209864
 40
0.4690930523
 40
0.5856279355
 40
0.7114611155
 40
0.8493553232
 40
1.0
 40
1.0
 40
1.0
 40
1.0
 10
33.5205924559
 20
87.6116462259
 30
0.0
 10
33.6226956942
 20
87.7215227967
 30
0.0
 10
33.8005187154
 20
87.9516547584
 30
0.0
 10
33.9771829606
 20
88.3372913366
 30
0.0
 10
34.0436742645
 20
88.7380789306
 30
0.0
 10
33.9958678547
 20
89.1400295029
 30
0.0
 10
33.8369760059
 20
89.5290930515
 30
0.0
 10
33.5742880924
 20
89.8946935829
 30
0.0
 10
33.2167617439
 20
90.2287110308
 30
0.0
 10
32.9337991524
 20
90.4179616014
 30
0.0
 10
32.7805344286
 20
90.5064470291
 30
0.0
  0
SPLINE
  5
305
100
AcDbEntity
  8
0
100
AcDbSpline
 62
7
  6
BYLAYER
 70
0
 71
3
 72
13
 73
9
 74
0
 42
0.0000001
 43
0.0000001
 44
0.0000000001
 40
0.0
 40
0.0
 40
0.0
 40
0.0
 40
0.1142237897
 40
0.2375561805
 40
0.5000005219
 40
0.7624445777
 40
0.8857766347
 40
1.0
 40
1.0
 40
1.0
 40
1.0
 10
46.2156251192
 20
81.1168853534
 30
0.0
 10
46.0583470872
 20
81.2076878172
 30
0.0
 10
45.7142665814
 20
81.3678708439
 30
0.0
 10
44.9518100865
 20
81.5995251317
 30
0.0
 10
43.9175244724
 20
81.7119864417
 30
0.0
 10
42.8832398513
 20
81.5995203567
 30
0.0
 10
42.1207862109
 20
81.3678623217
 30
0.0
 10
41.7767078111
 20
81.2076775774
 30
0.0
 10
41.6194310167
 20
81.1168743198
 30
0.0
  0
SPLINE
  5
306
100
AcDbEntity
  8
0
100
AcDbSpline
 62
7
  6
BYLAYER
 70
0
 71
3
 72
11
 73
7
 74
0
 42
0.0000001
 43
0.0000001
 44
0.0000000001
 40
0.0
 40
0.0
 40
0.0
 40
0.0
 40
0.2897018299
 40
0.5490862149
 40
0.782215308
 40
1.0
 40
1.0
 40
1.0
 40
1.0
 10
41.6194310167
 20
81.1168743198
 30
0.0
 10
41.4768261764
 20
81.0345418684
 30
0.0
 10
41.2181024749
 20
80.8563461056
 30
0.0
 10
40.9088901229
 20
80.5313829999
 30
0.0
 10
40.7132855505
 20
80.171893625
 30
0.0
 10
40.6675376293
 20
79.9138800251
 30
0.0
 10
40.6675376234
 20
79.7900918676
 30
0.0
  0
SPLINE
  5
307
100
AcDbEntity
  8
0
100
AcDbSpline
 62
7
  6
BYLAYER
 70
0
 71
3
 72
11
 73
7
 74
0
 42
0.0000001
 43
0.0000001
 44
0.0000000001
 40
0.0
 40
0.0
 40
0.0
 40
0.0
 40
0.2177842329
 40
0.4509131332
 40
0.7102976891
 40
1.0
 40
1.0
 40
1.0
 40
1.0
 10
47.1675376234
 20
79.7900918676
 30
0.0
 10
47.1675376293
 20
79.9138813566
 30
0.0
 10
47.1217886347
 20
80.1718979276
 30
0.0
 10
46.9261798552
 20
80.5313907809
 30
0.0
 10
46.6169612287
 20
80.8563562913
 30
0.0
 10
46.358232623
 20
81.0345527317
 30
0.0
 10
46.2156251192
 20
81.1168853534
 30
0.0
  0
SPLINE
  5
308
100
AcDbEntity
  8
0
100
AcDbSpline
 62
7
  6
BYLAYER
 70
0
 71
3
 72
9
 73
5
 74
0
 42
0.0000001
 43
0.0000001
 44
0.0000000001
 40
0.0
 40
0.0
 40
0.0
 40
0.0
 40
0.26571728
 40
1.0
 40
1.0
 40
1.0
 40
1.0
 10
46.9227642184
 20
78.8716251939
 30
0.0
 10
46.9949927757
 20
78.9133270466
 30
0.0
 10
47.261743381
 20
79.0785674134
 30
0.0
 10
47.5077710463
 20
79.27967293
 30
0.0
 10
47.6644880558
 20
79.4486653688
 30
0.0
  0
SPLINE
  5
309
100
AcDbEntity
  8
0
100
AcDbSpline
 62
7
  6
BYLAYER
 70
0
 71
3
 72
15
 73
11
 74
0
 42
0.0000001
 43
0.0000001
 44
0.0000000001
 40
0.0
 40
0.0
 40
0.0
 40
0.0
 40
0.1276312024
 40
0.2454205027
 40
0.3574407875
 40
0.4690221316
 40
0.5855751159
 40
0.7114283507
 40
0.8493417949
 40
1.0
 40
1.0
 40
1.0
 40
1.0
 10
47.6644880558
 20
79.4486653688
 30
0.0
 10
47.7663702611
 20
79.5585278679
 30
0.0
 10
47.9437751831
 20
79.7886140863
 30
0.0
 10
48.1198550022
 20
80.1740858497
 30
0.0
 10
48.1858701214
 20
80.5746268445
 30
0.0
 10
48.1377676464
 20
80.9762713432
 30
0.0
 10
47.9787311334
 20
81.3650072263
 30
0.0
 10
47.7160730423
 20
81.7303121628
 30
0.0
 10
47.3586987994
 20
82.0640730452
 30
0.0
 10
47.0758993133
 20
82.2532009782
 30
0.0
 10
46.9227289316
 20
82.3416319387
 30
0.0
  0
SPLINE
  5
30A
100
AcDbEntity
  8
0
100
AcDbSpline
 62
7
  6
BYLAYER
 70
0
 71
3
 72
11
 73
7
 74
0
 42
0.0000001
 43
0.0000001
 44
0.0000000001
 40
0.0
 40
0.0
 40
0.0
 40
0.0
 40
0.2372542275
 40
0.5000017852
 40
0.7627483734
 40
1.0
 40
1.0
 40
1.0
 40
1.0
 10
57.3173316822
 20
62.6643443686
 30
0.0
 10
57.3173316822
 20
62.8382332865
 30
0.0
 10
57.382527544
 20
63.2049429872
 30
0.0
 10
57.6099341285
 20
63.7201583098
 30
0.0
 10
57.9424170026
 20
64.1747059589
 30
0.0
 10
58.2273966439
 20
64.4145211085
 30
0.0
 10
58.377987438
 20
64.5014642251
 30
0.0
  0
SPLINE
  5
30B
100
AcDbEntity
  8
0
100
AcDbSpline
 62
7
  6
BYLAYER
 70
0
 71
3
 72
21
 73
17
 74
0
 42
0.0000001
 43
0.0000001
 44
0.0000000001
 40
0.0
 40
0.0
 40
0.0
 40
0.0
 40
0.066014607
 40
0.1369566041
 40
0.288186415
 40
0.4418869351
 40
0.5157179403
 40
0.5855313342
 40
0.6502259313
 40
0.7091653593
 40
0.7623616877
 40
0.8106840171
 40
0.8559888351
 40
0.9009206566
 40
0.9482198693
 40
1.0
 40
1.0
 40
1.0
 40
1.0
 10
46.9227289316
 20
82.3416319387
 30
0.0
 10
46.7354476408
 20
82.4497563963
 30
0.0
 10
46.3285101228
 20
82.6430248832
 30
0.0
 10
45.4284006925
 20
82.9341394665
 30
0.0
 10
44.1987156958
 20
83.1052277479
 30
0.0
 10
42.9510987998
 20
83.0279783082
 30
0.0
 10
41.9996547921
 20
82.8108265205
 30
0.0
 10
41.3552478067
 20
82.5805048774
 30
0.0
 10
40.790743262
 20
82.2876440606
 30
0.0
 10
40.3233216012
 20
81.9404502372
 30
0.0
 10
39.9676773108
 20
81.5478051488
 30
0.0
 10
39.7371914066
 20
81.1191134951
 30
0.0
 10
39.6449745745
 20
80.6672578997
 30
0.0
 10
39.6988567146
 20
80.2123686358
 30
0.0
 10
39.8936629264
 20
79.776089021
 30
0.0
 10
40.0989894441
 20
79.5204128774
 30
0.0
 10
40.217657014
 20
79.3992108735
 30
0.0
  0
SPLINE
  5
30C
100
AcDbEntity
  8
0
100
AcDbSpline
 62
7
  6
BYLAYER
 70
0
 71
3
 72
9
 73
5
 74
0
 42
0.0000001
 43
0.0000001
 44
0.0000000001
 40
0.0
 40
0.0
 40
0.0
 40
0.0
 40
0.2363981198
 40
1.0
 40
1.0
 40
1.0
 40
1.0
 10
40.217657014
 20
79.3992108735
 30
0.0
 10
40.2658342212
 20
79.3500047251
 30
0.0
 10
40.4780826542
 20
79.1501549685
 30
0.0
 10
40.7197047334
 20
78.9827757846
 30
0.0
 10
40.9123463152
 20
78.8715566308
 30
0.0
  0
SPLINE
  5
30D
100
AcDbEntity
  8
0
100
AcDbSpline
 62
7
  6
BYLAYER
 70
0
 71
3
 72
21
 73
17
 74
0
 42
0.0000001
 43
0.0000001
 44
0.0000000001
 40
0.0
 40
0.0
 40
0.0
 40
0.0
 40
0.066014607
 40
0.1369566041
 40
0.288186415
 40
0.4418869351
 40
0.5157179403
 40
0.5855313342
 40
0.6502259313
 40
0.7091653593
 40
0.7623616877
 40
0.8106840171
 40
0.8559888351
 40
0.9009206566
 40
0.9482198693
 40
1.0
 40
1.0
 40
1.0
 40
1.0
 10
32.7805344286
 20
90.5064470291
 30
0.0
 10
32.5932531378
 20
90.6145714867
 30
0.0
 10
32.1863156198
 20
90.8078399736
 30
0.0
 10
31.2862061895
 20
91.0989545569
 30
0.0
 10
30.0565211928
 20
91.2700428383
 30
0.0
 10
28.8089042969
 20
91.1927933986
 30
0.0
 10
27.8574602892
 20
90.9756416109
 30
0.0
 10
27.2130533038
 20
90.7453199679
 30
0.0
 10
26.6485487591
 20
90.452459151
 30
0.0
 10
26.1811270983
 20
90.1052653277
 30
0.0
 10
25.8254828079
 20
89.7126202393
 30
0.0
 10
25.5949969037
 20
89.2839285855
 30
0.0
 10
25.5027800716
 20
88.8320729901
 30
0.0
 10
25.5566622117
 20
88.3771837262
 30
0.0
 10
25.7514684235
 20
87.9409041115
 30
0.0
 10
25.9567949412
 20
87.6852279678
 30
0.0
 10
26.0754625111
 20
87.5640259639
 30
0.0
  0
SPLINE
  5
30E
100
AcDbEntity
  8
0
100
AcDbSpline
 62
7
  6
BYLAYER
 70
0
 71
3
 72
9
 73
5
 74
0
 42
0.0000001
 43
0.0000001
 44
0.0000000001
 40
0.0
 40
0.0
 40
0.0
 40
0.0
 40
0.2363981198
 40
1.0
 40
1.0
 40
1.0
 40
1.0
 10
26.0754625111
 20
87.5640259639
 30
0.0
 10
26.1236397182
 20
87.5148198155
 30
0.0
 10
26.3358881513
 20
87.3149700589
 30
0.0
 10
26.5775102304
 20
87.147590875
 30
0.0
 10
26.7701518123
 20
87.0363717212
 30
0.0
  0
SPLINE
  5
30F
100
AcDbEntity
  8
0
100
AcDbSpline
 62
7
  6
BYLAYER
 70
0
 71
3
 72
11
 73
7
 74
0
 42
0.0000001
 43
0.0000001
 44
0.0000000001
 40
0.0
 40
0.0
 40
0.0
 40
0.0
 40
0.2315267439
 40
0.487335657
 40
0.7498677166
 40
1.0
 40
1.0
 40
1.0
 40
1.0
 10
41.6194310167
 20
78.6673670684
 30
0.0
 10
41.8946250526
 20
78.8262494708
 30
0.0
 10
42.5251279482
 20
79.0732840593
 30
0.0
 10
43.547012136
 20
79.2383168186
 30
0.0
 10
44.6072122273
 20
79.2086883431
 30
0.0
 10
45.2998432684
 20
79.052878164
 30
0.0
 10
45.6232639974
 20
78.9377465498
 30
0.0
  0
SPLINE
  5
310
100
AcDbEntity
  8
0
100
AcDbSpline
 62
7
  6
BYLAYER
 70
0
 71
3
 72
21
 73
17
 74
0
 42
0.0000001
 43
0.0000001
 44
0.0000000001
 40
0.0
 40
0.0
 40
0.0
 40
0.0
 40
0.066014607
 40
0.1369566041
 40
0.288186415
 40
0.4418869351
 40
0.5157179403
 40
0.5855313342
 40
0.6502259313
 40
0.7091653593
 40
0.7623616877
 40
0.8106840171
 40
0.8559888351
 40
0.9009206566
 40
0.9482198693
 40
1.0
 40
1.0
 40
1.0
 40
1.0
 10
61.0649234345
 20
74.1768168483
 30
0.0
 10
60.8776421437
 20
74.2849413059
 30
0.0
 10
60.4707046257
 20
74.4782097928
 30
0.0
 10
59.5705951954
 20
74.7693243761
 30
0.0
 10
58.3409101987
 20
74.9404126575
 30
0.0
 10
57.0932933028
 20
74.8631632178
 30
0.0
 10
56.141849295
 20
74.6460114301
 30
0.0
 10
55.4974423096
 20
74.415689787
 30
0.0
 10
54.932937765
 20
74.1228289701
 30
0.0
 10
54.4655161042
 20
73.7756351468
 30
0.0
 10
54.1098718137
 20
73.3829900584
 30
0.0
 10
53.8793859096
 20
72.9542984047
 30
0.0
 10
53.7871690775
 20
72.5024428092
 30
0.0
 10
53.8410512176
 20
72.0475535454
 30
0.0
 10
54.0358574294
 20
71.6112739306
 30
0.0
 10
54.2411839471
 20
71.355597787
 30
0.0
 10
54.3598515169
 20
71.2343957831
 30
0.0
  0
SPLINE
  5
311
100
AcDbEntity
  8
0
100
AcDbSpline
 62
7
  6
BYLAYER
 70
0
 71
3
 72
9
 73
5
 74
0
 42
0.0000001
 43
0.0000001
 44
0.0000000001
 40
0.0
 40
0.0
 40
0.0
 40
0.0
 40
0.2363981198
 40
1.0
 40
1.0
 40
1.0
 40
1.0
 10
54.3598515169
 20
71.2343957831
 30
0.0
 10
54.4080287241
 20
71.1851896347
 30
0.0
 10
54.6202771571
 20
70.9853398781
 30
0.0
 10
54.8618992363
 20
70.8179606942
 30
0.0
 10
55.0545408182
 20
70.7067415404
 30
0.0
  0
SPLINE
  5
312
100
AcDbEntity
  8
0
100
AcDbSpline
 62
7
  6
BYLAYER
 70
0
 71
3
 72
11
 73
7
 74
0
 42
0.0000001
 43
0.0000001
 44
0.0000000001
 40
0.0
 40
0.0
 40
0.0
 40
0.0
 40
0.2272070203
 40
0.4647005136
 40
0.7209604825
 40
1.0
 40
1.0
 40
1.0
 40
1.0
 10
84.0464623657
 20
134.4083975696
 30
0.0
 10
84.0485982019
 20
134.3270086046
 30
0.0
 10
84.0294383557
 20
134.1591221637
 30
0.0
 10
83.9325728437
 20
133.9168196161
 30
0.0
 10
83.7719855511
 20
133.6886857218
 30
0.0
 10
83.6325918413
 20
133.5552282277
 30
0.0
 10
83.5551502781
 20
133.4919754375
 30
0.0
  0
SPLINE
  5
313
100
AcDbEntity
  8
0
100
AcDbSpline
 62
7
  6
BYLAYER
 70
0
 71
3
 72
11
 73
7
 74
0
 42
0.0000001
 43
0.0000001
 44
0.0000000001
 40
0.0
 40
0.0
 40
0.0
 40
0.0
 40
0.2360386299
 40
0.4791593054
 40
0.7337766028
 40
1.0
 40
1.0
 40
1.0
 40
1.0
 10
84.3828845932
 20
121.3714879125
 30
0.0
 10
84.3846971283
 20
121.2907008646
 30
0.0
 10
84.3661631777
 20
121.1254785734
 30
0.0
 10
84.27520215
 20
120.8887604587
 30
0.0
 10
84.1277363478
 20
120.6705805416
 30
0.0
 10
84.0023746785
 20
120.5424946975
 30
0.0
 10
83.9338751889
 20
120.482373855
 30
0.0
  0
SPLINE
  5
314
100
AcDbEntity
  8
0
100
AcDbSpline
 62
7
  6
BYLAYER
 70
0
 71
3
 72
11
 73
7
 74
0
 42
0.0000001
 43
0.0000001
 44
0.0000000001
 40
0.0
 40
0.0
 40
0.0
 40
0.0
 40
0.2177442246
 40
0.4508817658
 40
0.7104588047
 40
1.0
 40
1.0
 40
1.0
 40
1.0
 10
57.6280421279
 20
32.5836508153
 30
0.0
 10
57.5785718398
 20
32.6122118798
 30
0.0
 10
57.4859191735
 20
32.689925383
 30
0.0
 10
57.3873594087
 20
32.8511471342
 30
0.0
 10
57.3289296538
 20
33.0497638103
 30
0.0
 10
57.3173316822
 20
33.1942990635
 30
0.0
 10
57.3173316822
 20
33.2702573519
 30
0.0
  0
SPLINE
  5
315
100
AcDbEntity
  8
0
100
AcDbSpline
 62
7
  6
BYLAYER
 70
0
 71
3
 72
13
 73
9
 74
0
 42
0.0000001
 43
0.0000001
 44
0.0000000001
 40
0.0
 40
0.0
 40
0.0
 40
0.0
 40
0.1142237897
 40
0.2375561805
 40
0.5000005219
 40
0.7624445777
 40
0.8857766347
 40
1.0
 40
1.0
 40
1.0
 40
1.0
 10
32.0734306163
 20
89.2817004438
 30
0.0
 10
31.9161525842
 20
89.3725029076
 30
0.0
 10
31.5720720784
 20
89.5326859343
 30
0.0
 10
30.8096155835
 20
89.7643402222
 30
0.0
 10
29.7753299694
 20
89.8768015321
 30
0.0
 10
28.7410453483
 20
89.7643354471
 30
0.0
 10
27.9785917079
 20
89.5326774121
 30
0.0
 10
27.6345133082
 20
89.3724926678
 30
0.0
 10
27.4772365137
 20
89.2816894102
 30
0.0
  0
SPLINE
  5
316
100
AcDbEntity
  8
0
100
AcDbSpline
 62
7
  6
BYLAYER
 70
0
 71
3
 72
11
 73
7
 74
0
 42
0.0000001
 43
0.0000001
 44
0.0000000001
 40
0.0
 40
0.0
 40
0.0
 40
0.0
 40
0.2897018299
 40
0.5490862149
 40
0.782215308
 40
1.0
 40
1.0
 40
1.0
 40
1.0
 10
27.4772365137
 20
89.2816894102
 30
0.0
 10
27.3346316734
 20
89.1993569588
 30
0.0
 10
27.0759079719
 20
89.021161196
 30
0.0
 10
26.76669562
 20
88.6961980903
 30
0.0
 10
26.5710910476
 20
88.3367087154
 30
0.0
 10
26.5253431264
 20
88.0786951155
 30
0.0
 10
26.5253431205
 20
87.954906958
 30
0.0
  0
SPLINE
  5
317
100
AcDbEntity
  8
0
100
AcDbSpline
 62
7
  6
BYLAYER
 70
0
 71
3
 72
9
 73
5
 74
0
 42
0.0000001
 43
0.0000001
 44
0.0000000001
 40
0.0
 40
0.0
 40
0.0
 40
0.0
 40
0.2656637269
 40
1.0
 40
1.0
 40
1.0
 40
1.0
 10
104.1982948978
 20
95.6097022052
 30
0.0
 10
104.2703182644
 20
95.6512853542
 30
0.0
 10
104.5363790261
 20
95.8160679947
 30
0.0
 10
104.7818297559
 20
96.0165100667
 30
0.0
 10
104.9383155319
 20
96.1849094313
 30
0.0
  0
SPLINE
  5
318
100
AcDbEntity
  8
0
100
AcDbSpline
 62
7
  6
BYLAYER
 70
0
 71
3
 72
10
 73
6
 74
0
 42
0.0000001
 43
0.0000001
 44
0.0000000001
 40
0.0
 40
0.0
 40
0.0
 40
0.0
 40
0.5236836973
 40
0.7643202628
 40
1.0
 40
1.0
 40
1.0
 40
1.0
 10
104.9383155319
 20
96.1849094313
 30
0.0
 10
105.1091932114
 20
96.368796385
 30
0.0
 10
105.3218330616
 20
96.6824977829
 30
0.0
 10
105.443489387
 20
97.1499015547
 30
0.0
 10
105.4470731733
 20
97.3808728713
 30
0.0
 10
105.4352559663
 20
97.493224982
 30
0.0
  0
SPLINE
  5
319
100
AcDbEntity
  8
0
100
AcDbSpline
 62
7
  6
BYLAYER
 70
0
 71
3
 72
11
 73
7
 74
0
 42
0.0000001
 43
0.0000001
 44
0.0000000001
 40
0.0
 40
0.0
 40
0.0
 40
0.0
 40
0.2315267439
 40
0.487335657
 40
0.7498677166
 40
1.0
 40
1.0
 40
1.0
 40
1.0
 10
27.4772365137
 20
86.8321821589
 30
0.0
 10
27.7524305497
 20
86.9910645612
 30
0.0
 10
28.3829334453
 20
87.2380991498
 30
0.0
 10
29.404817633
 20
87.403131909
 30
0.0
 10
30.4650177243
 20
87.3735034335
 30
0.0
 10
31.1576487654
 20
87.2176932544
 30
0.0
 10
31.4810694944
 20
87.1025616402
 30
0.0
  0
SPLINE
  5
31A
100
AcDbEntity
  8
0
100
AcDbSpline
 62
7
  6
BYLAYER
 70
0
 71
3
 72
11
 73
7
 74
0
 42
0.0000001
 43
0.0000001
 44
0.0000000001
 40
0.0
 40
0.0
 40
0.0
 40
0.0
 40
0.1950670564
 40
0.421885037
 40
0.6926904082
 40
1.0
 40
1.0
 40
1.0
 40
1.0
 10
56.4835281131
 20
149.7901296859
 30
0.0
 10
56.4835210421
 20
149.8213640724
 30
0.0
 10
56.4626333048
 20
149.8894605261
 30
0.0
 10
56.3836814118
 20
149.9710276209
 30
0.0
 10
56.2690062652
 20
150.0327764761
 30
0.0
 10
56.178986655
 20
150.0574384408
 30
0.0
 10
56.1305379123
 20
150.0660424569
 30
0.0
  0
SPLINE
  5
31B
100
AcDbEntity
  8
0
100
AcDbSpline
 62
7
  6
BYLAYER
 70
0
 71
3
 72
13
 73
9
 74
0
 42
0.0000001
 43
0.0000001
 44
0.0000000001
 40
0.0
 40
0.0
 40
0.0
 40
0.0
 40
0.1142237897
 40
0.2375561805
 40
0.5000005219
 40
0.7624445777
 40
0.8857766347
 40
1.0
 40
1.0
 40
1.0
 40
1.0
 10
60.3578196221
 20
72.952070263
 30
0.0
 10
60.2005415901
 20
73.0428727268
 30
0.0
 10
59.8564610843
 20
73.2030557535
 30
0.0
 10
59.0940045894
 20
73.4347100413
 30
0.0
 10
58.0597189753
 20
73.5471713513
 30
0.0
 10
57.0254343542
 20
73.4347052663
 30
0.0
 10
56.2629807138
 20
73.2030472313
 30
0.0
 10
55.9189023141
 20
73.042862487
 30
0.0
 10
55.7616255196
 20
72.9520592294
 30
0.0
  0
SPLINE
  5
31C
100
AcDbEntity
  8
0
100
AcDbSpline
 62
7
  6
BYLAYER
 70
0
 71
3
 72
11
 73
7
 74
0
 42
0.0000001
 43
0.0000001
 44
0.0000000001
 40
0.0
 40
0.0
 40
0.0
 40
0.0
 40
0.2897018299
 40
0.5490862149
 40
0.782215308
 40
1.0
 40
1.0
 40
1.0
 40
1.0
 10
55.7616255196
 20
72.9520592294
 30
0.0
 10
55.6190206793
 20
72.8697267779
 30
0.0
 10
55.3602969778
 20
72.6915310152
 30
0.0
 10
55.0510846259
 20
72.3665679095
 30
0.0
 10
54.8554800535
 20
72.0070785346
 30
0.0
 10
54.8097321323
 20
71.7490649346
 30
0.0
 10
54.8097321263
 20
71.6252767772
 30
0.0
  0
SPLINE
  5
31D
100
AcDbEntity
  8
0
100
AcDbSpline
 62
7
  6
BYLAYER
 70
0
 71
3
 72
11
 73
7
 74
0
 42
0.0000001
 43
0.0000001
 44
0.0000000001
 40
0.0
 40
0.0
 40
0.0
 40
0.0
 40
0.2895396729
 40
0.5491163863
 40
0.7822545095
 40
1.0
 40
1.0
 40
1.0
 40
1.0
 10
114.9462944151
 20
97.1609965348
 30
0.0
 10
115.0120733679
 20
97.1989738042
 30
0.0
 10
115.1430380794
 20
97.2611942357
 30
0.0
 10
115.3442516914
 20
97.3098989775
 30
0.0
 10
115.5331465178
 20
97.3051554633
 30
0.0
 10
115.6467711101
 20
97.2637757752
 30
0.0
 10
115.6962397253
 20
97.2352156766
 30
0.0
  0
SPLINE
  5
31E
100
AcDbEntity
  8
0
100
AcDbSpline
 62
7
  6
BYLAYER
 70
0
 71
3
 72
11
 73
7
 74
0
 42
0.0000001
 43
0.0000001
 44
0.0000000001
 40
0.0
 40
0.0
 40
0.0
 40
0.0
 40
0.2625374026
 40
0.5234458804
 40
0.7722233778
 40
1.0
 40
1.0
 40
1.0
 40
1.0
 10
19.035213414
 20
64.4012683759
 30
0.0
 10
19.1157148975
 20
64.210883876
 30
0.0
 10
19.3046454899
 20
63.8427312541
 30
0.0
 10
19.6570678674
 20
63.3447621311
 30
0.0
 10
20.0606294235
 20
62.9242744794
 30
0.0
 10
20.3648332843
 20
62.6999310743
 30
0.0
 10
20.5201438368
 20
62.6102645135
 30
0.0
  0
SPLINE
  5
31F
100
AcDbEntity
  8
0
100
AcDbSpline
 62
7
  6
BYLAYER
 70
0
 71
3
 72
11
 73
7
 74
0
 42
0.0000001
 43
0.0000001
 44
0.0000000001
 40
0.0
 40
0.0
 40
0.0
 40
0.0
 40
0.2897160279
 40
0.5490605979
 40
0.7821700378
 40
1.0
 40
1.0
 40
1.0
 40
1.0
 10
23.3485827374
 20
60.9773014955
 30
0.0
 10
23.4582852605
 20
60.913966147
 30
0.0
 10
23.6764877538
 20
60.8101286096
 30
0.0
 10
24.0118941086
 20
60.7291945904
 30
0.0
 10
24.326594978
 20
60.7370982294
 30
0.0
 10
24.5161035487
 20
60.8058552012
 30
0.0
 10
24.5985648509
 20
60.853512069
 30
0.0
  0
SPLINE
  5
320
100
AcDbEntity
  8
0
100
AcDbSpline
 62
7
  6
BYLAYER
 70
0
 71
3
 72
11
 73
7
 74
0
 42
0.0000001
 43
0.0000001
 44
0.0000000001
 40
0.0
 40
0.0
 40
0.0
 40
0.0
 40
0.2315267439
 40
0.487335657
 40
0.7498677166
 40
1.0
 40
1.0
 40
1.0
 40
1.0
 10
55.7616255196
 20
70.502551978
 30
0.0
 10
56.0368195555
 20
70.6614343804
 30
0.0
 10
56.6673224511
 20
70.9084689689
 30
0.0
 10
57.6892066389
 20
71.0735017282
 30
0.0
 10
58.7494067302
 20
71.0438732527
 30
0.0
 10
59.4420377713
 20
70.8880630736
 30
0.0
 10
59.7654585003
 20
70.7729314594
 30
0.0
  0
SPLINE
  5
321
100
AcDbEntity
  8
0
100
AcDbSpline
 62
7
  6
BYLAYER
 70
0
 71
3
 72
11
 73
7
 74
0
 42
0.0000001
 43
0.0000001
 44
0.0000000001
 40
0.0
 40
0.0
 40
0.0
 40
0.0
 40
0.2625374026
 40
0.5234458804
 40
0.7722233778
 40
1.0
 40
1.0
 40
1.0
 40
1.0
 10
47.4452776679
 20
47.9990811982
 30
0.0
 10
47.5257791515
 20
47.8086966983
 30
0.0
 10
47.7147097439
 20
47.4405440764
 30
0.0
 10
48.0671321214
 20
46.9425749534
 30
0.0
 10
48.4706936775
 20
46.5220873017
 30
0.0
 10
48.7748975383
 20
46.2977438966
 30
0.0
 10
48.9302080908
 20
46.2080773359
 30
0.0
  0
SPLINE
  5
322
100
AcDbEntity
  8
0
100
AcDbSpline
 62
7
  6
BYLAYER
 70
0
 71
3
 72
11
 73
7
 74
0
 42
0.0000001
 43
0.0000001
 44
0.0000000001
 40
0.0
 40
0.0
 40
0.0
 40
0.0
 40
0.2177137985
 40
0.4508430858
 40
0.7104430643
 40
1.0
 40
1.0
 40
1.0
 40
1.0
 10
54.9218517148
 20
152.4415092112
 30
0.0
 10
54.8559013939
 20
152.4795764969
 30
0.0
 10
54.7044172465
 20
152.5347297059
 30
0.0
 10
54.4525707953
 20
152.5410602097
 30
0.0
 10
54.184286144
 20
152.4761022048
 30
0.0
 10
54.009656348
 20
152.3931449836
 30
0.0
 10
53.9219482913
 20
152.3425070157
 30
0.0
  0
SPLINE
  5
323
100
AcDbEntity
  8
0
100
AcDbSpline
 62
7
  6
BYLAYER
 70
0
 71
3
 72
11
 73
7
 74
0
 42
0.0000001
 43
0.0000001
 44
0.0000000001
 40
0.0
 40
0.0
 40
0.0
 40
0.0
 40
0.2897160279
 40
0.5490605979
 40
0.7821700378
 40
1.0
 40
1.0
 40
1.0
 40
1.0
 10
51.7586469913
 20
44.5751143178
 30
0.0
 10
51.8683495145
 20
44.5117789693
 30
0.0
 10
52.0865520078
 20
44.407941432
 30
0.0
 10
52.4219583626
 20
44.3270074127
 30
0.0
 10
52.736659232
 20
44.3349110517
 30
0.0
 10
52.9261678027
 20
44.4036680235
 30
0.0
 10
53.0086291049
 20
44.4513248913
 30
0.0
  0
SPLINE
  5
324
100
AcDbEntity
  8
0
100
AcDbSpline
 62
7
  6
BYLAYER
 70
0
 71
3
 72
11
 73
7
 74
0
 42
0.0000001
 43
0.0000001
 44
0.0000000001
 40
0.0
 40
0.0
 40
0.0
 40
0.0
 40
0.2897160279
 40
0.5490605979
 40
0.7821700378
 40
1.0
 40
1.0
 40
1.0
 40
1.0
 10
37.5536148643
 20
52.7762079066
 30
0.0
 10
37.6633173875
 20
52.7128725582
 30
0.0
 10
37.8815198808
 20
52.6090350208
 30
0.0
 10
38.2169262356
 20
52.5281010015
 30
0.0
 10
38.531627105
 20
52.5360046405
 30
0.0
 10
38.7211356757
 20
52.6047616123
 30
0.0
 10
38.8035969779
 20
52.6524184801
 30
0.0
  0
SPLINE
  5
325
100
AcDbEntity
  8
0
100
AcDbSpline
 62
7
  6
BYLAYER
 70
0
 71
3
 72
11
 73
7
 74
0
 42
0.0000001
 43
0.0000001
 44
0.0000000001
 40
0.0
 40
0.0
 40
0.0
 40
0.0
 40
0.2625374026
 40
0.5234458804
 40
0.7722233778
 40
1.0
 40
1.0
 40
1.0
 40
1.0
 10
33.240245541
 20
56.200174787
 30
0.0
 10
33.3207470245
 20
56.0097902872
 30
0.0
 10
33.5096776169
 20
55.6416376653
 30
0.0
 10
33.8620999944
 20
55.1436685423
 30
0.0
 10
34.2656615505
 20
54.7231808905
 30
0.0
 10
34.5698654113
 20
54.4988374855
 30
0.0
 10
34.7251759638
 20
54.4091709247
 30
0.0
  0
SPLINE
  5
326
100
AcDbEntity
  8
0
100
AcDbSpline
 62
7
  6
BYLAYER
 70
0
 71
3
 72
11
 73
7
 74
0
 42
0.0000001
 43
0.0000001
 44
0.0000000001
 40
0.0
 40
0.0
 40
0.0
 40
0.0
 40
0.2635941939
 40
0.5139320729
 40
0.7572742933
 40
1.0
 40
1.0
 40
1.0
 40
1.0
 10
42.9842108199
 20
116.9167580735
 30
0.0
 10
42.9842048251
 20
116.4863934261
 30
0.0
 10
43.0309934737
 20
115.6461015941
 30
0.0
 10
43.2635565457
 20
114.4278075155
 30
0.0
 10
43.656314767
 20
113.2871807346
 30
0.0
 10
44.0202549771
 20
112.5786276984
 30
0.0
 10
44.2241784536
 20
112.238828573
 30
0.0
  0
SPLINE
  5
327
100
AcDbEntity
  8
0
100
AcDbSpline
 62
7
  6
BYLAYER
 70
0
 71
3
 72
25
 73
21
 74
0
 42
0.0000001
 43
0.0000001
 44
0.0000000001
 40
0.0
 40
0.0
 40
0.0
 40
0.0
 40
0.0213320922
 40
0.0428927206
 40
0.0648979428
 40
0.0875430018
 40
0.1353181166
 40
0.1872188675
 40
0.2436562172
 40
0.304603756
 40
0.3696912393
 40
0.4382883801
 40
0.5095748204
 40
0.5825991574
 40
0.65633111
 40
0.7297074456
 40
0.8016840539
 40
0.871275082
 40
0.9376185791
 40
1.0
 40
1.0
 40
1.0
 40
1.0
 10
42.9842448771
 20
110.2045915756
 30
0.0
 10
42.9842241503
 20
109.8854002447
 30
0.0
 10
43.0254274715
 20
109.2428536264
 30
0.0
 10
43.2100757311
 20
108.287071455
 30
0.0
 10
43.5162576392
 20
107.3422831892
 30
0.0
 10
44.094043482
 20
106.0828465689
 30
0.0
 10
45.1306655394
 20
104.5573743207
 30
0.0
 10
46.7867035111
 20
102.89473397
 30
0.0
 10
48.8389799819
 20
101.3949981384
 30
0.0
 10
51.2435435474
 20
100.0872191528
 30
0.0
 10
53.9501177402
 20
98.9968332502
 30
0.0
 10
56.9018178007
 20
98.1461745891
 30
0.0
 10
60.036249732
 20
97.5529577725
 30
0.0
 10
63.2868271655
 20
97.2297119669
 30
0.0
 10
66.5842652083
 20
97.183332308
 30
0.0
 10
69.8582526637
 20
97.4147536064
 30
0.0
 10
73.0388926808
 20
97.9191339111
 30
0.0
 10
76.0588612972
 20
98.6857156688
 30
0.0
 10
78.8533976018
 20
99.6983296638
 30
0.0
 10
80.585814658
 20
100.5524713666
 30
0.0
 10
81.3941734742
 20
101.0191747609
 30
0.0
  0
SPLINE
  5
328
100
AcDbEntity
  8
0
100
AcDbSpline
 62
7
  6
BYLAYER
 70
0
 71
3
 72
11
 73
7
 74
0
 42
0.0000001
 43
0.0000001
 44
0.0000000001
 40
0.0
 40
0.0
 40
0.0
 40
0.0
 40
0.2808036211
 40
0.5401401174
 40
0.7786803201
 40
1.0
 40
1.0
 40
1.0
 40
1.0
 10
26.3105113552
 20
102.7743921129
 30
0.0
 10
26.0613991487
 20
102.9182138587
 30
0.0
 10
25.5980742549
 20
103.2241255699
 30
0.0
 10
25.0001872048
 20
103.7570300127
 30
0.0
 10
24.5393526562
 20
104.3369571747
 30
0.0
 10
24.3247630164
 20
104.7612989523
 30
0.0
 10
24.247173279
 20
104.9743230964
 30
0.0
  0
SPLINE
  5
329
100
AcDbEntity
  8
0
100
AcDbSpline
 62
7
  6
BYLAYER
 70
0
 71
3
 72
9
 73
5
 74
0
 42
0.0000001
 43
0.0000001
 44
0.0000000001
 40
0.0
 40
0.0
 40
0.0
 40
0.0
 40
0.5051987377
 40
1.0
 40
1.0
 40
1.0
 40
1.0
 10
24.247173279
 20
104.9743230964
 30
0.0
 10
24.1941052705
 20
105.1200223537
 30
0.0
 10
24.1123535893
 20
105.4176206477
 30
0.0
 10
24.0845563859
 20
105.7251761758
 30
0.0
 10
24.084556384
 20
105.8770476823
 30
0.0
  0
SPLINE
  5
32A
100
AcDbEntity
  8
0
100
AcDbSpline
 62
7
  6
BYLAYER
 70
0
 71
3
 72
15
 73
11
 74
0
 42
0.0000001
 43
0.0000001
 44
0.0000000001
 40
0.0
 40
0.0
 40
0.0
 40
0.0
 40
0.1141464977
 40
0.2373352781
 40
0.3669759338
 40
0.4999994786
 40
0.633023096
 40
0.7626639634
 40
0.8858530776
 40
1.0
 40
1.0
 40
1.0
 40
1.0
 10
70.8583792911
 20
83.2605098819
 30
0.0
 10
70.4905128814
 20
83.0481233789
 30
0.0
 10
69.6860009672
 20
82.6735456813
 30
0.0
 10
68.3759994152
 20
82.2752992489
 30
0.0
 10
66.9576472852
 20
82.0303109382
 30
0.0
 10
65.4843768171
 20
81.9475513582
 30
0.0
 10
64.0111051712
 20
82.0303039457
 30
0.0
 10
62.5927495618
 20
82.2752855219
 30
0.0
 10
61.2827423699
 20
82.673525727
 30
0.0
 10
60.4782255272
 20
83.0480994064
 30
0.0
 10
60.1103562172
 20
83.2604840468
 30
0.0
  0
SPLINE
  5
32B
100
AcDbEntity
  8
0
100
AcDbSpline
 62
7
  6
BYLAYER
 70
0
 71
3
 72
11
 73
7
 74
0
 42
0.0000001
 43
0.0000001
 44
0.0000000001
 40
0.0
 40
0.0
 40
0.0
 40
0.0
 40
0.2897048043
 40
0.5490913404
 40
0.7822177947
 40
1.0
 40
1.0
 40
1.0
 40
1.0
 10
105.7893000176
 20
104.6524984457
 30
0.0
 10
105.9209358549
 20
104.728497978
 30
0.0
 10
106.1597564465
 20
104.8929902331
 30
0.0
 10
106.445180327
 20
105.1929577265
 30
0.0
 10
106.6257301164
 20
105.5247944505
 30
0.0
 10
106.6679558937
 20
105.7629566748
 30
0.0
 10
106.6679558726
 20
105.8772207092
 30
0.0
  0
SPLINE
  5
32C
100
AcDbEntity
  8
0
100
AcDbSpline
 62
7
  6
BYLAYER
 70
0
 71
3
 72
13
 73
9
 74
0
 42
0.0000001
 43
0.0000001
 44
0.0000000001
 40
0.0
 40
0.0
 40
0.0
 40
0.0
 40
0.1142253587
 40
0.237559206
 40
0.5000004539
 40
0.7624414493
 40
0.885775028
 40
1.0
 40
1.0
 40
1.0
 40
1.0
 10
63.363052121
 20
82.6073039386
 30
0.0
 10
63.50823369
 20
82.5234852168
 30
0.0
 10
63.8258519961
 20
82.3756258524
 30
0.0
 10
64.5296580301
 20
82.1617944947
 30
0.0
 10
65.4843755267
 20
82.0579919005
 30
0.0
 10
66.4390922279
 20
82.1617987997
 30
0.0
 10
67.1428958135
 20
82.3756336832
 30
0.0
 10
67.4605123349
 20
82.5234946517
 30
0.0
 10
67.6056928081
 20
82.6073141366
 30
0.0
  0
SPLINE
  5
32D
100
AcDbEntity
  8
0
100
AcDbSpline
 62
7
  6
BYLAYER
 70
0
 71
3
 72
9
 73
5
 74
0
 42
0.0000001
 43
0.0000001
 44
0.0000000001
 40
0.0
 40
0.0
 40
0.0
 40
0.0
 40
0.2605006528
 40
1.0
 40
1.0
 40
1.0
 40
1.0
 10
105.0821785166
 20
111.0211718278
 30
0.0
 10
105.1070549741
 20
111.0068097233
 30
0.0
 10
105.2012383766
 20
110.9494742912
 30
0.0
 10
105.2900873746
 20
110.8830891416
 30
0.0
 10
105.3507481043
 20
110.8285963208
 30
0.0
  0
SPLINE
  5
32E
100
AcDbEntity
  8
0
100
AcDbSpline
 62
7
  6
BYLAYER
 70
0
 71
3
 72
15
 73
11
 74
0
 42
0.0000001
 43
0.0000001
 44
0.0000000001
 40
0.0
 40
0.0
 40
0.0
 40
0.0
 40
0.1325783865
 40
0.2532723824
 40
0.3660683121
 40
0.476613296
 40
0.5910143154
 40
0.7145643754
 40
0.8506729682
 40
1.0
 40
1.0
 40
1.0
 40
1.0
 10
105.3507481043
 20
110.8285963208
 30
0.0
 10
105.4089212087
 20
110.7763381865
 30
0.0
 10
105.5117647428
 20
110.6663491778
 30
0.0
 10
105.6213465129
 20
110.4778192369
 30
0.0
 10
105.6737015439
 20
110.2788863374
 30
0.0
 10
105.665635718
 20
110.0768535366
 30
0.0
 10
105.5975245975
 20
109.8801141263
 30
0.0
 10
105.473529326
 20
109.695157568
 30
0.0
 10
105.298667913
 20
109.5269030534
 30
0.0
 10
105.1584677166
 20
109.4322405395
 30
0.0
 10
105.0821902925
 20
109.388202011
 30
0.0
  0
SPLINE
  5
32F
100
AcDbEntity
  8
0
100
AcDbSpline
 62
7
  6
BYLAYER
 70
0
 71
3
 72
11
 73
7
 74
0
 42
0.0000001
 43
0.0000001
 44
0.0000000001
 40
0.0
 40
0.0
 40
0.0
 40
0.0
 40
0.2372524156
 40
0.4999996414
 40
0.7627470637
 40
1.0
 40
1.0
 40
1.0
 40
1.0
 10
66.8985830829
 20
87.343017702
 30
0.0
 10
66.6977949266
 20
87.2270932978
 30
0.0
 10
66.2308929373
 20
87.0579047794
 30
0.0
 10
65.4843713336
 20
86.9770162919
 30
0.0
 10
64.7378488625
 20
87.0579015329
 30
0.0
 10
64.2709453912
 20
87.2270876926
 30
0.0
 10
64.0701559582
 20
87.3430109033
 30
0.0
  0
SPLINE
  5
330
100
AcDbEntity
  8
0
100
AcDbSpline
 62
7
  6
BYLAYER
 70
0
 71
3
 72
15
 73
11
 74
0
 42
0.0000001
 43
0.0000001
 44
0.0000000001
 40
0.0
 40
0.0
 40
0.0
 40
0.0
 40
0.1493278097
 40
0.2854373937
 40
0.4089883102
 40
0.5233898637
 40
0.6339349121
 40
0.7467303439
 40
0.8674232378
 40
1.0
 40
1.0
 40
1.0
 40
1.0
 10
25.8862308003
 20
109.3880116473
 30
0.0
 10
25.8099532885
 20
109.432049493
 30
0.0
 10
25.6697526746
 20
109.5267107162
 30
0.0
 10
25.4948896175
 20
109.6949628169
 30
0.0
 10
25.370891768
 20
109.8799170372
 30
0.0
 10
25.3027767205
 20
110.07665411
 30
0.0
 10
25.2947060679
 20
110.2786850513
 30
0.0
 10
25.3470550094
 20
110.4776168523
 30
0.0
 10
25.4566303202
 20
110.6661463051
 30
0.0
 10
25.5594693515
 20
110.7761356411
 30
0.0
 10
25.617640164
 20
110.8283939306
 30
0.0
  0
SPLINE
  5
331
100
AcDbEntity
  8
0
100
AcDbSpline
 62
7
  6
BYLAYER
 70
0
 71
3
 72
9
 73
5
 74
0
 42
0.0000001
 43
0.0000001
 44
0.0000000001
 40
0.0
 40
0.0
 40
0.0
 40
0.0
 40
0.2396688464
 40
1.0
 40
1.0
 40
1.0
 40
1.0
 10
25.617640164
 20
110.8283939306
 30
0.0
 10
25.6373016234
 20
110.8460569852
 30
0.0
 10
25.7215154398
 20
110.9173193047
 30
0.0
 10
25.8136045424
 20
110.9790577236
 30
0.0
 10
25.8862190244
 20
111.0209814641
 30
0.0
  0
SPLINE
  5
332
100
AcDbEntity
  8
0
100
AcDbSpline
 62
7
  6
BYLAYER
 70
0
 71
3
 72
14
 73
10
 74
0
 42
0.0000001
 43
0.0000001
 44
0.0000000001
 40
0.0
 40
0.0
 40
0.0
 40
0.0
 40
0.2892814117
 40
0.4225434355
 40
0.5484949253
 40
0.6678955147
 40
0.7818684504
 40
0.8919515062
 40
1.0
 40
1.0
 40
1.0
 40
1.0
 10
81.3941734742
 20
101.0191747609
 30
0.0
 10
82.3818150393
 20
101.5893864806
 30
0.0
 10
83.7649458431
 20
102.5416744134
 30
0.0
 10
85.3297730845
 20
104.0393253045
 30
0.0
 10
86.2820954754
 20
105.193797982
 30
0.0
 10
87.03508652
 20
106.3989390794
 30
0.0
 10
87.579997339
 20
107.6442803991
 30
0.0
 10
87.9102287337
 20
108.9169643695
 30
0.0
 10
87.9841367802
 20
109.7786344017
 30
0.0
 10
87.9841644398
 20
110.2045918995
 30
0.0
  0
SPLINE
  5
333
100
AcDbEntity
  8
0
100
AcDbSpline
 62
7
  6
BYLAYER
 70
0
 71
3
 72
11
 73
7
 74
0
 42
0.0000001
 43
0.0000001
 44
0.0000000001
 40
0.0
 40
0.0
 40
0.0
 40
0.0
 40
0.2372460005
 40
0.4999983822
 40
0.7627516439
 40
1.0
 40
1.0
 40
1.0
 40
1.0
 10
25.8862308003
 20
109.3880116473
 30
0.0
 10
25.7858391235
 20
109.3300508317
 30
0.0
 10
25.595849671
 20
109.1701775459
 30
0.0
 10
25.3741890433
 20
108.8671443899
 30
0.0
 10
25.2225862732
 20
108.5236622273
 30
0.0
 10
25.179126963
 20
108.2791883776
 30
0.0
 10
25.179126963
 20
108.1632650763
 30
0.0
  0
SPLINE
  5
334
100
AcDbEntity
  8
0
100
AcDbSpline
 62
7
  6
BYLAYER
 70
0
 71
3
 72
11
 73
7
 74
0
 42
0.0000001
 43
0.0000001
 44
0.0000000001
 40
0.0
 40
0.0
 40
0.0
 40
0.0
 40
0.2897023113
 40
0.5490868678
 40
0.7822157677
 40
1.0
 40
1.0
 40
1.0
 40
1.0
 10
25.179126963
 20
108.1632650763
 30
0.0
 10
25.0474892634
 20
108.2392644183
 30
0.0
 10
24.8086628526
 20
108.4037534422
 30
0.0
 10
24.5232302674
 20
108.7037216089
 30
0.0
 10
24.3426683116
 20
109.0355611698
 30
0.0
 10
24.3004384692
 20
109.2737303158
 30
0.0
 10
24.3004384747
 20
109.387997538
 30
0.0
  0
SPLINE
  5
335
100
AcDbEntity
  8
0
100
AcDbSpline
 62
7
  6
BYLAYER
 70
0
 71
3
 72
11
 73
7
 74
0
 42
0.0000001
 43
0.0000001
 44
0.0000000001
 40
0.0
 40
0.0
 40
0.0
 40
0.0
 40
0.2372465045
 40
0.4999989083
 40
0.7627519059
 40
1.0
 40
1.0
 40
1.0
 40
1.0
 10
66.8985830829
 20
87.343017702
 30
0.0
 10
66.998975448
 20
87.2850574542
 30
0.0
 10
67.188966388
 20
87.1251852785
 30
0.0
 10
67.4106290044
 20
86.8221530892
 30
0.0
 10
67.5622331402
 20
86.4786715099
 30
0.0
 10
67.6056928081
 20
86.2341977694
 30
0.0
 10
67.6056928081
 20
86.1182745303
 30
0.0
  0
SPLINE
  5
336
100
AcDbEntity
  8
0
100
AcDbSpline
 62
7
  6
BYLAYER
 70
0
 71
3
 72
13
 73
9
 74
0
 42
0.0000001
 43
0.0000001
 44
0.0000000001
 40
0.0
 40
0.0
 40
0.0
 40
0.0
 40
0.1142233651
 40
0.237555422
 40
0.4999994775
 40
0.7624438189
 40
0.88577621
 40
1.0
 40
1.0
 40
1.0
 40
1.0
 10
67.6056928081
 20
86.1182745303
 30
0.0
 10
67.4605142295
 20
86.0344561392
 30
0.0
 10
67.1429034014
 20
85.8865932992
 30
0.0
 10
66.4391000462
 20
85.6727551136
 30
0.0
 10
65.4843757871
 20
85.5689402648
 30
0.0
 10
64.52965061
 20
85.6727506997
 30
0.0
 10
63.8258446168
 20
85.8865854232
 30
0.0
 10
63.508231843
 20
86.0344466769
 30
0.0
 10
63.36305212
 20
86.1182643328
 30
0.0
  0
SPLINE
  5
337
100
AcDbEntity
  8
0
100
AcDbSpline
 62
7
  6
BYLAYER
 70
0
 71
3
 72
11
 73
7
 74
0
 42
0.0000001
 43
0.0000001
 44
0.0000000001
 40
0.0
 40
0.0
 40
0.0
 40
0.0
 40
0.2372483561
 40
0.5000016178
 40
0.7627539995
 40
1.0
 40
1.0
 40
1.0
 40
1.0
 10
63.363052121
 20
86.1182643323
 30
0.0
 10
63.363052121
 20
86.2341876335
 30
0.0
 10
63.4065114311
 20
86.4786614832
 30
0.0
 10
63.5581142013
 20
86.8221436458
 30
0.0
 10
63.7797748289
 20
87.1251768018
 30
0.0
 10
63.9697642814
 20
87.2850500876
 30
0.0
 10
64.0701559582
 20
87.3430109033
 30
0.0
  0
SPLINE
  5
338
100
AcDbEntity
  8
0
100
AcDbSpline
 62
7
  6
BYLAYER
 70
0
 71
3
 72
11
 73
7
 74
0
 42
0.0000001
 43
0.0000001
 44
0.0000000001
 40
0.0
 40
0.0
 40
0.0
 40
0.0
 40
0.2895353844
 40
0.5491065881
 40
0.7822495581
 40
1.0
 40
1.0
 40
1.0
 40
1.0
 10
105.0821785166
 20
111.0211718278
 30
0.0
 10
105.1260309914
 20
111.0464899148
 30
0.0
 10
105.2133388938
 20
111.0879727974
 30
0.0
 10
105.347481586
 20
111.1204434976
 30
0.0
 10
105.4734137148
 20
111.1172868547
 30
0.0
 10
105.5491666048
 20
111.0897001806
 30
0.0
 10
105.5821468045
 20
111.0706594783
 30
0.0
  0
SPLINE
  5
339
100
AcDbEntity
  8
0
100
AcDbSpline
 62
7
  6
BYLAYER
 70
0
 71
3
 72
11
 73
7
 74
0
 42
0.0000001
 43
0.0000001
 44
0.0000000001
 40
0.0
 40
0.0
 40
0.0
 40
0.0
 40
0.2372480941
 40
0.5000010917
 40
0.7627534955
 40
1.0
 40
1.0
 40
1.0
 40
1.0
 10
105.7893000176
 20
108.1634588394
 30
0.0
 10
105.7893000176
 20
108.2793820785
 30
0.0
 10
105.7458403497
 20
108.523855819
 30
0.0
 10
105.594236214
 20
108.8673373983
 30
0.0
 10
105.3725735975
 20
109.1703695875
 30
0.0
 10
105.1825826576
 20
109.3302417632
 30
0.0
 10
105.0821902925
 20
109.388202011
 30
0.0
  0
SPLINE
  5
33A
100
AcDbEntity
  8
0
100
AcDbSpline
 62
7
  6
BYLAYER
 70
0
 71
3
 72
9
 73
5
 74
0
 42
0.0000001
 43
0.0000001
 44
0.0000000001
 40
0.0
 40
0.0
 40
0.0
 40
0.0
 40
0.5000680724
 40
1.0
 40
1.0
 40
1.0
 40
1.0
 10
83.5547319132
 20
133.4921550356
 30
0.0
 10
83.6185925522
 20
131.3235822491
 30
0.0
 10
83.7475536858
 20
126.9870637205
 30
0.0
 10
83.8714194796
 20
122.6503966574
 30
0.0
 10
83.9338751877
 20
120.482373854
 30
0.0
  0
SPLINE
  5
33B
100
AcDbEntity
  8
0
100
AcDbSpline
 62
7
  6
BYLAYER
 70
0
 71
3
 72
22
 73
18
 74
0
 42
0.0000001
 43
0.0000001
 44
0.0000000001
 40
0.0
 40
0.0
 40
0.0
 40
0.0
 40
0.210524906
 40
0.304028948
 40
0.389190843
 40
0.4658167352
 40
0.5338554075
 40
0.5934688726
 40
0.6451564833
 40
0.6899441757
 40
0.7296053651
 40
0.7667329744
 40
0.8043472728
 40
0.8451095559
 40
0.8907989005
 40
0.9423285726
 40
1.0
 40
1.0
 40
1.0
 40
1.0
 10
83.9338751877
 20
120.482373854
 30
0.0
 10
83.9523931603
 20
119.8356800084
 30
0.0
 10
84.0441615349
 20
118.8997893866
 30
0.0
 10
84.3312754279
 20
117.7370776724
 30
0.0
 10
84.5978538124
 20
116.9974972166
 30
0.0
 10
84.9137806364
 20
116.3638104065
 30
0.0
 10
85.2671721289
 20
115.8423692191
 30
0.0
 10
85.6452636806
 20
115.4377497863
 30
0.0
 10
86.0353418863
 20
115.1526968815
 30
0.0
 10
86.4254505392
 20
114.9889308359
 30
0.0
 10
86.8034287837
 20
114.949012372
 30
0.0
 10
87.1521067456
 20
115.0348820842
 30
0.0
 10
87.4510433564
 20
115.2385889797
 30
0.0
 10
87.6882124061
 20
115.5433810372
 30
0.0
 10
87.8598237002
 20
115.9348214066
 30
0.0
 10
87.9633683694
 20
116.4017817795
 30
0.0
 10
87.9841320509
 20
116.7380296111
 30
0.0
 10
87.9841981903
 20
116.9152582465
 30
0.0
  0
SPLINE
  5
33C
100
AcDbEntity
  8
0
100
AcDbSpline
 62
7
  6
BYLAYER
 70
0
 71
3
 72
9
 73
5
 74
0
 42
0.0000001
 43
0.0000001
 44
0.0000000001
 40
0.0
 40
0.0
 40
0.0
 40
0.0
 40
0.2426964861
 40
1.0
 40
1.0
 40
1.0
 40
1.0
 10
83.5547319132
 20
133.4921550356
 30
0.0
 10
83.3886825009
 20
133.3629260344
 30
0.0
 10
82.694500139
 20
132.8433540641
 30
0.0
 10
81.9627710362
 20
132.3745446077
 30
0.0
 10
81.3941734742
 20
132.0462666118
 30
0.0
  0
SPLINE
  5
33D
100
AcDbEntity
  8
0
100
AcDbSpline
 62
7
  6
BYLAYER
 70
0
 71
3
 72
9
 73
5
 74
0
 42
0.0000001
 43
0.0000001
 44
0.0000000001
 40
0.0
 40
0.0
 40
0.0
 40
0.0
 40
0.2441293427
 40
1.0
 40
1.0
 40
1.0
 40
1.0
 10
81.2271528564
 20
131.9508396307
 30
0.0
 10
81.0425112669
 20
131.8464410838
 30
0.0
 10
80.2798901242
 20
131.4299884138
 30
0.0
 10
79.4935008681
 20
131.057438897
 30
0.0
 10
78.8898034509
 20
130.7988734088
 30
0.0
  0
SPLINE
  5
33E
100
AcDbEntity
  8
0
100
AcDbSpline
 62
7
  6
BYLAYER
 70
0
 71
3
 72
9
 73
5
 74
0
 42
0.0000001
 43
0.0000001
 44
0.0000000001
 40
0.0
 40
0.0
 40
0.0
 40
0.0
 40
0.4999192023
 40
1.0
 40
1.0
 40
1.0
 40
1.0
 10
78.363009509
 20
117.2660522536
 30
0.0
 10
78.4513357712
 20
119.5211368837
 30
0.0
 10
78.6288249412
 20
124.0320036659
 30
0.0
 10
78.8024923242
 20
128.5430192012
 30
0.0
 10
78.8898034509
 20
130.7988734088
 30
0.0
  0
SPLINE
  5
33F
100
AcDbEntity
  8
0
100
AcDbSpline
 62
7
  6
BYLAYER
 70
0
 71
3
 72
10
 73
6
 74
0
 42
0.0000001
 43
0.0000001
 44
0.0000000001
 40
0.0
 40
0.0
 40
0.0
 40
0.0
 40
0.2931837465
 40
0.6758712691
 40
1.0
 40
1.0
 40
1.0
 40
1.0
 10
53.2702208449
 20
152.3701328835
 30
0.0
 10
53.2142980986
 20
152.4136446118
 30
0.0
 10
53.0791530851
 20
152.5061484041
 30
0.0
 10
52.8559920073
 20
152.6057307186
 30
0.0
 10
52.6806798547
 20
152.6208852417
 30
0.0
 10
52.6031866681
 20
152.6094311422
 30
0.0
  0
SPLINE
  5
340
100
AcDbEntity
  8
0
100
AcDbSpline
 62
7
  6
BYLAYER
 70
0
 71
3
 72
9
 73
5
 74
0
 42
0.0000001
 43
0.0000001
 44
0.0000000001
 40
0.0
 40
0.0
 40
0.0
 40
0.0
 40
0.2530230979
 40
1.0
 40
1.0
 40
1.0
 40
1.0
 10
52.6031866681
 20
152.6094311422
 30
0.0
 10
52.5927371263
 20
152.6078866182
 30
0.0
 10
52.551638601
 20
152.6005030772
 30
0.0
 10
52.5114850446
 20
152.5878155599
 30
0.0
 10
52.4828263739
 20
152.5755213888
 30
0.0
  0
SPLINE
  5
341
100
AcDbEntity
  8
0
100
AcDbSpline
 62
7
  6
BYLAYER
 70
0
 71
3
 72
11
 73
7
 74
0
 42
0.0000001
 43
0.0000001
 44
0.0000000001
 40
0.0
 40
0.0
 40
0.0
 40
0.0
 40
0.217784692
 40
0.450913785
 40
0.7102981701
 40
1.0
 40
1.0
 40
1.0
 40
1.0
 10
106.6679708422
 20
109.3881811029
 30
0.0
 10
106.6679708367
 20
109.2739151114
 30
0.0
 10
106.6257419863
 20
109.0357487113
 30
0.0
 10
106.4451839193
 20
108.703912365
 30
0.0
 10
106.1597571325
 20
108.4039464212
 30
0.0
 10
105.9209352539
 20
108.2394580248
 30
0.0
 10
105.7893000166
 20
108.1634588388
 30
0.0
  0
SPLINE
  5
342
100
AcDbEntity
  8
0
100
AcDbSpline
 62
7
  6
BYLAYER
 70
0
 71
3
 72
11
 73
7
 74
0
 42
0.0000001
 43
0.0000001
 44
0.0000000001
 40
0.0
 40
0.0
 40
0.0
 40
0.0
 40
0.2372524156
 40
0.4999996414
 40
0.7627470637
 40
1.0
 40
1.0
 40
1.0
 40
1.0
 10
78.4950236011
 20
135.3530585396
 30
0.0
 10
78.3243536683
 20
135.2545227961
 30
0.0
 10
77.9274869774
 20
135.1107125554
 30
0.0
 10
77.2929436142
 20
135.041957341
 30
0.0
 10
76.6583995138
 20
135.1107097959
 30
0.0
 10
76.2615315632
 20
135.2545180316
 30
0.0
 10
76.0908605451
 20
135.3530527607
 30
0.0
  0
SPLINE
  5
343
100
AcDbEntity
  8
0
100
AcDbSpline
 62
7
  6
BYLAYER
 70
0
 71
3
 72
12
 73
8
 74
0
 42
0.0000001
 43
0.0000001
 44
0.0000000001
 40
0.0
 40
0.0
 40
0.0
 40
0.0
 40
0.2825064424
 40
0.5155306933
 40
0.6258634045
 40
0.7402898304
 40
1.0
 40
1.0
 40
1.0
 40
1.0
 10
49.0677710158
 20
149.5400086057
 30
0.0
 10
49.029851303
 20
149.5619134673
 30
0.0
 10
48.9645715602
 20
149.6113408675
 30
0.0
 10
48.919423621
 20
149.7032966782
 30
0.0
 10
48.9216260803
 20
149.7754631561
 30
0.0
 10
48.946717618
 20
149.8472713063
 30
0.0
 10
48.9882061473
 20
149.8915704686
 30
0.0
 10
49.0199840513
 20
149.916286562
 30
0.0
  0
SPLINE
  5
344
100
AcDbEntity
  8
0
100
AcDbSpline
 62
7
  6
BYLAYER
 70
0
 71
3
 72
9
 73
5
 74
0
 42
0.0000001
 43
0.0000001
 44
0.0000000001
 40
0.0
 40
0.0
 40
0.0
 40
0.0
 40
0.2422123207
 40
1.0
 40
1.0
 40
1.0
 40
1.0
 10
49.0199840513
 20
149.916286562
 30
0.0
 10
49.1821246137
 20
150.0424734759
 30
0.0
 10
49.8620234864
 20
150.5499216855
 30
0.0
 10
50.5810823249
 20
151.0041937816
 30
0.0
 10
51.1406296336
 20
151.3205684732
 30
0.0
  0
SPLINE
  5
345
100
AcDbEntity
  8
0
100
AcDbSpline
 62
7
  6
BYLAYER
 70
0
 71
3
 72
9
 73
5
 74
0
 42
0.0000001
 43
0.0000001
 44
0.0000000001
 40
0.0
 40
0.0
 40
0.0
 40
0.0
 40
0.2441294064
 40
1.0
 40
1.0
 40
1.0
 40
1.0
 10
51.1406296336
 20
151.3205684732
 30
0.0
 10
51.3088555562
 20
151.4156854071
 30
0.0
 10
52.0036752029
 20
151.795113065
 30
0.0
 10
52.7201492422
 20
152.1345421325
 30
0.0
 10
53.2701744031
 20
152.3701196257
 30
0.0
  0
SPLINE
  5
346
100
AcDbEntity
  8
0
100
AcDbSpline
 62
7
  6
BYLAYER
 70
0
 71
3
 72
11
 73
7
 74
0
 42
0.0000001
 43
0.0000001
 44
0.0000000001
 40
0.0
 40
0.0
 40
0.0
 40
0.0
 40
0.2457308404
 40
0.5084452904
 40
0.7666401653
 40
1.0
 40
1.0
 40
1.0
 40
1.0
 10
53.2701744031
 20
152.3701196257
 30
0.0
 10
53.3207348904
 20
152.3917867862
 30
0.0
 10
53.4317477668
 20
152.4221157627
 30
0.0
 10
53.6041446011
 20
152.4321059722
 30
0.0
 10
53.7723855946
 20
152.4083061309
 30
0.0
 10
53.8766527046
 20
152.3686414005
 30
0.0
 10
53.9218997294
 20
152.3425350523
 30
0.0
  0
SPLINE
  5
347
100
AcDbEntity
  8
0
100
AcDbSpline
 62
7
  6
BYLAYER
 70
0
 71
3
 72
9
 73
5
 74
0
 42
0.0000001
 43
0.0000001
 44
0.0000000001
 40
0.0
 40
0.0
 40
0.0
 40
0.0
 40
0.5219312254
 40
1.0
 40
1.0
 40
1.0
 40
1.0
 10
52.5255163113
 20
150.7062585283
 30
0.0
 10
52.4376948826
 20
150.7218547428
 30
0.0
 10
52.2642182156
 20
150.7245232996
 30
0.0
 10
52.095713158
 20
150.6753156628
 30
0.0
 10
52.0249590693
 20
150.6344660145
 30
0.0
  0
SPLINE
  5
348
100
AcDbEntity
  8
0
100
AcDbSpline
 62
7
  6
BYLAYER
 70
0
 71
3
 72
11
 73
7
 74
0
 42
0.0000001
 43
0.0000001
 44
0.0000000001
 40
0.0
 40
0.0
 40
0.0
 40
0.0
 40
0.2892992611
 40
0.5490232734
 40
0.7821458825
 40
1.0
 40
1.0
 40
1.0
 40
1.0
 10
52.0249590693
 20
150.6344660145
 30
0.0
 10
52.003051023
 20
150.6218174736
 30
0.0
 10
51.9632951749
 20
150.5943541716
 30
0.0
 10
51.9156605223
 20
150.5444383306
 30
0.0
 10
51.8855288114
 20
150.4891062223
 30
0.0
 10
51.8785181271
 20
150.4493955273
 30
0.0
 10
51.8785484326
 20
150.4303457339
 30
0.0
  0
SPLINE
  5
349
100
AcDbEntity
  8
0
100
AcDbSpline
 62
7
  6
BYLAYER
 70
0
 71
3
 72
11
 73
7
 74
0
 42
0.0000001
 43
0.0000001
 44
0.0000000001
 40
0.0
 40
0.0
 40
0.0
 40
0.0
 40
0.2177817009
 40
0.4509079353
 40
0.7102947134
 40
1.0
 40
1.0
 40
1.0
 40
1.0
 10
24.3004534443
 20
105.8770371443
 30
0.0
 10
24.3004534655
 20
105.7627719031
 30
0.0
 10
24.3426801312
 20
105.5246069712
 30
0.0
 10
24.5232338227
 20
105.192767017
 30
0.0
 10
24.808663537
 20
104.8927973146
 30
0.0
 10
25.0474886634
 20
104.7283043711
 30
0.0
 10
25.179126963
 20
104.6523046827
 30
0.0
  0
SPLINE
  5
34A
100
AcDbEntity
  8
0
100
AcDbSpline
 62
7
  6
BYLAYER
 70
0
 71
3
 72
11
 73
7
 74
0
 42
0.0000001
 43
0.0000001
 44
0.0000000001
 40
0.0
 40
0.0
 40
0.0
 40
0.0
 40
0.2575410975
 40
0.5165389093
 40
0.7653590077
 40
1.0
 40
1.0
 40
1.0
 40
1.0
 10
84.3820057513
 20
122.3132112682
 30
0.0
 10
84.584958673
 20
122.3538097424
 30
0.0
 10
85.0025869838
 20
122.3923577613
 30
0.0
 10
85.617183384
 20
122.2912948788
 30
0.0
 10
86.1602604602
 20
122.0177496493
 30
0.0
 10
86.4271034201
 20
121.7206399441
 30
0.0
 10
86.5247428822
 20
121.5593167433
 30
0.0
  0
SPLINE
  5
34B
100
AcDbEntity
  8
0
100
AcDbSpline
 62
7
  6
BYLAYER
 70
0
 71
3
 72
11
 73
7
 74
0
 42
0.0000001
 43
0.0000001
 44
0.0000000001
 40
0.0
 40
0.0
 40
0.0
 40
0.0
 40
0.2896008509
 40
0.5491402412
 40
0.7822375356
 40
1.0
 40
1.0
 40
1.0
 40
1.0
 10
81.9005991152
 20
136.1893908633
 30
0.0
 10
81.988324219
 20
136.2400386733
 30
0.0
 10
82.1629502997
 20
136.3230143152
 30
0.0
 10
82.4312359088
 20
136.3879408732
 30
0.0
 10
82.6830795136
 20
136.3816150277
 30
0.0
 10
82.8345659522
 20
136.3264403403
 30
0.0
 10
82.9005420631
 20
136.2883771849
 30
0.0
  0
SPLINE
  5
34C
100
AcDbEntity
  8
0
100
AcDbSpline
 62
7
  6
BYLAYER
 70
0
 71
3
 72
11
 73
7
 74
0
 42
0.0000001
 43
0.0000001
 44
0.0000000001
 40
0.0
 40
0.0
 40
0.0
 40
0.0
 40
0.2328730237
 40
0.4909415508
 40
0.7540293592
 40
1.0
 40
1.0
 40
1.0
 40
1.0
 10
83.5547207763
 20
133.4921601741
 30
0.0
 10
83.5547209475
 20
133.7215811236
 30
0.0
 10
83.4563431089
 20
134.2059872952
 30
0.0
 10
83.1077420375
 20
134.8704506871
 30
0.0
 10
82.5986985412
 20
135.4390228409
 30
0.0
 10
82.1711972536
 20
135.7176972384
 30
0.0
 10
81.948452608
 20
135.8131222995
 30
0.0
  0
SPLINE
  5
34D
100
AcDbEntity
  8
0
100
AcDbSpline
 62
7
  6
BYLAYER
 70
0
 71
3
 72
11
 73
7
 74
0
 42
0.0000001
 43
0.0000001
 44
0.0000000001
 40
0.0
 40
0.0
 40
0.0
 40
0.0
 40
0.2457308219
 40
0.5084452605
 40
0.7666401505
 40
1.0
 40
1.0
 40
1.0
 40
1.0
 10
77.6982346156
 20
133.3592570859
 30
0.0
 10
77.6476741927
 20
133.3375899558
 30
0.0
 10
77.5366614617
 20
133.3072610044
 30
0.0
 10
77.3642648416
 20
133.2972708132
 30
0.0
 10
77.1960240434
 20
133.3210705516
 30
0.0
 10
77.0917570345
 20
133.3607352006
 30
0.0
 10
77.0465100622
 20
133.3868415192
 30
0.0
  0
SPLINE
  5
34E
100
AcDbEntity
  8
0
100
AcDbSpline
 62
7
  6
BYLAYER
 70
0
 71
3
 72
9
 73
5
 74
0
 42
0.0000001
 43
0.0000001
 44
0.0000000001
 40
0.0
 40
0.0
 40
0.0
 40
0.0
 40
0.7471512056
 40
1.0
 40
1.0
 40
1.0
 40
1.0
 10
79.1928307578
 20
136.0470678215
 30
0.0
 10
79.1928307444
 20
136.0901395062
 30
0.0
 10
79.1868961203
 20
136.148015666
 30
0.0
 10
79.1735060247
 20
136.2041008794
 30
0.0
 10
79.1696662687
 20
136.2181622381
 30
0.0
  0
SPLINE
  5
34F
100
AcDbEntity
  8
0
100
AcDbSpline
 62
7
  6
BYLAYER
 70
0
 71
3
 72
10
 73
6
 74
0
 42
0.0000001
 43
0.0000001
 44
0.0000000001
 40
0.0
 40
0.0
 40
0.0
 40
0.0
 40
0.4554601532
 40
0.7161484433
 40
1.0
 40
1.0
 40
1.0
 40
1.0
 10
79.1696662687
 20
136.2181622381
 30
0.0
 10
79.1367602077
 20
136.338665711
 30
0.0
 10
79.0304014767
 20
136.5142107819
 30
0.0
 10
78.8286191433
 20
136.7002527841
 30
0.0
 10
78.7038546313
 20
136.7838074829
 30
0.0
 10
78.6364343591
 20
136.8227317146
 30
0.0
  0
SPLINE
  5
350
100
AcDbEntity
  8
0
100
AcDbSpline
 62
7
  6
BYLAYER
 70
0
 71
3
 72
11
 73
7
 74
0
 42
0.0000001
 43
0.0000001
 44
0.0000000001
 40
0.0
 40
0.0
 40
0.0
 40
0.0
 40
0.2177508335
 40
0.4508940037
 40
0.710465094
 40
1.0
 40
1.0
 40
1.0
 40
1.0
 10
25.3862444917
 20
111.0704655093
 30
0.0
 10
25.4192249996
 20
111.0895067047
 30
0.0
 10
25.4949786485
 20
111.1170943276
 30
0.0
 10
25.6209123044
 20
111.1202520825
 30
0.0
 10
25.755056774
 20
111.0877821429
 30
0.0
 10
25.842365927
 20
111.046299489
 30
0.0
 10
25.8862190244
 20
111.0209814641
 30
0.0
  0
SPLINE
  5
351
100
AcDbEntity
  8
0
100
AcDbSpline
 62
7
  6
BYLAYER
 70
0
 71
3
 72
12
 73
8
 74
0
 42
0.0000001
 43
0.0000001
 44
0.0000000001
 40
0.0
 40
0.0
 40
0.0
 40
0.0
 40
0.2825064473
 40
0.5155307017
 40
0.6258634007
 40
0.7402898293
 40
1.0
 40
1.0
 40
1.0
 40
1.0
 10
81.9006378643
 20
136.1893684919
 30
0.0
 10
81.9385576371
 20
136.1674635985
 30
0.0
 10
82.0038374738
 20
136.1180361324
 30
0.0
 10
82.0489855581
 20
136.0260802089
 30
0.0
 10
82.0467830734
 20
135.953913616
 30
0.0
 10
82.0216914545
 20
135.8821053725
 30
0.0
 10
81.9802028568
 20
135.8378061566
 30
0.0
 10
81.948424908
 20
135.81309002
 30
0.0
  0
SPLINE
  5
352
100
AcDbEntity
  8
0
100
AcDbSpline
 62
7
  6
BYLAYER
 70
0
 71
3
 72
9
 73
5
 74
0
 42
0.0000001
 43
0.0000001
 44
0.0000000001
 40
0.0
 40
0.0
 40
0.0
 40
0.0
 40
0.2422123205
 40
1.0
 40
1.0
 40
1.0
 40
1.0
 10
81.948424908
 20
135.81309002
 30
0.0
 10
81.7862843741
 20
135.6869031282
 30
0.0
 10
81.1063856141
 20
135.1794550146
 30
0.0
 10
80.3873268946
 20
134.7251830088
 30
0.0
 10
79.8277796833
 20
134.4088083723
 30
0.0
  0
SPLINE
  5
353
100
AcDbEntity
  8
0
100
AcDbSpline
 62
7
  6
BYLAYER
 70
0
 71
3
 72
9
 73
5
 74
0
 42
0.0000001
 43
0.0000001
 44
0.0000000001
 40
0.0
 40
0.0
 40
0.0
 40
0.0
 40
0.244129406
 40
1.0
 40
1.0
 40
1.0
 40
1.0
 10
79.8277796833
 20
134.4088083723
 30
0.0
 10
79.6595537378
 20
134.3136914255
 30
0.0
 10
78.9647339949
 20
133.9342637162
 30
0.0
 10
78.2482598525
 20
133.5948346117
 30
0.0
 10
77.6982346156
 20
133.3592570859
 30
0.0
  0
SPLINE
  5
354
100
AcDbEntity
  8
0
100
AcDbSpline
 62
7
  6
BYLAYER
 70
0
 71
3
 72
13
 73
9
 74
0
 42
0.0000001
 43
0.0000001
 44
0.0000000001
 40
0.0
 40
0.0
 40
0.0
 40
0.0
 40
0.1084429466
 40
0.2285214286
 40
0.4905489153
 40
0.7577091649
 40
0.8838369302
 40
1.0
 40
1.0
 40
1.0
 40
1.0
 10
77.6981885178
 20
133.3592439279
 30
0.0
 10
77.7809558455
 20
133.2948453043
 30
0.0
 10
77.9435341176
 20
133.1437121868
 30
0.0
 10
78.2469269928
 20
132.7778300269
 30
0.0
 10
78.5638544983
 20
132.2305822668
 30
0.0
 10
78.7791358501
 20
131.6302452596
 30
0.0
 10
78.8722917148
 20
131.1456585085
 30
0.0
 10
78.8897972146
 20
130.9112133125
 30
0.0
 10
78.8897973856
 20
130.7988780791
 30
0.0
  0
SPLINE
  5
355
100
AcDbEntity
  8
0
100
AcDbSpline
 62
7
  6
BYLAYER
 70
0
 71
3
 72
11
 73
7
 74
0
 42
0.0000001
 43
0.0000001
 44
0.0000000001
 40
0.0
 40
0.0
 40
0.0
 40
0.0
 40
0.2442977585
 40
0.5068929828
 40
0.7658051672
 40
1.0
 40
1.0
 40
1.0
 40
1.0
 10
78.8900786028
 20
130.7986532847
 30
0.0
 10
78.6364494157
 20
130.6972651674
 30
0.0
 10
78.080226365
 20
130.5598969417
 30
0.0
 10
77.2195321658
 20
130.5279347704
 30
0.0
 10
76.3798545223
 20
130.659991544
 30
0.0
 10
75.8596251181
 20
130.8631959023
 30
0.0
 10
75.6333701872
 20
130.9950020139
 30
0.0
  0
SPLINE
  5
356
100
AcDbEntity
  8
0
100
AcDbSpline
 62
7
  6
BYLAYER
 70
0
 71
3
 72
11
 73
7
 74
0
 42
0.0000001
 43
0.0000001
 44
0.0000000001
 40
0.0
 40
0.0
 40
0.0
 40
0.0
 40
0.239362152
 40
0.5020846217
 40
0.7637085834
 40
1.0
 40
1.0
 40
1.0
 40
1.0
 10
75.6331148488
 20
130.9948651339
 30
0.0
 10
75.6399295054
 20
131.2241375
 30
0.0
 10
75.7348315031
 20
131.7031273718
 30
0.0
 10
76.0404539129
 20
132.3738249445
 30
0.0
 10
76.4783494038
 20
132.9630163152
 30
0.0
 10
76.8503657128
 20
133.273654824
 30
0.0
 10
77.0464610256
 20
133.3868698298
 30
0.0
  0
SPLINE
  5
357
100
AcDbEntity
  8
0
100
AcDbSpline
 62
7
  6
BYLAYER
 70
0
 71
3
 72
20
 73
16
 74
0
 42
0.0000001
 43
0.0000001
 44
0.0000000001
 40
0.0
 40
0.0
 40
0.0
 40
0.0
 40
0.1124955814
 40
0.1724534226
 40
0.2341216884
 40
0.2969843197
 40
0.3606079693
 40
0.424669627
 40
0.4889555538
 40
0.55333898
 40
0.6177463312
 40
0.6821218424
 40
0.7464003342
 40
0.8741474997
 40
1.0
 40
1.0
 40
1.0
 40
1.0
 10
78.363009509
 20
117.2660522536
 30
0.0
 10
78.3223810803
 20
116.2357886374
 30
0.0
 10
78.0367815239
 20
114.6592997061
 30
0.0
 10
77.3005275694
 20
112.6411983325
 30
0.0
 10
76.5398974915
 20
111.1262074269
 30
0.0
 10
75.589438109
 20
109.6826066874
 30
0.0
 10
74.4588901655
 20
108.345794977
 30
0.0
 10
73.1637315123
 20
107.1482435869
 30
0.0
 10
71.724892455
 20
106.1157397912
 30
0.0
 10
70.1679170792
 20
105.2655954185
 30
0.0
 10
68.5208620005
 20
104.6055592808
 30
0.0
 10
66.8115785841
 20
104.1344900621
 30
0.0
 10
64.4899146853
 20
103.7482102512
 30
0.0
 10
61.5613140876
 20
103.6820849567
 30
0.0
 10
59.2492344794
 20
103.9910670859
 30
0.0
 10
58.118155667
 20
104.2173185595
 30
0.0
  0
SPLINE
  5
358
100
AcDbEntity
  8
0
100
AcDbSpline
 62
7
  6
BYLAYER
 70
0
 71
3
 72
15
 73
11
 74
0
 42
0.0000001
 43
0.0000001
 44
0.0000000001
 40
0.0
 40
0.0
 40
0.0
 40
0.0
 40
0.1117682398
 40
0.2404156112
 40
0.3814558127
 40
0.5270030743
 40
0.668533065
 40
0.7982456089
 40
0.9095585338
 40
1.0
 40
1.0
 40
1.0
 40
1.0
 10
58.1181556672
 20
104.2173185595
 30
0.0
 10
58.1181556672
 20
104.3489582484
 30
0.0
 10
58.1290199156
 20
104.6321490415
 30
0.0
 10
58.1729532463
 20
105.0795057047
 30
0.0
 10
58.2484816607
 20
105.5629452801
 30
0.0
 10
58.3520334553
 20
106.0566894834
 30
0.0
 10
58.480345942
 20
106.5307856737
 30
0.0
 10
58.6230067331
 20
106.958519513
 30
0.0
 10
58.7725902292
 20
107.3194679574
 30
0.0
 10
58.8817929522
 20
107.5310539262
 30
0.0
 10
58.9366055551
 20
107.6223903568
 30
0.0
  0
SPLINE
  5
359
100
AcDbEntity
  8
0
100
AcDbSpline
 62
7
  6
BYLAYER
 70
0
 71
3
 72
13
 73
9
 74
0
 42
0.0000001
 43
0.0000001
 44
0.0000000001
 40
0.0
 40
0.0
 40
0.0
 40
0.0
 40
0.2199311525
 40
0.3479601935
 40
0.4832846376
 40
0.6212343876
 40
0.7564965513
 40
1.0
 40
1.0
 40
1.0
 40
1.0
 10
75.1653485097
 20
117.5008254897
 30
0.0
 10
75.3738034231
 20
117.3789313733
 30
0.0
 10
75.731955051
 20
117.232939167
 30
0.0
 10
76.2486489895
 20
117.1106041083
 30
0.0
 10
76.6863629245
 20
117.0528225337
 30
0.0
 10
77.1356113264
 20
117.0405480059
 30
0.0
 10
77.7019227503
 20
117.081083742
 30
0.0
 10
78.1120755837
 20
117.1737842924
 30
0.0
 10
78.3630095082
 20
117.2660522411
 30
0.0
  0
SPLINE
  5
35A
100
AcDbEntity
  8
0
100
AcDbSpline
 62
7
  6
BYLAYER
 70
0
 71
3
 72
13
 73
9
 74
0
 42
0.0000001
 43
0.0000001
 44
0.0000000001
 40
0.0
 40
0.0
 40
0.0
 40
0.0
 40
0.2884117895
 40
0.4244943811
 40
0.5540207997
 40
0.6764398551
 40
0.791503948
 40
1.0
 40
1.0
 40
1.0
 40
1.0
 10
58.118155667
 20
104.2173185595
 30
0.0
 10
56.5665441283
 20
104.5276928353
 30
0.0
 10
54.3074080586
 20
105.139725876
 30
0.0
 10
51.4888413903
 20
106.2852124231
 30
0.0
 10
49.5915800075
 20
107.2572876798
 30
0.0
 10
47.8937581339
 20
108.347971815
 30
0.0
 10
45.9901285098
 20
109.8878113387
 30
0.0
 10
44.8128055923
 20
111.2580020402
 30
0.0
 10
44.2241784536
 20
112.238828573
 30
0.0
  0
SPLINE
  5
35B
100
AcDbEntity
  8
0
100
AcDbSpline
 62
7
  6
BYLAYER
 70
0
 71
3
 72
13
 73
9
 74
0
 42
0.0000001
 43
0.0000001
 44
0.0000000001
 40
0.0
 40
0.0
 40
0.0
 40
0.0
 40
0.2502288938
 40
0.3865726809
 40
0.5240021868
 40
0.6575487547
 40
0.7832128151
 40
1.0
 40
1.0
 40
1.0
 40
1.0
 10
46.5864035414
 20
114.7526215567
 30
0.0
 10
46.2838662602
 20
114.69210234
 30
0.0
 10
45.8279264831
 20
114.5236877754
 30
0.0
 10
45.2851947236
 20
114.1701715484
 30
0.0
 10
44.9088218023
 20
113.8341186247
 30
0.0
 10
44.6039148604
 20
113.4482760001
 30
0.0
 10
44.3218732834
 20
112.9317908135
 30
0.0
 10
44.2241784002
 20
112.506126205
 30
0.0
 10
44.2241784
 20
112.2388286624
 30
0.0
  0
SPLINE
  5
35C
100
AcDbEntity
  8
0
100
AcDbSpline
 62
7
  6
BYLAYER
 70
0
 71
3
 72
12
 73
8
 74
0
 42
0.0000001
 43
0.0000001
 44
0.0000000001
 40
0.0
 40
0.0
 40
0.0
 40
0.0
 40
0.2752813454
 40
0.534877488
 40
0.7745550669
 40
0.8883612911
 40
1.0
 40
1.0
 40
1.0
 40
1.0
 10
47.3178147453
 20
133.5782428954
 30
0.0
 10
47.2136702532
 20
133.6375976667
 30
0.0
 10
47.0192136098
 20
133.768107565
 30
0.0
 10
46.778568668
 20
134.0081780321
 30
0.0
 10
46.6435406217
 20
134.2438841084
 30
0.0
 10
46.5910000923
 20
134.4405445904
 30
0.0
 10
46.5842788386
 20
134.5392174772
 30
0.0
 10
46.5855688564
 20
134.5878133401
 30
0.0
  0
SPLINE
  5
35D
100
AcDbEntity
  8
0
100
AcDbSpline
 62
7
  6
BYLAYER
 70
0
 71
3
 72
11
 73
7
 74
0
 42
0.0000001
 43
0.0000001
 44
0.0000000001
 40
0.0
 40
0.0
 40
0.0
 40
0.0
 40
0.2362114448
 40
0.4977621228
 40
0.7605547782
 40
1.0
 40
1.0
 40
1.0
 40
1.0
 10
49.0678102017
 20
149.5399859823
 30
0.0
 10
48.8717812481
 20
149.4268092887
 30
0.0
 10
48.499864287
 20
149.1162909453
 30
0.0
 10
48.0619603349
 20
148.5272076284
 30
0.0
 10
47.7562406784
 20
147.8564678069
 30
0.0
 10
47.661281048
 20
147.3773332386
 30
0.0
 10
47.6544640251
 20
147.1479812946
 30
0.0
  0
SPLINE
  5
35E
100
AcDbEntity
  8
0
100
AcDbSpline
 62
7
  6
BYLAYER
 70
0
 71
3
 72
11
 73
7
 74
0
 42
0.0000001
 43
0.0000001
 44
0.0000000001
 40
0.0
 40
0.0
 40
0.0
 40
0.0
 40
0.2933194979
 40
0.5538108835
 40
0.7853923206
 40
1.0
 40
1.0
 40
1.0
 40
1.0
 10
47.6547504752
 20
147.1481387782
 30
0.0
 10
47.5433745879
 20
147.2118543276
 30
0.0
 10
47.3418472833
 20
147.3491160677
 30
0.0
 10
47.101485034
 20
147.5989223627
 30
0.0
 10
46.9514783931
 20
147.8744224863
 30
0.0
 10
46.9196041753
 20
148.0718654998
 30
0.0
 10
46.9218678116
 20
148.1657187126
 30
0.0
  0
SPLINE
  5
35F
100
AcDbEntity
  8
0
100
AcDbSpline
 62
7
  6
BYLAYER
 70
0
 71
3
 72
11
 73
7
 74
0
 42
0.0000001
 43
0.0000001
 44
0.0000000001
 40
0.0
 40
0.0
 40
0.0
 40
0.0
 40
0.2393869
 40
0.5021621874
 40
0.7637662825
 40
1.0
 40
1.0
 40
1.0
 40
1.0
 10
51.8149643306
 20
144.7459696387
 30
0.0
 10
51.8217796772
 20
144.975265185
 30
0.0
 10
51.9167184997
 20
145.4543247583
 30
0.0
 10
52.2223871541
 20
146.1250617684
 30
0.0
 10
52.6603042741
 20
146.7142045331
 30
0.0
 10
53.0322635274
 20
147.0247872499
 30
0.0
 10
53.2283105079
 20
147.1379743513
 30
0.0
  0
SPLINE
  5
360
100
AcDbEntity
  8
0
100
AcDbSpline
 62
7
  6
BYLAYER
 70
0
 71
3
 72
9
 73
5
 74
0
 42
0.0000001
 43
0.0000001
 44
0.0000000001
 40
0.0
 40
0.0
 40
0.0
 40
0.0
 40
0.494801254
 40
1.0
 40
1.0
 40
1.0
 40
1.0
 10
106.8838529329
 20
105.8772101713
 30
0.0
 10
106.8838529348
 20
105.7253385535
 30
0.0
 10
106.8560556876
 20
105.4177827927
 30
0.0
 10
106.7743038775
 20
105.1201842931
 30
0.0
 10
106.7212357979
 20
104.9744849353
 30
0.0
  0
SPLINE
  5
361
100
AcDbEntity
  8
0
100
AcDbSpline
 62
7
  6
BYLAYER
 70
0
 71
3
 72
11
 73
7
 74
0
 42
0.0000001
 43
0.0000001
 44
0.0000000001
 40
0.0
 40
0.0
 40
0.0
 40
0.0
 40
0.2213201051
 40
0.4598604666
 40
0.719196811
 40
1.0
 40
1.0
 40
1.0
 40
1.0
 10
106.7212357979
 20
104.9744849353
 30
0.0
 10
106.6436471854
 20
104.7614640174
 30
0.0
 10
106.429061643
 20
104.3371286821
 30
0.0
 10
105.9682371068
 20
103.7572091811
 30
0.0
 10
105.3703636594
 20
103.2243106686
 30
0.0
 10
104.9070492634
 20
102.9184013141
 30
0.0
 10
104.65794271
 20
102.7745804369
 30
0.0
  0
SPLINE
  5
362
100
AcDbEntity
  8
0
100
AcDbSpline
 62
7
  6
BYLAYER
 70
0
 71
3
 72
21
 73
17
 74
0
 42
0.0000001
 43
0.0000001
 44
0.0000000001
 40
0.0
 40
0.0
 40
0.0
 40
0.0
 40
0.0513415081
 40
0.1020296339
 40
0.1530124248
 40
0.2053451613
 40
0.3178288307
 40
0.3794620529
 40
0.4447800154
 40
0.5133782447
 40
0.5843733579
 40
0.7291406735
 40
0.8006142692
 40
0.8701291711
 40
0.9368380417
 40
1.0
 40
1.0
 40
1.0
 40
1.0
 10
46.5864025393
 20
114.7526212215
 30
0.0
 10
46.3888628998
 20
115.0197965417
 30
0.0
 10
46.0234841312
 20
115.5717217764
 30
0.0
 10
45.5764978633
 20
116.4580409582
 30
0.0
 10
45.2421957496
 20
117.3999010748
 30
0.0
 10
44.9440975881
 20
118.7678034794
 30
0.0
 10
44.9008317759
 20
120.2458480456
 30
0.0
 10
45.0553674836
 20
121.7880284677
 30
0.0
 10
45.2640504036
 20
123.0371940067
 30
0.0
 10
45.5448887111
 20
124.3334987747
 30
0.0
 10
45.9824596382
 20
126.1211108194
 30
0.0
 10
46.4496718082
 20
127.9205897852
 30
0.0
 10
46.8493504743
 20
129.7265391885
 30
0.0
 10
47.0907633679
 20
131.0493440025
 30
0.0
 10
47.2547229324
 20
132.3299392918
 30
0.0
 10
47.3083110754
 20
133.1695824265
 30
0.0
 10
47.3178139916
 20
133.5782433237
 30
0.0
  0
SPLINE
  5
363
100
AcDbEntity
  8
0
100
AcDbSpline
 62
7
  6
BYLAYER
 70
0
 71
3
 72
15
 73
11
 74
0
 42
0.0000001
 43
0.0000001
 44
0.0000000001
 40
0.0
 40
0.0
 40
0.0
 40
0.0
 40
0.1113945681
 40
0.2301681637
 40
0.3532293436
 40
0.4787075211
 40
0.6063785009
 40
0.7364093352
 40
0.8681404745
 40
1.0
 40
1.0
 40
1.0
 40
1.0
 10
75.1653487593
 20
117.5008253537
 30
0.0
 10
75.1356937281
 20
116.6826947544
 30
0.0
 10
74.8628466875
 20
114.9957198513
 30
0.0
 10
73.8928288015
 20
112.5657780858
 30
0.0
 10
72.3162160869
 20
110.338623927
 30
0.0
 10
70.1522486928
 20
108.5610445161
 30
0.0
 10
67.5405840823
 20
107.421164823
 30
0.0
 10
64.6941842152
 20
106.9464880875
 30
0.0
 10
61.7889365815
 20
107.0377024962
 30
0.0
 10
59.8775243841
 20
107.390509693
 30
0.0
 10
58.936605395
 20
107.6223901405
 30
0.0
  0
SPLINE
  5
364
100
AcDbEntity
  8
0
100
AcDbSpline
 62
7
  6
BYLAYER
 70
0
 71
3
 72
13
 73
9
 74
0
 42
0.0000001
 43
0.0000001
 44
0.0000000001
 40
0.0
 40
0.0
 40
0.0
 40
0.0
 40
0.2884116428
 40
0.4244941501
 40
0.5540205336
 40
0.6764396256
 40
0.7915038141
 40
1.0
 40
1.0
 40
1.0
 40
1.0
 10
58.9366055549
 20
107.6223903568
 30
0.0
 10
57.557396334
 20
107.8982783947
 30
0.0
 10
55.5492775563
 20
108.4423101286
 30
0.0
 10
53.0438880544
 20
109.4605226623
 30
0.0
 10
51.3574347853
 20
110.3245900623
 30
0.0
 10
49.8482592985
 20
111.2940863136
 30
0.0
 10
48.1561415164
 20
112.6628302605
 30
0.0
 10
47.1096279156
 20
113.8807753216
 30
0.0
 10
46.5864035875
 20
114.7526214798
 30
0.0
  0
SPLINE
  5
365
100
AcDbEntity
  8
0
100
AcDbSpline
 62
7
  6
BYLAYER
 70
0
 71
3
 72
11
 73
7
 74
0
 42
0.0000001
 43
0.0000001
 44
0.0000000001
 40
0.0
 40
0.0
 40
0.0
 40
0.0
 40
0.2895649585
 40
0.5491125837
 40
0.7822453718
 40
1.0
 40
1.0
 40
1.0
 40
1.0
 10
58.0824484499
 20
149.9404954699
 30
0.0
 10
58.170161662
 20
149.9911364143
 30
0.0
 10
58.3447750048
 20
150.0741126162
 30
0.0
 10
58.613063474
 20
150.139024894
 30
0.0
 10
58.8649151526
 20
150.1327090513
 30
0.0
 10
59.0164134307
 20
150.0775343016
 30
0.0
 10
59.0823812237
 20
150.039463986
 30
0.0
  0
SPLINE
  5
366
100
AcDbEntity
  8
0
100
AcDbSpline
 62
7
  6
BYLAYER
 70
0
 71
3
 72
11
 73
7
 74
0
 42
0.0000001
 43
0.0000001
 44
0.0000000001
 40
0.0
 40
0.0
 40
0.0
 40
0.0
 40
0.2634802394
 40
0.5241063647
 40
0.7722820484
 40
1.0
 40
1.0
 40
1.0
 40
1.0
 10
38.2183335444
 20
43.7569478184
 30
0.0
 10
37.7442598255
 20
43.7097772019
 30
0.0
 10
36.793477202
 20
43.6822256031
 30
0.0
 10
35.4007112164
 20
43.8323229206
 30
0.0
 10
34.106299598
 20
44.1649097731
 30
0.0
 10
33.3139578653
 20
44.5153754466
 30
0.0
 10
32.9573692673
 20
44.7212473123
 30
0.0
  0
SPLINE
  5
367
100
AcDbEntity
  8
0
100
AcDbSpline
 62
7
  6
BYLAYER
 70
0
 71
3
 72
18
 73
14
 74
0
 42
0.0000001
 43
0.0000001
 44
0.0000000001
 40
0.0
 40
0.0
 40
0.0
 40
0.0
 40
0.1928620852
 40
0.370545099
 40
0.530588518
 40
0.6701651601
 40
0.7866720523
 40
0.8356943485
 40
0.878408292
 40
0.9150870175
 40
0.9464732511
 40
0.9739870297
 40
1.0
 40
1.0
 40
1.0
 40
1.0
 10
84.3820062474
 20
122.3132114324
 30
0.0
 10
84.5808263187
 20
122.0443054241
 30
0.0
 10
84.9427842906
 20
121.5123695855
 30
0.0
 10
85.3937663016
 20
120.7090809924
 30
0.0
 10
85.7284588664
 20
119.9504487451
 30
0.0
 10
85.9454778588
 20
119.2606842968
 30
0.0
 10
86.0330716611
 20
118.7359894768
 30
0.0
 10
86.0371641939
 20
118.3742051696
 30
0.0
 10
86.0113848585
 20
118.1522489299
 30
0.0
 10
85.9577642033
 20
117.9666281609
 30
0.0
 10
85.8775518588
 20
117.8195922615
 30
0.0
 10
85.7705186078
 20
117.7145112843
 30
0.0
 10
85.682325432
 20
117.6777548688
 30
0.0
 10
85.6381583732
 20
117.6685958013
 30
0.0
  0
SPLINE
  5
368
100
AcDbEntity
  8
0
100
AcDbSpline
 62
7
  6
BYLAYER
 70
0
 71
3
 72
9
 73
5
 74
0
 42
0.0000001
 43
0.0000001
 44
0.0000000001
 40
0.0
 40
0.0
 40
0.0
 40
0.0
 40
0.4612313944
 40
1.0
 40
1.0
 40
1.0
 40
1.0
 10
85.6381583732
 20
117.6685958013
 30
0.0
 10
85.5856815153
 20
117.6577135037
 30
0.0
 10
85.4662480144
 20
117.6595595651
 30
0.0
 10
85.3556172126
 20
117.7000878804
 30
0.0
 10
85.299433846
 20
117.7277021374
 30
0.0
  0
SPLINE
  5
369
100
AcDbEntity
  8
0
100
AcDbSpline
 62
7
  6
BYLAYER
 70
0
 71
3
 72
9
 73
5
 74
0
 42
0.0000001
 43
0.0000001
 44
0.0000000001
 40
0.0
 40
0.0
 40
0.0
 40
0.0
 40
0.2356587575
 40
1.0
 40
1.0
 40
1.0
 40
1.0
 10
52.0249590693
 20
150.2262148059
 30
0.0
 10
52.0358225645
 20
150.2324868104
 30
0.0
 10
52.0830051425
 20
150.2572116956
 30
0.0
 10
52.1336681159
 20
150.2749938399
 30
0.0
 10
52.1730373629
 20
150.2852598147
 30
0.0
  0
SPLINE
  5
36A
100
AcDbEntity
  8
0
100
AcDbSpline
 62
7
  6
BYLAYER
 70
0
 71
3
 72
9
 73
5
 74
0
 42
0.0000001
 43
0.0000001
 44
0.0000000001
 40
0.0
 40
0.0
 40
0.0
 40
0.0
 40
0.2451651578
 40
1.0
 40
1.0
 40
1.0
 40
1.0
 10
52.1730373629
 20
150.2852598147
 30
0.0
 10
52.201046552
 20
150.2925635264
 30
0.0
 10
52.3169919627
 20
150.3154273151
 30
0.0
 10
52.4377685668
 20
150.3135904486
 30
0.0
 10
52.5255163113
 20
150.2980073197
 30
0.0
  0
SPLINE
  5
36B
100
AcDbEntity
  8
0
100
AcDbSpline
 62
7
  6
BYLAYER
 70
0
 71
3
 72
9
 73
5
 74
0
 42
0.0000001
 43
0.0000001
 44
0.0000000001
 40
0.0
 40
0.0
 40
0.0
 40
0.0
 40
0.2646601633
 40
1.0
 40
1.0
 40
1.0
 40
1.0
 10
56.1305379123
 20
149.6577912483
 30
0.0
 10
56.1495812121
 20
149.6544093472
 30
0.0
 10
56.2209610823
 20
149.638917013
 30
0.0
 10
56.2905477703
 20
149.6128755072
 30
0.0
 10
56.337085563
 20
149.5860046134
 30
0.0
  0
SPLINE
  5
36C
100
AcDbEntity
  8
0
100
AcDbSpline
 62
7
  6
BYLAYER
 70
0
 71
3
 72
12
 73
8
 74
0
 42
0.0000001
 43
0.0000001
 44
0.0000000001
 40
0.0
 40
0.0
 40
0.0
 40
0.0
 40
0.2895581804
 40
0.5486557816
 40
0.7816338325
 40
0.891839914
 40
1.0
 40
1.0
 40
1.0
 40
1.0
 10
32.9573692673
 20
44.7212473123
 30
0.0
 10
32.6940245454
 20
44.8732860188
 30
0.0
 10
32.2163311272
 20
45.2023449243
 30
0.0
 10
31.6455184046
 20
45.8017376167
 30
0.0
 10
31.3392205769
 20
46.3666931803
 30
0.0
 10
31.2197330792
 20
46.8273236012
 30
0.0
 10
31.2000363967
 20
47.0571267822
 30
0.0
 10
31.2000363953
 20
47.1707122355
 30
0.0
  0
ELLIPSE
  5
36D
100
AcDbEntity
  8
0
100
AcDbEllipse
 62
7
  6
BYLAYER
 10
44.3803319569
 20
77.0733962279
 30
0.0
 11
6.5821622034
 21
3.5415127625
 31
0.0
 40
0.2202627285
 41
1.6288845047
 42
1.6474787643
  0
ELLIPSE
  5
36E
100
AcDbEntity
  8
0
100
AcDbEllipse
 62
7
  6
BYLAYER
 10
30.2381374539
 20
85.2382113183
 30
0.0
 11
6.5821622034
 21
3.5415127625
 31
0.0
 40
0.2202627285
 41
1.6288845047
 42
1.6474703842
  0
ELLIPSE
  5
36F
100
AcDbEntity
  8
0
100
AcDbEllipse
 62
7
  6
BYLAYER
 10
58.5225264598
 20
68.9085811374
 30
0.0
 11
6.5821622034
 21
3.5415127625
 31
0.0
 40
0.2202627285
 41
1.6288845047
 42
1.6474787643
  0
ENDSEC
  0
SECTION
  2
OBJECTS
  0
DICTIONARY
  5
C
100
AcDbDictionary
280
0
281
1
  3
ACAD_GROUP
350
D
  3
ACAD_MLINESTYLE
350
17
  3
ACAD_LAYOUT
350
1A
  3
ACAD_PLOTSETTINGS
350
19
  3
ACAD_PLOTSTYLENAME
350
E
  0
DICTIONARY
  5
D
102
{ACAD_REACTORS
330
C
102
}
100
AcDbDictionary
280
0
281
1
  0
ACDBDICTIONARYWDFLT
  5
E
102
{ACAD_REACTORS
330
C
102
}
100
AcDbDictionary
281
1
  3
Normal
350
F
100
AcDbDictionaryWithDefault
340
F
  0
DICTIONARY
  5
17
102
{ACAD_REACTORS
330
C
102
}
100
AcDbDictionary
280
0
281
1
  3
Standard
350
18
  0
DICTIONARY
  5
19
102
{ACAD_REACTORS
330
C
102
}
100
AcDbDictionary
281
1
  0
DICTIONARY
  5
1A
102
{ACAD_REACTORS
330
C
102
}
100
AcDbDictionary
281
1
  3
Model
350
370
  3
Layout1
350
371
  0
ACDBPLACEHOLDER
  5
F
102
{ACAD_REACTORS
330
E
102
}
  0
MLINESTYLE
  5
18
102
{ACAD_REACTORS
330
17
102
}
100
AcDbMlineStyle
  2
STANDARD
 70
0
  3

 62
256
 51
90.0
 52
90.0
 71
2
 49
0.5
 62
256
  6
BYLAYER
 49
-0.5
 62
256
  6
BYLAYER
  0
LAYOUT
  5
370
102
{ACAD_REACTORS
330
1A
102
}
100
AcDbPlotSettings
  1

  2
none_device
  4

  6

 40
0.0
 41
0.0
 42
0.0
 43
0.0
 44
210.0
 45
297.0
 46
0.0
 47
0.0
 48
0.0
 49
0.0
140
0.0
141
0.0
142
1.0
143
1.0
 70
1024
 72
1
 73
0
 74
0
  7

 75
0
147
1.0
148
0.0
149
0.0
100
AcDbLayout
  1
Model
 70
0
 71
0
 10
0.0
 20
0.0
 11
210.0
 21
297.0
 12
0.0
 22
0.0
 32
0.0
 14
0.0
 24
0.0
 34
0.0
 15
0.0
 25
0.0
 35
0.0
146
0.0
 13
0.0
 23
0.0
 33
0.0
 16
1.0
 26
0.0
 36
0.0
 17
0.0
 27
1.0
 37
0.0
 76
0
330
210
345
0
346
0
  0
LAYOUT
  5
371
102
{ACAD_REACTORS
330
1A
102
}
100
AcDbPlotSettings
  1

  2
none_device
  4

  6

 40
0.0
 41
0.0
 42
0.0
 43
0.0
 44
210.0
 45
297.0
 46
0.0
 47
0.0
 48
0.0
 49
0.0
140
0.0
141
0.0
142
1.0
143
1.0
 70
0
 72
1
 73
0
 74
0
  7

 75
0
147
1.0
148
0.0
149
0.0
100
AcDbLayout
  1
Layout1
 70
0
 71
1
 10
0.0
 20
0.0
 11
210.0
 21
297.0
 12
0.0
 22
0.0
 32
0.0
 14
0.0
 24
0.0
 34
0.0
 15
0.0
 25
0.0
 35
0.0
146
0.0
 13
0.0
 23
0.0
 33
0.0
 16
1.0
 26
0.0
 36
0.0
 17
0.0
 27
1.0
 37
0.0
 76
0
330
211
345
0
346
0
  0
ENDSEC
  0
EOF
