999
DXF file: C:\SESA671053\Gen2D\CAD\MCADPP0003734_3D-simplified\drw0001_7.dxf
999
Pro/ENGINEER 2019471 by Parametric Technology Corporation
  0
SECTION
  2
HEADER
  9
$ACADVER
  1
AC1024
  9
$DWGCODEPAGE
  3
ANSI_1252
  9
$EXTMAX
 10
113.6989132478
 20
160.8027487362
 30
0.0
  9
$EXTMIN
 10
0.0
 20
0.0
 30
0.0
  9
$LIMMIN
 10
0.0
 20
0.0
  9
$LIMMAX
 10
113.6989132478
 20
160.8027487362
  9
$VIEWCTR
 10
56.8494566239
 20
80.4013743681
  9
$VIEWSIZE
 40
160.8027487362
  9
$CLAYER
  8
0
  9
$LTSCALE
 40
10.4819569547
  9
$CELTYPE
  6
BYLAYER
  9
$DIMSCALE
 40
1.0
  9
$DIMASZ
 40
1.353558491
  9
$DIMEXO
 40
1.0
  9
$DIMDLI
 40
7.2420793505
  9
$DIMEXE
 40
1.0
  9
$DIMCEN
 40
1.7152293199
  9
$DIMLFAC
 40
1.0
  9
$DIMBLK
  1
_FILLED
  9
$DIMALT
 70
0
  9
$DIMALTF
 40
0.0393700787
  9
$DIMTXT
 40
1.8949818875
  9
$DIMTOL
 70
1
  9
$DIMLIM
 70
0
  9
$DIMTFAC
 40
1.0
  9
$DIMTP
 40
0.01
  9
$DIMTM
 40
0.01
  9
$DIMGAP
 40
0.625
  9
$DIMDSEP
 70
46
  9
$AUNITS
 70
0
  9
$PDMODE
 70
3
  9
$PDSIZE
 40
0.3125
  9
$HANDSEED
  5
362
  9
$TILEMODE
 70
1
  9
$MEASUREMENT
 70
1
  9
$INSUNITS
 70
4
  0
ENDSEC
  0
SECTION
  2
CLASSES
  0
CLASS
  1
ACDBDICTIONARYWDFLT
  2
AcDbDictionaryWithDefault
  3
AutoCAD 2000
 90
0
 91
1
280
0
281
0
  0
CLASS
  1
ACDBPLACEHOLDER
  2
AcDbPlaceHolder
  3
AutoCAD 2000
 90
0
 91
1
280
0
281
0
  0
CLASS
  1
LAYOUT
  2
AcDbLayout
  3
AutoCAD 2000
 90
0
 91
0
280
0
281
0
  0
ENDSEC
  0
SECTION
  2
TABLES
  0
TABLE
  2
VPORT
  5
8
100
AcDbSymbolTable
 70
2
  0
VPORT
  5
1F4
100
AcDbSymbolTableRecord
100
AcDbViewportTableRecord
  2
*ACTIVE
 70
0
 10
0.0
 20
0.0
 11
1.0
 21
1.0
 12
56.8494566239
 22
80.4013743681
 13
0.0
 23
0.0
 14
1.0
 24
1.0
 15
0.0
 25
0.0
 16
0.0
 26
0.0
 36
1.0
 17
0.0
 27
0.0
 37
0.0
 40
160.8027487362
 41
0.7070707071
 42
50.0
 43
0.0
 44
0.0
 50
0.0
 51
0.0
 71
0
 72
100
 73
1
 74
1
 75
0
 76
0
 77
0
 78
0
  0
ENDTAB
  0
TABLE
  2
LTYPE
  5
5
100
AcDbSymbolTable
 70
6
  0
LTYPE
  5
14
100
AcDbSymbolTableRecord
100
AcDbLinetypeTableRecord
  2
BYBLOCK
 70
0
  3

 72
65
 73
0
 40
0.0
  0
LTYPE
  5
15
100
AcDbSymbolTableRecord
100
AcDbLinetypeTableRecord
  2
BYLAYER
 70
0
  3

 72
65
 73
0
 40
0.0
  0
LTYPE
  5
16
100
AcDbSymbolTableRecord
100
AcDbLinetypeTableRecord
  2
CONTINUOUS
 70
64
  3
Solid line
 72
65
 73
0
 40
0.0
  0
LTYPE
  5
1F5
100
AcDbSymbolTableRecord
100
AcDbLinetypeTableRecord
  2
CENTER
 70
64
  3
____ _ ____ _ ____ _ ____ _ ____ _ ____ _ ____
 72
65
 73
4
 40
0.6
 49
0.375
 74
0
 49
-0.075
 74
0
 49
0.075
 74
0
 49
-0.075
 74
0
  0
LTYPE
  5
1F6
100
AcDbSymbolTableRecord
100
AcDbLinetypeTableRecord
  2
HIDDEN
 70
64
  3
- - - - - - - - - - - - - - - - - - - -
 72
65
 73
2
 40
0.2
 49
0.1
 74
0
 49
-0.1
 74
0
  0
LTYPE
  5
1F7
100
AcDbSymbolTableRecord
100
AcDbLinetypeTableRecord
  2
PHANTOM
 70
64
  3
_____ _ _ _____ _ _ _____ _ _ _____
 72
65
 73
6
 40
0.8
 49
0.45
 74
0
 49
-0.05
 74
0
 49
0.1
 74
0
 49
-0.05
 74
0
 49
0.1
 74
0
 49
-0.05
 74
0
  0
LTYPE
  5
1F8
100
AcDbSymbolTableRecord
100
AcDbLinetypeTableRecord
  2
DOT
 70
64
  3
. . . . . . . . . . . . . . . . . . . .
 72
65
 73
2
 40
0.2
 49
0.1
 74
0
 49
-0.1
 74
0
  0
LTYPE
  5
1F9
100
AcDbSymbolTableRecord
100
AcDbLinetypeTableRecord
  2
DASHED
 70
64
  3
- - - - - - - - - - - - - - - - - - - -
 72
65
 73
2
 40
0.2
 49
0.1
 74
0
 49
-0.1
 74
0
  0
ENDTAB
  0
TABLE
  2
LAYER
  5
2
100
AcDbSymbolTable
 70
36
  0
LAYER
  5
10
100
AcDbSymbolTableRecord
100
AcDbLayerTableRecord
  2
0
 70
0
 62
7
  6
CONTINUOUS
370
-3
390
F
  0
LAYER
  5
1FA
100
AcDbSymbolTableRecord
100
AcDbLayerTableRecord
  2
DEFAULT_1
 70
0
 62
7
  6
CENTER
370
-3
390
F
  0
LAYER
  5
1FB
100
AcDbSymbolTableRecord
100
AcDbLayerTableRecord
  2
DEFAULT_2
 70
0
 62
8
  6
HIDDEN
370
-3
390
F
  0
LAYER
  5
1FC
100
AcDbSymbolTableRecord
100
AcDbLayerTableRecord
  2
DEFAULT_3
 70
0
 62
7
  6
PHANTOM
370
-3
390
F
  0
LAYER
  5
1FD
100
AcDbSymbolTableRecord
100
AcDbLayerTableRecord
  2
00_COMPONENTS
 70
0
 62
7
  6
CONTINUOUS
370
-3
390
F
  0
LAYER
  5
1FE
100
AcDbSymbolTableRecord
100
AcDbLayerTableRecord
  2
00_COMPONENTS_1
 70
0
 62
7
  6
CONTINUOUS
370
-3
390
F
  0
LAYER
  5
1FF
100
AcDbSymbolTableRecord
100
AcDbLayerTableRecord
  2
01_1_DEFAULT_DATUMS
 70
0
 62
7
  6
CONTINUOUS
370
-3
390
F
  0
LAYER
  5
200
100
AcDbSymbolTableRecord
100
AcDbLayerTableRecord
  2
01_PLANES
 70
0
 62
7
  6
CONTINUOUS
370
-3
390
F
  0
LAYER
  5
201
100
AcDbSymbolTableRecord
100
AcDbLayerTableRecord
  2
02_COORD_SYS
 70
0
 62
7
  6
CONTINUOUS
370
-3
390
F
  0
LAYER
  5
202
100
AcDbSymbolTableRecord
100
AcDbLayerTableRecord
  2
03_AXES
 70
0
 62
7
  6
CONTINUOUS
370
-3
390
F
  0
LAYER
  5
203
100
AcDbSymbolTableRecord
100
AcDbLayerTableRecord
  2
03_AXES_1
 70
0
 62
7
  6
CONTINUOUS
370
-3
390
F
  0
LAYER
  5
204
100
AcDbSymbolTableRecord
100
AcDbLayerTableRecord
  2
04_POINTS
 70
0
 62
7
  6
CONTINUOUS
370
-3
390
F
  0
LAYER
  5
205
100
AcDbSymbolTableRecord
100
AcDbLayerTableRecord
  2
05_CURVES
 70
0
 62
7
  6
CONTINUOUS
370
-3
390
F
  0
LAYER
  5
206
100
AcDbSymbolTableRecord
100
AcDbLayerTableRecord
  2
06_SURFS
 70
0
 62
7
  6
CONTINUOUS
370
-3
390
F
  0
LAYER
  5
207
100
AcDbSymbolTableRecord
100
AcDbLayerTableRecord
  2
07_COSMETICS
 70
0
 62
7
  6
CONTINUOUS
370
-3
390
F
  0
LAYER
  5
208
100
AcDbSymbolTableRecord
100
AcDbLayerTableRecord
  2
10_NOTES
 70
0
 62
7
  6
CONTINUOUS
370
-3
390
F
  0
LAYER
  5
209
100
AcDbSymbolTableRecord
100
AcDbLayerTableRecord
  2
11_NOTES_PUB
 70
0
 62
7
  6
CONTINUOUS
370
-3
390
F
  0
LAYER
  5
20A
100
AcDbSymbolTableRecord
100
AcDbLayerTableRecord
  2
13_REF_GTOL
 70
0
 62
7
  6
CONTINUOUS
370
-3
390
F
  0
LAYER
  5
20B
100
AcDbSymbolTableRecord
100
AcDbLayerTableRecord
  2
16_MISC
 70
0
 62
7
  6
CONTINUOUS
370
-3
390
F
  0
LAYER
  5
20C
100
AcDbSymbolTableRecord
100
AcDbLayerTableRecord
  2
17_NO_PRINT
 70
0
 62
7
  6
CONTINUOUS
370
-3
390
F
  0
LAYER
  5
20D
100
AcDbSymbolTableRecord
100
AcDbLayerTableRecord
  2
18_DATUM_CAMS_JOINTS
 70
0
 62
7
  6
CONTINUOUS
370
-3
390
F
  0
LAYER
  5
20E
100
AcDbSymbolTableRecord
100
AcDbLayerTableRecord
  2
19_DATUM_FUNCTIONAL
 70
0
 62
7
  6
CONTINUOUS
370
-3
390
F
  0
LAYER
  5
20F
100
AcDbSymbolTableRecord
100
AcDbLayerTableRecord
  2
20_DATUM_KINEMATIC_SCHEME
 70
0
 62
7
  6
CONTINUOUS
370
-3
390
F
  0
LAYER
  5
210
100
AcDbSymbolTableRecord
100
AcDbLayerTableRecord
  2
INTFCLR_18
 70
0
 62
7
  6
CONTINUOUS
370
-3
390
F
  0
LAYER
  5
211
100
AcDbSymbolTableRecord
100
AcDbLayerTableRecord
  2
INTFCLR_21
 70
0
 62
7
  6
CONTINUOUS
370
-3
390
F
  0
LAYER
  5
212
100
AcDbSymbolTableRecord
100
AcDbLayerTableRecord
  2
INTFCLR_45
 70
0
 62
7
  6
CONTINUOUS
370
-3
390
F
  0
LAYER
  5
213
100
AcDbSymbolTableRecord
100
AcDbLayerTableRecord
  2
INTF_BLANK
 70
0
 62
7
  6
CONTINUOUS
370
-3
390
F
  0
LAYER
  5
214
100
AcDbSymbolTableRecord
100
AcDbLayerTableRecord
  2
INTF_YELLOW
 70
0
 62
7
  6
CONTINUOUS
370
-3
390
F
  0
LAYER
  5
215
100
AcDbSymbolTableRecord
100
AcDbLayerTableRecord
  2
_BLACK_HOLE
 70
0
 62
7
  6
CONTINUOUS
370
-3
390
F
  0
ENDTAB
  0
TABLE
  2
STYLE
  5
3
100
AcDbSymbolTable
 70
1
  0
STYLE
  5
11
100
AcDbSymbolTableRecord
100
AcDbTextStyleTableRecord
  2
STANDARD
 70
0
 40
0.0
 41
0.8
 50
0.0
 71
0
 42
0.2
  3
txt
  4

  0
STYLE
  5
216
100
AcDbSymbolTableRecord
100
AcDbTextStyleTableRecord
  2
TEXTSTYLE_1
 70
0
 40
0.0
 41
0.8
 50
0.0
 71
0
 42
0.2
  3
gdt
  4

  0
ENDTAB
  0
TABLE
  2
VIEW
  5
6
100
AcDbSymbolTable
 70
0
  0
ENDTAB
  0
TABLE
  2
UCS
  5
7
100
AcDbSymbolTable
 70
0
  0
ENDTAB
  0
TABLE
  2
APPID
  5
9
100
AcDbSymbolTable
 70
1
  0
APPID
  5
217
100
AcDbSymbolTableRecord
100
AcDbRegAppTableRecord
  2
ACAD
 70
0
  0
ENDTAB
  0
TABLE
  2
BLOCK_RECORD
  5
1
100
AcDbSymbolTable
 70
0
  0
BLOCK_RECORD
  5
218
100
AcDbSymbolTableRecord
100
AcDbBlockTableRecord
  2
*Model_Space
  0
BLOCK_RECORD
  5
219
100
AcDbSymbolTableRecord
100
AcDbBlockTableRecord
  2
*Paper_Space
  0
BLOCK_RECORD
  5
21A
100
AcDbSymbolTableRecord
100
AcDbBlockTableRecord
  2
_FILLED
  0
ENDTAB
  0
TABLE
  2
DIMSTYLE
  5
A
100
AcDbSymbolTable
 70
1
100
AcDbDimStyleTable
 71
0
  0
DIMSTYLE
105
21B
100
AcDbSymbolTableRecord
100
AcDbDimStyleTableRecord
  2
STANDARD
 70
0
  3

  4

 40
1.0
 41
1.353558491
 42
1.0
 43
0.38
 44
1.0
 45
0.0
 46
0.0
 47
0.01
 48
0.01
140
1.8949818875
141
0.09
142
0.0
143
25.4
144
1.0
145
0.0
146
1.0
147
0.625
 71
1
 72
0
 73
0
 74
0
 75
0
 76
0
 77
1
 78
8
 79
2
170
0
171
1
172
0
173
0
174
0
175
0
176
0
177
0
178
0
270
2
179
2
271
2
272
2
273
2
274
2
275
0
280
0
281
0
282
0
283
1
284
8
285
0
286
0
287
3
288
0
340
11
278
46
341
21A
342
21A
343
21A
344
21A
  0
ENDTAB
  0
ENDSEC
  0
SECTION
  2
BLOCKS
  0
BLOCK
  5
20
100
AcDbEntity
  8
0
100
AcDbBlockBegin
  2
*Model_Space
 70
0
 10
0.0
 20
0.0
 30
0.0
  3
*Model_Space
  1

  0
ENDBLK
  5
21
100
AcDbEntity
  8
0
100
AcDbBlockEnd
  0
BLOCK
  5
1C
100
AcDbEntity
  8
0
100
AcDbBlockBegin
  2
*Paper_Space
 70
0
 10
0.0
 20
0.0
 30
0.0
  3
*Paper_Space
  1

  0
ENDBLK
  5
1D
100
AcDbEntity
  8
0
100
AcDbBlockEnd
  0
BLOCK
  5
21C
100
AcDbEntity
  8
0
100
AcDbBlockBegin
  2
_FILLED
 70
64
 10
0.0
 20
0.0
  3
_FILLED
  1

  0
SOLID
  5
21D
100
AcDbEntity
  8
0
  6
BYBLOCK
 62
0
100
AcDbTrace
 10
0.0
 20
0.0
 11
-1.0
 21
0.25
 12
-1.0
 22
-0.25
 13
-1.0
 23
-0.25
  0
ENDBLK
  5
21E
100
AcDbEntity
  8
0
  6
BYBLOCK
 62
0
100
AcDbBlockEnd
  0
ENDSEC
  0
SECTION
  2
ENTITIES
  0
LINE
  5
21F
100
AcDbEntity
  8
00_COMPONENTS_1
100
AcDbLine
 62
7
  6
CONTINUOUS
 10
34.9062776138
 20
12.6145552309
 11
79.7062776138
 21
12.6145552309
  0
LINE
  5
220
100
AcDbEntity
  8
00_COMPONENTS_1
100
AcDbLine
 62
7
  6
CONTINUOUS
 10
38.9062776138
 20
17.1874257875
 11
76.5950970555
 21
17.1874257875
  0
LINE
  5
221
100
AcDbEntity
  8
INTFCLR_18
100
AcDbLine
 62
7
420
3368703
  6
CONTINUOUS
 10
83.6462776138
 20
20.6574881868
 11
78.9462776138
 21
19.9969462637
  0
LINE
  5
222
100
AcDbEntity
  8
00_COMPONENTS_1
100
AcDbLine
 62
7
  6
CONTINUOUS
 10
78.9462776138
 20
19.9969462637
 11
83.6462776138
 21
20.6574881868
  0
LINE
  5
223
100
AcDbEntity
  8
00_COMPONENTS_1
100
AcDbLine
 62
7
  6
CONTINUOUS
 10
34.9062776138
 20
17.1689414991
 11
75.6843606788
 21
17.3573799606
  0
LINE
  5
224
100
AcDbEntity
  8
00_COMPONENTS_1
100
AcDbLine
 62
7
  6
CONTINUOUS
 10
84.4462776138
 20
17.4978704781
 11
75.7062776138
 21
17.4574823081
  0
LINE
  5
225
100
AcDbEntity
  8
00_COMPONENTS_1
100
AcDbLine
 62
7
  6
CONTINUOUS
 10
75.6838985765
 20
17.4573788929
 11
29.6462776138
 21
17.2446357277
  0
LINE
  5
226
100
AcDbEntity
  8
INTFCLR_18
100
AcDbLine
 62
7
420
3368703
  6
CONTINUOUS
 10
29.6462776138
 20
17.2446357277
 11
84.4462776138
 21
17.4978704781
  0
LINE
  5
227
100
AcDbEntity
  8
00_COMPONENTS_1
100
AcDbLine
 62
7
  6
CONTINUOUS
 10
78.7462776138
 20
20.4969462637
 11
77.7462776138
 21
20.4969462637
  0
LINE
  5
228
100
AcDbEntity
  8
00_COMPONENTS_1
100
AcDbLine
 62
7
  6
CONTINUOUS
 10
68.1462776138
 20
20.4969462637
 11
67.1462776138
 21
20.4969462637
  0
LINE
  5
229
100
AcDbEntity
  8
00_COMPONENTS_1
100
AcDbLine
 62
7
  6
CONTINUOUS
 10
57.5462776138
 20
20.4969462637
 11
56.5462776138
 21
20.4969462637
  0
LINE
  5
22A
100
AcDbEntity
  8
00_COMPONENTS_1
100
AcDbLine
 62
7
  6
CONTINUOUS
 10
46.9462776138
 20
20.4969462637
 11
45.9462776138
 21
20.4969462637
  0
LINE
  5
22B
100
AcDbEntity
  8
INTFCLR_18
100
AcDbLine
 62
7
420
3368703
  6
CONTINUOUS
 10
77.1962776138
 20
25.1935433896
 11
75.5462769636
 21
25.1935433896
  0
LINE
  5
22C
100
AcDbEntity
  8
INTFCLR_18
100
AcDbLine
 62
7
420
3368703
  6
CONTINUOUS
 10
70.3462775925
 20
25.1935433896
 11
68.6962776138
 21
25.1935433896
  0
LINE
  5
22D
100
AcDbEntity
  8
INTFCLR_18
100
AcDbLine
 62
7
420
3368703
  6
CONTINUOUS
 10
66.5962776138
 20
25.1935433896
 11
64.9462769636
 21
25.1935433896
  0
LINE
  5
22E
100
AcDbEntity
  8
INTFCLR_18
100
AcDbLine
 62
7
420
3368703
  6
CONTINUOUS
 10
59.7462775982
 20
25.1935433896
 11
58.0962776138
 21
25.1935433896
  0
LINE
  5
22F
100
AcDbEntity
  8
INTFCLR_18
100
AcDbLine
 62
7
420
3368703
  6
CONTINUOUS
 10
55.9962776138
 20
25.1935433896
 11
54.3462769694
 21
25.1935433896
  0
LINE
  5
230
100
AcDbEntity
  8
INTFCLR_18
100
AcDbLine
 62
7
420
3368703
  6
CONTINUOUS
 10
49.1462776018
 20
25.1935433896
 11
47.4962776138
 21
25.1935433896
  0
LINE
  5
231
100
AcDbEntity
  8
00_COMPONENTS_1
100
AcDbLine
 62
7
  6
CONTINUOUS
 10
47.4962776138
 20
25.1935433896
 11
49.1462776138
 21
25.1935433896
  0
LINE
  5
232
100
AcDbEntity
  8
00_COMPONENTS_1
100
AcDbLine
 62
7
  6
CONTINUOUS
 10
54.3462769694
 20
25.1935433896
 11
55.9962776138
 21
25.1935433896
  0
LINE
  5
233
100
AcDbEntity
  8
00_COMPONENTS_1
100
AcDbLine
 62
7
  6
CONTINUOUS
 10
58.0962776138
 20
25.1935433896
 11
59.7462776138
 21
25.1935433896
  0
LINE
  5
234
100
AcDbEntity
  8
00_COMPONENTS_1
100
AcDbLine
 62
7
  6
CONTINUOUS
 10
64.9462769636
 20
25.1935433896
 11
66.5962776138
 21
25.1935433896
  0
LINE
  5
235
100
AcDbEntity
  8
00_COMPONENTS_1
100
AcDbLine
 62
7
  6
CONTINUOUS
 10
68.6962776138
 20
25.1935433896
 11
70.3462776138
 21
25.1935433896
  0
LINE
  5
236
100
AcDbEntity
  8
00_COMPONENTS_1
100
AcDbLine
 62
7
  6
CONTINUOUS
 10
75.5462769636
 20
25.1935433896
 11
77.1962776138
 21
25.1935433896
  0
LINE
  5
237
100
AcDbEntity
  8
00_COMPONENTS_1
100
AcDbLine
 62
7
  6
CONTINUOUS
 10
75.9962776138
 20
26.3969462637
 11
74.5462776138
 21
26.3969462637
  0
LINE
  5
238
100
AcDbEntity
  8
00_COMPONENTS_1
100
AcDbLine
 62
7
  6
CONTINUOUS
 10
71.3462776138
 20
26.3969462637
 11
69.8962776138
 21
26.3969462637
  0
LINE
  5
239
100
AcDbEntity
  8
00_COMPONENTS_1
100
AcDbLine
 62
7
  6
CONTINUOUS
 10
65.3962776138
 20
26.3969462637
 11
63.9462776138
 21
26.3969462637
  0
LINE
  5
23A
100
AcDbEntity
  8
00_COMPONENTS_1
100
AcDbLine
 62
7
  6
CONTINUOUS
 10
60.7462776138
 20
26.3969462637
 11
59.2962776138
 21
26.3969462637
  0
LINE
  5
23B
100
AcDbEntity
  8
00_COMPONENTS_1
100
AcDbLine
 62
7
  6
CONTINUOUS
 10
54.7962776138
 20
26.3969462637
 11
53.3462776138
 21
26.3969462637
  0
LINE
  5
23C
100
AcDbEntity
  8
00_COMPONENTS_1
100
AcDbLine
 62
7
  6
CONTINUOUS
 10
50.1462776138
 20
26.3969462637
 11
48.6962776138
 21
26.3969462637
  0
LINE
  5
23D
100
AcDbEntity
  8
00_COMPONENTS_1
100
AcDbLine
 62
7
  6
CONTINUOUS
 10
45.9462776138
 20
26.7419442621
 11
46.9462776138
 21
26.7419442621
  0
LINE
  5
23E
100
AcDbEntity
  8
00_COMPONENTS_1
100
AcDbLine
 62
7
  6
CONTINUOUS
 10
56.5462776138
 20
26.7419442621
 11
57.5462776138
 21
26.7419442621
  0
LINE
  5
23F
100
AcDbEntity
  8
00_COMPONENTS_1
100
AcDbLine
 62
7
  6
CONTINUOUS
 10
67.1462776138
 20
26.7419442621
 11
68.1462776138
 21
26.7419442621
  0
LINE
  5
240
100
AcDbEntity
  8
00_COMPONENTS_1
100
AcDbLine
 62
7
  6
CONTINUOUS
 10
77.7462776138
 20
26.7419442621
 11
78.7462776138
 21
26.7419442621
  0
LINE
  5
241
100
AcDbEntity
  8
00_COMPONENTS_1
100
AcDbLine
 62
7
  6
CONTINUOUS
 10
83.6462776138
 20
32.1574881868
 11
78.9462776138
 21
31.4969462637
  0
LINE
  5
242
100
AcDbEntity
  8
INTFCLR_18
100
AcDbLine
 62
7
420
3368703
  6
CONTINUOUS
 10
83.6462776138
 20
32.1574881868
 11
78.9462776138
 21
31.4969462637
  0
LINE
  5
243
100
AcDbEntity
  8
INTFCLR_18
100
AcDbLine
 62
7
420
3368703
  6
CONTINUOUS
 10
74.0462776138
 20
27.3469462637
 11
71.8462776138
 21
27.3469462637
  0
LINE
  5
244
100
AcDbEntity
  8
INTFCLR_18
100
AcDbLine
 62
7
420
3368703
  6
CONTINUOUS
 10
63.4462776138
 20
27.3469462637
 11
61.2462776138
 21
27.3469462637
  0
LINE
  5
245
100
AcDbEntity
  8
INTFCLR_18
100
AcDbLine
 62
7
420
3368703
  6
CONTINUOUS
 10
52.8462776138
 20
27.3469462637
 11
50.6462776138
 21
27.3469462637
  0
LINE
  5
246
100
AcDbEntity
  8
00_COMPONENTS_1
100
AcDbLine
 62
7
  6
CONTINUOUS
 10
50.6462776138
 20
27.3469462637
 11
52.8462776138
 21
27.3469462637
  0
LINE
  5
247
100
AcDbEntity
  8
00_COMPONENTS_1
100
AcDbLine
 62
7
  6
CONTINUOUS
 10
61.2462776138
 20
27.3469462637
 11
63.4462776138
 21
27.3469462637
  0
LINE
  5
248
100
AcDbEntity
  8
00_COMPONENTS_1
100
AcDbLine
 62
7
  6
CONTINUOUS
 10
71.8462776138
 20
27.3469462637
 11
74.0462776138
 21
27.3469462637
  0
LINE
  5
249
100
AcDbEntity
  8
00_COMPONENTS_1
100
AcDbLine
 62
7
  6
CONTINUOUS
 10
77.1962776138
 20
30.5969462637
 11
68.6962776138
 21
30.5969462637
  0
LINE
  5
24A
100
AcDbEntity
  8
00_COMPONENTS_1
100
AcDbLine
 62
7
  6
CONTINUOUS
 10
66.5962776138
 20
30.5969462637
 11
58.0962776138
 21
30.5969462637
  0
LINE
  5
24B
100
AcDbEntity
  8
00_COMPONENTS_1
100
AcDbLine
 62
7
  6
CONTINUOUS
 10
55.9962776138
 20
30.5969462637
 11
47.4962776138
 21
30.5969462637
  0
LINE
  5
24C
100
AcDbEntity
  8
INTFCLR_18
100
AcDbLine
 62
7
420
3368703
  6
CONTINUOUS
 10
47.4962776138
 20
30.5969462637
 11
55.9962776138
 21
30.5969462637
  0
LINE
  5
24D
100
AcDbEntity
  8
INTFCLR_18
100
AcDbLine
 62
7
420
3368703
  6
CONTINUOUS
 10
58.0962776138
 20
30.5969462637
 11
66.5962776138
 21
30.5969462637
  0
LINE
  5
24E
100
AcDbEntity
  8
INTFCLR_18
100
AcDbLine
 62
7
420
3368703
  6
CONTINUOUS
 10
68.6962776138
 20
30.5969462637
 11
77.1962776138
 21
30.5969462637
  0
LINE
  5
24F
100
AcDbEntity
  8
00_COMPONENTS_1
100
AcDbLine
 62
7
  6
CONTINUOUS
 10
77.7462776138
 20
34.2488868947
 11
78.7462776138
 21
34.2488868947
  0
LINE
  5
250
100
AcDbEntity
  8
INTFCLR_18
100
AcDbLine
 62
7
420
3368703
  6
CONTINUOUS
 10
29.6462776138
 20
149.6823628077
 11
29.6462776138
 21
95.5969462637
  0
LINE
  5
251
100
AcDbEntity
  8
INTFCLR_18
100
AcDbLine
 62
7
420
3368703
  6
CONTINUOUS
 10
29.6462776138
 20
35.1969462637
 11
29.6462776138
 21
17.2446357277
  0
LINE
  5
252
100
AcDbEntity
  8
00_COMPONENTS_1
100
AcDbLine
 62
7
  6
CONTINUOUS
 10
29.6462776138
 20
17.2446357277
 11
29.6462776138
 21
129.5969462637
  0
LINE
  5
253
100
AcDbEntity
  8
00_COMPONENTS_1
100
AcDbLine
 62
7
  6
CONTINUOUS
 10
30.0748072913
 20
95.5969462637
 11
30.0748072913
 21
122.7969462637
  0
LINE
  5
254
100
AcDbEntity
  8
00_COMPONENTS_1
100
AcDbLine
 62
7
  6
CONTINUOUS
 10
31.4462776331
 20
122.7969462637
 11
31.4462776331
 21
129.5969462637
  0
LINE
  5
255
100
AcDbEntity
  8
INTFCLR_18
100
AcDbLine
 62
7
420
3368703
  6
CONTINUOUS
 10
31.7962776138
 20
122.7968814479
 11
31.7962776138
 21
123.800792463
  0
LINE
  5
256
100
AcDbEntity
  8
INTFCLR_18
100
AcDbLine
 62
7
420
3368703
  6
CONTINUOUS
 10
31.7962776138
 20
127.6495071211
 11
31.7962776138
 21
129.4969462637
  0
LINE
  5
257
100
AcDbEntity
  8
00_COMPONENTS_1
100
AcDbLine
 62
7
  6
CONTINUOUS
 10
31.7962776138
 20
122.7969462637
 11
31.7962776138
 21
129.4969462637
  0
LINE
  5
258
100
AcDbEntity
  8
00_COMPONENTS_1
100
AcDbLine
 62
7
  6
CONTINUOUS
 10
32.8212776138
 20
101.9969462637
 11
32.8212776138
 21
95.5969462637
  0
LINE
  5
259
100
AcDbEntity
  8
00_COMPONENTS_1
100
AcDbLine
 62
7
  6
CONTINUOUS
 10
32.8462776138
 20
119.7969462637
 11
32.8462776138
 21
103.9469462637
  0
LINE
  5
25A
100
AcDbEntity
  8
00_COMPONENTS_1
100
AcDbLine
 62
7
  6
CONTINUOUS
 10
32.8846862666
 20
128.0969462637
 11
32.8846862666
 21
129.4969462637
  0
LINE
  5
25B
100
AcDbEntity
  8
00_COMPONENTS_1
100
AcDbLine
 62
7
  6
CONTINUOUS
 10
32.9145684438
 20
123.7969462637
 11
32.9145684438
 21
127.6469462637
  0
LINE
  5
25C
100
AcDbEntity
  8
00_COMPONENTS_1
100
AcDbLine
 62
7
  6
CONTINUOUS
 10
32.9548956438
 20
128.0969462637
 11
32.9548956438
 21
129.4969462637
  0
LINE
  5
25D
100
AcDbEntity
  8
INTFCLR_18
100
AcDbLine
 62
7
420
3368703
  6
CONTINUOUS
 10
34.2962776138
 20
90.1070420223
 11
34.2962776138
 21
79.8897665867
  0
LINE
  5
25E
100
AcDbEntity
  8
00_COMPONENTS_1
100
AcDbLine
 62
7
  6
CONTINUOUS
 10
34.2962776138
 20
79.8897665867
 11
34.2962776138
 21
90.1070420223
  0
LINE
  5
25F
100
AcDbEntity
  8
INTFCLR_18
100
AcDbLine
 62
7
420
3368703
  6
CONTINUOUS
 10
34.6962776138
 20
78.3969462637
 11
34.6962776138
 21
68.5518047554
  0
LINE
  5
260
100
AcDbEntity
  8
00_COMPONENTS_1
100
AcDbLine
 62
7
  6
CONTINUOUS
 10
34.6962776138
 20
68.5518047554
 11
34.6962776138
 21
78.3969462637
  0
LINE
  5
261
100
AcDbEntity
  8
00_COMPONENTS_1
100
AcDbLine
 62
7
  6
CONTINUOUS
 10
34.7962776138
 20
90.1070420223
 11
34.7962776138
 21
79.9555928355
  0
LINE
  5
262
100
AcDbEntity
  8
00_COMPONENTS_1
100
AcDbLine
 62
7
  6
CONTINUOUS
 10
34.9062776138
 20
12.6145552309
 11
34.9062776138
 21
17.1689414991
  0
LINE
  5
263
100
AcDbEntity
  8
INTFCLR_18
100
AcDbLine
 62
7
420
3368703
  6
CONTINUOUS
 10
34.9062776138
 20
11.9076698881
 11
34.9062776138
 21
17.4978704781
  0
LINE
  5
264
100
AcDbEntity
  8
INTFCLR_18
100
AcDbLine
 62
7
420
3368703
  6
CONTINUOUS
 10
34.9962776138
 20
78.97285448
 11
34.9962776138
 21
76.47285448
  0
LINE
  5
265
100
AcDbEntity
  8
00_COMPONENTS_1
100
AcDbLine
 62
7
  6
CONTINUOUS
 10
35.1962776138
 20
76.47285448
 11
35.1962776138
 21
68.8513852995
  0
LINE
  5
266
100
AcDbEntity
  8
00_COMPONENTS_1
100
AcDbLine
 62
7
  6
CONTINUOUS
 10
34.2962776138
 20
79.8897665867
 11
34.6962776138
 21
78.3969462637
  0
LINE
  5
267
100
AcDbEntity
  8
INTFCLR_18
100
AcDbLine
 62
7
420
3368703
  6
CONTINUOUS
 10
34.2962776138
 20
79.8897665867
 11
34.6962776138
 21
78.3969462637
  0
LINE
  5
268
100
AcDbEntity
  8
00_COMPONENTS_1
100
AcDbLine
 62
7
  6
CONTINUOUS
 10
34.7962776138
 20
79.9555928355
 11
35.0596015625
 21
78.97285448
  0
LINE
  5
269
100
AcDbEntity
  8
00_COMPONENTS_1
100
AcDbLine
 62
7
  6
CONTINUOUS
 10
38.0174581721
 20
17.1833184888
 11
38.0174581721
 21
12.6145552309
  0
LINE
  5
26A
100
AcDbEntity
  8
00_COMPONENTS_1
100
AcDbLine
 62
7
  6
CONTINUOUS
 10
43.6374949425
 20
128.0969462637
 11
43.6374949425
 21
129.4969462637
  0
LINE
  5
26B
100
AcDbEntity
  8
00_COMPONENTS_1
100
AcDbLine
 62
7
  6
CONTINUOUS
 10
43.6782996311
 20
127.6469462637
 11
43.6782996311
 21
123.7969462637
  0
LINE
  5
26C
100
AcDbEntity
  8
00_COMPONENTS_1
100
AcDbLine
 62
7
  6
CONTINUOUS
 10
43.7077866132
 20
129.4969462637
 11
43.7077866132
 21
128.0969462637
  0
LINE
  5
26D
100
AcDbEntity
  8
00_COMPONENTS_1
100
AcDbLine
 62
7
  6
CONTINUOUS
 10
43.8962776138
 20
68.8513852995
 11
43.8962776138
 21
76.47285448
  0
LINE
  5
26E
100
AcDbEntity
  8
INTFCLR_18
100
AcDbLine
 62
7
420
3368703
  6
CONTINUOUS
 10
44.0962776138
 20
76.47285448
 11
44.0962776138
 21
78.97285448
  0
LINE
  5
26F
100
AcDbEntity
  8
00_COMPONENTS_1
100
AcDbLine
 62
7
  6
CONTINUOUS
 10
44.2962776138
 20
79.9555928355
 11
44.2962776138
 21
90.1070420223
  0
LINE
  5
270
100
AcDbEntity
  8
00_COMPONENTS_1
100
AcDbLine
 62
7
  6
CONTINUOUS
 10
44.3962776138
 20
78.3969462637
 11
44.3962776138
 21
68.5518047554
  0
LINE
  5
271
100
AcDbEntity
  8
INTFCLR_18
100
AcDbLine
 62
7
420
3368703
  6
CONTINUOUS
 10
44.3962776138
 20
68.5518047554
 11
44.3962776138
 21
78.3969462637
  0
LINE
  5
272
100
AcDbEntity
  8
00_COMPONENTS_1
100
AcDbLine
 62
7
  6
CONTINUOUS
 10
44.5126018283
 20
122.7969462637
 11
44.5126018283
 21
123.7969462637
  0
LINE
  5
273
100
AcDbEntity
  8
00_COMPONENTS_1
100
AcDbLine
 62
7
  6
CONTINUOUS
 10
44.5126018283
 20
127.6469462637
 11
44.5126018283
 21
127.9969462637
  0
LINE
  5
274
100
AcDbEntity
  8
00_COMPONENTS_1
100
AcDbLine
 62
7
  6
CONTINUOUS
 10
44.5126018283
 20
129.4969462637
 11
44.5126018283
 21
129.5969462637
  0
LINE
  5
275
100
AcDbEntity
  8
00_COMPONENTS_1
100
AcDbLine
 62
7
  6
CONTINUOUS
 10
44.7962776138
 20
90.1070420223
 11
44.7962776138
 21
79.8897665867
  0
LINE
  5
276
100
AcDbEntity
  8
INTFCLR_18
100
AcDbLine
 62
7
420
3368703
  6
CONTINUOUS
 10
44.7962776138
 20
79.8897665867
 11
44.7962776138
 21
90.1070420223
  0
LINE
  5
277
100
AcDbEntity
  8
00_COMPONENTS_1
100
AcDbLine
 62
7
  6
CONTINUOUS
 10
44.7962776138
 20
127.9969462637
 11
44.7962776138
 21
129.4969462637
  0
LINE
  5
278
100
AcDbEntity
  8
00_COMPONENTS_1
100
AcDbLine
 62
7
  6
CONTINUOUS
 10
44.7965682426
 20
123.7969462637
 11
44.7965682426
 21
127.6469462637
  0
LINE
  5
279
100
AcDbEntity
  8
00_COMPONENTS_1
100
AcDbLine
 62
7
  6
CONTINUOUS
 10
45.1462776331
 20
122.7969462637
 11
45.1462776331
 21
129.5969462637
  0
LINE
  5
27A
100
AcDbEntity
  8
00_COMPONENTS_1
100
AcDbLine
 62
7
  6
CONTINUOUS
 10
45.2963136747
 20
119.7969462637
 11
45.2962423479
 21
117.8969462637
  0
LINE
  5
27B
100
AcDbEntity
  8
00_COMPONENTS_1
100
AcDbLine
 62
7
  6
CONTINUOUS
 10
45.9462776138
 20
20.4969462637
 11
45.9462776138
 21
33.5237171026
  0
LINE
  5
27C
100
AcDbEntity
  8
00_COMPONENTS_1
100
AcDbLine
 62
7
  6
CONTINUOUS
 10
46.4046455021
 20
122.7969462637
 11
46.4046455021
 21
129.5969462637
  0
LINE
  5
27D
100
AcDbEntity
  8
00_COMPONENTS_1
100
AcDbLine
 62
7
  6
CONTINUOUS
 10
46.8462906801
 20
103.9469462637
 11
46.8462906801
 21
117.8969462637
  0
LINE
  5
27E
100
AcDbEntity
  8
00_COMPONENTS_1
100
AcDbLine
 62
7
  6
CONTINUOUS
 10
46.9462776138
 20
20.4969462637
 11
46.9462776138
 21
33.4674512532
  0
LINE
  5
27F
100
AcDbEntity
  8
00_COMPONENTS_1
100
AcDbLine
 62
7
  6
CONTINUOUS
 10
47.4962776138
 20
30.5969462637
 11
47.4962776138
 21
25.1935433896
  0
LINE
  5
280
100
AcDbEntity
  8
INTFCLR_18
100
AcDbLine
 62
7
420
3368703
  6
CONTINUOUS
 10
47.4962776138
 20
25.1935433896
 11
47.4962776138
 21
30.5969462637
  0
LINE
  5
281
100
AcDbEntity
  8
00_COMPONENTS_1
100
AcDbLine
 62
7
  6
CONTINUOUS
 10
44.0329536651
 20
78.97285448
 11
44.2962776138
 21
79.9555928355
  0
LINE
  5
282
100
AcDbEntity
  8
00_COMPONENTS_1
100
AcDbLine
 62
7
  6
CONTINUOUS
 10
44.3962776138
 20
78.3969462637
 11
44.7962776138
 21
79.8897665867
  0
LINE
  5
283
100
AcDbEntity
  8
INTFCLR_18
100
AcDbLine
 62
7
420
3368703
  6
CONTINUOUS
 10
44.3962776138
 20
78.3969462637
 11
44.7962776138
 21
79.8897665867
  0
LINE
  5
284
100
AcDbEntity
  8
00_COMPONENTS_1
100
AcDbLine
 62
7
  6
CONTINUOUS
 10
48.6962776138
 20
26.3969462637
 11
48.6962776138
 21
25.1935433896
  0
LINE
  5
285
100
AcDbEntity
  8
00_COMPONENTS_1
100
AcDbLine
 62
7
  6
CONTINUOUS
 10
48.8462776138
 20
117.8969462637
 11
48.8462693471
 21
103.9469462637
  0
LINE
  5
286
100
AcDbEntity
  8
00_COMPONENTS_1
100
AcDbLine
 62
7
  6
CONTINUOUS
 10
49.9962776138
 20
26.3969462637
 11
49.9962776138
 21
30.5969462637
  0
LINE
  5
287
100
AcDbEntity
  8
INTFCLR_18
100
AcDbLine
 62
7
420
3368703
  6
CONTINUOUS
 10
50.1462776138
 20
26.8469462637
 11
50.1462776138
 21
26.1935433896
  0
LINE
  5
288
100
AcDbEntity
  8
00_COMPONENTS_1
100
AcDbLine
 62
7
  6
CONTINUOUS
 10
50.1462776138
 20
26.1935433896
 11
50.1462776138
 21
26.8469462637
  0
LINE
  5
289
100
AcDbEntity
  8
INTFCLR_18
100
AcDbLine
 62
7
420
3368703
  6
CONTINUOUS
 10
51.7962776138
 20
90.1070420223
 11
51.7962776138
 21
79.8897665867
  0
LINE
  5
28A
100
AcDbEntity
  8
00_COMPONENTS_1
100
AcDbLine
 62
7
  6
CONTINUOUS
 10
51.7962776138
 20
79.8897665867
 11
51.7962776138
 21
90.1070420223
  0
LINE
  5
28B
100
AcDbEntity
  8
INTFCLR_18
100
AcDbLine
 62
7
420
3368703
  6
CONTINUOUS
 10
52.1962776138
 20
78.3969462637
 11
52.1962776138
 21
68.5518047554
  0
LINE
  5
28C
100
AcDbEntity
  8
00_COMPONENTS_1
100
AcDbLine
 62
7
  6
CONTINUOUS
 10
52.1962776138
 20
68.5518047554
 11
52.1962776138
 21
78.3969462637
  0
LINE
  5
28D
100
AcDbEntity
  8
00_COMPONENTS_1
100
AcDbLine
 62
7
  6
CONTINUOUS
 10
52.2962776138
 20
90.1070420223
 11
52.2962776138
 21
79.9555928355
  0
LINE
  5
28E
100
AcDbEntity
  8
INTFCLR_18
100
AcDbLine
 62
7
420
3368703
  6
CONTINUOUS
 10
52.4962776138
 20
78.97285448
 11
52.4962776138
 21
76.47285448
  0
LINE
  5
28F
100
AcDbEntity
  8
00_COMPONENTS_1
100
AcDbLine
 62
7
  6
CONTINUOUS
 10
52.6962776138
 20
76.47285448
 11
52.6962776138
 21
68.8513852995
  0
LINE
  5
290
100
AcDbEntity
  8
00_COMPONENTS_1
100
AcDbLine
 62
7
  6
CONTINUOUS
 10
78.8962776138
 20
76.47285448
 11
70.1962776138
 21
76.47285448
  0
LINE
  5
291
100
AcDbEntity
  8
00_COMPONENTS_1
100
AcDbLine
 62
7
  6
CONTINUOUS
 10
61.3962776138
 20
76.47285448
 11
52.6962776138
 21
76.47285448
  0
LINE
  5
292
100
AcDbEntity
  8
00_COMPONENTS_1
100
AcDbLine
 62
7
  6
CONTINUOUS
 10
43.8962776138
 20
76.47285448
 11
35.1962776138
 21
76.47285448
  0
LINE
  5
293
100
AcDbEntity
  8
INTFCLR_18
100
AcDbLine
 62
7
420
3368703
  6
CONTINUOUS
 10
34.9962776138
 20
76.47285448
 11
44.0962776138
 21
76.47285448
  0
LINE
  5
294
100
AcDbEntity
  8
INTFCLR_18
100
AcDbLine
 62
7
420
3368703
  6
CONTINUOUS
 10
52.4962776138
 20
76.47285448
 11
61.5962776138
 21
76.47285448
  0
LINE
  5
295
100
AcDbEntity
  8
INTFCLR_18
100
AcDbLine
 62
7
420
3368703
  6
CONTINUOUS
 10
69.9962776138
 20
76.47285448
 11
79.0962776138
 21
76.47285448
  0
LINE
  5
296
100
AcDbEntity
  8
00_COMPONENTS_1
100
AcDbLine
 62
7
  6
CONTINUOUS
 10
51.7962776138
 20
79.8897665867
 11
52.1962776138
 21
78.3969462637
  0
LINE
  5
297
100
AcDbEntity
  8
INTFCLR_18
100
AcDbLine
 62
7
420
3368703
  6
CONTINUOUS
 10
51.7962776138
 20
79.8897665867
 11
52.1962776138
 21
78.3969462637
  0
LINE
  5
298
100
AcDbEntity
  8
00_COMPONENTS_1
100
AcDbLine
 62
7
  6
CONTINUOUS
 10
52.2962776138
 20
79.9555928355
 11
52.5596015625
 21
78.97285448
  0
LINE
  5
299
100
AcDbEntity
  8
00_COMPONENTS_1
100
AcDbLine
 62
7
  6
CONTINUOUS
 10
53.3462776138
 20
26.8469462637
 11
53.3462776138
 21
26.1935433896
  0
LINE
  5
29A
100
AcDbEntity
  8
INTFCLR_18
100
AcDbLine
 62
7
420
3368703
  6
CONTINUOUS
 10
53.3462776138
 20
26.1935433896
 11
53.3462776138
 21
26.8469462637
  0
LINE
  5
29B
100
AcDbEntity
  8
00_COMPONENTS_1
100
AcDbLine
 62
7
  6
CONTINUOUS
 10
53.4962776138
 20
26.3969462637
 11
53.4962776138
 21
30.5969462637
  0
LINE
  5
29C
100
AcDbEntity
  8
00_COMPONENTS_1
100
AcDbLine
 62
7
  6
CONTINUOUS
 10
54.7962776138
 20
26.3969462637
 11
54.7962776138
 21
25.1935433896
  0
LINE
  5
29D
100
AcDbEntity
  8
INTFCLR_18
100
AcDbLine
 62
7
420
3368703
  6
CONTINUOUS
 10
55.9962776138
 20
30.5969462637
 11
55.9962776138
 21
25.1935433896
  0
LINE
  5
29E
100
AcDbEntity
  8
00_COMPONENTS_1
100
AcDbLine
 62
7
  6
CONTINUOUS
 10
55.9962776138
 20
25.1935433896
 11
55.9962776138
 21
30.5969462637
  0
LINE
  5
29F
100
AcDbEntity
  8
00_COMPONENTS_1
100
AcDbLine
 62
7
  6
CONTINUOUS
 10
56.5462776138
 20
20.4969462637
 11
56.5462776138
 21
33.1976087271
  0
LINE
  5
2A0
100
AcDbEntity
  8
00_COMPONENTS_1
100
AcDbLine
 62
7
  6
CONTINUOUS
 10
57.5462776138
 20
20.4969462637
 11
57.5462776138
 21
33.1976087271
  0
LINE
  5
2A1
100
AcDbEntity
  8
INTFCLR_18
100
AcDbLine
 62
7
420
3368703
  6
CONTINUOUS
 10
79.0962776138
 20
78.97285448
 11
69.9962776138
 21
78.97285448
  0
LINE
  5
2A2
100
AcDbEntity
  8
INTFCLR_18
100
AcDbLine
 62
7
420
3368703
  6
CONTINUOUS
 10
61.5962776138
 20
78.97285448
 11
52.4962776138
 21
78.97285448
  0
LINE
  5
2A3
100
AcDbEntity
  8
INTFCLR_18
100
AcDbLine
 62
7
420
3368703
  6
CONTINUOUS
 10
44.0962776138
 20
78.97285448
 11
34.9962776138
 21
78.97285448
  0
LINE
  5
2A4
100
AcDbEntity
  8
00_COMPONENTS_1
100
AcDbLine
 62
7
  6
CONTINUOUS
 10
35.0596015625
 20
78.97285448
 11
44.0329536651
 21
78.97285448
  0
LINE
  5
2A5
100
AcDbEntity
  8
00_COMPONENTS_1
100
AcDbLine
 62
7
  6
CONTINUOUS
 10
52.5596015625
 20
78.97285448
 11
61.5329536651
 21
78.97285448
  0
LINE
  5
2A6
100
AcDbEntity
  8
00_COMPONENTS_1
100
AcDbLine
 62
7
  6
CONTINUOUS
 10
70.0596015625
 20
78.97285448
 11
79.0329536651
 21
78.97285448
  0
LINE
  5
2A7
100
AcDbEntity
  8
00_COMPONENTS_1
100
AcDbLine
 62
7
  6
CONTINUOUS
 10
58.0962776138
 20
30.5969462637
 11
58.0962776138
 21
25.1935433896
  0
LINE
  5
2A8
100
AcDbEntity
  8
INTFCLR_18
100
AcDbLine
 62
7
420
3368703
  6
CONTINUOUS
 10
58.0962776138
 20
25.1935433896
 11
58.0962776138
 21
30.5969462637
  0
LINE
  5
2A9
100
AcDbEntity
  8
00_COMPONENTS_1
100
AcDbLine
 62
7
  6
CONTINUOUS
 10
59.2962776138
 20
26.3969462637
 11
59.2962776138
 21
25.1935433896
  0
LINE
  5
2AA
100
AcDbEntity
  8
00_COMPONENTS_1
100
AcDbLine
 62
7
  6
CONTINUOUS
 10
60.5962776138
 20
26.3969462637
 11
60.5962776138
 21
30.5969462637
  0
LINE
  5
2AB
100
AcDbEntity
  8
INTFCLR_18
100
AcDbLine
 62
7
420
3368703
  6
CONTINUOUS
 10
60.7462776138
 20
26.8469462637
 11
60.7462776138
 21
26.1935433896
  0
LINE
  5
2AC
100
AcDbEntity
  8
00_COMPONENTS_1
100
AcDbLine
 62
7
  6
CONTINUOUS
 10
60.7462776138
 20
26.1935433896
 11
60.7462776138
 21
26.8469462637
  0
LINE
  5
2AD
100
AcDbEntity
  8
00_COMPONENTS_1
100
AcDbLine
 62
7
  6
CONTINUOUS
 10
61.3962776138
 20
68.8513852995
 11
61.3962776138
 21
76.47285448
  0
LINE
  5
2AE
100
AcDbEntity
  8
INTFCLR_18
100
AcDbLine
 62
7
420
3368703
  6
CONTINUOUS
 10
61.5962776138
 20
76.47285448
 11
61.5962776138
 21
78.97285448
  0
LINE
  5
2AF
100
AcDbEntity
  8
00_COMPONENTS_1
100
AcDbLine
 62
7
  6
CONTINUOUS
 10
61.7962776138
 20
79.9555928355
 11
61.7962776138
 21
90.1070420223
  0
LINE
  5
2B0
100
AcDbEntity
  8
00_COMPONENTS_1
100
AcDbLine
 62
7
  6
CONTINUOUS
 10
61.8962776138
 20
78.3969462637
 11
61.8962776138
 21
68.5518047554
  0
LINE
  5
2B1
100
AcDbEntity
  8
INTFCLR_18
100
AcDbLine
 62
7
420
3368703
  6
CONTINUOUS
 10
61.8962776138
 20
68.5518047554
 11
61.8962776138
 21
78.3969462637
  0
LINE
  5
2B2
100
AcDbEntity
  8
00_COMPONENTS_1
100
AcDbLine
 62
7
  6
CONTINUOUS
 10
62.2962776138
 20
90.1070420223
 11
62.2962776138
 21
79.8897665867
  0
LINE
  5
2B3
100
AcDbEntity
  8
INTFCLR_18
100
AcDbLine
 62
7
420
3368703
  6
CONTINUOUS
 10
62.2962776138
 20
79.8897665867
 11
62.2962776138
 21
90.1070420223
  0
LINE
  5
2B4
100
AcDbEntity
  8
00_COMPONENTS_1
100
AcDbLine
 62
7
  6
CONTINUOUS
 10
61.5329536651
 20
78.97285448
 11
61.7962776138
 21
79.9555928355
  0
LINE
  5
2B5
100
AcDbEntity
  8
00_COMPONENTS_1
100
AcDbLine
 62
7
  6
CONTINUOUS
 10
61.8962776138
 20
78.3969462637
 11
62.2962776138
 21
79.8897665867
  0
LINE
  5
2B6
100
AcDbEntity
  8
INTFCLR_18
100
AcDbLine
 62
7
420
3368703
  6
CONTINUOUS
 10
61.8962776138
 20
78.3969462637
 11
62.2962776138
 21
79.8897665867
  0
LINE
  5
2B7
100
AcDbEntity
  8
00_COMPONENTS_1
100
AcDbLine
 62
7
  6
CONTINUOUS
 10
63.9462776138
 20
26.8469462637
 11
63.9462776138
 21
26.1935433896
  0
LINE
  5
2B8
100
AcDbEntity
  8
INTFCLR_18
100
AcDbLine
 62
7
420
3368703
  6
CONTINUOUS
 10
63.9462776138
 20
26.1935433896
 11
63.9462776138
 21
26.8469462637
  0
LINE
  5
2B9
100
AcDbEntity
  8
00_COMPONENTS_1
100
AcDbLine
 62
7
  6
CONTINUOUS
 10
64.0962776138
 20
26.3969462637
 11
64.0962776138
 21
30.5969462637
  0
LINE
  5
2BA
100
AcDbEntity
  8
00_COMPONENTS_1
100
AcDbLine
 62
7
  6
CONTINUOUS
 10
65.2462776138
 20
117.8969462637
 11
65.2462858573
 21
103.9469462637
  0
LINE
  5
2BB
100
AcDbEntity
  8
00_COMPONENTS_1
100
AcDbLine
 62
7
  6
CONTINUOUS
 10
65.3962776138
 20
26.3969462637
 11
65.3962776138
 21
25.1935433896
  0
LINE
  5
2BC
100
AcDbEntity
  8
INTFCLR_18
100
AcDbLine
 62
7
420
3368703
  6
CONTINUOUS
 10
66.5962776138
 20
30.5969462637
 11
66.5962776138
 21
25.1935433896
  0
LINE
  5
2BD
100
AcDbEntity
  8
00_COMPONENTS_1
100
AcDbLine
 62
7
  6
CONTINUOUS
 10
66.5962776138
 20
25.1935433896
 11
66.5962776138
 21
30.5969462637
  0
LINE
  5
2BE
100
AcDbEntity
  8
00_COMPONENTS_1
100
AcDbLine
 62
7
  6
CONTINUOUS
 10
67.1462776138
 20
20.4969462637
 11
67.1462776138
 21
33.4674512532
  0
LINE
  5
2BF
100
AcDbEntity
  8
00_COMPONENTS_1
100
AcDbLine
 62
7
  6
CONTINUOUS
 10
67.2462645475
 20
117.8969462637
 11
67.2462645475
 21
103.9469462637
  0
LINE
  5
2C0
100
AcDbEntity
  8
00_COMPONENTS_1
100
AcDbLine
 62
7
  6
CONTINUOUS
 10
67.6879097257
 20
122.7969462637
 11
67.6879097257
 21
129.5969462637
  0
LINE
  5
2C1
100
AcDbEntity
  8
00_COMPONENTS_1
100
AcDbLine
 62
7
  6
CONTINUOUS
 10
68.1462776138
 20
20.4969462637
 11
68.1462776138
 21
33.5237171026
  0
LINE
  5
2C2
100
AcDbEntity
  8
00_COMPONENTS_1
100
AcDbLine
 62
7
  6
CONTINUOUS
 10
68.6962776138
 20
30.5969462637
 11
68.6962776138
 21
25.1935433896
  0
LINE
  5
2C3
100
AcDbEntity
  8
INTFCLR_18
100
AcDbLine
 62
7
420
3368703
  6
CONTINUOUS
 10
68.6962776138
 20
25.1935433896
 11
68.6962776138
 21
30.5969462637
  0
LINE
  5
2C4
100
AcDbEntity
  8
00_COMPONENTS_1
100
AcDbLine
 62
7
  6
CONTINUOUS
 10
68.7962415753
 20
119.7969462637
 11
68.7963129021
 21
117.8969462637
  0
LINE
  5
2C5
100
AcDbEntity
  8
00_COMPONENTS_1
100
AcDbLine
 62
7
  6
CONTINUOUS
 10
68.9462776331
 20
122.7969462637
 11
68.9462776331
 21
129.5969462637
  0
LINE
  5
2C6
100
AcDbEntity
  8
INTFCLR_18
100
AcDbLine
 62
7
420
3368703
  6
CONTINUOUS
 10
69.2962776138
 20
90.1070420223
 11
69.2962776138
 21
79.8897665867
  0
LINE
  5
2C7
100
AcDbEntity
  8
00_COMPONENTS_1
100
AcDbLine
 62
7
  6
CONTINUOUS
 10
69.2962776138
 20
79.8897665867
 11
69.2962776138
 21
90.1070420223
  0
LINE
  5
2C8
100
AcDbEntity
  8
00_COMPONENTS_1
100
AcDbLine
 62
7
  6
CONTINUOUS
 10
69.2962776138
 20
127.9969462637
 11
69.2962776138
 21
129.4969462637
  0
LINE
  5
2C9
100
AcDbEntity
  8
00_COMPONENTS_1
100
AcDbLine
 62
7
  6
CONTINUOUS
 10
69.2965682426
 20
123.7969462637
 11
69.2965682426
 21
127.6469462637
  0
LINE
  5
2CA
100
AcDbEntity
  8
00_COMPONENTS_1
100
AcDbLine
 62
7
  6
CONTINUOUS
 10
69.5799534379
 20
122.7969462637
 11
69.5799534379
 21
123.7969462637
  0
LINE
  5
2CB
100
AcDbEntity
  8
00_COMPONENTS_1
100
AcDbLine
 62
7
  6
CONTINUOUS
 10
69.5799534379
 20
127.6469462637
 11
69.5799534379
 21
127.9969462637
  0
LINE
  5
2CC
100
AcDbEntity
  8
00_COMPONENTS_1
100
AcDbLine
 62
7
  6
CONTINUOUS
 10
69.5799534379
 20
129.4969462637
 11
69.5799534379
 21
129.5969462637
  0
LINE
  5
2CD
100
AcDbEntity
  8
INTFCLR_18
100
AcDbLine
 62
7
420
3368703
  6
CONTINUOUS
 10
69.6962776138
 20
78.3969462637
 11
69.6962776138
 21
68.5518047554
  0
LINE
  5
2CE
100
AcDbEntity
  8
00_COMPONENTS_1
100
AcDbLine
 62
7
  6
CONTINUOUS
 10
69.6962776138
 20
68.5518047554
 11
69.6962776138
 21
78.3969462637
  0
LINE
  5
2CF
100
AcDbEntity
  8
00_COMPONENTS_1
100
AcDbLine
 62
7
  6
CONTINUOUS
 10
69.7962776138
 20
90.1070420223
 11
69.7962776138
 21
79.9555928355
  0
LINE
  5
2D0
100
AcDbEntity
  8
00_COMPONENTS_1
100
AcDbLine
 62
7
  6
CONTINUOUS
 10
69.8962776138
 20
26.3969462637
 11
69.8962776138
 21
25.1935433896
  0
LINE
  5
2D1
100
AcDbEntity
  8
INTFCLR_18
100
AcDbLine
 62
7
420
3368703
  6
CONTINUOUS
 10
69.9962776138
 20
78.97285448
 11
69.9962776138
 21
76.47285448
  0
LINE
  5
2D2
100
AcDbEntity
  8
00_COMPONENTS_1
100
AcDbLine
 62
7
  6
CONTINUOUS
 10
70.1962776138
 20
76.47285448
 11
70.1962776138
 21
68.8513852995
  0
LINE
  5
2D3
100
AcDbEntity
  8
00_COMPONENTS_1
100
AcDbLine
 62
7
  6
CONTINUOUS
 10
70.3847686144
 20
128.0969462637
 11
70.3847686144
 21
129.4969462637
  0
LINE
  5
2D4
100
AcDbEntity
  8
00_COMPONENTS_1
100
AcDbLine
 62
7
  6
CONTINUOUS
 10
70.4148368541
 20
123.7969462637
 11
70.4148368541
 21
127.6469462637
  0
LINE
  5
2D5
100
AcDbEntity
  8
00_COMPONENTS_1
100
AcDbLine
 62
7
  6
CONTINUOUS
 10
70.4550602851
 20
128.0969462637
 11
70.4550602851
 21
129.4969462637
  0
LINE
  5
2D6
100
AcDbEntity
  8
00_COMPONENTS_1
100
AcDbLine
 62
7
  6
CONTINUOUS
 10
71.1962776138
 20
26.3969462637
 11
71.1962776138
 21
30.5969462637
  0
LINE
  5
2D7
100
AcDbEntity
  8
INTFCLR_18
100
AcDbLine
 62
7
420
3368703
  6
CONTINUOUS
 10
71.3462776138
 20
26.8469462637
 11
71.3462776138
 21
26.1935433896
  0
LINE
  5
2D8
100
AcDbEntity
  8
00_COMPONENTS_1
100
AcDbLine
 62
7
  6
CONTINUOUS
 10
71.3462776138
 20
26.1935433896
 11
71.3462776138
 21
26.8469462637
  0
LINE
  5
2D9
100
AcDbEntity
  8
00_COMPONENTS_1
100
AcDbLine
 62
7
  6
CONTINUOUS
 10
84.4462776138
 20
95.5969462637
 11
29.6462776138
 21
95.5969462637
  0
LINE
  5
2DA
100
AcDbEntity
  8
00_COMPONENTS_1
100
AcDbLine
 62
7
  6
CONTINUOUS
 10
69.2962776138
 20
79.8897665867
 11
69.6962776138
 21
78.3969462637
  0
LINE
  5
2DB
100
AcDbEntity
  8
INTFCLR_18
100
AcDbLine
 62
7
420
3368703
  6
CONTINUOUS
 10
69.2962776138
 20
79.8897665867
 11
69.6962776138
 21
78.3969462637
  0
LINE
  5
2DC
100
AcDbEntity
  8
00_COMPONENTS_1
100
AcDbLine
 62
7
  6
CONTINUOUS
 10
69.7962776138
 20
79.9555928355
 11
70.0596015625
 21
78.97285448
  0
LINE
  5
2DD
100
AcDbEntity
  8
00_COMPONENTS_1
100
AcDbLine
 62
7
  6
CONTINUOUS
 10
75.6843606788
 20
17.3573799606
 11
75.6838985765
 21
17.4573788929
  0
LINE
  5
2DE
100
AcDbEntity
  8
00_COMPONENTS_1
100
AcDbLine
 62
7
  6
CONTINUOUS
 10
74.5462776138
 20
26.8469462637
 11
74.5462776138
 21
26.1935433896
  0
LINE
  5
2DF
100
AcDbEntity
  8
INTFCLR_18
100
AcDbLine
 62
7
420
3368703
  6
CONTINUOUS
 10
74.5462776138
 20
26.1935433896
 11
74.5462776138
 21
26.8469462637
  0
LINE
  5
2E0
100
AcDbEntity
  8
00_COMPONENTS_1
100
AcDbLine
 62
7
  6
CONTINUOUS
 10
74.6962776138
 20
26.3969462637
 11
74.6962776138
 21
30.5969462637
  0
LINE
  5
2E1
100
AcDbEntity
  8
00_COMPONENTS_1
100
AcDbLine
 62
7
  6
CONTINUOUS
 10
75.7062776138
 20
17.1874257875
 11
75.7062776138
 21
17.4574823081
  0
LINE
  5
2E2
100
AcDbEntity
  8
00_COMPONENTS_1
100
AcDbLine
 62
7
  6
CONTINUOUS
 10
75.9962776138
 20
26.3969462637
 11
75.9962776138
 21
25.1935433896
  0
LINE
  5
2E3
100
AcDbEntity
  8
00_COMPONENTS_1
100
AcDbLine
 62
7
  6
CONTINUOUS
 10
76.5950970555
 20
12.6145552309
 11
76.5950970555
 21
17.1874257875
  0
LINE
  5
2E4
100
AcDbEntity
  8
INTFCLR_18
100
AcDbLine
 62
7
420
3368703
  6
CONTINUOUS
 10
77.1962776138
 20
30.5969462637
 11
77.1962776138
 21
25.1935433896
  0
LINE
  5
2E5
100
AcDbEntity
  8
00_COMPONENTS_1
100
AcDbLine
 62
7
  6
CONTINUOUS
 10
77.1962776138
 20
25.1935433896
 11
77.1962776138
 21
30.5969462637
  0
LINE
  5
2E6
100
AcDbEntity
  8
00_COMPONENTS_1
100
AcDbLine
 62
7
  6
CONTINUOUS
 10
77.7462776138
 20
20.4969462637
 11
77.7462776138
 21
34.2488868947
  0
LINE
  5
2E7
100
AcDbEntity
  8
INTFCLR_18
100
AcDbLine
 62
7
420
3368703
  6
CONTINUOUS
 10
78.7462776138
 20
34.2488868947
 11
78.7462776138
 21
20.4969462161
  0
LINE
  5
2E8
100
AcDbEntity
  8
00_COMPONENTS_1
100
AcDbLine
 62
7
  6
CONTINUOUS
 10
78.7462776138
 20
20.4969462637
 11
78.7462776138
 21
34.2488868947
  0
LINE
  5
2E9
100
AcDbEntity
  8
00_COMPONENTS_1
100
AcDbLine
 62
7
  6
CONTINUOUS
 10
78.8962776138
 20
68.8513852995
 11
78.8962776138
 21
76.47285448
  0
LINE
  5
2EA
100
AcDbEntity
  8
00_COMPONENTS_1
100
AcDbLine
 62
7
  6
CONTINUOUS
 10
78.9462776138
 20
31.4969462637
 11
78.9462776138
 21
19.9969462637
  0
LINE
  5
2EB
100
AcDbEntity
  8
INTFCLR_18
100
AcDbLine
 62
7
420
3368703
  6
CONTINUOUS
 10
78.9462776138
 20
31.4969462637
 11
78.9462776138
 21
19.9969462637
  0
LINE
  5
2EC
100
AcDbEntity
  8
INTFCLR_18
100
AcDbLine
 62
7
420
3368703
  6
CONTINUOUS
 10
79.0962776138
 20
76.47285448
 11
79.0962776138
 21
78.97285448
  0
LINE
  5
2ED
100
AcDbEntity
  8
00_COMPONENTS_1
100
AcDbLine
 62
7
  6
CONTINUOUS
 10
79.2962776138
 20
79.9555928355
 11
79.2962776138
 21
90.1070420223
  0
LINE
  5
2EE
100
AcDbEntity
  8
00_COMPONENTS_1
100
AcDbLine
 62
7
  6
CONTINUOUS
 10
79.3962776138
 20
78.3969462637
 11
79.3962776138
 21
68.5518047554
  0
LINE
  5
2EF
100
AcDbEntity
  8
INTFCLR_18
100
AcDbLine
 62
7
420
3368703
  6
CONTINUOUS
 10
79.3962776138
 20
68.5518047554
 11
79.3962776138
 21
78.3969462637
  0
LINE
  5
2F0
100
AcDbEntity
  8
00_COMPONENTS_1
100
AcDbLine
 62
7
  6
CONTINUOUS
 10
79.7062776138
 20
17.4759665964
 11
79.7062776138
 21
12.6145552309
  0
LINE
  5
2F1
100
AcDbEntity
  8
00_COMPONENTS_1
100
AcDbLine
 62
7
  6
CONTINUOUS
 10
79.7962776138
 20
90.1070420223
 11
79.7962776138
 21
79.8897665867
  0
LINE
  5
2F2
100
AcDbEntity
  8
INTFCLR_18
100
AcDbLine
 62
7
420
3368703
  6
CONTINUOUS
 10
79.7962776138
 20
79.8897665867
 11
79.7962776138
 21
90.1070420223
  0
LINE
  5
2F3
100
AcDbEntity
  8
00_COMPONENTS_1
100
AcDbLine
 62
7
  6
CONTINUOUS
 10
81.1376595838
 20
128.0969462637
 11
81.1376595838
 21
129.4969462637
  0
LINE
  5
2F4
100
AcDbEntity
  8
00_COMPONENTS_1
100
AcDbLine
 62
7
  6
CONTINUOUS
 10
81.1785680414
 20
127.6469462637
 11
81.1785680414
 21
123.7969462637
  0
LINE
  5
2F5
100
AcDbEntity
  8
00_COMPONENTS_1
100
AcDbLine
 62
7
  6
CONTINUOUS
 10
81.207868961
 20
129.4969462637
 11
81.207868961
 21
128.0969462637
  0
LINE
  5
2F6
100
AcDbEntity
  8
00_COMPONENTS_1
100
AcDbLine
 62
7
  6
CONTINUOUS
 10
81.2462776138
 20
103.9469462637
 11
81.2462776138
 21
119.7969462637
  0
LINE
  5
2F7
100
AcDbEntity
  8
00_COMPONENTS_1
100
AcDbLine
 62
7
  6
CONTINUOUS
 10
81.2712776138
 20
95.5969462637
 11
81.2712776138
 21
101.9969462637
  0
LINE
  5
2F8
100
AcDbEntity
  8
00_COMPONENTS_1
100
AcDbLine
 62
7
  6
CONTINUOUS
 10
81.9462776138
 20
129.4969462637
 11
81.9462776138
 21
129.5969462637
  0
LINE
  5
2F9
100
AcDbEntity
  8
00_COMPONENTS_1
100
AcDbLine
 62
7
  6
CONTINUOUS
 10
82.2962776138
 20
122.7969462637
 11
82.2962776138
 21
123.7969462637
  0
LINE
  5
2FA
100
AcDbEntity
  8
00_COMPONENTS_1
100
AcDbLine
 62
7
  6
CONTINUOUS
 10
82.2962776138
 20
127.6469462637
 11
82.2962776138
 21
129.4969462637
  0
LINE
  5
2FB
100
AcDbEntity
  8
00_COMPONENTS_1
100
AcDbLine
 62
7
  6
CONTINUOUS
 10
82.2968366529
 20
123.7969462637
 11
82.2968366529
 21
127.6469462637
  0
LINE
  5
2FC
100
AcDbEntity
  8
00_COMPONENTS_1
100
AcDbLine
 62
7
  6
CONTINUOUS
 10
79.0329536651
 20
78.97285448
 11
79.2962776138
 21
79.9555928355
  0
LINE
  5
2FD
100
AcDbEntity
  8
00_COMPONENTS_1
100
AcDbLine
 62
7
  6
CONTINUOUS
 10
79.3962776138
 20
78.3969462637
 11
79.7962776138
 21
79.8897665867
  0
LINE
  5
2FE
100
AcDbEntity
  8
INTFCLR_18
100
AcDbLine
 62
7
420
3368703
  6
CONTINUOUS
 10
79.3962776138
 20
78.3969462637
 11
79.7962776138
 21
79.8897665867
  0
LINE
  5
2FF
100
AcDbEntity
  8
00_COMPONENTS_1
100
AcDbLine
 62
7
  6
CONTINUOUS
 10
32.8212776138
 20
101.9969462637
 11
81.2712776138
 21
101.9969462637
  0
LINE
  5
300
100
AcDbEntity
  8
00_COMPONENTS_1
100
AcDbLine
 62
7
  6
CONTINUOUS
 10
81.2462776138
 20
103.9469462637
 11
67.2462645475
 21
103.9469462637
  0
LINE
  5
301
100
AcDbEntity
  8
00_COMPONENTS_1
100
AcDbLine
 62
7
  6
CONTINUOUS
 10
65.2462858573
 20
103.9469462637
 11
48.8462693471
 21
103.9469462637
  0
LINE
  5
302
100
AcDbEntity
  8
00_COMPONENTS_1
100
AcDbLine
 62
7
  6
CONTINUOUS
 10
46.8462906801
 20
103.9469462637
 11
32.8462776138
 21
103.9469462637
  0
LINE
  5
303
100
AcDbEntity
  8
00_COMPONENTS_1
100
AcDbLine
 62
7
  6
CONTINUOUS
 10
82.6462776331
 20
122.7969462637
 11
82.6462776331
 21
129.5969462637
  0
LINE
  5
304
100
AcDbEntity
  8
INTFCLR_18
100
AcDbLine
 62
7
420
3368703
  6
CONTINUOUS
 10
83.6462776138
 20
32.1574881868
 11
83.6462776138
 21
20.6574881868
  0
LINE
  5
305
100
AcDbEntity
  8
00_COMPONENTS_1
100
AcDbLine
 62
7
  6
CONTINUOUS
 10
83.6462776138
 20
20.6574881868
 11
83.6462776138
 21
32.1574881868
  0
LINE
  5
306
100
AcDbEntity
  8
00_COMPONENTS_1
100
AcDbLine
 62
7
  6
CONTINUOUS
 10
84.0177479363
 20
122.7969462637
 11
84.0177479363
 21
95.5969462637
  0
LINE
  5
307
100
AcDbEntity
  8
00_COMPONENTS_1
100
AcDbLine
 62
7
  6
CONTINUOUS
 10
84.4462776138
 20
129.5969462637
 11
84.4462776138
 21
17.4978704781
  0
LINE
  5
308
100
AcDbEntity
  8
INTFCLR_18
100
AcDbLine
 62
7
420
3368703
  6
CONTINUOUS
 10
84.4462776138
 20
17.4978704781
 11
84.4462776138
 21
35.1969462637
  0
LINE
  5
309
100
AcDbEntity
  8
00_COMPONENTS_1
100
AcDbLine
 62
7
  6
CONTINUOUS
 10
65.2462814548
 20
111.3969462637
 11
48.8462737619
 21
111.3969462637
  0
LINE
  5
30A
100
AcDbEntity
  8
INTFCLR_18
100
AcDbLine
 62
7
420
3368703
  6
CONTINUOUS
 10
48.8462737619
 20
111.3969462637
 11
65.2462814548
 21
111.3969462637
  0
LINE
  5
30B
100
AcDbEntity
  8
00_COMPONENTS_1
100
AcDbLine
 62
7
  6
CONTINUOUS
 10
45.2962423479
 20
117.8969462637
 11
46.8462906801
 21
117.8969462637
  0
LINE
  5
30C
100
AcDbEntity
  8
00_COMPONENTS_1
100
AcDbLine
 62
7
  6
CONTINUOUS
 10
48.8462776138
 20
117.8969462637
 11
65.2462776138
 21
117.8969462637
  0
LINE
  5
30D
100
AcDbEntity
  8
00_COMPONENTS_1
100
AcDbLine
 62
7
  6
CONTINUOUS
 10
67.2462645475
 20
117.8969462637
 11
68.7963129021
 21
117.8969462637
  0
LINE
  5
30E
100
AcDbEntity
  8
00_COMPONENTS_1
100
AcDbLine
 62
7
  6
CONTINUOUS
 10
32.8462776138
 20
119.7969462637
 11
45.2963136747
 21
119.7969462637
  0
LINE
  5
30F
100
AcDbEntity
  8
00_COMPONENTS_1
100
AcDbLine
 62
7
  6
CONTINUOUS
 10
68.7962415753
 20
119.7969462637
 11
81.2462776138
 21
119.7969462637
  0
LINE
  5
310
100
AcDbEntity
  8
00_COMPONENTS_1
100
AcDbLine
 62
7
  6
CONTINUOUS
 10
84.0177479367
 20
122.7969462637
 11
30.0748072909
 21
122.7969462637
  0
LINE
  5
311
100
AcDbEntity
  8
00_COMPONENTS_1
100
AcDbLine
 62
7
  6
CONTINUOUS
 10
31.7962998323
 20
123.7969462637
 11
44.7965682426
 21
123.7969462637
  0
LINE
  5
312
100
AcDbEntity
  8
00_COMPONENTS_1
100
AcDbLine
 62
7
  6
CONTINUOUS
 10
69.2965682426
 20
123.7969462637
 11
82.2968366529
 21
123.7969462637
  0
LINE
  5
313
100
AcDbEntity
  8
00_COMPONENTS_1
100
AcDbLine
 62
7
  6
CONTINUOUS
 10
82.2968366529
 20
127.6469462637
 11
69.2965682426
 21
127.6469462637
  0
LINE
  5
314
100
AcDbEntity
  8
00_COMPONENTS_1
100
AcDbLine
 62
7
  6
CONTINUOUS
 10
44.7965682426
 20
127.6469462637
 11
31.7962998323
 21
127.6469462637
  0
LINE
  5
315
100
AcDbEntity
  8
INTFCLR_18
100
AcDbLine
 62
7
420
3368703
  6
CONTINUOUS
 10
31.7962998323
 20
127.6469462637
 11
44.7965682426
 21
127.6469462637
  0
LINE
  5
316
100
AcDbEntity
  8
INTFCLR_18
100
AcDbLine
 62
7
420
3368703
  6
CONTINUOUS
 10
69.2965682426
 20
127.6469462637
 11
82.2968366529
 21
127.6469462637
  0
LINE
  5
317
100
AcDbEntity
  8
00_COMPONENTS_1
100
AcDbLine
 62
7
  6
CONTINUOUS
 10
44.7962776138
 20
127.9969462637
 11
31.7962776138
 21
127.9969462637
  0
LINE
  5
318
100
AcDbEntity
  8
00_COMPONENTS_1
100
AcDbLine
 62
7
  6
CONTINUOUS
 10
69.2962776138
 20
127.9969462637
 11
82.2962776138
 21
127.9969462637
  0
LINE
  5
319
100
AcDbEntity
  8
00_COMPONENTS_1
100
AcDbLine
 62
7
  6
CONTINUOUS
 10
82.2962776138
 20
128.0969462637
 11
69.2962776138
 21
128.0969462637
  0
LINE
  5
31A
100
AcDbEntity
  8
00_COMPONENTS_1
100
AcDbLine
 62
7
  6
CONTINUOUS
 10
31.7962776138
 20
128.0969462637
 11
44.7962776138
 21
128.0969462637
  0
LINE
  5
31B
100
AcDbEntity
  8
00_COMPONENTS_1
100
AcDbLine
 62
7
  6
CONTINUOUS
 10
82.2962776138
 20
129.4969462637
 11
69.2962776138
 21
129.4969462637
  0
LINE
  5
31C
100
AcDbEntity
  8
00_COMPONENTS_1
100
AcDbLine
 62
7
  6
CONTINUOUS
 10
44.7962776138
 20
129.4969462637
 11
31.7962776138
 21
129.4969462637
  0
LINE
  5
31D
100
AcDbEntity
  8
INTFCLR_18
100
AcDbLine
 62
7
420
3368703
  6
CONTINUOUS
 10
82.6462776331
 20
129.5969462637
 11
68.9462776331
 21
129.5969462637
  0
LINE
  5
31E
100
AcDbEntity
  8
INTFCLR_18
100
AcDbLine
 62
7
420
3368703
  6
CONTINUOUS
 10
45.1462776331
 20
129.5969462637
 11
31.4462776331
 21
129.5969462637
  0
LINE
  5
31F
100
AcDbEntity
  8
INTFCLR_18
100
AcDbLine
 62
7
420
3368703
  6
CONTINUOUS
 10
46.4046455021
 20
129.5969462637
 11
67.6879097257
 21
129.5969462637
  0
LINE
  5
320
100
AcDbEntity
  8
00_COMPONENTS_1
100
AcDbLine
 62
7
  6
CONTINUOUS
 10
29.6462776138
 20
129.5969462637
 11
84.4462776138
 21
129.5969462637
  0
ARC
  5
321
100
AcDbEntity
  8
00_COMPONENTS_1
100
AcDbCircle
 62
7
  6
CONTINUOUS
 10
39.5462776138
 20
77.2969462637
 40
10.0
100
AcDbArc
 50
240.9875275911
 51
299.0124724089
  0
ARC
  5
322
100
AcDbEntity
  8
00_COMPONENTS_1
100
AcDbCircle
 62
7
  6
CONTINUOUS
 10
39.5462776138
 20
82.7969462637
 40
10.0
100
AcDbArc
 50
66.0305176822
 51
113.9694823178
  0
ARC
  5
323
100
AcDbEntity
  8
INTFCLR_18
100
AcDbCircle
 62
7
420
3368703
  6
CONTINUOUS
 10
39.5462776138
 20
77.2969462637
 40
10.0
100
AcDbArc
 50
240.9875275911
 51
299.0124724089
  0
ARC
  5
324
100
AcDbEntity
  8
INTFCLR_18
100
AcDbCircle
 62
7
420
3368703
  6
CONTINUOUS
 10
39.5462776138
 20
82.7969462637
 40
10.0
100
AcDbArc
 50
66.0305176822
 51
113.9694823178
  0
ARC
  5
325
100
AcDbEntity
  8
00_COMPONENTS_1
100
AcDbCircle
 62
7
  6
CONTINUOUS
 10
39.5462776138
 20
82.7969462637
 40
9.5
100
AcDbArc
 50
66.0305176822
 51
113.9694823178
  0
ARC
  5
326
100
AcDbEntity
  8
00_COMPONENTS_1
100
AcDbCircle
 62
7
  6
CONTINUOUS
 10
39.5462776138
 20
77.2969462637
 40
9.5
100
AcDbArc
 50
242.7486580639
 51
297.2513419361
  0
ARC
  5
327
100
AcDbEntity
  8
00_COMPONENTS_1
100
AcDbCircle
 62
7
  6
CONTINUOUS
 10
53.7962776138
 20
90.1070420223
 40
2.0
100
AcDbArc
 50
113.9694823178
 51
180.0
  0
ARC
  5
328
100
AcDbEntity
  8
00_COMPONENTS_1
100
AcDbCircle
 62
7
  6
CONTINUOUS
 10
36.2962776138
 20
90.1070420223
 40
2.0
100
AcDbArc
 50
113.9694823178
 51
180.0
  0
ARC
  5
329
100
AcDbEntity
  8
00_COMPONENTS_1
100
AcDbCircle
 62
7
  6
CONTINUOUS
 10
42.7962776138
 20
90.1070420223
 40
2.0
100
AcDbArc
 50
0.0
 51
66.0305176822
  0
ARC
  5
32A
100
AcDbEntity
  8
INTFCLR_18
100
AcDbCircle
 62
7
420
3368703
  6
CONTINUOUS
 10
53.7962776138
 20
90.1070420223
 40
2.0
100
AcDbArc
 50
113.9694823178
 51
180.0
  0
ARC
  5
32B
100
AcDbEntity
  8
INTFCLR_18
100
AcDbCircle
 62
7
420
3368703
  6
CONTINUOUS
 10
36.2962776138
 20
90.1070420223
 40
2.0
100
AcDbArc
 50
113.9694823178
 51
180.0
  0
ARC
  5
32C
100
AcDbEntity
  8
INTFCLR_18
100
AcDbCircle
 62
7
420
3368703
  6
CONTINUOUS
 10
42.7962776138
 20
90.1070420223
 40
2.0
100
AcDbArc
 50
0.0
 51
66.0305176822
  0
ARC
  5
32D
100
AcDbEntity
  8
00_COMPONENTS_1
100
AcDbCircle
 62
7
  6
CONTINUOUS
 10
36.2962776138
 20
90.1070420223
 40
1.5
100
AcDbArc
 50
113.9694823178
 51
180.0
  0
ARC
  5
32E
100
AcDbEntity
  8
00_COMPONENTS_1
100
AcDbCircle
 62
7
  6
CONTINUOUS
 10
42.7962776138
 20
90.1070420223
 40
1.5
100
AcDbArc
 50
0.0
 51
66.0305176822
  0
ARC
  5
32F
100
AcDbEntity
  8
00_COMPONENTS_1
100
AcDbCircle
 62
7
  6
CONTINUOUS
 10
53.7962776138
 20
90.1070420223
 40
1.5
100
AcDbArc
 50
113.9694823178
 51
180.0
  0
ARC
  5
330
100
AcDbEntity
  8
00_COMPONENTS_1
100
AcDbCircle
 62
7
  6
CONTINUOUS
 10
49.1462776138
 20
26.1935433896
 40
1.0
100
AcDbArc
 50
270.0
 51
360.0
  0
ARC
  5
331
100
AcDbEntity
  8
00_COMPONENTS_1
100
AcDbCircle
 62
7
  6
CONTINUOUS
 10
54.3462776138
 20
26.1935433896
 40
1.0
100
AcDbArc
 50
180.0
 51
269.9999630813
  0
ARC
  5
332
100
AcDbEntity
  8
INTFCLR_18
100
AcDbCircle
 62
7
420
3368703
  6
CONTINUOUS
 10
54.3462776138
 20
26.1935433896
 40
1.0
100
AcDbArc
 50
180.0
 51
269.9999630812
  0
ARC
  5
333
100
AcDbEntity
  8
INTFCLR_18
100
AcDbCircle
 62
7
420
3368703
  6
CONTINUOUS
 10
49.1462776138
 20
26.1935433896
 40
1.0
100
AcDbArc
 50
269.9999993122
 51
360.0
  0
ARC
  5
334
100
AcDbEntity
  8
00_COMPONENTS_1
100
AcDbCircle
 62
7
  6
CONTINUOUS
 10
50.6462776138
 20
26.8469462637
 40
0.5
100
AcDbArc
 50
90.0
 51
180.0
  0
ARC
  5
335
100
AcDbEntity
  8
00_COMPONENTS_1
100
AcDbCircle
 62
7
  6
CONTINUOUS
 10
52.8462776138
 20
26.8469462637
 40
0.5
100
AcDbArc
 50
0.0
 51
90.0
  0
ARC
  5
336
100
AcDbEntity
  8
INTFCLR_18
100
AcDbCircle
 62
7
420
3368703
  6
CONTINUOUS
 10
52.8462776138
 20
26.8469462637
 40
0.5
100
AcDbArc
 50
0.0
 51
90.0
  0
ARC
  5
337
100
AcDbEntity
  8
INTFCLR_18
100
AcDbCircle
 62
7
420
3368703
  6
CONTINUOUS
 10
50.6462776138
 20
26.8469462637
 40
0.5
100
AcDbArc
 50
90.0
 51
180.0
  0
ARC
  5
338
100
AcDbEntity
  8
00_COMPONENTS_1
100
AcDbCircle
 62
7
  6
CONTINUOUS
 10
59.7462776138
 20
26.1935433896
 40
1.0
100
AcDbArc
 50
270.0
 51
360.0
  0
ARC
  5
339
100
AcDbEntity
  8
00_COMPONENTS_1
100
AcDbCircle
 62
7
  6
CONTINUOUS
 10
64.9462776138
 20
26.1935433896
 40
1.0
100
AcDbArc
 50
180.0
 51
269.999962748
  0
ARC
  5
33A
100
AcDbEntity
  8
INTFCLR_18
100
AcDbCircle
 62
7
420
3368703
  6
CONTINUOUS
 10
64.9462776138
 20
26.1935433896
 40
1.0
100
AcDbArc
 50
180.0
 51
269.9999627479
  0
ARC
  5
33B
100
AcDbEntity
  8
INTFCLR_18
100
AcDbCircle
 62
7
420
3368703
  6
CONTINUOUS
 10
59.7462776138
 20
26.1935433896
 40
1.0
100
AcDbArc
 50
269.9999991081
 51
360.0
  0
ARC
  5
33C
100
AcDbEntity
  8
00_COMPONENTS_1
100
AcDbCircle
 62
7
  6
CONTINUOUS
 10
61.2462776138
 20
26.8469462637
 40
0.5
100
AcDbArc
 50
90.0
 51
180.0
  0
ARC
  5
33D
100
AcDbEntity
  8
00_COMPONENTS_1
100
AcDbCircle
 62
7
  6
CONTINUOUS
 10
63.4462776138
 20
26.8469462637
 40
0.5
100
AcDbArc
 50
0.0
 51
90.0
  0
ARC
  5
33E
100
AcDbEntity
  8
INTFCLR_18
100
AcDbCircle
 62
7
420
3368703
  6
CONTINUOUS
 10
63.4462776138
 20
26.8469462637
 40
0.5
100
AcDbArc
 50
0.0
 51
90.0
  0
ARC
  5
33F
100
AcDbEntity
  8
INTFCLR_18
100
AcDbCircle
 62
7
420
3368703
  6
CONTINUOUS
 10
61.2462776138
 20
26.8469462637
 40
0.5
100
AcDbArc
 50
90.0
 51
180.0
  0
ARC
  5
340
100
AcDbEntity
  8
00_COMPONENTS_1
100
AcDbCircle
 62
7
  6
CONTINUOUS
 10
57.0462776138
 20
82.7969462637
 40
10.0
100
AcDbArc
 50
66.0305176822
 51
113.9694823178
  0
ARC
  5
341
100
AcDbEntity
  8
00_COMPONENTS_1
100
AcDbCircle
 62
7
  6
CONTINUOUS
 10
57.0462776138
 20
77.2969462637
 40
10.0
100
AcDbArc
 50
240.9875275911
 51
299.0124724089
  0
ARC
  5
342
100
AcDbEntity
  8
INTFCLR_18
100
AcDbCircle
 62
7
420
3368703
  6
CONTINUOUS
 10
57.0462776138
 20
82.7969462637
 40
10.0
100
AcDbArc
 50
66.0305176822
 51
113.9694823178
  0
ARC
  5
343
100
AcDbEntity
  8
INTFCLR_18
100
AcDbCircle
 62
7
420
3368703
  6
CONTINUOUS
 10
57.0462776138
 20
77.2969462637
 40
10.0
100
AcDbArc
 50
240.9875275911
 51
299.0124724089
  0
ARC
  5
344
100
AcDbEntity
  8
00_COMPONENTS_1
100
AcDbCircle
 62
7
  6
CONTINUOUS
 10
57.0462776138
 20
77.2969462637
 40
9.5
100
AcDbArc
 50
242.7486580639
 51
297.2513419361
  0
ARC
  5
345
100
AcDbEntity
  8
00_COMPONENTS_1
100
AcDbCircle
 62
7
  6
CONTINUOUS
 10
57.0462776138
 20
82.7969462637
 40
9.5
100
AcDbArc
 50
66.0305176822
 51
113.9694823178
  0
ARC
  5
346
100
AcDbEntity
  8
00_COMPONENTS_1
100
AcDbCircle
 62
7
  6
CONTINUOUS
 10
60.2962776138
 20
90.1070420223
 40
2.0
100
AcDbArc
 50
0.0
 51
66.0305176822
  0
ARC
  5
347
100
AcDbEntity
  8
INTFCLR_18
100
AcDbCircle
 62
7
420
3368703
  6
CONTINUOUS
 10
60.2962776138
 20
90.1070420223
 40
2.0
100
AcDbArc
 50
0.0
 51
66.0305176822
  0
ARC
  5
348
100
AcDbEntity
  8
00_COMPONENTS_1
100
AcDbCircle
 62
7
  6
CONTINUOUS
 10
60.2962776138
 20
90.1070420223
 40
1.5
100
AcDbArc
 50
0.0
 51
66.0305176822
  0
ARC
  5
349
100
AcDbEntity
  8
00_COMPONENTS_1
100
AcDbCircle
 62
7
  6
CONTINUOUS
 10
70.3462776138
 20
26.1935433896
 40
1.0
100
AcDbArc
 50
270.0
 51
360.0
  0
ARC
  5
34A
100
AcDbEntity
  8
00_COMPONENTS_1
100
AcDbCircle
 62
7
  6
CONTINUOUS
 10
75.5462776138
 20
26.1935433896
 40
1.0
100
AcDbArc
 50
180.0
 51
269.999962748
  0
ARC
  5
34B
100
AcDbEntity
  8
INTFCLR_18
100
AcDbCircle
 62
7
420
3368703
  6
CONTINUOUS
 10
75.5462776138
 20
26.1935433896
 40
1.0
100
AcDbArc
 50
180.0
 51
269.9999627479
  0
ARC
  5
34C
100
AcDbEntity
  8
INTFCLR_18
100
AcDbCircle
 62
7
420
3368703
  6
CONTINUOUS
 10
70.3462776138
 20
26.1935433896
 40
1.0
100
AcDbArc
 50
269.9999987788
 51
360.0
  0
ARC
  5
34D
100
AcDbEntity
  8
00_COMPONENTS_1
100
AcDbCircle
 62
7
  6
CONTINUOUS
 10
71.8462776138
 20
26.8469462637
 40
0.5
100
AcDbArc
 50
90.0
 51
180.0
  0
ARC
  5
34E
100
AcDbEntity
  8
00_COMPONENTS_1
100
AcDbCircle
 62
7
  6
CONTINUOUS
 10
74.0462776138
 20
26.8469462637
 40
0.5
100
AcDbArc
 50
0.0
 51
90.0
  0
ARC
  5
34F
100
AcDbEntity
  8
INTFCLR_18
100
AcDbCircle
 62
7
420
3368703
  6
CONTINUOUS
 10
74.0462776138
 20
26.8469462637
 40
0.5
100
AcDbArc
 50
0.0
 51
90.0
  0
ARC
  5
350
100
AcDbEntity
  8
INTFCLR_18
100
AcDbCircle
 62
7
420
3368703
  6
CONTINUOUS
 10
71.8462776138
 20
26.8469462637
 40
0.5
100
AcDbArc
 50
90.0
 51
180.0
  0
ARC
  5
351
100
AcDbEntity
  8
00_COMPONENTS_1
100
AcDbCircle
 62
7
  6
CONTINUOUS
 10
74.5462776138
 20
82.7969462637
 40
10.0
100
AcDbArc
 50
66.0305176822
 51
113.9694823178
  0
ARC
  5
352
100
AcDbEntity
  8
00_COMPONENTS_1
100
AcDbCircle
 62
7
  6
CONTINUOUS
 10
74.5462776138
 20
77.2969462637
 40
10.0
100
AcDbArc
 50
240.9875275911
 51
299.0124724089
  0
ARC
  5
353
100
AcDbEntity
  8
INTFCLR_18
100
AcDbCircle
 62
7
420
3368703
  6
CONTINUOUS
 10
74.5462776138
 20
82.7969462637
 40
10.0
100
AcDbArc
 50
66.0305176822
 51
113.9694823178
  0
ARC
  5
354
100
AcDbEntity
  8
INTFCLR_18
100
AcDbCircle
 62
7
420
3368703
  6
CONTINUOUS
 10
74.5462776138
 20
77.2969462637
 40
10.0
100
AcDbArc
 50
240.9875275911
 51
299.0124724089
  0
ARC
  5
355
100
AcDbEntity
  8
00_COMPONENTS_1
100
AcDbCircle
 62
7
  6
CONTINUOUS
 10
74.5462776138
 20
77.2969462637
 40
9.5
100
AcDbArc
 50
242.7486580639
 51
297.2513419361
  0
ARC
  5
356
100
AcDbEntity
  8
00_COMPONENTS_1
100
AcDbCircle
 62
7
  6
CONTINUOUS
 10
74.5462776138
 20
82.7969462637
 40
9.5
100
AcDbArc
 50
66.0305176822
 51
113.9694823178
  0
ARC
  5
357
100
AcDbEntity
  8
00_COMPONENTS_1
100
AcDbCircle
 62
7
  6
CONTINUOUS
 10
71.2962776138
 20
90.1070420223
 40
2.0
100
AcDbArc
 50
113.9694823178
 51
180.0
  0
ARC
  5
358
100
AcDbEntity
  8
00_COMPONENTS_1
100
AcDbCircle
 62
7
  6
CONTINUOUS
 10
77.7962776138
 20
90.1070420223
 40
2.0
100
AcDbArc
 50
0.0
 51
66.0305176822
  0
ARC
  5
359
100
AcDbEntity
  8
INTFCLR_18
100
AcDbCircle
 62
7
420
3368703
  6
CONTINUOUS
 10
71.2962776138
 20
90.1070420223
 40
2.0
100
AcDbArc
 50
113.9694823178
 51
180.0
  0
ARC
  5
35A
100
AcDbEntity
  8
INTFCLR_18
100
AcDbCircle
 62
7
420
3368703
  6
CONTINUOUS
 10
77.7962776138
 20
90.1070420223
 40
2.0
100
AcDbArc
 50
0.0
 51
66.0305176822
  0
ARC
  5
35B
100
AcDbEntity
  8
00_COMPONENTS_1
100
AcDbCircle
 62
7
  6
CONTINUOUS
 10
71.2962776138
 20
90.1070420223
 40
1.5
100
AcDbArc
 50
113.9694823178
 51
180.0
  0
ARC
  5
35C
100
AcDbEntity
  8
00_COMPONENTS_1
100
AcDbCircle
 62
7
  6
CONTINUOUS
 10
77.7962776138
 20
90.1070420223
 40
1.5
100
AcDbArc
 50
0.0
 51
66.0305176822
  0
ARC
  5
35D
100
AcDbEntity
  8
00_COMPONENTS_1
100
AcDbCircle
 62
7
  6
CONTINUOUS
 10
57.0462776138
 20
206.3869462637
 40
188.69
100
AcDbArc
 50
261.6504602162
 51
278.3495397838
  0
ARC
  5
35E
100
AcDbEntity
  8
00_COMPONENTS_1
100
AcDbCircle
 62
7
  6
CONTINUOUS
 10
57.0462776138
 20
221.8869462637
 40
188.69
100
AcDbArc
 50
261.6504602162
 51
278.3495397838
  0
ARC
  5
35F
100
AcDbEntity
  8
INTFCLR_18
100
AcDbCircle
 62
7
420
3368703
  6
CONTINUOUS
 10
57.0462776138
 20
206.3869462637
 40
188.69
100
AcDbArc
 50
261.6504602162
 51
278.3495397838
  0
ENDSEC
  0
SECTION
  2
OBJECTS
  0
DICTIONARY
  5
C
100
AcDbDictionary
280
0
281
1
  3
ACAD_GROUP
350
D
  3
ACAD_MLINESTYLE
350
17
  3
ACAD_LAYOUT
350
1A
  3
ACAD_PLOTSETTINGS
350
19
  3
ACAD_PLOTSTYLENAME
350
E
  0
DICTIONARY
  5
D
102
{ACAD_REACTORS
330
C
102
}
100
AcDbDictionary
280
0
281
1
  0
ACDBDICTIONARYWDFLT
  5
E
102
{ACAD_REACTORS
330
C
102
}
100
AcDbDictionary
281
1
  3
Normal
350
F
100
AcDbDictionaryWithDefault
340
F
  0
DICTIONARY
  5
17
102
{ACAD_REACTORS
330
C
102
}
100
AcDbDictionary
280
0
281
1
  3
Standard
350
18
  0
DICTIONARY
  5
19
102
{ACAD_REACTORS
330
C
102
}
100
AcDbDictionary
281
1
  0
DICTIONARY
  5
1A
102
{ACAD_REACTORS
330
C
102
}
100
AcDbDictionary
281
1
  3
Model
350
360
  3
Layout1
350
361
  0
ACDBPLACEHOLDER
  5
F
102
{ACAD_REACTORS
330
E
102
}
  0
MLINESTYLE
  5
18
102
{ACAD_REACTORS
330
17
102
}
100
AcDbMlineStyle
  2
STANDARD
 70
0
  3

 62
256
 51
90.0
 52
90.0
 71
2
 49
0.5
 62
256
  6
BYLAYER
 49
-0.5
 62
256
  6
BYLAYER
  0
LAYOUT
  5
360
102
{ACAD_REACTORS
330
1A
102
}
100
AcDbPlotSettings
  1

  2
none_device
  4

  6

 40
0.0
 41
0.0
 42
0.0
 43
0.0
 44
210.0
 45
297.0
 46
0.0
 47
0.0
 48
0.0
 49
0.0
140
0.0
141
0.0
142
1.0
143
1.0
 70
1024
 72
1
 73
0
 74
0
  7

 75
0
147
1.0
148
0.0
149
0.0
100
AcDbLayout
  1
Model
 70
0
 71
0
 10
0.0
 20
0.0
 11
210.0
 21
297.0
 12
0.0
 22
0.0
 32
0.0
 14
0.0
 24
0.0
 34
0.0
 15
0.0
 25
0.0
 35
0.0
146
0.0
 13
0.0
 23
0.0
 33
0.0
 16
1.0
 26
0.0
 36
0.0
 17
0.0
 27
1.0
 37
0.0
 76
0
330
218
345
0
346
0
  0
LAYOUT
  5
361
102
{ACAD_REACTORS
330
1A
102
}
100
AcDbPlotSettings
  1

  2
none_device
  4

  6

 40
0.0
 41
0.0
 42
0.0
 43
0.0
 44
210.0
 45
297.0
 46
0.0
 47
0.0
 48
0.0
 49
0.0
140
0.0
141
0.0
142
1.0
143
1.0
 70
0
 72
1
 73
0
 74
0
  7

 75
0
147
1.0
148
0.0
149
0.0
100
AcDbLayout
  1
Layout1
 70
0
 71
1
 10
0.0
 20
0.0
 11
210.0
 21
297.0
 12
0.0
 22
0.0
 32
0.0
 14
0.0
 24
0.0
 34
0.0
 15
0.0
 25
0.0
 35
0.0
146
0.0
 13
0.0
 23
0.0
 33
0.0
 16
1.0
 26
0.0
 36
0.0
 17
0.0
 27
1.0
 37
0.0
 76
0
330
219
345
0
346
0
  0
ENDSEC
  0
EOF
