999
DXF file: C:\Users\sesa63760\Dev\_Creo\CAD\MCADID0005790_3D-CAD\mcadid0005790_3d-simplified_3.dxf
999
Pro/ENGINEER 2019471 by Parametric Technology Corporation
  0
SECTION
  2
HEADER
  9
$ACADVER
  1
AC1024
  9
$DWGCODEPAGE
  3
ANSI_1252
  9
$EXTMAX
 10
47.6789530249
 20
67.4316621353
 30
0.0
  9
$EXTMIN
 10
0.0
 20
0.0
 30
0.0
  9
$LIMMIN
 10
0.0
 20
0.0
  9
$LIMMAX
 10
47.6789530249
 20
67.4316621353
  9
$VIEWCTR
 10
23.8394765125
 20
33.7158310676
  9
$VIEWSIZE
 40
67.4316621353
  9
$CLAYER
  8
0
  9
$LTSCALE
 40
4.3955453836
  9
$CELTYPE
  6
BYLAYER
  9
$DIMSCALE
 40
1.0
  9
$DIMASZ
 40
0.5676065836
  9
$DIMEXO
 40
1.0
  9
$DIMDLI
 40
3.0369222651
  9
$DIMEXE
 40
1.0
  9
$DIMCEN
 40
0.7192710628
  9
$DIMLFAC
 40
1.0
  9
$DIMBLK
  1
_FILLED
  9
$DIMALT
 70
0
  9
$DIMALTF
 40
0.0393700787
  9
$DIMTXT
 40
0.7946492171
  9
$DIMTOL
 70
1
  9
$DIMLIM
 70
0
  9
$DIMTFAC
 40
1.0
  9
$DIMTP
 40
0.01
  9
$DIMTM
 40
0.01
  9
$DIMGAP
 40
0.625
  9
$DIMDSEP
 70
46
  9
$AUNITS
 70
0
  9
$PDMODE
 70
3
  9
$PDSIZE
 40
0.3125
  9
$HANDSEED
  5
2AF
  9
$TILEMODE
 70
1
  9
$MEASUREMENT
 70
1
  9
$INSUNITS
 70
4
  0
ENDSEC
  0
SECTION
  2
CLASSES
  0
CLASS
  1
ACDBDICTIONARYWDFLT
  2
AcDbDictionaryWithDefault
  3
AutoCAD 2000
 90
0
 91
1
280
0
281
0
  0
CLASS
  1
ACDBPLACEHOLDER
  2
AcDbPlaceHolder
  3
AutoCAD 2000
 90
0
 91
1
280
0
281
0
  0
CLASS
  1
LAYOUT
  2
AcDbLayout
  3
AutoCAD 2000
 90
0
 91
0
280
0
281
0
  0
ENDSEC
  0
SECTION
  2
TABLES
  0
TABLE
  2
VPORT
  5
8
100
AcDbSymbolTable
 70
2
  0
VPORT
  5
1F4
100
AcDbSymbolTableRecord
100
AcDbViewportTableRecord
  2
*ACTIVE
 70
0
 10
0.0
 20
0.0
 11
1.0
 21
1.0
 12
23.8394765125
 22
33.7158310676
 13
0.0
 23
0.0
 14
1.0
 24
1.0
 15
0.0
 25
0.0
 16
0.0
 26
0.0
 36
1.0
 17
0.0
 27
0.0
 37
0.0
 40
67.4316621353
 41
0.7070707071
 42
50.0
 43
0.0
 44
0.0
 50
0.0
 51
0.0
 71
0
 72
100
 73
1
 74
1
 75
0
 76
0
 77
0
 78
0
  0
ENDTAB
  0
TABLE
  2
LTYPE
  5
5
100
AcDbSymbolTable
 70
6
  0
LTYPE
  5
14
100
AcDbSymbolTableRecord
100
AcDbLinetypeTableRecord
  2
BYBLOCK
 70
0
  3

 72
65
 73
0
 40
0.0
  0
LTYPE
  5
15
100
AcDbSymbolTableRecord
100
AcDbLinetypeTableRecord
  2
BYLAYER
 70
0
  3

 72
65
 73
0
 40
0.0
  0
LTYPE
  5
16
100
AcDbSymbolTableRecord
100
AcDbLinetypeTableRecord
  2
CONTINUOUS
 70
64
  3
Solid line
 72
65
 73
0
 40
0.0
  0
LTYPE
  5
1F5
100
AcDbSymbolTableRecord
100
AcDbLinetypeTableRecord
  2
CENTER
 70
64
  3
____ _ ____ _ ____ _ ____ _ ____ _ ____ _ ____
 72
65
 73
4
 40
0.6
 49
0.375
 74
0
 49
-0.075
 74
0
 49
0.075
 74
0
 49
-0.075
 74
0
  0
LTYPE
  5
1F6
100
AcDbSymbolTableRecord
100
AcDbLinetypeTableRecord
  2
HIDDEN
 70
64
  3
- - - - - - - - - - - - - - - - - - - -
 72
65
 73
2
 40
0.2
 49
0.1
 74
0
 49
-0.1
 74
0
  0
LTYPE
  5
1F7
100
AcDbSymbolTableRecord
100
AcDbLinetypeTableRecord
  2
PHANTOM
 70
64
  3
_____ _ _ _____ _ _ _____ _ _ _____
 72
65
 73
6
 40
0.8
 49
0.45
 74
0
 49
-0.05
 74
0
 49
0.1
 74
0
 49
-0.05
 74
0
 49
0.1
 74
0
 49
-0.05
 74
0
  0
LTYPE
  5
1F8
100
AcDbSymbolTableRecord
100
AcDbLinetypeTableRecord
  2
DOT
 70
64
  3
. . . . . . . . . . . . . . . . . . . .
 72
65
 73
2
 40
0.2
 49
0.1
 74
0
 49
-0.1
 74
0
  0
LTYPE
  5
1F9
100
AcDbSymbolTableRecord
100
AcDbLinetypeTableRecord
  2
DASHED
 70
64
  3
- - - - - - - - - - - - - - - - - - - -
 72
65
 73
2
 40
0.2
 49
0.1
 74
0
 49
-0.1
 74
0
  0
ENDTAB
  0
TABLE
  2
LAYER
  5
2
100
AcDbSymbolTable
 70
36
  0
LAYER
  5
10
100
AcDbSymbolTableRecord
100
AcDbLayerTableRecord
  2
0
 70
0
 62
7
  6
CONTINUOUS
370
-3
390
F
  0
LAYER
  5
1FA
100
AcDbSymbolTableRecord
100
AcDbLayerTableRecord
  2
DEFAULT_1
 70
0
 62
7
  6
CENTER
370
-3
390
F
  0
LAYER
  5
1FB
100
AcDbSymbolTableRecord
100
AcDbLayerTableRecord
  2
DEFAULT_2
 70
0
 62
7
  6
HIDDEN
370
-3
390
F
  0
LAYER
  5
1FC
100
AcDbSymbolTableRecord
100
AcDbLayerTableRecord
  2
DEFAULT_3
 70
0
 62
7
  6
PHANTOM
370
-3
390
F
  0
LAYER
  5
1FD
100
AcDbSymbolTableRecord
100
AcDbLayerTableRecord
  2
00_COMPONENTS
 70
0
 62
7
  6
CONTINUOUS
370
-3
390
F
  0
LAYER
  5
1FE
100
AcDbSymbolTableRecord
100
AcDbLayerTableRecord
  2
01_1_DEFAULT_DATUMS
 70
0
 62
7
  6
CONTINUOUS
370
-3
390
F
  0
LAYER
  5
1FF
100
AcDbSymbolTableRecord
100
AcDbLayerTableRecord
  2
01_PLANES
 70
0
 62
7
  6
CONTINUOUS
370
-3
390
F
  0
LAYER
  5
200
100
AcDbSymbolTableRecord
100
AcDbLayerTableRecord
  2
02_COORD_SYS
 70
0
 62
7
  6
CONTINUOUS
370
-3
390
F
  0
LAYER
  5
201
100
AcDbSymbolTableRecord
100
AcDbLayerTableRecord
  2
03_AXES
 70
0
 62
7
  6
CONTINUOUS
370
-3
390
F
  0
LAYER
  5
202
100
AcDbSymbolTableRecord
100
AcDbLayerTableRecord
  2
04_POINTS
 70
0
 62
7
  6
CONTINUOUS
370
-3
390
F
  0
LAYER
  5
203
100
AcDbSymbolTableRecord
100
AcDbLayerTableRecord
  2
05_CURVES
 70
0
 62
7
  6
CONTINUOUS
370
-3
390
F
  0
LAYER
  5
204
100
AcDbSymbolTableRecord
100
AcDbLayerTableRecord
  2
06_SURFS
 70
0
 62
7
  6
CONTINUOUS
370
-3
390
F
  0
LAYER
  5
205
100
AcDbSymbolTableRecord
100
AcDbLayerTableRecord
  2
07_COSMETICS
 70
0
 62
7
  6
CONTINUOUS
370
-3
390
F
  0
LAYER
  5
206
100
AcDbSymbolTableRecord
100
AcDbLayerTableRecord
  2
1
 70
0
 62
7
  6
CONTINUOUS
370
-3
390
F
  0
LAYER
  5
207
100
AcDbSymbolTableRecord
100
AcDbLayerTableRecord
  2
10_NOTES
 70
0
 62
7
  6
CONTINUOUS
370
-3
390
F
  0
LAYER
  5
208
100
AcDbSymbolTableRecord
100
AcDbLayerTableRecord
  2
11_NOTES_PUB
 70
0
 62
7
  6
CONTINUOUS
370
-3
390
F
  0
LAYER
  5
209
100
AcDbSymbolTableRecord
100
AcDbLayerTableRecord
  2
13_REF_GTOL
 70
0
 62
7
  6
CONTINUOUS
370
-3
390
F
  0
LAYER
  5
20A
100
AcDbSymbolTableRecord
100
AcDbLayerTableRecord
  2
16_MISC
 70
0
 62
7
  6
CONTINUOUS
370
-3
390
F
  0
LAYER
  5
20B
100
AcDbSymbolTableRecord
100
AcDbLayerTableRecord
  2
17_NO_PRINT
 70
0
 62
7
  6
CONTINUOUS
370
-3
390
F
  0
LAYER
  5
20C
100
AcDbSymbolTableRecord
100
AcDbLayerTableRecord
  2
18_DATUM_CAMS_JOINTS
 70
0
 62
7
  6
CONTINUOUS
370
-3
390
F
  0
LAYER
  5
20D
100
AcDbSymbolTableRecord
100
AcDbLayerTableRecord
  2
19_DATUM_FUNCTIONAL
 70
0
 62
7
  6
CONTINUOUS
370
-3
390
F
  0
LAYER
  5
20E
100
AcDbSymbolTableRecord
100
AcDbLayerTableRecord
  2
20_DATUM_KINEMATIC_SCHEME
 70
0
 62
7
  6
CONTINUOUS
370
-3
390
F
  0
ENDTAB
  0
TABLE
  2
STYLE
  5
3
100
AcDbSymbolTable
 70
1
  0
STYLE
  5
11
100
AcDbSymbolTableRecord
100
AcDbTextStyleTableRecord
  2
STANDARD
 70
0
 40
0.0
 41
1.0
 50
0.0
 71
0
 42
0.2
  3
ARIAL.TTF
  4

  0
STYLE
  5
20F
100
AcDbSymbolTableRecord
100
AcDbTextStyleTableRecord
  2
TEXTSTYLE_1
 70
0
 40
0.0
 41
0.8
 50
0.0
 71
0
 42
0.2
  3
gdt
  4

  0
ENDTAB
  0
TABLE
  2
VIEW
  5
6
100
AcDbSymbolTable
 70
0
  0
ENDTAB
  0
TABLE
  2
UCS
  5
7
100
AcDbSymbolTable
 70
0
  0
ENDTAB
  0
TABLE
  2
APPID
  5
9
100
AcDbSymbolTable
 70
1
  0
APPID
  5
210
100
AcDbSymbolTableRecord
100
AcDbRegAppTableRecord
  2
ACAD
 70
0
  0
ENDTAB
  0
TABLE
  2
BLOCK_RECORD
  5
1
100
AcDbSymbolTable
 70
0
  0
BLOCK_RECORD
  5
211
100
AcDbSymbolTableRecord
100
AcDbBlockTableRecord
  2
*Model_Space
  0
BLOCK_RECORD
  5
212
100
AcDbSymbolTableRecord
100
AcDbBlockTableRecord
  2
*Paper_Space
  0
BLOCK_RECORD
  5
213
100
AcDbSymbolTableRecord
100
AcDbBlockTableRecord
  2
_FILLED
  0
ENDTAB
  0
TABLE
  2
DIMSTYLE
  5
A
100
AcDbSymbolTable
 70
1
100
AcDbDimStyleTable
 71
0
  0
DIMSTYLE
105
214
100
AcDbSymbolTableRecord
100
AcDbDimStyleTableRecord
  2
STANDARD
 70
0
  3

  4

 40
1.0
 41
0.5676065836
 42
1.0
 43
0.38
 44
1.0
 45
0.0
 46
0.0
 47
0.01
 48
0.01
140
0.7946492171
141
0.09
142
0.0
143
25.4
144
1.0
145
0.0
146
1.0
147
0.625
 71
1
 72
0
 73
0
 74
0
 75
0
 76
0
 77
1
 78
8
 79
2
170
0
171
1
172
0
173
0
174
0
175
0
176
0
177
0
178
0
270
2
179
2
271
2
272
2
273
2
274
2
275
0
280
0
281
0
282
0
283
1
284
8
285
0
286
0
287
3
288
0
340
11
278
46
341
213
342
213
343
213
344
213
  0
ENDTAB
  0
ENDSEC
  0
SECTION
  2
BLOCKS
  0
BLOCK
  5
20
100
AcDbEntity
  8
0
100
AcDbBlockBegin
  2
*Model_Space
 70
0
 10
0.0
 20
0.0
 30
0.0
  3
*Model_Space
  1

  0
ENDBLK
  5
21
100
AcDbEntity
  8
0
100
AcDbBlockEnd
  0
BLOCK
  5
1C
100
AcDbEntity
  8
0
100
AcDbBlockBegin
  2
*Paper_Space
 70
0
 10
0.0
 20
0.0
 30
0.0
  3
*Paper_Space
  1

  0
ENDBLK
  5
1D
100
AcDbEntity
  8
0
100
AcDbBlockEnd
  0
BLOCK
  5
215
100
AcDbEntity
  8
0
100
AcDbBlockBegin
  2
_FILLED
 70
64
 10
0.0
 20
0.0
  3
_FILLED
  1

  0
SOLID
  5
216
100
AcDbEntity
  8
0
  6
BYBLOCK
 62
0
100
AcDbTrace
 10
0.0
 20
0.0
 11
-1.0
 21
0.25
 12
-1.0
 22
-0.25
 13
-1.0
 23
-0.25
  0
ENDBLK
  5
217
100
AcDbEntity
  8
0
  6
BYBLOCK
 62
0
100
AcDbBlockEnd
  0
ENDSEC
  0
SECTION
  2
ENTITIES
  0
LINE
  5
218
100
AcDbEntity
  8
1
100
AcDbLine
 62
7
  6
BYLAYER
 10
10.2997620663
 20
61.0847233269
 11
11.6958508612
 21
61.4986909545
  0
LINE
  5
219
100
AcDbEntity
  8
1
100
AcDbLine
 62
7
  6
BYLAYER
 10
39.3247620658
 20
5.4060940126
 11
29.5247620658
 21
5.4060940126
  0
LINE
  5
21A
100
AcDbEntity
  8
1
100
AcDbLine
 62
7
  6
BYLAYER
 10
9.6747620658
 20
5.4060940126
 11
19.4747620658
 21
5.4060940126
  0
LINE
  5
21B
100
AcDbEntity
  8
1
100
AcDbLine
 62
7
  6
BYLAYER
 10
19.5997620658
 20
5.4060940126
 11
29.3997620658
 21
5.4060940126
  0
LINE
  5
21C
100
AcDbEntity
  8
1
100
AcDbLine
 62
7
  6
BYLAYER
 10
39.3247620658
 20
9.5273101417
 11
29.5247620658
 21
9.5273101417
  0
LINE
  5
21D
100
AcDbEntity
  8
1
100
AcDbLine
 62
7
  6
BYLAYER
 10
9.6747620658
 20
9.5273101417
 11
19.4747620658
 21
9.5273101417
  0
LINE
  5
21E
100
AcDbEntity
  8
1
100
AcDbLine
 62
7
  6
BYLAYER
 10
19.5997620658
 20
9.5273101417
 11
29.3997620658
 21
9.5273101417
  0
LINE
  5
21F
100
AcDbEntity
  8
1
100
AcDbLine
 62
7
  6
BYLAYER
 10
27.2997620658
 20
12.5208398083
 11
21.0328299144
 21
12.4903978782
  0
LINE
  5
220
100
AcDbEntity
  8
1
100
AcDbLine
 62
7
  6
BYLAYER
 10
17.3747620658
 20
12.5208398083
 11
11.1078299144
 21
12.4903978782
  0
LINE
  5
221
100
AcDbEntity
  8
1
100
AcDbLine
 62
7
  6
BYLAYER
 10
37.8869902259
 20
11.522010056
 11
31.5853426725
 21
11.5103799346
  0
LINE
  5
222
100
AcDbEntity
  8
1
100
AcDbLine
 62
7
  6
BYLAYER
 10
17.4141814592
 20
11.5103799346
 11
11.1125339057
 21
11.522010056
  0
LINE
  5
223
100
AcDbEntity
  8
1
100
AcDbLine
 62
7
  6
BYLAYER
 10
27.3391814592
 20
11.5103799346
 11
21.0375339057
 21
11.522010056
  0
LINE
  5
224
100
AcDbEntity
  8
1
100
AcDbLine
 62
7
  6
BYLAYER
 10
31.6247620658
 20
12.5208398083
 11
37.8916942172
 21
12.4903978782
  0
LINE
  5
225
100
AcDbEntity
  8
1
100
AcDbLine
 62
7
  6
BYLAYER
 10
21.0214482886
 20
14.8334778581
 11
27.3229399221
 21
14.8539462086
  0
LINE
  5
226
100
AcDbEntity
  8
1
100
AcDbLine
 62
7
  6
BYLAYER
 10
11.0964482886
 20
14.8334778581
 11
17.3979399221
 21
14.8539462086
  0
LINE
  5
227
100
AcDbEntity
  8
1
100
AcDbLine
 62
7
  6
BYLAYER
 10
39.3247620658
 20
15.3931163188
 11
29.5247620658
 21
15.3931163188
  0
LINE
  5
228
100
AcDbEntity
  8
1
100
AcDbLine
 62
7
  6
BYLAYER
 10
9.6747620658
 20
15.3931163188
 11
19.4747620658
 21
15.3931163188
  0
LINE
  5
229
100
AcDbEntity
  8
1
100
AcDbLine
 62
7
  6
BYLAYER
 10
19.5997620658
 20
15.3931163188
 11
29.3997620658
 21
15.3931163188
  0
LINE
  5
22A
100
AcDbEntity
  8
1
100
AcDbLine
 62
7
  6
BYLAYER
 10
37.9030758431
 20
14.8334778581
 11
31.6015842095
 21
14.8539462086
  0
LINE
  5
22B
100
AcDbEntity
  8
1
100
AcDbLine
 62
7
  6
BYLAYER
 10
9.5497620658
 20
26.1060940126
 11
9.5497620658
 21
35.9060940126
  0
LINE
  5
22C
100
AcDbEntity
  8
1
100
AcDbLine
 62
7
  6
BYLAYER
 10
9.6747620658
 20
5.4060940126
 11
9.6747620658
 21
26.1060940126
  0
LINE
  5
22D
100
AcDbEntity
  8
1
100
AcDbLine
 62
7
  6
BYLAYER
 10
11.1125339057
 20
11.522010056
 11
11.0964482886
 21
14.8334778581
  0
LINE
  5
22E
100
AcDbEntity
  8
1
100
AcDbLine
 62
7
  6
BYLAYER
 10
9.8347620658
 20
41.9060940126
 11
9.8347620658
 21
35.9060940126
  0
LINE
  5
22F
100
AcDbEntity
  8
1
100
AcDbLine
 62
7
  6
BYLAYER
 10
10.2497620661
 20
49.5060940128
 11
10.2497620662
 21
56.5060940128
  0
LINE
  5
230
100
AcDbEntity
  8
1
100
AcDbLine
 62
7
  6
BYLAYER
 10
10.2997620662
 20
56.5060940128
 11
10.2997620663
 21
61.0847233269
  0
LINE
  5
231
100
AcDbEntity
  8
1
100
AcDbLine
 62
7
  6
BYLAYER
 10
10.6747620658
 20
25.2060940126
 11
10.6747620658
 21
26.1060940126
  0
LINE
  5
232
100
AcDbEntity
  8
1
100
AcDbLine
 62
7
  6
BYLAYER
 10
10.9247620661
 20
48.2560940128
 11
10.9247620661
 21
49.5060940128
  0
LINE
  5
233
100
AcDbEntity
  8
1
100
AcDbLine
 62
7
  6
BYLAYER
 10
12.1497620663
 20
61.4986909545
 11
12.1497620663
 21
61.6060940127
  0
LINE
  5
234
100
AcDbEntity
  8
1
100
AcDbLine
 62
7
  6
BYLAYER
 10
12.8747556291
 20
41.9060940126
 11
12.8747556291
 21
42.1060940126
  0
LINE
  5
235
100
AcDbEntity
  8
1
100
AcDbLine
 62
7
  6
BYLAYER
 10
13.6247620661
 20
45.3060940127
 11
13.6247620661
 21
47.0060940127
  0
LINE
  5
236
100
AcDbEntity
  8
1
100
AcDbLine
 62
7
  6
BYLAYER
 10
13.6347620658
 20
35.9060940126
 11
13.6347620658
 21
41.9060940126
  0
LINE
  5
237
100
AcDbEntity
  8
1
100
AcDbLine
 62
7
  6
BYLAYER
 10
13.999762066
 20
42.1060940126
 11
13.9997620661
 21
45.3060940127
  0
LINE
  5
238
100
AcDbEntity
  8
1
100
AcDbLine
 62
7
  6
BYLAYER
 10
13.9997620661
 20
47.0060940127
 11
13.9997620661
 21
48.2560940127
  0
LINE
  5
239
100
AcDbEntity
  8
1
100
AcDbLine
 62
7
  6
BYLAYER
 10
24.9007881056
 20
47.5060940126
 11
23.3772331994
 21
46.6812210493
  0
LINE
  5
23A
100
AcDbEntity
  8
1
100
AcDbLine
 62
7
  6
BYLAYER
 10
15.8497620658
 20
26.5564272225
 11
15.8497620658
 21
32.4060940126
  0
LINE
  5
23B
100
AcDbEntity
  8
1
100
AcDbLine
 62
7
  6
BYLAYER
 10
15.9621980104
 20
42.1060940126
 11
15.9621980104
 21
41.9060940126
  0
LINE
  5
23C
100
AcDbEntity
  8
1
100
AcDbLine
 62
7
  6
BYLAYER
 10
39.3247620658
 20
25.2060940126
 11
38.3247620658
 21
25.2060940126
  0
LINE
  5
23D
100
AcDbEntity
  8
1
100
AcDbLine
 62
7
  6
BYLAYER
 10
29.3997620658
 20
25.2060940126
 11
28.3997620658
 21
25.2060940126
  0
LINE
  5
23E
100
AcDbEntity
  8
1
100
AcDbLine
 62
7
  6
BYLAYER
 10
19.4747620658
 20
25.2060940126
 11
18.4747620658
 21
25.2060940126
  0
LINE
  5
23F
100
AcDbEntity
  8
1
100
AcDbLine
 62
7
  6
BYLAYER
 10
9.6747620658
 20
25.2060940126
 11
10.6747620658
 21
25.2060940126
  0
LINE
  5
240
100
AcDbEntity
  8
1
100
AcDbLine
 62
7
  6
BYLAYER
 10
19.5997620658
 20
25.2060940126
 11
20.5997620658
 21
25.2060940126
  0
LINE
  5
241
100
AcDbEntity
  8
1
100
AcDbLine
 62
7
  6
BYLAYER
 10
29.5247620658
 20
25.2060940126
 11
30.5247620658
 21
25.2060940126
  0
LINE
  5
242
100
AcDbEntity
  8
1
100
AcDbLine
 62
7
  6
BYLAYER
 10
17.4141814592
 20
11.5103799346
 11
17.3747620658
 21
12.5208398083
  0
LINE
  5
243
100
AcDbEntity
  8
1
100
AcDbLine
 62
7
  6
BYLAYER
 10
17.3979399221
 20
14.8539462086
 11
17.4141814592
 21
11.5103799346
  0
LINE
  5
244
100
AcDbEntity
  8
1
100
AcDbLine
 62
7
  6
BYLAYER
 10
17.3747620658
 20
12.5208398083
 11
17.3747620658
 21
14.8539462086
  0
LINE
  5
245
100
AcDbEntity
  8
1
100
AcDbLine
 62
7
  6
BYLAYER
 10
17.7497620658
 20
41.9060940126
 11
17.7497620658
 21
35.9060940126
  0
LINE
  5
246
100
AcDbEntity
  8
1
100
AcDbLine
 62
7
  6
BYLAYER
 10
17.8497620658
 20
26.8451023571
 11
17.8497620658
 21
32.4060940126
  0
LINE
  5
247
100
AcDbEntity
  8
1
100
AcDbLine
 62
7
  6
BYLAYER
 10
39.4497620658
 20
26.1060940126
 11
27.6317653427
 21
26.1060940126
  0
LINE
  5
248
100
AcDbEntity
  8
1
100
AcDbLine
 62
7
  6
BYLAYER
 10
22.1698108685
 20
26.1060940126
 11
9.5497620658
 21
26.1060940126
  0
LINE
  5
249
100
AcDbEntity
  8
1
100
AcDbLine
 62
7
  6
BYLAYER
 10
9.5497620658
 20
26.5564272225
 11
15.8497620658
 21
26.5564272225
  0
LINE
  5
24A
100
AcDbEntity
  8
1
100
AcDbLine
 62
7
  6
BYLAYER
 10
33.1497620658
 20
26.5564272225
 11
39.4497620658
 21
26.5564272225
  0
LINE
  5
24B
100
AcDbEntity
  8
1
100
AcDbLine
 62
7
  6
BYLAYER
 10
15.8497620658
 20
26.8451023571
 11
17.8497620658
 21
26.8451023571
  0
LINE
  5
24C
100
AcDbEntity
  8
1
100
AcDbLine
 62
7
  6
BYLAYER
 10
31.1497620658
 20
27.4224526263
 11
33.1497620658
 21
27.4224526263
  0
LINE
  5
24D
100
AcDbEntity
  8
1
100
AcDbLine
 62
7
  6
BYLAYER
 10
18.4747620658
 20
26.1060940126
 11
18.4747620658
 21
25.2060940126
  0
LINE
  5
24E
100
AcDbEntity
  8
1
100
AcDbLine
 62
7
  6
BYLAYER
 10
19.4747620658
 20
26.1060940126
 11
19.4747620658
 21
5.4060940126
  0
LINE
  5
24F
100
AcDbEntity
  8
1
100
AcDbLine
 62
7
  6
BYLAYER
 10
19.5997620658
 20
5.4060940126
 11
19.5997620658
 21
26.1060940126
  0
LINE
  5
250
100
AcDbEntity
  8
1
100
AcDbLine
 62
7
  6
BYLAYER
 10
23.3042276162
 20
46.6145754852
 11
22.9050874939
 21
45.5592383899
  0
LINE
  5
251
100
AcDbEntity
  8
1
100
AcDbLine
 62
7
  6
BYLAYER
 10
17.8497620658
 20
27.4224526263
 11
22.2731649014
 21
28.6060940126
  0
LINE
  5
252
100
AcDbEntity
  8
1
100
AcDbLine
 62
7
  6
BYLAYER
 10
26.7263591657
 20
28.6060940126
 11
22.2731649014
 21
28.6060940126
  0
LINE
  5
253
100
AcDbEntity
  8
1
100
AcDbLine
 62
7
  6
BYLAYER
 10
26.7263591657
 20
28.6060940126
 11
31.1497620658
 21
27.4224526263
  0
LINE
  5
254
100
AcDbEntity
  8
1
100
AcDbLine
 62
7
  6
BYLAYER
 10
21.0375339057
 20
11.522010056
 11
21.0214482886
 21
14.8334778581
  0
LINE
  5
255
100
AcDbEntity
  8
1
100
AcDbLine
 62
7
  6
BYLAYER
 10
20.5997620658
 20
25.2060940126
 11
20.5997620658
 21
26.1060940126
  0
LINE
  5
256
100
AcDbEntity
  8
1
100
AcDbLine
 62
7
  6
BYLAYER
 10
21.5497620658
 20
35.9060940126
 11
21.5497620658
 21
41.9060940126
  0
LINE
  5
257
100
AcDbEntity
  8
1
100
AcDbLine
 62
7
  6
BYLAYER
 10
21.8672727496
 20
41.9060940126
 11
21.8672727496
 21
42.1060940126
  0
LINE
  5
258
100
AcDbEntity
  8
1
100
AcDbLine
 62
7
  6
BYLAYER
 10
22.1698108685
 20
26.8251311993
 11
22.1698108685
 21
24.3631118168
  0
LINE
  5
259
100
AcDbEntity
  8
1
100
AcDbLine
 62
7
  6
BYLAYER
 10
22.9007881056
 20
45.5364785065
 11
22.9050874939
 21
45.5592383899
  0
LINE
  5
25A
100
AcDbEntity
  8
1
100
AcDbLine
 62
7
  6
BYLAYER
 10
25.2162965473
 20
30.7776764079
 11
23.7832274978
 21
30.7776764079
  0
LINE
  5
25B
100
AcDbEntity
  8
1
100
AcDbLine
 62
7
  6
BYLAYER
 10
23.7832274978
 20
30.7776764079
 11
22.057128463
 21
32.4060940126
  0
LINE
  5
25C
100
AcDbEntity
  8
1
100
AcDbLine
 62
7
  6
BYLAYER
 10
22.9007881056
 20
45.5364785065
 11
22.9007881056
 21
41.9060940126
  0
LINE
  5
25D
100
AcDbEntity
  8
1
100
AcDbLine
 62
7
  6
BYLAYER
 10
22.9007881056
 20
35.9060940126
 11
22.9007881056
 21
32.4060940126
  0
LINE
  5
25E
100
AcDbEntity
  8
1
100
AcDbLine
 62
7
  6
BYLAYER
 10
23.1007881056
 20
27.8880622562
 11
23.1007881056
 21
27.1798218742
  0
LINE
  5
25F
100
AcDbEntity
  8
1
100
AcDbLine
 62
7
  6
BYLAYER
 10
23.7832274978
 20
28.6060940126
 11
23.7832274978
 21
30.7776764079
  0
LINE
  5
260
100
AcDbEntity
  8
1
100
AcDbLine
 62
7
  6
BYLAYER
 10
9.5497620658
 20
32.4060940126
 11
39.4497620658
 21
32.4060940126
  0
LINE
  5
261
100
AcDbEntity
  8
1
100
AcDbLine
 62
7
  6
BYLAYER
 10
39.4497620658
 20
33.9060940126
 11
26.9007881056
 21
33.9060940126
  0
LINE
  5
262
100
AcDbEntity
  8
1
100
AcDbLine
 62
7
  6
BYLAYER
 10
22.9007881056
 20
33.9060940126
 11
9.5497620658
 21
33.9060940126
  0
LINE
  5
263
100
AcDbEntity
  8
1
100
AcDbLine
 62
7
  6
BYLAYER
 10
27.3391814592
 20
11.5103799346
 11
27.2997620658
 21
12.5208398083
  0
LINE
  5
264
100
AcDbEntity
  8
1
100
AcDbLine
 62
7
  6
BYLAYER
 10
25.2162965473
 20
30.7776764079
 11
25.2162965473
 21
28.6060940126
  0
LINE
  5
265
100
AcDbEntity
  8
1
100
AcDbLine
 62
7
  6
BYLAYER
 10
26.7007881056
 20
28.6060940126
 11
26.7007881056
 21
27.1799768311
  0
LINE
  5
266
100
AcDbEntity
  8
1
100
AcDbLine
 62
7
  6
BYLAYER
 10
26.9007881056
 20
45.5364785065
 11
26.9007881056
 21
41.9060940126
  0
LINE
  5
267
100
AcDbEntity
  8
1
100
AcDbLine
 62
7
  6
BYLAYER
 10
26.9007881056
 20
35.9060940126
 11
26.9007881056
 21
32.4060940126
  0
LINE
  5
268
100
AcDbEntity
  8
1
100
AcDbLine
 62
7
  6
BYLAYER
 10
9.5497620658
 20
35.9060940126
 11
39.4497620658
 21
35.9060940126
  0
LINE
  5
269
100
AcDbEntity
  8
1
100
AcDbLine
 62
7
  6
BYLAYER
 10
27.3229399221
 20
14.8539462086
 11
27.3391814592
 21
11.5103799346
  0
LINE
  5
26A
100
AcDbEntity
  8
1
100
AcDbLine
 62
7
  6
BYLAYER
 10
27.132251382
 20
42.1060940126
 11
27.132251382
 21
41.9060940126
  0
LINE
  5
26B
100
AcDbEntity
  8
1
100
AcDbLine
 62
7
  6
BYLAYER
 10
27.2997620658
 20
12.5208398083
 11
27.2997620658
 21
14.8539462086
  0
LINE
  5
26C
100
AcDbEntity
  8
1
100
AcDbLine
 62
7
  6
BYLAYER
 10
27.4497620658
 20
41.9060940126
 11
27.4497620658
 21
35.9060940126
  0
LINE
  5
26D
100
AcDbEntity
  8
1
100
AcDbLine
 62
7
  6
BYLAYER
 10
27.6317653427
 20
26.8251311993
 11
27.6317653427
 21
24.3631118168
  0
LINE
  5
26E
100
AcDbEntity
  8
1
100
AcDbLine
 62
7
  6
BYLAYER
 10
28.3997620658
 20
26.1060940126
 11
28.3997620658
 21
25.2060940126
  0
LINE
  5
26F
100
AcDbEntity
  8
1
100
AcDbLine
 62
7
  6
BYLAYER
 10
26.9423956072
 20
32.4060940126
 11
25.2162965473
 21
30.7776764079
  0
LINE
  5
270
100
AcDbEntity
  8
1
100
AcDbLine
 62
7
  6
BYLAYER
 10
26.8964887174
 20
45.5592383899
 11
26.9007881056
 21
45.5364785065
  0
LINE
  5
271
100
AcDbEntity
  8
1
100
AcDbLine
 62
7
  6
BYLAYER
 10
29.3997620658
 20
26.1060940126
 11
29.3997620658
 21
5.4060940126
  0
LINE
  5
272
100
AcDbEntity
  8
1
100
AcDbLine
 62
7
  6
BYLAYER
 10
29.5247620658
 20
5.4060940126
 11
29.5247620658
 21
26.1060940126
  0
LINE
  5
273
100
AcDbEntity
  8
1
100
AcDbLine
 62
7
  6
BYLAYER
 10
30.5247620658
 20
25.2060940126
 11
30.5247620658
 21
26.1060940126
  0
LINE
  5
274
100
AcDbEntity
  8
1
100
AcDbLine
 62
7
  6
BYLAYER
 10
31.1497620658
 20
27.4224526263
 11
31.1497620658
 21
32.4060940126
  0
LINE
  5
275
100
AcDbEntity
  8
1
100
AcDbLine
 62
7
  6
BYLAYER
 10
26.497348595
 20
46.6145754852
 11
26.8964887174
 21
45.5592383899
  0
LINE
  5
276
100
AcDbEntity
  8
1
100
AcDbLine
 62
7
  6
BYLAYER
 10
31.2497620658
 20
35.9060940126
 11
31.2497620658
 21
41.9060940126
  0
LINE
  5
277
100
AcDbEntity
  8
1
100
AcDbLine
 62
7
  6
BYLAYER
 10
31.6247620658
 20
14.8539462086
 11
31.6247620658
 21
12.5208398083
  0
LINE
  5
278
100
AcDbEntity
  8
1
100
AcDbLine
 62
7
  6
BYLAYER
 10
33.0373261212
 20
41.9060940126
 11
33.0373261212
 21
42.1060940126
  0
LINE
  5
279
100
AcDbEntity
  8
1
100
AcDbLine
 62
7
  6
BYLAYER
 10
33.1497620658
 20
26.5564272225
 11
33.1497620658
 21
32.4060940126
  0
LINE
  5
27A
100
AcDbEntity
  8
1
100
AcDbLine
 62
7
  6
BYLAYER
 10
31.5853426725
 20
11.5103799346
 11
31.6015842095
 21
14.8539462086
  0
LINE
  5
27B
100
AcDbEntity
  8
1
100
AcDbLine
 62
7
  6
BYLAYER
 10
31.5853426725
 20
11.5103799346
 11
31.6247620658
 21
12.5208398083
  0
LINE
  5
27C
100
AcDbEntity
  8
1
100
AcDbLine
 62
7
  6
BYLAYER
 10
9.8347620658
 20
41.9060940126
 11
39.1647620658
 21
41.9060940126
  0
LINE
  5
27D
100
AcDbEntity
  8
1
100
AcDbLine
 62
7
  6
BYLAYER
 10
12.8747556291
 20
42.1060940126
 11
22.9007881056
 21
42.1060940126
  0
LINE
  5
27E
100
AcDbEntity
  8
1
100
AcDbLine
 62
7
  6
BYLAYER
 10
26.9007881056
 20
42.1060940126
 11
36.1247620658
 21
42.1060940126
  0
LINE
  5
27F
100
AcDbEntity
  8
1
100
AcDbLine
 62
7
  6
BYLAYER
 10
34.9997620661
 20
48.2560940124
 11
34.9997620661
 21
47.0060940124
  0
LINE
  5
280
100
AcDbEntity
  8
1
100
AcDbLine
 62
7
  6
BYLAYER
 10
34.9997620661
 20
45.3060940124
 11
34.999762066
 21
42.1060940126
  0
LINE
  5
281
100
AcDbEntity
  8
1
100
AcDbLine
 62
7
  6
BYLAYER
 10
35.3647620658
 20
41.9060940126
 11
35.3647620658
 21
35.9060940126
  0
LINE
  5
282
100
AcDbEntity
  8
1
100
AcDbLine
 62
7
  6
BYLAYER
 10
35.3747620661
 20
47.0060940124
 11
35.3747620661
 21
45.3060940124
  0
LINE
  5
283
100
AcDbEntity
  8
1
100
AcDbLine
 62
7
  6
BYLAYER
 10
36.1247620658
 20
41.9060940126
 11
36.1247620658
 21
42.1060940126
  0
LINE
  5
284
100
AcDbEntity
  8
1
100
AcDbLine
 62
7
  6
BYLAYER
 10
36.8497620663
 20
61.6060940124
 11
36.8497620663
 21
61.4986909541
  0
LINE
  5
285
100
AcDbEntity
  8
1
100
AcDbLine
 62
7
  6
BYLAYER
 10
35.3747620661
 20
45.3060940124
 11
26.9007881056
 21
45.3060940125
  0
LINE
  5
286
100
AcDbEntity
  8
1
100
AcDbLine
 62
7
  6
BYLAYER
 10
22.9007881056
 20
45.3060940126
 11
13.6247620661
 21
45.3060940127
  0
LINE
  5
287
100
AcDbEntity
  8
1
100
AcDbLine
 62
7
  6
BYLAYER
 10
13.6247620661
 20
47.0060940127
 11
23.9772792903
 21
47.0060940126
  0
LINE
  5
288
100
AcDbEntity
  8
1
100
AcDbLine
 62
7
  6
BYLAYER
 10
25.824296921
 20
47.0060940125
 11
35.3747620661
 21
47.0060940124
  0
LINE
  5
289
100
AcDbEntity
  8
1
100
AcDbLine
 62
7
  6
BYLAYER
 10
24.9007881056
 20
47.5060940126
 11
26.4243430118
 21
46.6812210493
  0
LINE
  5
28A
100
AcDbEntity
  8
1
100
AcDbLine
 62
7
  6
BYLAYER
 10
38.0747620661
 20
49.5060940124
 11
38.0747620661
 21
48.2560940124
  0
LINE
  5
28B
100
AcDbEntity
  8
1
100
AcDbLine
 62
7
  6
BYLAYER
 10
38.3247620658
 20
26.1060940126
 11
38.3247620658
 21
25.2060940126
  0
LINE
  5
28C
100
AcDbEntity
  8
1
100
AcDbLine
 62
7
  6
BYLAYER
 10
38.6997620663
 20
61.0847233265
 11
38.6997620662
 21
56.5060940124
  0
LINE
  5
28D
100
AcDbEntity
  8
1
100
AcDbLine
 62
7
  6
BYLAYER
 10
38.7497620662
 20
56.5060940123
 11
38.7497620661
 21
49.5060940123
  0
LINE
  5
28E
100
AcDbEntity
  8
1
100
AcDbLine
 62
7
  6
BYLAYER
 10
39.1647620658
 20
35.9060940126
 11
39.1647620658
 21
41.9060940126
  0
LINE
  5
28F
100
AcDbEntity
  8
1
100
AcDbLine
 62
7
  6
BYLAYER
 10
39.3247620658
 20
26.1060940126
 11
39.3247620658
 21
5.4060940126
  0
LINE
  5
290
100
AcDbEntity
  8
1
100
AcDbLine
 62
7
  6
BYLAYER
 10
39.4497620658
 20
26.1060940126
 11
39.4497620658
 21
35.9060940126
  0
LINE
  5
291
100
AcDbEntity
  8
1
100
AcDbLine
 62
7
  6
BYLAYER
 10
37.8869902259
 20
11.522010056
 11
37.9030758431
 21
14.8334778581
  0
LINE
  5
292
100
AcDbEntity
  8
1
100
AcDbLine
 62
7
  6
BYLAYER
 10
38.0747620661
 20
48.2560940124
 11
10.9247620661
 21
48.2560940128
  0
LINE
  5
293
100
AcDbEntity
  8
1
100
AcDbLine
 62
7
  6
BYLAYER
 10
38.7497620661
 20
49.5060940123
 11
10.2497620661
 21
49.5060940128
  0
LINE
  5
294
100
AcDbEntity
  8
1
100
AcDbLine
 62
7
  6
BYLAYER
 10
10.2497620662
 20
56.5060940128
 11
38.7497620662
 21
56.5060940123
  0
LINE
  5
295
100
AcDbEntity
  8
1
100
AcDbLine
 62
7
  6
BYLAYER
 10
10.2997620663
 20
61.0847233269
 11
38.6997620663
 21
61.0847233265
  0
LINE
  5
296
100
AcDbEntity
  8
1
100
AcDbLine
 62
7
  6
BYLAYER
 10
37.3036732714
 20
61.4986909541
 11
11.6958508612
 21
61.4986909545
  0
LINE
  5
297
100
AcDbEntity
  8
1
100
AcDbLine
 62
7
  6
BYLAYER
 10
12.1497620663
 20
61.6060940127
 11
36.8497620663
 21
61.6060940124
  0
LINE
  5
298
100
AcDbEntity
  8
1
100
AcDbLine
 62
7
  6
BYLAYER
 10
12.1497620664
 20
61.6060940127
 11
14.1161055566
 21
62.13079496
  0
LINE
  5
299
100
AcDbEntity
  8
1
100
AcDbLine
 62
7
  6
BYLAYER
 10
14.1161056717
 20
62.1307949879
 11
15.9997620663
 21
62.3557169441
  0
LINE
  5
29A
100
AcDbEntity
  8
1
100
AcDbLine
 62
7
  6
BYLAYER
 10
34.8834184609
 20
62.1307949876
 11
14.1161056718
 21
62.1307949879
  0
LINE
  5
29B
100
AcDbEntity
  8
1
100
AcDbLine
 62
7
  6
BYLAYER
 10
15.9997620663
 20
62.3557169441
 11
32.9997620663
 21
62.3557169438
  0
LINE
  5
29C
100
AcDbEntity
  8
1
100
AcDbLine
 62
7
  6
BYLAYER
 10
34.8834184609
 20
62.1307949876
 11
32.9997620663
 21
62.3557169438
  0
LINE
  5
29D
100
AcDbEntity
  8
1
100
AcDbLine
 62
7
  6
BYLAYER
 10
34.8834185113
 20
62.1307949597
 11
36.8497620418
 21
61.6060940124
  0
LINE
  5
29E
100
AcDbEntity
  8
1
100
AcDbLine
 62
7
  6
BYLAYER
 10
37.3036732714
 20
61.4986909541
 11
38.6997620663
 21
61.0847233265
  0
SPLINE
  5
29F
100
AcDbEntity
  8
1
100
AcDbSpline
 62
7
  6
BYLAYER
 70
0
 71
3
 72
25
 73
21
 74
0
 42
0.0000001
 43
0.0000001
 44
0.0000000001
 40
0.0
 40
0.0
 40
0.0
 40
0.0
 40
0.187624467
 40
0.368253842
 40
0.4538445693
 40
0.5352231275
 40
0.6116415952
 40
0.6824204679
 40
0.746945873
 40
0.8046791324
 40
0.8551886909
 40
0.8981666181
 40
0.9167942973
 40
0.9335214154
 40
0.9483817597
 40
0.9614522274
 40
0.9728680508
 40
0.9828460208
 40
0.9917256484
 40
1.0
 40
1.0
 40
1.0
 40
1.0
 10
24.9007881056
 20
23.8888825963
 30
0.0
 10
25.0784125013
 20
23.8888825963
 30
0.0
 10
25.4270655718
 20
23.8947406916
 30
0.0
 10
25.8562553652
 20
23.9168813213
 30
0.0
 10
26.1842572659
 20
23.9436624414
 30
0.0
 10
26.4134704582
 20
23.9673688657
 30
0.0
 10
26.628138985
 20
23.9948214385
 30
0.0
 10
26.8262088237
 20
24.0257397163
 30
0.0
 10
27.0057922213
 20
24.0598082572
 30
0.0
 10
27.1652024662
 20
24.0966748595
 30
0.0
 10
27.3029366295
 20
24.1359561339
 30
0.0
 10
27.4029675319
 20
24.1718552663
 30
0.0
 10
27.4707101712
 20
24.2021116996
 30
0.0
 10
27.5129057132
 20
24.2240849151
 30
0.0
 10
27.5488765204
 20
24.2463942232
 30
0.0
 10
27.5785635147
 20
24.2690140089
 30
0.0
 10
27.6019328372
 20
24.2919373253
 30
0.0
 10
27.6189277343
 20
24.3152279503
 30
0.0
 10
27.6293615115
 20
24.3389617851
 30
0.0
 10
27.6317529139
 20
24.3552784734
 30
0.0
 10
27.6317528649
 20
24.3631118159
 30
0.0
  0
SPLINE
  5
2A0
100
AcDbEntity
  8
1
100
AcDbSpline
 62
7
  6
BYLAYER
 70
0
 71
3
 72
25
 73
21
 74
0
 42
0.0000001
 43
0.0000001
 44
0.0000000001
 40
0.0
 40
0.0
 40
0.0
 40
0.0
 40
0.187624467
 40
0.368253842
 40
0.4538445693
 40
0.5352231275
 40
0.6116415952
 40
0.6824204679
 40
0.746945873
 40
0.8046791324
 40
0.8551886909
 40
0.8981666181
 40
0.9167942973
 40
0.9335214154
 40
0.9483817597
 40
0.9614522274
 40
0.9728680508
 40
0.9828460208
 40
0.9917256484
 40
1.0
 40
1.0
 40
1.0
 40
1.0
 10
24.9007881056
 20
27.2993604198
 30
0.0
 10
25.0784125013
 20
27.2993604198
 30
0.0
 10
25.4270655718
 20
27.2935023244
 30
0.0
 10
25.8562553652
 20
27.2713616948
 30
0.0
 10
26.1842572659
 20
27.2445805747
 30
0.0
 10
26.4134704582
 20
27.2208741503
 30
0.0
 10
26.628138985
 20
27.1934215776
 30
0.0
 10
26.8262088237
 20
27.1625032997
 30
0.0
 10
27.0057922213
 20
27.1284347588
 30
0.0
 10
27.1652024662
 20
27.0915681566
 30
0.0
 10
27.3029366295
 20
27.0522868822
 30
0.0
 10
27.4029675319
 20
27.0163877498
 30
0.0
 10
27.4707101712
 20
26.9861313165
 30
0.0
 10
27.5129057132
 20
26.964158101
 30
0.0
 10
27.5488765204
 20
26.9418487929
 30
0.0
 10
27.5785635147
 20
26.9192290072
 30
0.0
 10
27.6019328372
 20
26.8963056908
 30
0.0
 10
27.6189277343
 20
26.8730150658
 30
0.0
 10
27.6293615115
 20
26.849281231
 30
0.0
 10
27.6317529139
 20
26.8329645427
 30
0.0
 10
27.6317528649
 20
26.8251312002
 30
0.0
  0
SPLINE
  5
2A1
100
AcDbEntity
  8
1
100
AcDbSpline
 62
7
  6
BYLAYER
 70
0
 71
3
 72
10
 73
6
 74
0
 42
0.0000001
 43
0.0000001
 44
0.0000000001
 40
0.0
 40
0.0
 40
0.0
 40
0.0
 40
0.3147316985
 40
0.5832415692
 40
1.0
 40
1.0
 40
1.0
 40
1.0
 10
23.377233242
 20
46.6812210469
 30
0.0
 10
23.3679756988
 20
46.676208651
 30
0.0
 10
23.3511372715
 20
46.666189887
 30
0.0
 10
23.3246411146
 20
46.6459857288
 30
0.0
 10
23.3091571132
 20
46.6276159687
 30
0.0
 10
23.3042305883
 20
46.6145754513
 30
0.0
  0
SPLINE
  5
2A2
100
AcDbEntity
  8
1
100
AcDbSpline
 62
7
  6
BYLAYER
 70
0
 71
3
 72
10
 73
6
 74
0
 42
0.0000001
 43
0.0000001
 44
0.0000000001
 40
0.0
 40
0.0
 40
0.0
 40
0.0
 40
0.4167584308
 40
0.6852683015
 40
1.0
 40
1.0
 40
1.0
 40
1.0
 10
26.4973456229
 20
46.6145754513
 30
0.0
 10
26.492419098
 20
46.6276159687
 30
0.0
 10
26.4769350967
 20
46.6459857288
 30
0.0
 10
26.4504389397
 20
46.666189887
 30
0.0
 10
26.4336005124
 20
46.676208651
 30
0.0
 10
26.4243429693
 20
46.6812210469
 30
0.0
  0
SPLINE
  5
2A3
100
AcDbEntity
  8
1
100
AcDbSpline
 62
7
  6
BYLAYER
 70
0
 71
3
 72
15
 73
11
 74
0
 42
0.0000001
 43
0.0000001
 44
0.0000000001
 40
0.0
 40
0.0
 40
0.0
 40
0.0
 40
0.0744046778
 40
0.1561853969
 40
0.2509451073
 40
0.3621712328
 40
0.4918882074
 40
0.6411917833
 40
0.8105253589
 40
1.0
 40
1.0
 40
1.0
 40
1.0
 10
22.1698233463
 20
26.8251311984
 30
0.0
 10
22.1698234041
 20
26.8343742574
 30
0.0
 10
22.1732359939
 20
26.8538902544
 30
0.0
 10
22.1878554237
 20
26.8818292844
 30
0.0
 10
22.2113831764
 20
26.9090440868
 30
0.0
 10
22.2435964069
 20
26.9357391393
 30
0.0
 10
22.2844523349
 20
26.9619951775
 30
0.0
 10
22.3338844503
 20
26.9877829684
 30
0.0
 10
22.3917662671
 20
27.0130565882
 30
0.0
 10
22.4335506224
 20
27.0286365601
 30
0.0
 10
22.455774044
 20
27.0363921622
 30
0.0
  0
SPLINE
  5
2A4
100
AcDbEntity
  8
1
100
AcDbSpline
 62
7
  6
BYLAYER
 70
0
 71
3
 72
17
 73
13
 74
0
 42
0.0000001
 43
0.0000001
 44
0.0000000001
 40
0.0
 40
0.0
 40
0.0
 40
0.0
 40
0.0383648976
 40
0.0809892096
 40
0.1277365674
 40
0.1784353259
 40
0.2908175037
 40
0.4162245699
 40
0.5524211248
 40
0.6968967516
 40
0.8470566138
 40
1.0
 40
1.0
 40
1.0
 40
1.0
 10
22.455774044
 20
27.0363921622
 30
0.0
 10
22.4855654674
 20
27.0467888704
 30
0.0
 10
22.5490802687
 20
27.0669610243
 30
0.0
 10
22.6504895502
 20
27.0944933946
 30
0.0
 10
22.7626755902
 20
27.1207716606
 30
0.0
 10
22.9318137101
 20
27.1551394485
 30
0.0
 10
23.1660813293
 20
27.1933231128
 30
0.0
 10
23.4714130142
 20
27.2309744655
 30
0.0
 10
23.8040885717
 20
27.2610748938
 30
0.0
 10
24.1577904311
 20
27.2830343227
 30
0.0
 10
24.5256990754
 20
27.296378447
 30
0.0
 10
24.7749988456
 20
27.2993604198
 30
0.0
 10
24.9007881056
 20
27.2993604198
 30
0.0
  0
SPLINE
  5
2A5
100
AcDbEntity
  8
1
100
AcDbSpline
 62
7
  6
BYLAYER
 70
0
 71
3
 72
25
 73
21
 74
0
 42
0.0000001
 43
0.0000001
 44
0.0000000001
 40
0.0
 40
0.0
 40
0.0
 40
0.0
 40
0.0082743781
 40
0.0171539671
 40
0.027131878
 40
0.0385476976
 40
0.0516181139
 40
0.066478239
 40
0.0832051166
 40
0.1018325532
 40
0.1448097659
 40
0.1953183303
 40
0.2530506365
 40
0.3175749317
 40
0.3883531044
 40
0.464771057
 40
0.5461497314
 40
0.6317405758
 40
0.8123723214
 40
1.0
 40
1.0
 40
1.0
 40
1.0
 10
22.1698233463
 20
24.3631118176
 30
0.0
 10
22.1698233953
 20
24.3552784501
 30
0.0
 10
22.1722150317
 20
24.338961845
 30
0.0
 10
22.1826483194
 20
24.3152279046
 30
0.0
 10
22.1996430828
 20
24.2919372457
 30
0.0
 10
22.2230124903
 20
24.2690141702
 30
0.0
 10
22.2526993168
 20
24.2463946158
 30
0.0
 10
22.2886695456
 20
24.2240852992
 30
0.0
 10
22.330864464
 20
24.2021123101
 30
0.0
 10
22.3986060531
 20
24.1718563101
 30
0.0
 10
22.4986351332
 20
24.1359575919
 30
0.0
 10
22.6363667546
 20
24.0966765775
 30
0.0
 10
22.7957741486
 20
24.0598104964
 30
0.0
 10
22.975354847
 20
24.0257417596
 30
0.0
 10
23.1734224995
 20
23.9948237253
 30
0.0
 10
23.3880899063
 20
23.9673705926
 30
0.0
 10
23.6173028312
 20
23.9436641369
 30
0.0
 10
23.9453071219
 20
23.9168819888
 30
0.0
 10
24.3745023151
 20
23.8947409922
 30
0.0
 10
24.723160668
 20
23.8888825963
 30
0.0
 10
24.9007881056
 20
23.8888825963
 30
0.0
  0
SPLINE
  5
2A6
100
AcDbEntity
  8
1
100
AcDbSpline
 62
7
  6
BYLAYER
 70
0
 71
3
 72
25
 73
21
 74
0
 42
0.0000001
 43
0.0000001
 44
0.0000000001
 40
0.0
 40
0.0
 40
0.0
 40
0.0
 40
0.187624467
 40
0.368253842
 40
0.4538445693
 40
0.5352231275
 40
0.6116415952
 40
0.6824204679
 40
0.746945873
 40
0.8046791324
 40
0.8551886909
 40
0.8981666181
 40
0.9167942973
 40
0.9335214154
 40
0.9483817597
 40
0.9614522274
 40
0.9728680508
 40
0.9828460208
 40
0.9917256484
 40
1.0
 40
1.0
 40
1.0
 40
1.0
 10
24.9007881056
 20
24.8373410373
 30
0.0
 10
24.7231637099
 20
24.8373410373
 30
0.0
 10
24.3745106394
 20
24.8314829419
 30
0.0
 10
23.945320846
 20
24.8093423123
 30
0.0
 10
23.6173189453
 20
24.7825611922
 30
0.0
 10
23.388105753
 20
24.7588547678
 30
0.0
 10
23.1734372262
 20
24.731402195
 30
0.0
 10
22.9753673876
 20
24.7004839172
 30
0.0
 10
22.7957839899
 20
24.6664153763
 30
0.0
 10
22.636373745
 20
24.629548774
 30
0.0
 10
22.4986395818
 20
24.5902674996
 30
0.0
 10
22.3986086794
 20
24.5543683673
 30
0.0
 10
22.3308660401
 20
24.5241119339
 30
0.0
 10
22.288670498
 20
24.5021387184
 30
0.0
 10
22.2526996908
 20
24.4798294103
 30
0.0
 10
22.2230126965
 20
24.4572096247
 30
0.0
 10
22.199643374
 20
24.4342863083
 30
0.0
 10
22.1826484769
 20
24.4109956833
 30
0.0
 10
22.1722146997
 20
24.3872618484
 30
0.0
 10
22.1698232973
 20
24.3709451601
 30
0.0
 10
22.1698233463
 20
24.3631118176
 30
0.0
  0
SPLINE
  5
2A7
100
AcDbEntity
  8
1
100
AcDbSpline
 62
7
  6
BYLAYER
 70
0
 71
3
 72
25
 73
21
 74
0
 42
0.0000001
 43
0.0000001
 44
0.0000000001
 40
0.0
 40
0.0
 40
0.0
 40
0.0
 40
0.0082743781
 40
0.0171539671
 40
0.027131878
 40
0.0385476976
 40
0.0516181139
 40
0.066478239
 40
0.0832051166
 40
0.1018325532
 40
0.1448097659
 40
0.1953183303
 40
0.2530506365
 40
0.3175749317
 40
0.3883531044
 40
0.464771057
 40
0.5461497314
 40
0.6317405758
 40
0.8123723214
 40
1.0
 40
1.0
 40
1.0
 40
1.0
 10
27.6317528649
 20
24.3631118159
 30
0.0
 10
27.6317528159
 20
24.3709451835
 30
0.0
 10
27.6293611795
 20
24.3872617885
 30
0.0
 10
27.6189278918
 20
24.410995729
 30
0.0
 10
27.6019331284
 20
24.4342863879
 30
0.0
 10
27.5785637209
 20
24.4572094633
 30
0.0
 10
27.5488768944
 20
24.4798290178
 30
0.0
 10
27.5129066656
 20
24.5021383344
 30
0.0
 10
27.4707117472
 20
24.5241113234
 30
0.0
 10
27.4029701581
 20
24.5543673234
 30
0.0
 10
27.302941078
 20
24.5902660417
 30
0.0
 10
27.1652094566
 20
24.6295470561
 30
0.0
 10
27.0058020626
 20
24.6664131371
 30
0.0
 10
26.8262213643
 20
24.7004818739
 30
0.0
 10
26.6281537117
 20
24.7313999082
 30
0.0
 10
26.4134863049
 20
24.7588530409
 30
0.0
 10
26.18427338
 20
24.7825594966
 30
0.0
 10
25.8562690893
 20
24.8093416447
 30
0.0
 10
25.4270738961
 20
24.8314826413
 30
0.0
 10
25.0784155432
 20
24.8373410373
 30
0.0
 10
24.9007881056
 20
24.8373410373
 30
0.0
  0
SPLINE
  5
2A8
100
AcDbEntity
  8
1
100
AcDbSpline
 62
7
  6
BYLAYER
 70
0
 71
3
 72
17
 73
13
 74
0
 42
0.0000001
 43
0.0000001
 44
0.0000000001
 40
0.0
 40
0.0
 40
0.0
 40
0.0
 40
0.0309637745
 40
0.0672277485
 40
0.1087475448
 40
0.1553903446
 40
0.2631251426
 40
0.3882319702
 40
0.5278921619
 40
0.6788085736
 40
0.8374935055
 40
1.0
 40
1.0
 40
1.0
 40
1.0
 10
26.4243429693
 20
46.6812210469
 30
0.0
 10
26.4103232498
 20
46.6888118713
 30
0.0
 10
26.3788922388
 20
46.7034633246
 30
0.0
 10
26.3264257369
 20
46.72311459
 30
0.0
 10
26.2651848445
 20
46.742033432
 30
0.0
 10
26.167515779
 20
46.7673271259
 30
0.0
 10
26.0262675789
 20
46.7954023586
 30
0.0
 10
25.8364330134
 20
46.8231361214
 30
0.0
 10
25.6235246535
 20
46.8455046046
 30
0.0
 10
25.3927531573
 20
46.8619361601
 30
0.0
 10
25.1498463736
 20
46.8719607114
 30
0.0
 10
24.9844603968
 20
46.8742046627
 30
0.0
 10
24.9007881056
 20
46.8742046627
 30
0.0
  0
SPLINE
  5
2A9
100
AcDbEntity
  8
1
100
AcDbSpline
 62
7
  6
BYLAYER
 70
0
 71
3
 72
22
 73
18
 74
0
 42
0.0000001
 43
0.0000001
 44
0.0000000001
 40
0.0
 40
0.0
 40
0.0
 40
0.0
 40
0.0188319108
 40
0.0302509871
 40
0.0432430094
 40
0.0579107114
 40
0.0743137242
 40
0.1124261625
 40
0.157611864
 40
0.2096772463
 40
0.2682994163
 40
0.3330486998
 40
0.4034279599
 40
0.4788652383
 40
0.6423642371
 40
0.818075374
 40
1.0
 40
1.0
 40
1.0
 40
1.0
 10
22.9050936623
 20
45.5592383195
 30
0.0
 10
22.9096632846
 20
45.5713118378
 30
0.0
 10
22.9220913754
 20
45.5887379916
 30
0.0
 10
22.9438800405
 20
45.6087923593
 30
0.0
 10
22.9655608062
 20
45.6246485973
 30
0.0
 10
22.9914368034
 20
45.6402722775
 30
0.0
 10
23.0336774142
 20
45.6619072728
 30
0.0
 10
23.0971022712
 20
45.6876777283
 30
0.0
 10
23.1855049234
 20
45.716052543
 30
0.0
 10
23.2889660159
 20
45.7429411792
 30
0.0
 10
23.4065990769
 20
45.7680916008
 30
0.0
 10
23.5374017971
 20
45.7912667149
 30
0.0
 10
23.6802314933
 20
45.8122428312
 30
0.0
 10
23.8907524313
 20
45.8377067298
 30
0.0
 10
24.1740292317
 20
45.8621762725
 30
0.0
 10
24.5308962227
 20
45.8798270541
 30
0.0
 10
24.7760780583
 20
45.8837748619
 30
0.0
 10
24.9007881056
 20
45.8837748619
 30
0.0
  0
SPLINE
  5
2AA
100
AcDbEntity
  8
1
100
AcDbSpline
 62
7
  6
BYLAYER
 70
0
 71
3
 72
17
 73
13
 74
0
 42
0.0000001
 43
0.0000001
 44
0.0000000001
 40
0.0
 40
0.0
 40
0.0
 40
0.0
 40
0.1625064945
 40
0.3211914264
 40
0.4721078381
 40
0.6117680298
 40
0.7368748574
 40
0.8446096554
 40
0.8912524552
 40
0.9327722515
 40
0.9690362255
 40
1.0
 40
1.0
 40
1.0
 40
1.0
 10
24.9007881056
 20
46.8742046627
 30
0.0
 10
24.8171158144
 20
46.8742046627
 30
0.0
 10
24.6517298377
 20
46.8719607114
 30
0.0
 10
24.408823054
 20
46.8619361601
 30
0.0
 10
24.1780515577
 20
46.8455046046
 30
0.0
 10
23.9651431978
 20
46.8231361214
 30
0.0
 10
23.7753086323
 20
46.7954023586
 30
0.0
 10
23.6340604322
 20
46.7673271259
 30
0.0
 10
23.5363913667
 20
46.742033432
 30
0.0
 10
23.4751504744
 20
46.72311459
 30
0.0
 10
23.4226839724
 20
46.7034633246
 30
0.0
 10
23.3912529614
 20
46.6888118713
 30
0.0
 10
23.377233242
 20
46.6812210469
 30
0.0
  0
SPLINE
  5
2AB
100
AcDbEntity
  8
1
100
AcDbSpline
 62
7
  6
BYLAYER
 70
0
 71
3
 72
22
 73
18
 74
0
 42
0.0000001
 43
0.0000001
 44
0.0000000001
 40
0.0
 40
0.0
 40
0.0
 40
0.0
 40
0.181924626
 40
0.3576357629
 40
0.5211347617
 40
0.5965720401
 40
0.6669513002
 40
0.7317005837
 40
0.7903227537
 40
0.842388136
 40
0.8875738375
 40
0.9256862758
 40
0.9420892886
 40
0.9567569906
 40
0.9697490129
 40
0.9811680892
 40
1.0
 40
1.0
 40
1.0
 40
1.0
 10
24.9007881056
 20
45.8837748619
 30
0.0
 10
25.0254981529
 20
45.8837748619
 30
0.0
 10
25.2706799885
 20
45.8798270541
 30
0.0
 10
25.6275469795
 20
45.8621762725
 30
0.0
 10
25.9108237799
 20
45.8377067298
 30
0.0
 10
26.1213447179
 20
45.8122428312
 30
0.0
 10
26.2641744141
 20
45.7912667149
 30
0.0
 10
26.3949771344
 20
45.7680916008
 30
0.0
 10
26.5126101953
 20
45.7429411792
 30
0.0
 10
26.6160712878
 20
45.716052543
 30
0.0
 10
26.70447394
 20
45.6876777283
 30
0.0
 10
26.767898797
 20
45.6619072728
 30
0.0
 10
26.8101394078
 20
45.6402722775
 30
0.0
 10
26.8360154051
 20
45.6246485973
 30
0.0
 10
26.8576961707
 20
45.6087923593
 30
0.0
 10
26.8794848358
 20
45.5887379916
 30
0.0
 10
26.8919129266
 20
45.5713118378
 30
0.0
 10
26.8964825489
 20
45.5592383195
 30
0.0
  0
ELLIPSE
  5
2AC
100
AcDbEntity
  8
1
100
AcDbEllipse
 62
7
  6
BYLAYER
 10
24.5538871088
 20
27.0468532238
 30
0.0
 11
2.1005025617
 21
-0.0106691395
 31
0.0
 40
0.5781522924
 41
-3.1328333479
 42
-3.1245016269
  0
ENDSEC
  0
SECTION
  2
OBJECTS
  0
DICTIONARY
  5
C
100
AcDbDictionary
280
0
281
1
  3
ACAD_GROUP
350
D
  3
ACAD_MLINESTYLE
350
17
  3
ACAD_LAYOUT
350
1A
  3
ACAD_PLOTSETTINGS
350
19
  3
ACAD_PLOTSTYLENAME
350
E
  0
DICTIONARY
  5
D
102
{ACAD_REACTORS
330
C
102
}
100
AcDbDictionary
280
0
281
1
  0
ACDBDICTIONARYWDFLT
  5
E
102
{ACAD_REACTORS
330
C
102
}
100
AcDbDictionary
281
1
  3
Normal
350
F
100
AcDbDictionaryWithDefault
340
F
  0
DICTIONARY
  5
17
102
{ACAD_REACTORS
330
C
102
}
100
AcDbDictionary
280
0
281
1
  3
Standard
350
18
  0
DICTIONARY
  5
19
102
{ACAD_REACTORS
330
C
102
}
100
AcDbDictionary
281
1
  0
DICTIONARY
  5
1A
102
{ACAD_REACTORS
330
C
102
}
100
AcDbDictionary
281
1
  3
Model
350
2AD
  3
Layout1
350
2AE
  0
ACDBPLACEHOLDER
  5
F
102
{ACAD_REACTORS
330
E
102
}
  0
MLINESTYLE
  5
18
102
{ACAD_REACTORS
330
17
102
}
100
AcDbMlineStyle
  2
STANDARD
 70
0
  3

 62
256
 51
90.0
 52
90.0
 71
2
 49
0.5
 62
256
  6
BYLAYER
 49
-0.5
 62
256
  6
BYLAYER
  0
LAYOUT
  5
2AD
102
{ACAD_REACTORS
330
1A
102
}
100
AcDbPlotSettings
  1

  2
none_device
  4

  6

 40
0.0
 41
0.0
 42
0.0
 43
0.0
 44
210.0
 45
297.0
 46
0.0
 47
0.0
 48
0.0
 49
0.0
140
0.0
141
0.0
142
1.0
143
1.0
 70
1024
 72
1
 73
0
 74
0
  7

 75
0
147
1.0
148
0.0
149
0.0
100
AcDbLayout
  1
Model
 70
0
 71
0
 10
0.0
 20
0.0
 11
210.0
 21
297.0
 12
0.0
 22
0.0
 32
0.0
 14
0.0
 24
0.0
 34
0.0
 15
0.0
 25
0.0
 35
0.0
146
0.0
 13
0.0
 23
0.0
 33
0.0
 16
1.0
 26
0.0
 36
0.0
 17
0.0
 27
1.0
 37
0.0
 76
0
330
211
345
0
346
0
  0
LAYOUT
  5
2AE
102
{ACAD_REACTORS
330
1A
102
}
100
AcDbPlotSettings
  1

  2
none_device
  4

  6

 40
0.0
 41
0.0
 42
0.0
 43
0.0
 44
210.0
 45
297.0
 46
0.0
 47
0.0
 48
0.0
 49
0.0
140
0.0
141
0.0
142
1.0
143
1.0
 70
0
 72
1
 73
0
 74
0
  7

 75
0
147
1.0
148
0.0
149
0.0
100
AcDbLayout
  1
Layout1
 70
0
 71
1
 10
0.0
 20
0.0
 11
210.0
 21
297.0
 12
0.0
 22
0.0
 32
0.0
 14
0.0
 24
0.0
 34
0.0
 15
0.0
 25
0.0
 35
0.0
146
0.0
 13
0.0
 23
0.0
 33
0.0
 16
1.0
 26
0.0
 36
0.0
 17
0.0
 27
1.0
 37
0.0
 76
0
330
212
345
0
346
0
  0
ENDSEC
  0
EOF
