999
DXF file: C:\Users\sesa63760\Dev\_Creo\CAD\MCADID0001251_3D-CAD\drw0001_3.dxf
999
Pro/ENGINEER 2019471 by Parametric Technology Corporation
  0
SECTION
  2
HEADER
  9
$ACADVER
  1
AC1024
  9
$DWGCODEPAGE
  3
ANSI_1252
  9
$EXTMAX
 10
195.907773386
 20
277.0695652174
 30
0.0
  9
$EXTMIN
 10
0.0
 20
0.0
 30
0.0
  9
$LIMMIN
 10
0.0
 20
0.0
  9
$LIMMAX
 10
195.907773386
 20
277.0695652174
  9
$VIEWCTR
 10
97.953886693
 20
138.5347826087
  9
$VIEWSIZE
 40
277.0695652174
  9
$CLAYER
  8
0
  9
$LTSCALE
 40
18.0608309179
  9
$CELTYPE
  6
BYLAYER
  9
$DIMSCALE
 40
1.0
  9
$DIMASZ
 40
2.3322353975
  9
$DIMEXO
 40
1.0
  9
$DIMDLI
 40
12.4783922705
  9
$DIMEXE
 40
1.0
  9
$DIMCEN
 40
2.9554086957
  9
$DIMLFAC
 40
1.0
  9
$DIMBLK
  1
_FILLED
  9
$DIMALT
 70
0
  9
$DIMALTF
 40
0.0393700787
  9
$DIMTXT
 40
3.2651295564
  9
$DIMTOL
 70
1
  9
$DIMLIM
 70
0
  9
$DIMTFAC
 40
1.0
  9
$DIMTP
 40
0.01
  9
$DIMTM
 40
0.01
  9
$DIMGAP
 40
0.625
  9
$DIMDSEP
 70
46
  9
$AUNITS
 70
0
  9
$PDMODE
 70
3
  9
$PDSIZE
 40
0.3125
  9
$HANDSEED
  5
262
  9
$TILEMODE
 70
1
  9
$MEASUREMENT
 70
1
  9
$INSUNITS
 70
4
  0
ENDSEC
  0
SECTION
  2
CLASSES
  0
CLASS
  1
ACDBDICTIONARYWDFLT
  2
AcDbDictionaryWithDefault
  3
AutoCAD 2000
 90
0
 91
1
280
0
281
0
  0
CLASS
  1
ACDBPLACEHOLDER
  2
AcDbPlaceHolder
  3
AutoCAD 2000
 90
0
 91
1
280
0
281
0
  0
CLASS
  1
LAYOUT
  2
AcDbLayout
  3
AutoCAD 2000
 90
0
 91
0
280
0
281
0
  0
ENDSEC
  0
SECTION
  2
TABLES
  0
TABLE
  2
VPORT
  5
8
100
AcDbSymbolTable
 70
2
  0
VPORT
  5
1F4
100
AcDbSymbolTableRecord
100
AcDbViewportTableRecord
  2
*ACTIVE
 70
0
 10
0.0
 20
0.0
 11
1.0
 21
1.0
 12
97.953886693
 22
138.5347826087
 13
0.0
 23
0.0
 14
1.0
 24
1.0
 15
0.0
 25
0.0
 16
0.0
 26
0.0
 36
1.0
 17
0.0
 27
0.0
 37
0.0
 40
277.0695652174
 41
0.7070707071
 42
50.0
 43
0.0
 44
0.0
 50
0.0
 51
0.0
 71
0
 72
100
 73
1
 74
1
 75
0
 76
0
 77
0
 78
0
  0
ENDTAB
  0
TABLE
  2
LTYPE
  5
5
100
AcDbSymbolTable
 70
6
  0
LTYPE
  5
14
100
AcDbSymbolTableRecord
100
AcDbLinetypeTableRecord
  2
BYBLOCK
 70
0
  3

 72
65
 73
0
 40
0.0
  0
LTYPE
  5
15
100
AcDbSymbolTableRecord
100
AcDbLinetypeTableRecord
  2
BYLAYER
 70
0
  3

 72
65
 73
0
 40
0.0
  0
LTYPE
  5
16
100
AcDbSymbolTableRecord
100
AcDbLinetypeTableRecord
  2
CONTINUOUS
 70
64
  3
Solid line
 72
65
 73
0
 40
0.0
  0
LTYPE
  5
1F5
100
AcDbSymbolTableRecord
100
AcDbLinetypeTableRecord
  2
CENTER
 70
64
  3
____ _ ____ _ ____ _ ____ _ ____ _ ____ _ ____
 72
65
 73
4
 40
0.6
 49
0.375
 74
0
 49
-0.075
 74
0
 49
0.075
 74
0
 49
-0.075
 74
0
  0
LTYPE
  5
1F6
100
AcDbSymbolTableRecord
100
AcDbLinetypeTableRecord
  2
HIDDEN
 70
64
  3
- - - - - - - - - - - - - - - - - - - -
 72
65
 73
2
 40
0.2
 49
0.1
 74
0
 49
-0.1
 74
0
  0
LTYPE
  5
1F7
100
AcDbSymbolTableRecord
100
AcDbLinetypeTableRecord
  2
PHANTOM
 70
64
  3
_____ _ _ _____ _ _ _____ _ _ _____
 72
65
 73
6
 40
0.8
 49
0.45
 74
0
 49
-0.05
 74
0
 49
0.1
 74
0
 49
-0.05
 74
0
 49
0.1
 74
0
 49
-0.05
 74
0
  0
LTYPE
  5
1F8
100
AcDbSymbolTableRecord
100
AcDbLinetypeTableRecord
  2
DOT
 70
64
  3
. . . . . . . . . . . . . . . . . . . .
 72
65
 73
2
 40
0.2
 49
0.1
 74
0
 49
-0.1
 74
0
  0
LTYPE
  5
1F9
100
AcDbSymbolTableRecord
100
AcDbLinetypeTableRecord
  2
DASHED
 70
64
  3
- - - - - - - - - - - - - - - - - - - -
 72
65
 73
2
 40
0.2
 49
0.1
 74
0
 49
-0.1
 74
0
  0
ENDTAB
  0
TABLE
  2
LAYER
  5
2
100
AcDbSymbolTable
 70
36
  0
LAYER
  5
10
100
AcDbSymbolTableRecord
100
AcDbLayerTableRecord
  2
0
 70
0
 62
7
  6
CONTINUOUS
370
-3
390
F
  0
LAYER
  5
1FA
100
AcDbSymbolTableRecord
100
AcDbLayerTableRecord
  2
DEFAULT_1
 70
0
 62
7
  6
CENTER
370
-3
390
F
  0
LAYER
  5
1FB
100
AcDbSymbolTableRecord
100
AcDbLayerTableRecord
  2
DEFAULT_2
 70
0
 62
8
  6
HIDDEN
370
-3
390
F
  0
LAYER
  5
1FC
100
AcDbSymbolTableRecord
100
AcDbLayerTableRecord
  2
DEFAULT_3
 70
0
 62
7
  6
PHANTOM
370
-3
390
F
  0
LAYER
  5
1FD
100
AcDbSymbolTableRecord
100
AcDbLayerTableRecord
  2
00_COMPONENTS
 70
0
 62
7
  6
CONTINUOUS
370
-3
390
F
  0
LAYER
  5
1FE
100
AcDbSymbolTableRecord
100
AcDbLayerTableRecord
  2
01_1_DEFAULT_DATUMS
 70
0
 62
7
  6
CONTINUOUS
370
-3
390
F
  0
LAYER
  5
1FF
100
AcDbSymbolTableRecord
100
AcDbLayerTableRecord
  2
01_PLANES
 70
0
 62
7
  6
CONTINUOUS
370
-3
390
F
  0
LAYER
  5
200
100
AcDbSymbolTableRecord
100
AcDbLayerTableRecord
  2
02_COORD_SYS
 70
0
 62
7
  6
CONTINUOUS
370
-3
390
F
  0
LAYER
  5
201
100
AcDbSymbolTableRecord
100
AcDbLayerTableRecord
  2
03_AXES
 70
0
 62
7
  6
CONTINUOUS
370
-3
390
F
  0
LAYER
  5
202
100
AcDbSymbolTableRecord
100
AcDbLayerTableRecord
  2
04_POINTS
 70
0
 62
7
  6
CONTINUOUS
370
-3
390
F
  0
LAYER
  5
203
100
AcDbSymbolTableRecord
100
AcDbLayerTableRecord
  2
05_CURVES
 70
0
 62
7
  6
CONTINUOUS
370
-3
390
F
  0
LAYER
  5
204
100
AcDbSymbolTableRecord
100
AcDbLayerTableRecord
  2
06_SURFS
 70
0
 62
7
  6
CONTINUOUS
370
-3
390
F
  0
LAYER
  5
205
100
AcDbSymbolTableRecord
100
AcDbLayerTableRecord
  2
07_COSMETICS
 70
0
 62
7
  6
CONTINUOUS
370
-3
390
F
  0
LAYER
  5
206
100
AcDbSymbolTableRecord
100
AcDbLayerTableRecord
  2
1
 70
0
 62
7
  6
CONTINUOUS
370
-3
390
F
  0
LAYER
  5
207
100
AcDbSymbolTableRecord
100
AcDbLayerTableRecord
  2
10_NOTES
 70
0
 62
7
  6
CONTINUOUS
370
-3
390
F
  0
LAYER
  5
208
100
AcDbSymbolTableRecord
100
AcDbLayerTableRecord
  2
11_NOTES_PUB
 70
0
 62
7
  6
CONTINUOUS
370
-3
390
F
  0
LAYER
  5
209
100
AcDbSymbolTableRecord
100
AcDbLayerTableRecord
  2
13_REF_GTOL
 70
0
 62
7
  6
CONTINUOUS
370
-3
390
F
  0
LAYER
  5
20A
100
AcDbSymbolTableRecord
100
AcDbLayerTableRecord
  2
16_MISC
 70
0
 62
7
  6
CONTINUOUS
370
-3
390
F
  0
LAYER
  5
20B
100
AcDbSymbolTableRecord
100
AcDbLayerTableRecord
  2
17_NO_PRINT
 70
0
 62
7
  6
CONTINUOUS
370
-3
390
F
  0
LAYER
  5
20C
100
AcDbSymbolTableRecord
100
AcDbLayerTableRecord
  2
18_DATUM_CAMS_JOINTS
 70
0
 62
7
  6
CONTINUOUS
370
-3
390
F
  0
LAYER
  5
20D
100
AcDbSymbolTableRecord
100
AcDbLayerTableRecord
  2
19_DATUM_FUNCTIONAL
 70
0
 62
7
  6
CONTINUOUS
370
-3
390
F
  0
LAYER
  5
20E
100
AcDbSymbolTableRecord
100
AcDbLayerTableRecord
  2
2
 70
0
 62
7
  6
CONTINUOUS
370
-3
390
F
  0
LAYER
  5
20F
100
AcDbSymbolTableRecord
100
AcDbLayerTableRecord
  2
20_DATUM_KINEMATIC_SCHEME
 70
0
 62
7
  6
CONTINUOUS
370
-3
390
F
  0
ENDTAB
  0
TABLE
  2
STYLE
  5
3
100
AcDbSymbolTable
 70
1
  0
STYLE
  5
11
100
AcDbSymbolTableRecord
100
AcDbTextStyleTableRecord
  2
STANDARD
 70
0
 40
0.0
 41
0.8
 50
0.0
 71
0
 42
0.2
  3
txt
  4

  0
STYLE
  5
210
100
AcDbSymbolTableRecord
100
AcDbTextStyleTableRecord
  2
TEXTSTYLE_1
 70
0
 40
0.0
 41
0.8
 50
0.0
 71
0
 42
0.2
  3
gdt
  4

  0
ENDTAB
  0
TABLE
  2
VIEW
  5
6
100
AcDbSymbolTable
 70
0
  0
ENDTAB
  0
TABLE
  2
UCS
  5
7
100
AcDbSymbolTable
 70
0
  0
ENDTAB
  0
TABLE
  2
APPID
  5
9
100
AcDbSymbolTable
 70
1
  0
APPID
  5
211
100
AcDbSymbolTableRecord
100
AcDbRegAppTableRecord
  2
ACAD
 70
0
  0
ENDTAB
  0
TABLE
  2
BLOCK_RECORD
  5
1
100
AcDbSymbolTable
 70
0
  0
BLOCK_RECORD
  5
212
100
AcDbSymbolTableRecord
100
AcDbBlockTableRecord
  2
*Model_Space
  0
BLOCK_RECORD
  5
213
100
AcDbSymbolTableRecord
100
AcDbBlockTableRecord
  2
*Paper_Space
  0
BLOCK_RECORD
  5
214
100
AcDbSymbolTableRecord
100
AcDbBlockTableRecord
  2
_FILLED
  0
ENDTAB
  0
TABLE
  2
DIMSTYLE
  5
A
100
AcDbSymbolTable
 70
1
100
AcDbDimStyleTable
 71
0
  0
DIMSTYLE
105
215
100
AcDbSymbolTableRecord
100
AcDbDimStyleTableRecord
  2
STANDARD
 70
0
  3

  4

 40
1.0
 41
2.3322353975
 42
1.0
 43
0.38
 44
1.0
 45
0.0
 46
0.0
 47
0.01
 48
0.01
140
3.2651295564
141
0.09
142
0.0
143
25.4
144
1.0
145
0.0
146
1.0
147
0.625
 71
1
 72
0
 73
0
 74
0
 75
0
 76
0
 77
1
 78
8
 79
2
170
0
171
1
172
0
173
0
174
0
175
0
176
0
177
0
178
0
270
2
179
2
271
2
272
2
273
2
274
2
275
0
280
0
281
0
282
0
283
1
284
8
285
0
286
0
287
3
288
0
340
11
278
46
341
214
342
214
343
214
344
214
  0
ENDTAB
  0
ENDSEC
  0
SECTION
  2
BLOCKS
  0
BLOCK
  5
20
100
AcDbEntity
  8
0
100
AcDbBlockBegin
  2
*Model_Space
 70
0
 10
0.0
 20
0.0
 30
0.0
  3
*Model_Space
  1

  0
ENDBLK
  5
21
100
AcDbEntity
  8
0
100
AcDbBlockEnd
  0
BLOCK
  5
1C
100
AcDbEntity
  8
0
100
AcDbBlockBegin
  2
*Paper_Space
 70
0
 10
0.0
 20
0.0
 30
0.0
  3
*Paper_Space
  1

  0
ENDBLK
  5
1D
100
AcDbEntity
  8
0
100
AcDbBlockEnd
  0
BLOCK
  5
216
100
AcDbEntity
  8
0
100
AcDbBlockBegin
  2
_FILLED
 70
64
 10
0.0
 20
0.0
  3
_FILLED
  1

  0
SOLID
  5
217
100
AcDbEntity
  8
0
  6
BYBLOCK
 62
0
100
AcDbTrace
 10
0.0
 20
0.0
 11
-1.0
 21
0.25
 12
-1.0
 22
-0.25
 13
-1.0
 23
-0.25
  0
ENDBLK
  5
218
100
AcDbEntity
  8
0
  6
BYBLOCK
 62
0
100
AcDbBlockEnd
  0
ENDSEC
  0
SECTION
  2
ENTITIES
  0
LINE
  5
219
100
AcDbEntity
  8
1
100
AcDbLine
 62
7
  6
CONTINUOUS
 10
45.6669301713
 20
22.2130434783
 11
155.6669301713
 21
22.2130434783
  0
LINE
  5
21A
100
AcDbEntity
  8
1
100
AcDbLine
 62
7
  6
CONTINUOUS
 10
47.9669301713
 20
26.7130434783
 11
45.6669301713
 21
26.7130434783
  0
LINE
  5
21B
100
AcDbEntity
  8
1
100
AcDbLine
 62
7
  6
CONTINUOUS
 10
49.9669301713
 20
26.7130434783
 11
151.3669301713
 21
26.7130434783
  0
LINE
  5
21C
100
AcDbEntity
  8
1
100
AcDbLine
 62
7
  6
CONTINUOUS
 10
153.3669301713
 20
26.7130434783
 11
155.6669301713
 21
26.7130434783
  0
LINE
  5
21D
100
AcDbEntity
  8
1
100
AcDbLine
 62
7
  6
CONTINUOUS
 10
74.8669301713
 20
241.5202231552
 11
75.6169301713
 21
241.9532358571
  0
LINE
  5
21E
100
AcDbEntity
  8
1
100
AcDbLine
 62
7
  6
CONTINUOUS
 10
45.6669301713
 20
239.2130434783
 11
45.6669301713
 21
224.2130434783
  0
LINE
  5
21F
100
AcDbEntity
  8
1
100
AcDbLine
 62
7
  6
CONTINUOUS
 10
45.6669301713
 20
22.2130434783
 11
45.6669301713
 21
223.7130434783
  0
LINE
  5
220
100
AcDbEntity
  8
1
100
AcDbLine
 62
7
  6
CONTINUOUS
 10
46.6669301713
 20
224.2130434783
 11
46.6669301713
 21
223.7130434783
  0
LINE
  5
221
100
AcDbEntity
  8
1
100
AcDbLine
 62
7
  6
CONTINUOUS
 10
47.9669301713
 20
26.7130434783
 11
47.9669301713
 21
102.2130434783
  0
LINE
  5
222
100
AcDbEntity
  8
1
100
AcDbLine
 62
7
  6
CONTINUOUS
 10
49.9669301713
 20
220.0130434783
 11
49.9669301713
 21
218.5130434783
  0
LINE
  5
223
100
AcDbEntity
  8
1
100
AcDbLine
 62
7
  6
CONTINUOUS
 10
49.9669301713
 20
102.2130434783
 11
49.9669301713
 21
26.7130434783
  0
LINE
  5
224
100
AcDbEntity
  8
1
100
AcDbLine
 62
7
  6
CONTINUOUS
 10
54.9669301713
 20
218.5130434783
 11
54.9669301713
 21
220.0130434783
  0
LINE
  5
225
100
AcDbEntity
  8
1
100
AcDbLine
 62
7
  6
CONTINUOUS
 10
55.6669301713
 20
110.5130434783
 11
55.6669301713
 21
218.5130434783
  0
LINE
  5
226
100
AcDbEntity
  8
1
100
AcDbLine
 62
7
  6
CONTINUOUS
 10
55.6669301713
 20
220.0130434783
 11
55.6669301713
 21
239.2130434783
  0
LINE
  5
227
100
AcDbEntity
  8
1
100
AcDbLine
 62
7
  6
CONTINUOUS
 10
56.7850578841
 20
26.7130434783
 11
56.7850578841
 21
22.2130434783
  0
LINE
  5
228
100
AcDbEntity
  8
1
100
AcDbLine
 62
7
  6
CONTINUOUS
 10
56.9178725276
 20
26.7130434783
 11
56.9178725276
 21
22.2130434783
  0
LINE
  5
229
100
AcDbEntity
  8
1
100
AcDbLine
 62
7
  6
CONTINUOUS
 10
47.9669301713
 20
91.8577403404
 11
49.9669301713
 21
91.8577403404
  0
LINE
  5
22A
100
AcDbEntity
  8
1
100
AcDbLine
 62
7
  6
CONTINUOUS
 10
151.3669301713
 20
91.8577403404
 11
153.3669301713
 21
91.8577403404
  0
LINE
  5
22B
100
AcDbEntity
  8
1
100
AcDbLine
 62
7
  6
CONTINUOUS
 10
62.415987815
 20
22.2130434783
 11
62.415987815
 21
26.7130434783
  0
LINE
  5
22C
100
AcDbEntity
  8
1
100
AcDbLine
 62
7
  6
CONTINUOUS
 10
62.5488024585
 20
22.2130434783
 11
62.5488024585
 21
26.7130434783
  0
LINE
  5
22D
100
AcDbEntity
  8
1
100
AcDbLine
 62
7
  6
CONTINUOUS
 10
73.8669301713
 20
243.8522739628
 11
73.2669301713
 21
239.2130434783
  0
LINE
  5
22E
100
AcDbEntity
  8
1
100
AcDbLine
 62
7
  6
CONTINUOUS
 10
121.4669301713
 20
243.8522739628
 11
120.6071225502
 21
242.3630434783
  0
LINE
  5
22F
100
AcDbEntity
  8
1
100
AcDbLine
 62
7
  6
CONTINUOUS
 10
153.3669301713
 20
101.8516486105
 11
151.3669301713
 21
101.8516486105
  0
LINE
  5
230
100
AcDbEntity
  8
1
100
AcDbLine
 62
7
  6
CONTINUOUS
 10
49.9669301713
 20
101.8516486105
 11
47.9669301713
 21
101.8516486105
  0
LINE
  5
231
100
AcDbEntity
  8
1
100
AcDbLine
 62
7
  6
CONTINUOUS
 10
47.9669301713
 20
102.2130434783
 11
49.9669301713
 21
102.2130434783
  0
LINE
  5
232
100
AcDbEntity
  8
1
100
AcDbLine
 62
7
  6
CONTINUOUS
 10
151.3669301713
 20
102.2130434783
 11
153.3669301713
 21
102.2130434783
  0
LINE
  5
233
100
AcDbEntity
  8
1
100
AcDbLine
 62
7
  6
CONTINUOUS
 10
70.6669301713
 20
239.2130434783
 11
70.6669301713
 21
248.2130434783
  0
LINE
  5
234
100
AcDbEntity
  8
1
100
AcDbLine
 62
7
  6
CONTINUOUS
 10
72.6669301713
 20
248.2130434783
 11
72.6669301713
 21
239.2732669202
  0
LINE
  5
235
100
AcDbEntity
  8
1
100
AcDbLine
 62
7
  6
CONTINUOUS
 10
74.8669301713
 20
239.2130434783
 11
74.8669301713
 21
241.5202231552
  0
LINE
  5
236
100
AcDbEntity
  8
1
100
AcDbLine
 62
7
  6
CONTINUOUS
 10
148.6669301713
 20
110.5130434783
 11
145.6669301713
 21
110.5130434783
  0
LINE
  5
237
100
AcDbEntity
  8
1
100
AcDbLine
 62
7
  6
CONTINUOUS
 10
55.6669301713
 20
110.5130434783
 11
52.6669301713
 21
110.5130434783
  0
LINE
  5
238
100
AcDbEntity
  8
1
100
AcDbLine
 62
7
  6
CONTINUOUS
 10
77.8869301713
 20
253.2130434783
 11
77.8869301713
 21
242.2130434783
  0
LINE
  5
239
100
AcDbEntity
  8
1
100
AcDbLine
 62
7
  6
CONTINUOUS
 10
81.7869301713
 20
256.2130434783
 11
81.7869301713
 21
239.2130434783
  0
LINE
  5
23A
100
AcDbEntity
  8
1
100
AcDbLine
 62
7
  6
CONTINUOUS
 10
84.7869301713
 20
239.2130434783
 11
84.7869301713
 21
256.2130434783
  0
LINE
  5
23B
100
AcDbEntity
  8
1
100
AcDbLine
 62
7
  6
CONTINUOUS
 10
111.3669301713
 20
220.0130434783
 11
111.3669301713
 21
218.5130434783
  0
LINE
  5
23C
100
AcDbEntity
  8
1
100
AcDbLine
 62
7
  6
CONTINUOUS
 10
116.3669301713
 20
218.5130434783
 11
116.3669301713
 21
220.0130434783
  0
LINE
  5
23D
100
AcDbEntity
  8
1
100
AcDbLine
 62
7
  6
CONTINUOUS
 10
121.4669301713
 20
241.5202231552
 11
121.4669301713
 21
239.2130434783
  0
LINE
  5
23E
100
AcDbEntity
  8
1
100
AcDbLine
 62
7
  6
CONTINUOUS
 10
75.7267377924
 20
242.3630434783
 11
74.8669301713
 21
243.8522739628
  0
LINE
  5
23F
100
AcDbEntity
  8
1
100
AcDbLine
 62
7
  6
CONTINUOUS
 10
123.0669301713
 20
239.2130434783
 11
122.4669301713
 21
243.8522739628
  0
LINE
  5
240
100
AcDbEntity
  8
1
100
AcDbLine
 62
7
  6
CONTINUOUS
 10
138.7850578841
 20
26.7130434783
 11
138.7850578841
 21
22.2130434783
  0
LINE
  5
241
100
AcDbEntity
  8
1
100
AcDbLine
 62
7
  6
CONTINUOUS
 10
138.9178725276
 20
26.7130434783
 11
138.9178725276
 21
22.2130434783
  0
LINE
  5
242
100
AcDbEntity
  8
1
100
AcDbLine
 62
7
  6
CONTINUOUS
 10
144.415987815
 20
22.2130434783
 11
144.415987815
 21
26.7130434783
  0
LINE
  5
243
100
AcDbEntity
  8
1
100
AcDbLine
 62
7
  6
CONTINUOUS
 10
144.5488024585
 20
22.2130434783
 11
144.5488024585
 21
26.7130434783
  0
LINE
  5
244
100
AcDbEntity
  8
1
100
AcDbLine
 62
7
  6
CONTINUOUS
 10
145.6669301713
 20
239.2130434783
 11
145.6669301713
 21
110.5130434783
  0
LINE
  5
245
100
AcDbEntity
  8
1
100
AcDbLine
 62
7
  6
CONTINUOUS
 10
151.3669301713
 20
26.7130434783
 11
151.3669301713
 21
102.2130434783
  0
LINE
  5
246
100
AcDbEntity
  8
1
100
AcDbLine
 62
7
  6
CONTINUOUS
 10
153.3669301713
 20
102.2130434783
 11
153.3669301713
 21
26.7130434783
  0
LINE
  5
247
100
AcDbEntity
  8
1
100
AcDbLine
 62
7
  6
CONTINUOUS
 10
154.6669301713
 20
223.7130434783
 11
154.6669301713
 21
224.2130434783
  0
LINE
  5
248
100
AcDbEntity
  8
1
100
AcDbLine
 62
7
  6
CONTINUOUS
 10
155.6669301713
 20
22.2130434783
 11
155.6669301713
 21
223.7130434783
  0
LINE
  5
249
100
AcDbEntity
  8
1
100
AcDbLine
 62
7
  6
CONTINUOUS
 10
155.6669301713
 20
224.2130434783
 11
155.6669301713
 21
239.2130434783
  0
LINE
  5
24A
100
AcDbEntity
  8
1
100
AcDbLine
 62
7
  6
CONTINUOUS
 10
116.3669301713
 20
218.5130434783
 11
49.9669301713
 21
218.5130434783
  0
LINE
  5
24B
100
AcDbEntity
  8
1
100
AcDbLine
 62
7
  6
CONTINUOUS
 10
49.9669301713
 20
220.0130434783
 11
116.3669301713
 21
220.0130434783
  0
LINE
  5
24C
100
AcDbEntity
  8
1
100
AcDbLine
 62
7
  6
CONTINUOUS
 10
45.6669301713
 20
223.7130434783
 11
155.6669301713
 21
223.7130434783
  0
LINE
  5
24D
100
AcDbEntity
  8
1
100
AcDbLine
 62
7
  6
CONTINUOUS
 10
155.6669301713
 20
224.2130434783
 11
45.6669301713
 21
224.2130434783
  0
LINE
  5
24E
100
AcDbEntity
  8
1
100
AcDbLine
 62
7
  6
CONTINUOUS
 10
45.6669301713
 20
239.2130434783
 11
155.6669301713
 21
239.2130434783
  0
LINE
  5
24F
100
AcDbEntity
  8
1
100
AcDbLine
 62
7
  6
CONTINUOUS
 10
72.6669301713
 20
242.1606862589
 11
70.6669301713
 21
242.1606862589
  0
LINE
  5
250
100
AcDbEntity
  8
1
100
AcDbLine
 62
7
  6
CONTINUOUS
 10
120.7169301713
 20
241.9532358571
 11
121.4669301713
 21
241.5202231552
  0
LINE
  5
251
100
AcDbEntity
  8
1
100
AcDbLine
 62
7
  6
CONTINUOUS
 10
122.4669301713
 20
243.8522739628
 11
121.4669301713
 21
243.8522739628
  0
LINE
  5
252
100
AcDbEntity
  8
1
100
AcDbLine
 62
7
  6
CONTINUOUS
 10
74.8669301713
 20
243.8522739628
 11
73.8669301713
 21
243.8522739628
  0
LINE
  5
253
100
AcDbEntity
  8
1
100
AcDbLine
 62
7
  6
CONTINUOUS
 10
70.6669301713
 20
245.2654006976
 11
72.6669301713
 21
245.2654006976
  0
LINE
  5
254
100
AcDbEntity
  8
1
100
AcDbLine
 62
7
  6
CONTINUOUS
 10
72.6669301713
 20
248.2130434783
 11
70.6669301713
 21
248.2130434783
  0
LINE
  5
255
100
AcDbEntity
  8
1
100
AcDbLine
 62
7
  6
CONTINUOUS
 10
80.8869301713
 20
256.2130434783
 11
84.7869301713
 21
256.2130434783
  0
ARC
  5
256
100
AcDbEntity
  8
1
100
AcDbCircle
 62
7
  6
CONTINUOUS
 10
52.6669301713
 20
103.5130434783
 40
7.0
100
AcDbArc
 50
90.0
 51
180.0
  0
ARC
  5
257
100
AcDbEntity
  8
1
100
AcDbCircle
 62
7
  6
CONTINUOUS
 10
148.6669301713
 20
103.5130434783
 40
7.0
100
AcDbArc
 50
0.0
 51
90.0
  0
ARC
  5
258
100
AcDbEntity
  8
1
100
AcDbCircle
 62
7
  6
CONTINUOUS
 10
80.8869301713
 20
253.2130434783
 40
3.0
100
AcDbArc
 50
90.0
 51
180.0
  0
ARC
  5
259
100
AcDbEntity
  8
1
100
AcDbCircle
 62
7
  6
CONTINUOUS
 10
74.8869301713
 20
242.2130434783
 40
3.0
100
AcDbArc
 50
270.0
 51
360.0
  0
ARC
  5
25A
100
AcDbEntity
  8
1
100
AcDbCircle
 62
7
  6
CONTINUOUS
 10
120.8669301713
 20
242.2130434783
 40
0.3
100
AcDbArc
 50
149.9999999912
 51
239.9999999996
  0
ARC
  5
25B
100
AcDbEntity
  8
1
100
AcDbCircle
 62
7
  6
CONTINUOUS
 10
75.4669301713
 20
242.2130434783
 40
0.3
100
AcDbArc
 50
300.0000000004
 51
29.9999999997
  0
SPLINE
  5
25C
100
AcDbEntity
  8
1
100
AcDbSpline
 62
7
  6
CONTINUOUS
 70
0
 71
3
 72
11
 73
7
 74
0
 42
0.0000001
 43
0.0000001
 44
0.0000000001
 40
0.0
 40
0.0
 40
0.0
 40
0.0
 40
0.2856356536
 40
0.5555286805
 40
0.7961578319
 40
1.0
 40
1.0
 40
1.0
 40
1.0
 10
72.8517733116
 20
242.1606862589
 30
0.0
 10
72.8526467807
 20
241.926549994
 30
0.0
 10
72.8652178374
 20
241.4711618298
 30
0.0
 10
72.9222596694
 20
240.8203072735
 30
0.0
 10
73.0273800506
 20
240.2435156668
 30
0.0
 10
73.1496439125
 20
239.8963136195
 30
0.0
 10
73.2286663959
 20
239.7490896971
 30
0.0
  0
SPLINE
  5
25D
100
AcDbEntity
  8
1
100
AcDbSpline
 62
7
  6
CONTINUOUS
 70
0
 71
3
 72
9
 73
5
 74
0
 42
0.0000001
 43
0.0000001
 44
0.0000000001
 40
0.0
 40
0.0
 40
0.0
 40
0.0
 40
0.2238025826
 40
1.0
 40
1.0
 40
1.0
 40
1.0
 10
72.6735287448
 20
239.2397270622
 30
0.0
 10
72.6723920793
 20
239.2420248877
 30
0.0
 10
72.6681161735
 20
239.2526959303
 30
0.0
 10
72.6669301713
 20
239.2643758053
 30
0.0
 10
72.6669301713
 20
239.2732669202
 30
0.0
  0
SPLINE
  5
25E
100
AcDbEntity
  8
1
100
AcDbSpline
 62
7
  6
CONTINUOUS
 70
0
 71
3
 72
11
 73
7
 74
0
 42
0.0000001
 43
0.0000001
 44
0.0000000001
 40
0.0
 40
0.0
 40
0.0
 40
0.0
 40
0.1733089128
 40
0.4109245562
 40
0.6937140717
 40
1.0
 40
1.0
 40
1.0
 40
1.0
 10
72.6669301713
 20
247.8945488259
 30
0.0
 10
72.6669301713
 20
247.7422822018
 30
0.0
 10
72.6997916028
 20
247.3820015614
 30
0.0
 10
72.7640349473
 20
246.7762979532
 30
0.0
 10
72.8229572952
 20
246.0520747345
 30
0.0
 10
72.8393970894
 20
245.5344971843
 30
0.0
 10
72.8403699374
 20
245.2654006976
 30
0.0
  0
ELLIPSE
  5
25F
100
AcDbEntity
  8
1
100
AcDbEllipse
 62
7
  6
CONTINUOUS
 10
80.6669301713
 20
239.2130434783
 30
0.0
 11
-1.7605104184
 21
458.3196920659
 31
0.0
 40
0.0170271624
 41
1.5575250017
 42
1.5642994652
  0
ENDSEC
  0
SECTION
  2
OBJECTS
  0
DICTIONARY
  5
C
100
AcDbDictionary
280
0
281
1
  3
ACAD_GROUP
350
D
  3
ACAD_MLINESTYLE
350
17
  3
ACAD_LAYOUT
350
1A
  3
ACAD_PLOTSETTINGS
350
19
  3
ACAD_PLOTSTYLENAME
350
E
  0
DICTIONARY
  5
D
102
{ACAD_REACTORS
330
C
102
}
100
AcDbDictionary
280
0
281
1
  0
ACDBDICTIONARYWDFLT
  5
E
102
{ACAD_REACTORS
330
C
102
}
100
AcDbDictionary
281
1
  3
Normal
350
F
100
AcDbDictionaryWithDefault
340
F
  0
DICTIONARY
  5
17
102
{ACAD_REACTORS
330
C
102
}
100
AcDbDictionary
280
0
281
1
  3
Standard
350
18
  0
DICTIONARY
  5
19
102
{ACAD_REACTORS
330
C
102
}
100
AcDbDictionary
281
1
  0
DICTIONARY
  5
1A
102
{ACAD_REACTORS
330
C
102
}
100
AcDbDictionary
281
1
  3
Model
350
260
  3
Layout1
350
261
  0
ACDBPLACEHOLDER
  5
F
102
{ACAD_REACTORS
330
E
102
}
  0
MLINESTYLE
  5
18
102
{ACAD_REACTORS
330
17
102
}
100
AcDbMlineStyle
  2
STANDARD
 70
0
  3

 62
256
 51
90.0
 52
90.0
 71
2
 49
0.5
 62
256
  6
BYLAYER
 49
-0.5
 62
256
  6
BYLAYER
  0
LAYOUT
  5
260
102
{ACAD_REACTORS
330
1A
102
}
100
AcDbPlotSettings
  1

  2
none_device
  4

  6

 40
0.0
 41
0.0
 42
0.0
 43
0.0
 44
210.0
 45
297.0
 46
0.0
 47
0.0
 48
0.0
 49
0.0
140
0.0
141
0.0
142
1.0
143
1.0
 70
1024
 72
1
 73
0
 74
0
  7

 75
0
147
1.0
148
0.0
149
0.0
100
AcDbLayout
  1
Model
 70
0
 71
0
 10
0.0
 20
0.0
 11
210.0
 21
297.0
 12
0.0
 22
0.0
 32
0.0
 14
0.0
 24
0.0
 34
0.0
 15
0.0
 25
0.0
 35
0.0
146
0.0
 13
0.0
 23
0.0
 33
0.0
 16
1.0
 26
0.0
 36
0.0
 17
0.0
 27
1.0
 37
0.0
 76
0
330
212
345
0
346
0
  0
LAYOUT
  5
261
102
{ACAD_REACTORS
330
1A
102
}
100
AcDbPlotSettings
  1

  2
none_device
  4

  6

 40
0.0
 41
0.0
 42
0.0
 43
0.0
 44
210.0
 45
297.0
 46
0.0
 47
0.0
 48
0.0
 49
0.0
140
0.0
141
0.0
142
1.0
143
1.0
 70
0
 72
1
 73
0
 74
0
  7

 75
0
147
1.0
148
0.0
149
0.0
100
AcDbLayout
  1
Layout1
 70
0
 71
1
 10
0.0
 20
0.0
 11
210.0
 21
297.0
 12
0.0
 22
0.0
 32
0.0
 14
0.0
 24
0.0
 34
0.0
 15
0.0
 25
0.0
 35
0.0
146
0.0
 13
0.0
 23
0.0
 33
0.0
 16
1.0
 26
0.0
 36
0.0
 17
0.0
 27
1.0
 37
0.0
 76
0
330
213
345
0
346
0
  0
ENDSEC
  0
EOF
