999
DXF file: C:\Users\sesa63760\OneDrive - Schneider Electric\Documents\7-Dev\_Creo\CAD\MCADPP0000311_3D-CAD\drw0001_1.dxf
999
Pro/ENGINEER 2019471 by Parametric Technology Corporation
  0
SECTION
  2
HEADER
  9
$ACADVER
  1
AC1024
  9
$DWGCODEPAGE
  3
ANSI_1252
  9
$EXTMAX
 10
604.599707281
 20
855.0767288689
 30
0.0
  9
$EXTMIN
 10
0.0
 20
0.0
 30
0.0
  9
$LIMMIN
 10
0.0
 20
0.0
  9
$LIMMAX
 10
604.599707281
 20
855.0767288689
  9
$VIEWCTR
 10
302.2998536405
 20
427.5383644345
  9
$VIEWSIZE
 40
855.0767288689
  9
$CLAYER
  8
0
  9
$LTSCALE
 40
55.7383349189
  9
$CELTYPE
  6
BYLAYER
  9
$DIMSCALE
 40
1.0
  9
$DIMASZ
 40
7.1976155629
  9
$DIMEXO
 40
1.0
  9
$DIMDLI
 40
38.5101223076
  9
$DIMEXE
 40
1.0
  9
$DIMCEN
 40
9.1208184413
  9
$DIMLFAC
 40
1.0
  9
$DIMBLK
  1
_FILLED
  9
$DIMALT
 70
0
  9
$DIMALTF
 40
0.0393700787
  9
$DIMTXT
 40
10.076661788
  9
$DIMTOL
 70
1
  9
$DIMLIM
 70
0
  9
$DIMTFAC
 40
1.0
  9
$DIMTP
 40
0.01
  9
$DIMTM
 40
0.01
  9
$DIMGAP
 40
0.625
  9
$DIMDSEP
 70
46
  9
$AUNITS
 70
0
  9
$PDMODE
 70
3
  9
$PDSIZE
 40
0.3125
  9
$HANDSEED
  5
324
  9
$TILEMODE
 70
1
  9
$MEASUREMENT
 70
1
  9
$INSUNITS
 70
4
  0
ENDSEC
  0
SECTION
  2
CLASSES
  0
CLASS
  1
ACDBDICTIONARYWDFLT
  2
AcDbDictionaryWithDefault
  3
AutoCAD 2000
 90
0
 91
1
280
0
281
0
  0
CLASS
  1
ACDBPLACEHOLDER
  2
AcDbPlaceHolder
  3
AutoCAD 2000
 90
0
 91
1
280
0
281
0
  0
CLASS
  1
LAYOUT
  2
AcDbLayout
  3
AutoCAD 2000
 90
0
 91
0
280
0
281
0
  0
ENDSEC
  0
SECTION
  2
TABLES
  0
TABLE
  2
VPORT
  5
8
100
AcDbSymbolTable
 70
2
  0
VPORT
  5
1F4
100
AcDbSymbolTableRecord
100
AcDbViewportTableRecord
  2
*ACTIVE
 70
0
 10
0.0
 20
0.0
 11
1.0
 21
1.0
 12
302.2998536405
 22
427.5383644345
 13
0.0
 23
0.0
 14
1.0
 24
1.0
 15
0.0
 25
0.0
 16
0.0
 26
0.0
 36
1.0
 17
0.0
 27
0.0
 37
0.0
 40
855.0767288689
 41
0.7070707071
 42
50.0
 43
0.0
 44
0.0
 50
0.0
 51
0.0
 71
0
 72
100
 73
1
 74
1
 75
0
 76
0
 77
0
 78
0
  0
ENDTAB
  0
TABLE
  2
LTYPE
  5
5
100
AcDbSymbolTable
 70
6
  0
LTYPE
  5
14
100
AcDbSymbolTableRecord
100
AcDbLinetypeTableRecord
  2
BYBLOCK
 70
0
  3

 72
65
 73
0
 40
0.0
  0
LTYPE
  5
15
100
AcDbSymbolTableRecord
100
AcDbLinetypeTableRecord
  2
BYLAYER
 70
0
  3

 72
65
 73
0
 40
0.0
  0
LTYPE
  5
16
100
AcDbSymbolTableRecord
100
AcDbLinetypeTableRecord
  2
CONTINUOUS
 70
64
  3
Solid line
 72
65
 73
0
 40
0.0
  0
LTYPE
  5
1F5
100
AcDbSymbolTableRecord
100
AcDbLinetypeTableRecord
  2
CENTER
 70
64
  3
____ _ ____ _ ____ _ ____ _ ____ _ ____ _ ____
 72
65
 73
4
 40
0.6
 49
0.375
 74
0
 49
-0.075
 74
0
 49
0.075
 74
0
 49
-0.075
 74
0
  0
LTYPE
  5
1F6
100
AcDbSymbolTableRecord
100
AcDbLinetypeTableRecord
  2
HIDDEN
 70
64
  3
- - - - - - - - - - - - - - - - - - - -
 72
65
 73
2
 40
0.2
 49
0.1
 74
0
 49
-0.1
 74
0
  0
LTYPE
  5
1F7
100
AcDbSymbolTableRecord
100
AcDbLinetypeTableRecord
  2
PHANTOM
 70
64
  3
_____ _ _ _____ _ _ _____ _ _ _____
 72
65
 73
6
 40
0.8
 49
0.45
 74
0
 49
-0.05
 74
0
 49
0.1
 74
0
 49
-0.05
 74
0
 49
0.1
 74
0
 49
-0.05
 74
0
  0
LTYPE
  5
1F8
100
AcDbSymbolTableRecord
100
AcDbLinetypeTableRecord
  2
DOT
 70
64
  3
. . . . . . . . . . . . . . . . . . . .
 72
65
 73
2
 40
0.2
 49
0.1
 74
0
 49
-0.1
 74
0
  0
LTYPE
  5
1F9
100
AcDbSymbolTableRecord
100
AcDbLinetypeTableRecord
  2
DASHED
 70
64
  3
- - - - - - - - - - - - - - - - - - - -
 72
65
 73
2
 40
0.2
 49
0.1
 74
0
 49
-0.1
 74
0
  0
ENDTAB
  0
TABLE
  2
LAYER
  5
2
100
AcDbSymbolTable
 70
36
  0
LAYER
  5
10
100
AcDbSymbolTableRecord
100
AcDbLayerTableRecord
  2
0
 70
0
 62
7
  6
CONTINUOUS
370
-3
390
F
  0
LAYER
  5
1FA
100
AcDbSymbolTableRecord
100
AcDbLayerTableRecord
  2
DEFAULT_1
 70
0
 62
7
  6
CENTER
370
-3
390
F
  0
LAYER
  5
1FB
100
AcDbSymbolTableRecord
100
AcDbLayerTableRecord
  2
DEFAULT_2
 70
0
 62
8
  6
HIDDEN
370
-3
390
F
  0
LAYER
  5
1FC
100
AcDbSymbolTableRecord
100
AcDbLayerTableRecord
  2
DEFAULT_3
 70
0
 62
7
  6
PHANTOM
370
-3
390
F
  0
LAYER
  5
1FD
100
AcDbSymbolTableRecord
100
AcDbLayerTableRecord
  2
00_COMPONENTS
 70
0
 62
7
  6
CONTINUOUS
370
-3
390
F
  0
LAYER
  5
1FE
100
AcDbSymbolTableRecord
100
AcDbLayerTableRecord
  2
01_1_DEFAULT_DATUMS
 70
0
 62
7
  6
CONTINUOUS
370
-3
390
F
  0
LAYER
  5
1FF
100
AcDbSymbolTableRecord
100
AcDbLayerTableRecord
  2
01_PLANES
 70
0
 62
7
  6
CONTINUOUS
370
-3
390
F
  0
LAYER
  5
200
100
AcDbSymbolTableRecord
100
AcDbLayerTableRecord
  2
02_COORD_SYS
 70
0
 62
7
  6
CONTINUOUS
370
-3
390
F
  0
LAYER
  5
201
100
AcDbSymbolTableRecord
100
AcDbLayerTableRecord
  2
03_AXES
 70
0
 62
7
  6
CONTINUOUS
370
-3
390
F
  0
LAYER
  5
202
100
AcDbSymbolTableRecord
100
AcDbLayerTableRecord
  2
04_POINTS
 70
0
 62
7
  6
CONTINUOUS
370
-3
390
F
  0
LAYER
  5
203
100
AcDbSymbolTableRecord
100
AcDbLayerTableRecord
  2
05_CURVES
 70
0
 62
7
  6
CONTINUOUS
370
-3
390
F
  0
LAYER
  5
204
100
AcDbSymbolTableRecord
100
AcDbLayerTableRecord
  2
06_SURFS
 70
0
 62
7
  6
CONTINUOUS
370
-3
390
F
  0
LAYER
  5
205
100
AcDbSymbolTableRecord
100
AcDbLayerTableRecord
  2
07_COSMETICS
 70
0
 62
7
  6
CONTINUOUS
370
-3
390
F
  0
LAYER
  5
206
100
AcDbSymbolTableRecord
100
AcDbLayerTableRecord
  2
10_NOTES
 70
0
 62
7
  6
CONTINUOUS
370
-3
390
F
  0
LAYER
  5
207
100
AcDbSymbolTableRecord
100
AcDbLayerTableRecord
  2
11_NOTES_PUB
 70
0
 62
7
  6
CONTINUOUS
370
-3
390
F
  0
LAYER
  5
208
100
AcDbSymbolTableRecord
100
AcDbLayerTableRecord
  2
13_REF_GTOL
 70
0
 62
7
  6
CONTINUOUS
370
-3
390
F
  0
LAYER
  5
209
100
AcDbSymbolTableRecord
100
AcDbLayerTableRecord
  2
16_MISC
 70
0
 62
7
  6
CONTINUOUS
370
-3
390
F
  0
LAYER
  5
20A
100
AcDbSymbolTableRecord
100
AcDbLayerTableRecord
  2
17_NO_PRINT
 70
0
 62
7
  6
CONTINUOUS
370
-3
390
F
  0
LAYER
  5
20B
100
AcDbSymbolTableRecord
100
AcDbLayerTableRecord
  2
18_DATUM_CAMS_JOINTS
 70
0
 62
7
  6
CONTINUOUS
370
-3
390
F
  0
LAYER
  5
20C
100
AcDbSymbolTableRecord
100
AcDbLayerTableRecord
  2
19_DATUM_FUNCTIONAL
 70
0
 62
7
  6
CONTINUOUS
370
-3
390
F
  0
LAYER
  5
20D
100
AcDbSymbolTableRecord
100
AcDbLayerTableRecord
  2
20_DATUM_KINEMATIC_SCHEME
 70
0
 62
7
  6
CONTINUOUS
370
-3
390
F
  0
ENDTAB
  0
TABLE
  2
STYLE
  5
3
100
AcDbSymbolTable
 70
1
  0
STYLE
  5
11
100
AcDbSymbolTableRecord
100
AcDbTextStyleTableRecord
  2
STANDARD
 70
0
 40
0.0
 41
0.8
 50
0.0
 71
0
 42
0.2
  3
txt
  4

  0
STYLE
  5
20E
100
AcDbSymbolTableRecord
100
AcDbTextStyleTableRecord
  2
TEXTSTYLE_1
 70
0
 40
0.0
 41
0.8
 50
0.0
 71
0
 42
0.2
  3
gdt
  4

  0
ENDTAB
  0
TABLE
  2
VIEW
  5
6
100
AcDbSymbolTable
 70
0
  0
ENDTAB
  0
TABLE
  2
UCS
  5
7
100
AcDbSymbolTable
 70
0
  0
ENDTAB
  0
TABLE
  2
APPID
  5
9
100
AcDbSymbolTable
 70
1
  0
APPID
  5
20F
100
AcDbSymbolTableRecord
100
AcDbRegAppTableRecord
  2
ACAD
 70
0
  0
ENDTAB
  0
TABLE
  2
BLOCK_RECORD
  5
1
100
AcDbSymbolTable
 70
0
  0
BLOCK_RECORD
  5
210
100
AcDbSymbolTableRecord
100
AcDbBlockTableRecord
  2
*Model_Space
  0
BLOCK_RECORD
  5
211
100
AcDbSymbolTableRecord
100
AcDbBlockTableRecord
  2
*Paper_Space
  0
BLOCK_RECORD
  5
212
100
AcDbSymbolTableRecord
100
AcDbBlockTableRecord
  2
_FILLED
  0
ENDTAB
  0
TABLE
  2
DIMSTYLE
  5
A
100
AcDbSymbolTable
 70
1
100
AcDbDimStyleTable
 71
0
  0
DIMSTYLE
105
213
100
AcDbSymbolTableRecord
100
AcDbDimStyleTableRecord
  2
STANDARD
 70
0
  3

  4

 40
1.0
 41
7.1976155629
 42
1.0
 43
0.38
 44
1.0
 45
0.0
 46
0.0
 47
0.01
 48
0.01
140
10.076661788
141
0.09
142
0.0
143
25.4
144
1.0
145
0.0
146
1.0
147
0.625
 71
1
 72
0
 73
0
 74
0
 75
0
 76
0
 77
1
 78
8
 79
2
170
0
171
1
172
0
173
0
174
0
175
0
176
0
177
0
178
0
270
2
179
2
271
2
272
2
273
2
274
2
275
0
280
0
281
0
282
0
283
1
284
8
285
0
286
0
287
3
288
0
340
11
278
46
341
212
342
212
343
212
344
212
  0
ENDTAB
  0
ENDSEC
  0
SECTION
  2
BLOCKS
  0
BLOCK
  5
20
100
AcDbEntity
  8
0
100
AcDbBlockBegin
  2
*Model_Space
 70
0
 10
0.0
 20
0.0
 30
0.0
  3
*Model_Space
  1

  0
ENDBLK
  5
21
100
AcDbEntity
  8
0
100
AcDbBlockEnd
  0
BLOCK
  5
1C
100
AcDbEntity
  8
0
100
AcDbBlockBegin
  2
*Paper_Space
 70
0
 10
0.0
 20
0.0
 30
0.0
  3
*Paper_Space
  1

  0
ENDBLK
  5
1D
100
AcDbEntity
  8
0
100
AcDbBlockEnd
  0
BLOCK
  5
214
100
AcDbEntity
  8
0
100
AcDbBlockBegin
  2
_FILLED
 70
64
 10
0.0
 20
0.0
  3
_FILLED
  1

  0
SOLID
  5
215
100
AcDbEntity
  8
0
  6
BYBLOCK
 62
0
100
AcDbTrace
 10
0.0
 20
0.0
 11
-1.0
 21
0.25
 12
-1.0
 22
-0.25
 13
-1.0
 23
-0.25
  0
ENDBLK
  5
216
100
AcDbEntity
  8
0
  6
BYBLOCK
 62
0
100
AcDbBlockEnd
  0
ENDSEC
  0
SECTION
  2
ENTITIES
  0
LINE
  5
217
100
AcDbEntity
  8
0
100
AcDbLine
 62
7
  6
CONTINUOUS
 10
108.782091135
 20
265.8410793852
 11
139.3889370785
 21
248.1706084002
  0
LINE
  5
218
100
AcDbEntity
  8
0
100
AcDbLine
 62
7
  6
CONTINUOUS
 10
108.4207729812
 20
268.5698233107
 11
102.1347123262
 21
272.199000019
  0
LINE
  5
219
100
AcDbEntity
  8
0
100
AcDbLine
 62
7
  6
CONTINUOUS
 10
88.0565705406
 20
341.0278055184
 11
88.3972233142
 21
296.1503025117
  0
LINE
  5
21A
100
AcDbEntity
  8
0
100
AcDbLine
 62
7
  6
CONTINUOUS
 10
111.3147491434
 20
289.6700113997
 11
112.3001681553
 21
289.1491567586
  0
LINE
  5
21B
100
AcDbEntity
  8
0
100
AcDbLine
 62
7
  6
CONTINUOUS
 10
114.5454094009
 20
290.4112405157
 11
113.559990389
 21
290.9320951569
  0
LINE
  5
21C
100
AcDbEntity
  8
0
100
AcDbLine
 62
7
  6
CONTINUOUS
 10
116.4379162294
 20
304.4689844499
 11
119.5386920901
 21
302.8301153157
  0
LINE
  5
21D
100
AcDbEntity
  8
0
100
AcDbLine
 62
7
  6
CONTINUOUS
 10
138.9261445732
 20
309.1387661591
 11
108.3192986298
 21
326.8092371441
  0
LINE
  5
21E
100
AcDbEntity
  8
0
100
AcDbLine
 62
7
  6
CONTINUOUS
 10
110.4829539831
 20
328.0802199145
 11
88.0565705406
 21
341.0278055184
  0
LINE
  5
21F
100
AcDbEntity
  8
0
100
AcDbLine
 62
7
  6
CONTINUOUS
 10
139.3889370785
 20
248.1706084002
 11
138.9261445732
 21
309.1387661591
  0
LINE
  5
220
100
AcDbEntity
  8
0
100
AcDbLine
 62
7
  6
CONTINUOUS
 10
151.0240998028
 20
255.0053805507
 11
150.5613072975
 21
315.9735383096
  0
LINE
  5
221
100
AcDbEntity
  8
0
100
AcDbLine
 62
7
  6
CONTINUOUS
 10
150.5613072975
 20
315.9735383096
 11
97.5280779115
 21
346.5915948986
  0
LINE
  5
222
100
AcDbEntity
  8
0
100
AcDbLine
 62
7
  6
CONTINUOUS
 10
114.1926749838
 20
303.2069006927
 11
113.3839685237
 21
300.5406751317
  0
LINE
  5
223
100
AcDbEntity
  8
0
100
AcDbLine
 62
7
  6
CONTINUOUS
 10
113.3124709666
 20
300.3049547266
 11
110.3378577073
 21
290.4979477383
  0
LINE
  5
224
100
AcDbEntity
  8
0
100
AcDbLine
 62
7
  6
CONTINUOUS
 10
112.583098953
 20
291.7600314955
 11
116.4379162294
 21
304.4689844499
  0
LINE
  5
225
100
AcDbEntity
  8
0
100
AcDbLine
 62
7
  6
CONTINUOUS
 10
119.5386920901
 20
302.8301153157
 11
115.6838243884
 21
290.1209971051
  0
LINE
  5
226
100
AcDbEntity
  8
0
100
AcDbLine
 62
7
  6
CONTINUOUS
 10
437.4971213788
 20
599.7352151575
 11
433.9620060631
 21
597.6229751881
  0
LINE
  5
227
100
AcDbEntity
  8
0
100
AcDbLine
 62
7
  6
CONTINUOUS
 10
444.181339519
 20
608.0301386195
 11
437.4641088468
 21
604.0842770777
  0
LINE
  5
228
100
AcDbEntity
  8
0
100
AcDbLine
 62
7
  6
CONTINUOUS
 10
442.4552777033
 20
605.0470843786
 11
449.1725083755
 21
608.9929459205
  0
LINE
  5
229
100
AcDbEntity
  8
0
100
AcDbLine
 62
7
  6
CONTINUOUS
 10
94.0371865303
 20
313.8553776586
 11
97.056429334
 21
316.7026374897
  0
LINE
  5
22A
100
AcDbEntity
  8
0
100
AcDbLine
 62
7
  6
CONTINUOUS
 10
439.9092969866
 20
588.5592742339
 11
415.1634897765
 21
573.7735944482
  0
LINE
  5
22B
100
AcDbEntity
  8
0
100
AcDbLine
 62
7
  6
CONTINUOUS
 10
467.557672946
 20
590.5545375932
 11
474.2749036182
 21
594.500399135
  0
LINE
  5
22C
100
AcDbEntity
  8
0
100
AcDbLine
 62
7
  6
CONTINUOUS
 10
474.3042138102
 20
590.639082477
 11
467.586983138
 21
586.6932209351
  0
LINE
  5
22D
100
AcDbEntity
  8
0
100
AcDbLine
 62
7
  6
CONTINUOUS
 10
474.2752153349
 20
586.6762504252
 11
480.9924460071
 21
590.6221119671
  0
LINE
  5
22E
100
AcDbEntity
  8
0
100
AcDbLine
 62
7
  6
CONTINUOUS
 10
97.5280779115
 20
346.5915948986
 11
88.0565705406
 21
341.0278055184
  0
LINE
  5
22F
100
AcDbEntity
  8
0
100
AcDbLine
 62
7
  6
CONTINUOUS
 10
499.3776105776
 20
572.1837036397
 11
506.0948412499
 21
576.1295651816
  0
LINE
  5
230
100
AcDbEntity
  8
0
100
AcDbLine
 62
7
  6
CONTINUOUS
 10
506.1241514419
 20
572.2682485235
 11
499.4069207696
 21
568.3223869817
  0
LINE
  5
231
100
AcDbEntity
  8
0
100
AcDbLine
 62
7
  6
CONTINUOUS
 10
506.0951529665
 20
568.3054164718
 11
512.8123836388
 21
572.2512780137
  0
LINE
  5
232
100
AcDbEntity
  8
0
100
AcDbLine
 62
7
  6
CONTINUOUS
 10
128.2944807402
 20
272.3398257217
 11
125.2671810679
 21
269.4870320459
  0
LINE
  5
233
100
AcDbEntity
  8
0
100
AcDbLine
 62
7
  6
CONTINUOUS
 10
110.4829539831
 20
328.0802199145
 11
108.3192986298
 21
326.8092371441
  0
LINE
  5
234
100
AcDbEntity
  8
0
100
AcDbLine
 62
7
  6
CONTINUOUS
 10
101.5121941161
 20
319.3201118562
 11
97.0564065446
 21
316.7026759403
  0
LINE
  5
235
100
AcDbEntity
  8
0
100
AcDbLine
 62
7
  6
CONTINUOUS
 10
449.9483230734
 20
512.9580739675
 11
451.023079981
 21
513.5894118142
  0
LINE
  5
236
100
AcDbEntity
  8
0
100
AcDbLine
 62
7
  6
CONTINUOUS
 10
437.1962802668
 20
504.8463239424
 11
438.6104340925
 21
505.6770316354
  0
LINE
  5
237
100
AcDbEntity
  8
0
100
AcDbLine
 62
7
  6
CONTINUOUS
 10
94.0371865303
 20
313.8553776586
 11
101.3860637756
 21
317.9862917078
  0
LINE
  5
238
100
AcDbEntity
  8
0
100
AcDbLine
 62
7
  6
CONTINUOUS
 10
502.1379859696
 20
523.5599816422
 11
526.8837931797
 21
538.3456614279
  0
LINE
  5
239
100
AcDbEntity
  8
0
100
AcDbLine
 62
7
  6
CONTINUOUS
 10
532.7452346661
 20
540.5917417817
 11
536.2803499818
 21
542.703981751
  0
LINE
  5
23A
100
AcDbEntity
  8
0
100
AcDbLine
 62
7
  6
CONTINUOUS
 10
445.0703425462
 20
505.91745932
 11
451.7717239363
 21
509.8540106155
  0
LINE
  5
23B
100
AcDbEntity
  8
0
100
AcDbLine
 62
7
  6
CONTINUOUS
 10
447.7354886482
 20
507.4375494423
 11
445.6142579096
 21
506.1914879028
  0
LINE
  5
23C
100
AcDbEntity
  8
0
100
AcDbLine
 62
7
  6
CONTINUOUS
 10
531.1975482092
 20
553.8128696863
 11
537.9147788815
 21
557.7587312282
  0
LINE
  5
23D
100
AcDbEntity
  8
0
100
AcDbLine
 62
7
  6
CONTINUOUS
 10
431.4971086307
 20
495.1197587743
 11
439.9820315851
 21
500.1040049324
  0
LINE
  5
23E
100
AcDbEntity
  8
0
100
AcDbLine
 62
7
  6
CONTINUOUS
 10
447.6265407045
 20
504.5820390076
 11
448.9494834274
 21
505.3591671228
  0
LINE
  5
23F
100
AcDbEntity
  8
0
100
AcDbLine
 62
7
  6
CONTINUOUS
 10
451.5681946264
 20
505.5870728449
 11
453.689425365
 21
506.8331343844
  0
LINE
  5
240
100
AcDbEntity
  8
0
100
AcDbLine
 62
7
  6
CONTINUOUS
 10
455.1036448153
 20
506.0166528754
 11
452.9824140767
 21
504.7705913358
  0
LINE
  5
241
100
AcDbEntity
  8
0
100
AcDbLine
 62
7
  6
CONTINUOUS
 10
537.9440890735
 20
553.8974145701
 11
531.2268584012
 21
549.9515530283
  0
LINE
  5
242
100
AcDbEntity
  8
0
100
AcDbLine
 62
7
  6
CONTINUOUS
 10
452.997266477
 20
502.813940191
 11
455.1184972156
 21
504.0600017306
  0
LINE
  5
243
100
AcDbEntity
  8
0
100
AcDbLine
 62
7
  6
CONTINUOUS
 10
143.3131814251
 20
320.1581510646
 11
444.9086215176
 21
497.3225073794
  0
LINE
  5
244
100
AcDbEntity
  8
0
100
AcDbLine
 62
7
  6
CONTINUOUS
 10
452.0560107423
 20
500.8401321837
 11
452.3248640904
 21
500.9980630541
  0
LINE
  5
245
100
AcDbEntity
  8
0
100
AcDbLine
 62
7
  6
CONTINUOUS
 10
542.964568122
 20
550.998905213
 11
536.2473374498
 21
547.0530436712
  0
LINE
  5
246
100
AcDbEntity
  8
0
100
AcDbLine
 62
7
  6
CONTINUOUS
 10
459.907789794
 20
499.0325291199
 11
457.7865590554
 21
497.7864675804
  0
LINE
  5
247
100
AcDbEntity
  8
0
100
AcDbLine
 62
7
  6
CONTINUOUS
 10
458.9795493686
 20
498.4752078467
 11
461.1007801072
 21
499.7212693863
  0
LINE
  5
248
100
AcDbEntity
  8
0
100
AcDbLine
 62
7
  6
CONTINUOUS
 10
150.3842786766
 20
316.0757435194
 11
451.9797187691
 21
493.2400998342
  0
LINE
  5
249
100
AcDbEntity
  8
0
100
AcDbLine
 62
7
  6
CONTINUOUS
 10
150.5613072975
 20
315.9735383096
 11
138.9261445732
 21
309.1387661591
  0
LINE
  5
24A
100
AcDbEntity
  8
0
100
AcDbLine
 62
7
  6
CONTINUOUS
 10
462.1095107697
 20
497.9943031668
 11
459.9882800311
 21
496.7482416273
  0
LINE
  5
24B
100
AcDbEntity
  8
0
100
AcDbLine
 62
7
  6
CONTINUOUS
 10
461.1007801072
 20
499.7212693863
 11
459.907789794
 21
499.0325291199
  0
LINE
  5
24C
100
AcDbEntity
  8
0
100
AcDbLine
 62
7
  6
CONTINUOUS
 10
457.7865590554
 20
497.7864675804
 11
458.9795493686
 21
498.4752078467
  0
LINE
  5
24D
100
AcDbEntity
  8
0
100
AcDbLine
 62
7
  6
CONTINUOUS
 10
459.9882800311
 20
496.7482416273
 11
458.7952897179
 21
496.0595013609
  0
LINE
  5
24E
100
AcDbEntity
  8
0
100
AcDbLine
 62
7
  6
CONTINUOUS
 10
110.4805222262
 20
299.7676604684
 11
110.40860148
 21
299.7264045232
  0
LINE
  5
24F
100
AcDbEntity
  8
0
100
AcDbLine
 62
7
  6
CONTINUOUS
 10
82.6248598879
 20
290.4496335473
 11
86.6727604218
 21
292.7250191098
  0
LINE
  5
250
100
AcDbEntity
  8
0
100
AcDbLine
 62
7
  6
CONTINUOUS
 10
111.4527225409
 20
306.654207234
 11
115.5006230748
 21
308.9295927965
  0
LINE
  5
251
100
AcDbEntity
  8
0
100
AcDbLine
 62
7
  6
CONTINUOUS
 10
104.027778711
 20
298.3007306209
 11
70.1405221294
 21
279.2521957737
  0
LINE
  5
252
100
AcDbEntity
  8
0
100
AcDbLine
 62
7
  6
CONTINUOUS
 10
116.4379162294
 20
304.4689844499
 11
114.1926749838
 21
303.2069006927
  0
LINE
  5
253
100
AcDbEntity
  8
0
100
AcDbLine
 62
7
  6
CONTINUOUS
 10
113.3922753154
 20
300.3498139473
 11
112.8061354466
 21
300.0203359416
  0
LINE
  5
254
100
AcDbEntity
  8
0
100
AcDbLine
 62
7
  6
CONTINUOUS
 10
107.0708777889
 20
299.8886367934
 11
106.328888106
 21
299.4848618522
  0
LINE
  5
255
100
AcDbEntity
  8
0
100
AcDbLine
 62
7
  6
CONTINUOUS
 10
452.8922943105
 20
500.8849603597
 11
452.3010954618
 21
500.570722013
  0
LINE
  5
256
100
AcDbEntity
  8
0
100
AcDbLine
 62
7
  6
CONTINUOUS
 10
115.6733288784
 20
285.5510960234
 11
114.2471360771
 21
284.689477815
  0
LINE
  5
257
100
AcDbEntity
  8
0
100
AcDbLine
 62
7
  6
CONTINUOUS
 10
150.6214547356
 20
308.0497313122
 11
452.0414244364
 21
485.111012133
  0
LINE
  5
258
100
AcDbEntity
  8
0
100
AcDbLine
 62
7
  6
CONTINUOUS
 10
462.934808637
 20
490.6783268333
 11
460.8135778984
 21
489.4322652937
  0
LINE
  5
259
100
AcDbEntity
  8
0
100
AcDbLine
 62
7
  6
CONTINUOUS
 10
462.5155733794
 20
488.4496399745
 11
464.636804118
 21
489.6957015141
  0
LINE
  5
25A
100
AcDbEntity
  8
0
100
AcDbLine
 62
7
  6
CONTINUOUS
 10
464.6491452515
 20
488.0698839738
 11
462.5279145129
 21
486.8238224343
  0
LINE
  5
25B
100
AcDbEntity
  8
0
100
AcDbLine
 62
7
  6
CONTINUOUS
 10
443.5320784742
 20
474.6320483683
 11
452.0170014286
 21
479.6162945265
  0
LINE
  5
25C
100
AcDbEntity
  8
0
100
AcDbLine
 62
7
  6
CONTINUOUS
 10
461.0121477098
 20
484.7076547764
 11
459.5770060673
 21
483.8646183391
  0
LINE
  5
25D
100
AcDbEntity
  8
0
100
AcDbLine
 62
7
  6
CONTINUOUS
 10
460.1049117503
 20
481.3832109174
 11
462.2261424889
 21
482.6292724569
  0
LINE
  5
25E
100
AcDbEntity
  8
0
100
AcDbLine
 62
7
  6
CONTINUOUS
 10
459.6575494495
 20
481.0849525042
 11
466.3589308396
 21
485.0215037996
  0
LINE
  5
25F
100
AcDbEntity
  8
0
100
AcDbLine
 62
7
  6
CONTINUOUS
 10
454.8027527469
 20
474.8739755165
 11
456.2169065726
 21
475.7046832095
  0
LINE
  5
260
100
AcDbEntity
  8
0
100
AcDbLine
 62
7
  6
CONTINUOUS
 10
468.1823317025
 20
481.9174404476
 11
469.2570886101
 21
482.5487782943
  0
LINE
  5
261
100
AcDbEntity
  8
0
100
AcDbLine
 62
7
  6
CONTINUOUS
 10
116.8254306897
 20
288.4800992946
 11
116.8971943115
 21
288.5212575962
  0
LINE
  5
262
100
AcDbEntity
  8
0
100
AcDbLine
 62
7
  6
CONTINUOUS
 10
110.3378577073
 20
290.4979477383
 11
112.583098953
 21
291.7600314955
  0
LINE
  5
263
100
AcDbEntity
  8
0
100
AcDbLine
 62
7
  6
CONTINUOUS
 10
113.559990389
 20
290.9320951569
 11
111.3147491434
 21
289.6700113997
  0
LINE
  5
264
100
AcDbEntity
  8
0
100
AcDbLine
 62
7
  6
CONTINUOUS
 10
112.3001681553
 20
289.1491567586
 11
114.5454094009
 21
290.4112405158
  0
LINE
  5
265
100
AcDbEntity
  8
0
100
AcDbLine
 62
7
  6
CONTINUOUS
 10
115.6838243884
 20
290.1209971051
 11
113.4385831428
 21
288.8589133479
  0
LINE
  5
266
100
AcDbEntity
  8
0
100
AcDbLine
 62
7
  6
CONTINUOUS
 10
118.320672279
 20
290.497285714
 11
118.9068121478
 21
290.8267637197
  0
LINE
  5
267
100
AcDbEntity
  8
0
100
AcDbLine
 62
7
  6
CONTINUOUS
 10
112.5407014814
 20
283.5830685101
 11
78.6680372686
 21
264.5427362521
  0
LINE
  5
268
100
AcDbEntity
  8
0
100
AcDbLine
 62
7
  6
CONTINUOUS
 10
127.3485458674
 20
288.4607132103
 11
123.2994018552
 21
286.18462867
  0
LINE
  5
269
100
AcDbEntity
  8
0
100
AcDbLine
 62
7
  6
CONTINUOUS
 10
98.5295361522
 20
272.2611158926
 11
94.48039214
 21
269.9850313524
  0
LINE
  5
26A
100
AcDbEntity
  8
0
100
AcDbLine
 62
7
  6
CONTINUOUS
 10
129.3697072995
 20
271.8969217565
 11
125.267194968
 21
269.4870081442
  0
LINE
  5
26B
100
AcDbEntity
  8
0
100
AcDbLine
 62
7
  6
CONTINUOUS
 10
128.2944807402
 20
272.3398257217
 11
120.9431055929
 21
268.2075075645
  0
LINE
  5
26C
100
AcDbEntity
  8
0
100
AcDbLine
 62
7
  6
CONTINUOUS
 10
97.056429334
 20
316.7026374897
 11
101.3860637756
 21
317.9862917078
  0
LINE
  5
26D
100
AcDbEntity
  8
0
100
AcDbLine
 62
7
  6
CONTINUOUS
 10
151.0240998028
 20
255.0053805507
 11
139.3889370785
 21
248.1706084002
  0
LINE
  5
26E
100
AcDbEntity
  8
0
100
AcDbLine
 62
7
  6
CONTINUOUS
 10
527.6427728883
 20
438.3578827033
 11
502.8931961977
 21
424.068793233
  0
LINE
  5
26F
100
AcDbEntity
  8
0
100
AcDbLine
 62
7
  6
CONTINUOUS
 10
125.2671810679
 20
269.4870320459
 11
120.9431055929
 21
268.2075075645
  0
LINE
  5
270
100
AcDbEntity
  8
0
100
AcDbLine
 62
7
  6
CONTINUOUS
 10
502.8931961977
 20
424.068793233
 11
424.8396231848
 21
469.1320251567
  0
LINE
  5
271
100
AcDbEntity
  8
0
100
AcDbLine
 62
7
  6
CONTINUOUS
 10
415.8732767496
 20
480.266453201
 11
415.1634897765
 21
573.7735944482
  0
LINE
  5
272
100
AcDbEntity
  8
0
100
AcDbLine
 62
7
  6
CONTINUOUS
 10
543.8498996846
 20
434.3655678798
 11
533.5965036271
 21
428.4458022421
  0
LINE
  5
273
100
AcDbEntity
  8
0
100
AcDbLine
 62
7
  6
CONTINUOUS
 10
533.5965036271
 20
428.4458022421
 11
522.0353772674
 21
435.1204706569
  0
LINE
  5
274
100
AcDbEntity
  8
0
100
AcDbLine
 62
7
  6
CONTINUOUS
 10
433.9620060631
 20
597.6229751881
 11
434.0573475015
 21
585.0627202329
  0
LINE
  5
275
100
AcDbEntity
  8
0
100
AcDbLine
 62
7
  6
CONTINUOUS
 10
437.4971213788
 20
599.7352151575
 11
437.4641088468
 21
604.0842770777
  0
LINE
  5
276
100
AcDbEntity
  8
0
100
AcDbLine
 62
7
  6
CONTINUOUS
 10
442.4845878953
 20
601.1857677206
 11
442.4552777033
 21
605.0470843786
  0
LINE
  5
277
100
AcDbEntity
  8
0
100
AcDbLine
 62
7
  6
CONTINUOUS
 10
460.8259190319
 20
487.8064477535
 11
462.5279145129
 21
486.8238224343
  0
LINE
  5
278
100
AcDbEntity
  8
0
100
AcDbLine
 62
7
  6
CONTINUOUS
 10
444.9086215176
 20
497.3225073794
 11
451.9797187691
 21
493.2400998342
  0
LINE
  5
279
100
AcDbEntity
  8
0
100
AcDbLine
 62
7
  6
CONTINUOUS
 10
462.5155733794
 20
488.4496399745
 11
460.8135778984
 21
489.4322652937
  0
LINE
  5
27A
100
AcDbEntity
  8
0
100
AcDbLine
 62
7
  6
CONTINUOUS
 10
464.636804118
 20
489.6957015141
 11
462.934808637
 21
490.6783268332
  0
LINE
  5
27B
100
AcDbEntity
  8
0
100
AcDbLine
 62
7
  6
CONTINUOUS
 10
451.0450324062
 20
501.9514533901
 11
453.7195450666
 21
500.4073577178
  0
LINE
  5
27C
100
AcDbEntity
  8
0
100
AcDbLine
 62
7
  6
CONTINUOUS
 10
451.5681946264
 20
505.5870728449
 11
451.5830470267
 21
503.6304217001
  0
LINE
  5
27D
100
AcDbEntity
  8
0
100
AcDbLine
 62
7
  6
CONTINUOUS
 10
451.9797187691
 20
493.2400998342
 11
452.0414244364
 21
485.111012133
  0
LINE
  5
27E
100
AcDbEntity
  8
0
100
AcDbLine
 62
7
  6
CONTINUOUS
 10
452.3248640904
 20
500.9980630541
 11
452.3232287444
 21
501.2135030848
  0
LINE
  5
27F
100
AcDbEntity
  8
0
100
AcDbLine
 62
7
  6
CONTINUOUS
 10
452.997266477
 20
502.813940191
 11
452.9824140767
 21
504.7705913358
  0
LINE
  5
280
100
AcDbEntity
  8
0
100
AcDbLine
 62
7
  6
CONTINUOUS
 10
453.7195450666
 20
500.4073577178
 11
453.7302298949
 21
498.9997413643
  0
LINE
  5
281
100
AcDbEntity
  8
0
100
AcDbLine
 62
7
  6
CONTINUOUS
 10
455.1184972156
 20
504.0600017306
 11
455.1036448153
 21
506.0166528754
  0
LINE
  5
282
100
AcDbEntity
  8
0
100
AcDbLine
 62
7
  6
CONTINUOUS
 10
445.6142579096
 20
506.1914879028
 11
446.1328347517
 21
505.3036744142
  0
LINE
  5
283
100
AcDbEntity
  8
0
100
AcDbLine
 62
7
  6
CONTINUOUS
 10
459.5889120827
 20
482.2666122337
 11
460.1049117503
 21
481.3832109174
  0
LINE
  5
284
100
AcDbEntity
  8
0
100
AcDbLine
 62
7
  6
CONTINUOUS
 10
462.2261424889
 20
482.6292724569
 11
461.0121477098
 21
484.7076547764
  0
LINE
  5
285
100
AcDbEntity
  8
0
100
AcDbLine
 62
7
  6
CONTINUOUS
 10
448.9494834274
 20
505.3591671228
 11
447.7354886482
 21
507.4375494423
  0
LINE
  5
286
100
AcDbEntity
  8
0
100
AcDbLine
 62
7
  6
CONTINUOUS
 10
467.586983138
 20
586.6932209351
 11
467.557672946
 21
590.5545375932
  0
LINE
  5
287
100
AcDbEntity
  8
0
100
AcDbLine
 62
7
  6
CONTINUOUS
 10
474.3045255269
 20
582.8149337671
 11
474.2752153349
 21
586.6762504252
  0
LINE
  5
288
100
AcDbEntity
  8
0
100
AcDbLine
 62
7
  6
CONTINUOUS
 10
474.3042138102
 20
590.639082477
 11
474.2749036182
 21
594.500399135
  0
LINE
  5
289
100
AcDbEntity
  8
0
100
AcDbLine
 62
7
  6
CONTINUOUS
 10
528.2758029335
 20
439.3406285188
 11
527.6412799746
 21
438.5545587378
  0
LINE
  5
28A
100
AcDbEntity
  8
0
100
AcDbLine
 62
7
  6
CONTINUOUS
 10
502.1379859696
 20
523.5599816422
 11
415.1634897765
 21
573.7735944482
  0
LINE
  5
28B
100
AcDbEntity
  8
0
100
AcDbLine
 62
7
  6
CONTINUOUS
 10
499.4069207696
 20
568.3223869817
 11
499.3776105776
 21
572.1837036397
  0
LINE
  5
28C
100
AcDbEntity
  8
0
100
AcDbLine
 62
7
  6
CONTINUOUS
 10
502.8931961977
 20
424.068793233
 11
502.1379859696
 21
523.5599816422
  0
LINE
  5
28D
100
AcDbEntity
  8
0
100
AcDbLine
 62
7
  6
CONTINUOUS
 10
506.1244631585
 20
564.4440998137
 11
506.0951529665
 21
568.3054164718
  0
LINE
  5
28E
100
AcDbEntity
  8
0
100
AcDbLine
 62
7
  6
CONTINUOUS
 10
506.1241514419
 20
572.2682485235
 11
506.0948412499
 21
576.1295651816
  0
LINE
  5
28F
100
AcDbEntity
  8
0
100
AcDbLine
 62
7
  6
CONTINUOUS
 10
527.6427728883
 20
438.3578827033
 11
526.8837931797
 21
538.3456614279
  0
LINE
  5
290
100
AcDbEntity
  8
0
100
AcDbLine
 62
7
  6
CONTINUOUS
 10
526.8837931797
 20
538.3456614279
 11
439.9092969866
 21
588.5592742339
  0
LINE
  5
291
100
AcDbEntity
  8
0
100
AcDbLine
 62
7
  6
CONTINUOUS
 10
532.7452346661
 20
540.5917417817
 11
433.9620060631
 21
597.6229751881
  0
LINE
  5
292
100
AcDbEntity
  8
0
100
AcDbLine
 62
7
  6
CONTINUOUS
 10
536.2803499818
 20
542.703981751
 11
437.4971213788
 21
599.7352151575
  0
LINE
  5
293
100
AcDbEntity
  8
0
100
AcDbLine
 62
7
  6
CONTINUOUS
 10
506.1244631585
 20
564.4440998137
 11
499.4069207696
 21
568.3223869817
  0
LINE
  5
294
100
AcDbEntity
  8
0
100
AcDbLine
 62
7
  6
CONTINUOUS
 10
474.3045255269
 20
582.8149337671
 11
467.586983138
 21
586.6932209351
  0
LINE
  5
295
100
AcDbEntity
  8
0
100
AcDbLine
 62
7
  6
CONTINUOUS
 10
442.4845878953
 20
601.1857677206
 11
437.4641088468
 21
604.0842770777
  0
LINE
  5
296
100
AcDbEntity
  8
0
100
AcDbLine
 62
7
  6
CONTINUOUS
 10
531.2268584012
 20
549.9515530283
 11
536.2473374498
 21
547.0530436712
  0
LINE
  5
297
100
AcDbEntity
  8
0
100
AcDbLine
 62
7
  6
CONTINUOUS
 10
531.1975482092
 20
553.8128696863
 11
506.0951529665
 21
568.3054164718
  0
LINE
  5
298
100
AcDbEntity
  8
0
100
AcDbLine
 62
7
  6
CONTINUOUS
 10
499.3776105776
 20
572.1837036397
 11
474.2752153349
 21
586.6762504252
  0
LINE
  5
299
100
AcDbEntity
  8
0
100
AcDbLine
 62
7
  6
CONTINUOUS
 10
467.557672946
 20
590.5545375932
 11
442.4552777033
 21
605.0470843786
  0
LINE
  5
29A
100
AcDbEntity
  8
0
100
AcDbLine
 62
7
  6
CONTINUOUS
 10
531.2268584012
 20
549.9515530283
 11
531.1975482092
 21
553.8128696863
  0
LINE
  5
29B
100
AcDbEntity
  8
0
100
AcDbLine
 62
7
  6
CONTINUOUS
 10
533.5965036271
 20
428.4458022421
 11
532.7452346661
 21
540.5917417817
  0
LINE
  5
29C
100
AcDbEntity
  8
0
100
AcDbLine
 62
7
  6
CONTINUOUS
 10
536.2803499818
 20
542.703981751
 11
536.2473374498
 21
547.0530436712
  0
LINE
  5
29D
100
AcDbEntity
  8
0
100
AcDbLine
 62
7
  6
CONTINUOUS
 10
537.9440890735
 20
553.8974145701
 11
537.9147788815
 21
557.7587312282
  0
LINE
  5
29E
100
AcDbEntity
  8
0
100
AcDbLine
 62
7
  6
CONTINUOUS
 10
542.964568122
 20
550.998905213
 11
543.8498996846
 21
434.3655678798
  0
LINE
  5
29F
100
AcDbEntity
  8
0
100
AcDbLine
 62
7
  6
CONTINUOUS
 10
509.5117970096
 20
570.3124346895
 11
506.1241514419
 21
572.2682485235
  0
LINE
  5
2A0
100
AcDbEntity
  8
0
100
AcDbLine
 62
7
  6
CONTINUOUS
 10
477.691859378
 20
588.6832686429
 11
474.3042138102
 21
590.639082477
  0
LINE
  5
2A1
100
AcDbEntity
  8
0
100
AcDbLine
 62
7
  6
CONTINUOUS
 10
445.8719217464
 20
607.0541025963
 11
444.181339519
 21
608.0301386195
  0
LINE
  5
2A2
100
AcDbEntity
  8
0
100
AcDbLine
 62
7
  6
CONTINUOUS
 10
537.9440890735
 20
553.8974145701
 11
542.964568122
 21
550.998905213
  0
LINE
  5
2A3
100
AcDbEntity
  8
0
100
AcDbLine
 62
7
  6
CONTINUOUS
 10
537.9147788815
 20
557.7587312282
 11
512.8123836388
 21
572.2512780137
  0
LINE
  5
2A4
100
AcDbEntity
  8
0
100
AcDbLine
 62
7
  6
CONTINUOUS
 10
506.0948412499
 20
576.1295651816
 11
480.9924460071
 21
590.6221119671
  0
LINE
  5
2A5
100
AcDbEntity
  8
0
100
AcDbLine
 62
7
  6
CONTINUOUS
 10
474.2749036182
 20
594.500399135
 11
449.1725083755
 21
608.9929459205
  0
ARC
  5
2A6
100
AcDbEntity
  8
0
100
AcDbCircle
 62
7
  6
CONTINUOUS
 10
376.330800315
 20
302.804203846
 40
270.0899560402
100
AcDbArc
 50
186.711500462
 51
187.8658914479
  0
ARC
  5
2A7
100
AcDbEntity
  8
0
100
AcDbCircle
 62
7
  6
CONTINUOUS
 10
282.1573076086
 20
301.4660968443
 40
175.6756332733
100
AcDbArc
 50
171.70551305
 51
174.285782964
  0
ARC
  5
2A8
100
AcDbEntity
  8
0
100
AcDbCircle
 62
7
  6
CONTINUOUS
 10
437.8012697959
 20
484.9467701399
 40
25.1304228465
100
AcDbArc
 50
28.0089156327
 51
32.5699651659
  0
ARC
  5
2A9
100
AcDbEntity
  8
0
100
AcDbCircle
 62
7
  6
CONTINUOUS
 10
454.516252162
 20
490.2948970754
 40
16.817124396
100
AcDbArc
 50
238.7632470811
 51
239.9963577295
  0
ARC
  5
2AA
100
AcDbEntity
  8
0
100
AcDbCircle
 62
7
  6
CONTINUOUS
 10
445.1232329516
 20
492.8265851984
 40
14.2977624322
100
AcDbArc
 50
56.6549996164
 51
59.9862298492
  0
ARC
  5
2AB
100
AcDbEntity
  8
0
100
AcDbCircle
 62
7
  6
CONTINUOUS
 10
459.8048746244
 20
505.1027751393
 40
13.460388638
100
AcDbArc
 50
172.4849294789
 51
173.3269427428
  0
ARC
  5
2AC
100
AcDbEntity
  8
0
100
AcDbCircle
 62
7
  6
CONTINUOUS
 10
106.5311242223
 20
307.7333641233
 40
12.8914558675
100
AcDbArc
 50
85.8924090999
 51
86.6224300248
  0
ARC
  5
2AD
100
AcDbEntity
  8
0
100
AcDbCircle
 62
7
  6
CONTINUOUS
 10
445.8341845847
 20
494.0723091887
 40
12.8634619452
100
AcDbArc
 50
59.9528035387
 51
63.5280600088
  0
ARC
  5
2AE
100
AcDbEntity
  8
0
100
AcDbCircle
 62
7
  6
CONTINUOUS
 10
112.1730578029
 20
293.3191950602
 40
10.6398623524
100
AcDbArc
 50
30.0953593935
 51
49.3081048323
  0
ARC
  5
2AF
100
AcDbEntity
  8
0
100
AcDbCircle
 62
7
  6
CONTINUOUS
 10
112.0814138867
 20
293.4692949849
 40
10.5459652616
100
AcDbArc
 50
75.116686841
 51
84.0089195283
  0
ARC
  5
2B0
100
AcDbEntity
  8
0
100
AcDbCircle
 62
7
  6
CONTINUOUS
 10
124.8110624551
 20
279.8103836973
 40
9.6993357512
100
AcDbArc
 50
285.1865508909
 51
289.5495199336
  0
ARC
  5
2B1
100
AcDbEntity
  8
0
100
AcDbCircle
 62
7
  6
CONTINUOUS
 10
122.1527243124
 20
277.7801374734
 40
9.2885965268
100
AcDbArc
 50
290.6775894417
 51
300.4034506254
  0
ARC
  5
2B2
100
AcDbEntity
  8
0
100
AcDbCircle
 62
7
  6
CONTINUOUS
 10
105.9024315325
 20
311.8485000117
 40
9.2264537431
100
AcDbArc
 50
122.8757894604
 51
124.8914424475
  0
ARC
  5
2B3
100
AcDbEntity
  8
0
100
AcDbCircle
 62
7
  6
CONTINUOUS
 10
111.4826550967
 20
294.8549270685
 40
9.0763775546
100
AcDbArc
 50
72.1584160733
 51
79.1075463106
  0
ARC
  5
2B4
100
AcDbEntity
  8
0
100
AcDbCircle
 62
7
  6
CONTINUOUS
 10
117.1295854556
 20
296.0920695636
 40
8.9584638509
100
AcDbArc
 50
210.0646901165
 51
219.5606454328
  0
ARC
  5
2B5
100
AcDbEntity
  8
0
100
AcDbCircle
 62
7
  6
CONTINUOUS
 10
113.2909410444
 20
291.839129609
 40
8.926099462
100
AcDbArc
 50
340.9417138414
 51
341.3879111908
  0
ARC
  5
2B6
100
AcDbEntity
  8
0
100
AcDbCircle
 62
7
  6
CONTINUOUS
 10
454.1120805344
 20
502.0089424383
 40
8.5536727466
100
AcDbArc
 50
75.7535583648
 51
76.4959734931
  0
ARC
  5
2B7
100
AcDbEntity
  8
0
100
AcDbCircle
 62
7
  6
CONTINUOUS
 10
112.1743579003
 20
294.7278095132
 40
5.3301012057
100
AcDbArc
 50
78.8299548832
 51
83.1927206636
  0
ARC
  5
2B8
100
AcDbEntity
  8
0
100
AcDbCircle
 62
7
  6
CONTINUOUS
 10
447.473968381
 20
501.8233543295
 40
4.7475376725
100
AcDbArc
 50
113.0616310081
 51
120.4169536133
  0
ARC
  5
2B9
100
AcDbEntity
  8
0
100
AcDbCircle
 62
7
  6
CONTINUOUS
 10
457.2556974387
 20
485.1721566911
 40
4.740689008
100
AcDbArc
 50
300.4406918775
 51
306.9424615909
  0
ARC
  5
2BA
100
AcDbEntity
  8
0
100
AcDbCircle
 62
7
  6
CONTINUOUS
 10
530.0458872116
 20
437.6659552774
 40
2.5652365822
100
AcDbArc
 50
165.3077509123
 51
169.7478971281
  0
SPLINE
  5
2BB
100
AcDbEntity
  8
0
100
AcDbSpline
 62
7
  6
CONTINUOUS
 70
0
 71
3
 72
21
 73
17
 74
0
 42
0.0000001
 43
0.0000001
 44
0.0000000001
 40
0.0
 40
0.0
 40
0.0
 40
0.0
 40
0.0425347108
 40
0.0868644273
 40
0.1344418106
 40
0.1862011865
 40
0.2425548396
 40
0.3034736363
 40
0.3685827576
 40
0.437246519
 40
0.5816620794
 40
0.7289870574
 40
0.801155922
 40
0.8709415319
 40
0.9374599246
 40
1.0
 40
1.0
 40
1.0
 40
1.0
 10
469.2570824426
 20
482.5487888127
 30
0.0
 10
469.6943057355
 20
482.80560392
 30
0.0
 10
470.5218071672
 20
483.4502055618
 30
0.0
 10
471.5119517676
 20
484.7284215809
 30
0.0
 10
472.2454156348
 20
486.289276609
 30
0.0
 10
472.7121754014
 20
488.0948360963
 30
0.0
 10
472.9077216584
 20
490.1073284086
 30
0.0
 10
472.8304342823
 20
492.2855876732
 30
0.0
 10
472.4831396595
 20
494.585043045
 30
0.0
 10
471.6561838037
 20
497.8014691591
 30
0.0
 10
470.0074080535
 20
501.794446698
 30
0.0
 10
467.7038995932
 20
505.4956352745
 30
0.0
 10
465.5198692238
 20
508.1694166759
 30
0.0
 10
463.7776019583
 20
509.9470953461
 30
0.0
 10
461.9580169195
 20
511.4723632545
 30
0.0
 10
460.6746897608
 20
512.3286803297
 30
0.0
 10
460.0290140943
 20
512.7014529164
 30
0.0
  0
SPLINE
  5
2BC
100
AcDbEntity
  8
0
100
AcDbSpline
 62
7
  6
CONTINUOUS
 70
0
 71
3
 72
11
 73
7
 74
0
 42
0.0000001
 43
0.0000001
 44
0.0000000001
 40
0.0
 40
0.0
 40
0.0
 40
0.0
 40
0.2253507572
 40
0.4619176612
 40
0.7184330903
 40
1.0
 40
1.0
 40
1.0
 40
1.0
 10
468.182325293
 20
481.9174513741
 30
0.0
 10
467.7048739386
 20
481.6370070872
 30
0.0
 10
466.6381644435
 20
481.2008667266
 30
0.0
 10
464.8670035915
 20
480.9927984837
 30
0.0
 10
462.9623339636
 20
481.2149543661
 30
0.0
 10
461.6956268666
 20
481.6203253748
 30
0.0
 10
461.0546442801
 20
481.8807178684
 30
0.0
  0
SPLINE
  5
2BD
100
AcDbEntity
  8
0
100
AcDbSpline
 62
7
  6
CONTINUOUS
 70
0
 71
3
 72
11
 73
7
 74
0
 42
0.0000001
 43
0.0000001
 44
0.0000000001
 40
0.0
 40
0.0
 40
0.0
 40
0.0
 40
0.2810129432
 40
0.537364401
 40
0.7741645663
 40
1.0
 40
1.0
 40
1.0
 40
1.0
 10
446.4601040654
 20
506.8632185527
 30
0.0
 10
446.549044056
 20
507.5372555842
 30
0.0
 10
446.8179610922
 20
508.8170422328
 30
0.0
 10
447.5521700044
 20
510.5550625704
 30
0.0
 10
448.5883009079
 20
511.9739167707
 30
0.0
 10
449.477206183
 20
512.6813357123
 30
0.0
 10
449.948329483
 20
512.9580630411
 30
0.0
  0
SPLINE
  5
2BE
100
AcDbEntity
  8
0
100
AcDbSpline
 62
7
  6
CONTINUOUS
 70
0
 71
3
 72
14
 73
10
 74
0
 42
0.0000001
 43
0.0000001
 44
0.0000000001
 40
0.0
 40
0.0
 40
0.0
 40
0.0
 40
0.2902795864
 40
0.4237791949
 40
0.5497965215
 40
0.6690670334
 40
0.7827535685
 40
0.8924287776
 40
1.0
 40
1.0
 40
1.0
 40
1.0
 10
460.0290140943
 20
512.7014529164
 30
0.0
 10
459.2352110875
 20
513.1597449281
 30
0.0
 10
458.0174167273
 20
513.7399407813
 30
0.0
 10
456.3480450877
 20
514.2272347145
 30
0.0
 10
455.1652869176
 20
514.4256489213
 30
0.0
 10
454.0287918856
 20
514.4642953401
 30
0.0
 10
452.9494769498
 20
514.3416553596
 30
0.0
 10
451.9389952722
 20
514.0579976835
 30
0.0
 10
451.3159704775
 20
513.7614349491
 30
0.0
 10
451.0230861484
 20
513.5894012958
 30
0.0
  0
SPLINE
  5
2BF
100
AcDbEntity
  8
0
100
AcDbSpline
 62
7
  6
CONTINUOUS
 70
0
 71
3
 72
9
 73
5
 74
0
 42
0.0000001
 43
0.0000001
 44
0.0000000001
 40
0.0
 40
0.0
 40
0.0
 40
0.0
 40
0.4672974186
 40
1.0
 40
1.0
 40
1.0
 40
1.0
 10
447.9567380993
 20
504.3888543957
 30
0.0
 10
448.5359729643
 20
504.4515641411
 30
0.0
 10
449.8031963824
 20
504.3533347195
 30
0.0
 10
450.9846491717
 20
503.9185816302
 30
0.0
 10
451.5830470267
 20
503.6304217001
 30
0.0
  0
SPLINE
  5
2C0
100
AcDbEntity
  8
0
100
AcDbSpline
 62
7
  6
CONTINUOUS
 70
0
 71
3
 72
10
 73
6
 74
0
 42
0.0000001
 43
0.0000001
 44
0.0000000001
 40
0.0
 40
0.0
 40
0.0
 40
0.0
 40
0.2333942823
 40
0.4802308465
 40
1.0
 40
1.0
 40
1.0
 40
1.0
 10
452.997266477
 20
502.813940191
 30
0.0
 10
453.4479228435
 20
502.5106564285
 30
0.0
 10
454.3366451468
 20
501.8277965341
 30
0.0
 10
456.0221425303
 20
500.218845592
 30
0.0
 10
457.127189557
 20
498.8006921571
 30
0.0
 10
457.7865590554
 20
497.7864675804
 30
0.0
  0
SPLINE
  5
2C1
100
AcDbEntity
  8
0
100
AcDbSpline
 62
7
  6
CONTINUOUS
 70
0
 71
3
 72
14
 73
10
 74
0
 42
0.0000001
 43
0.0000001
 44
0.0000000001
 40
0.0
 40
0.0
 40
0.0
 40
0.0
 40
0.1075708131
 40
0.2172457022
 40
0.3309320764
 40
0.4502026183
 40
0.5762200234
 40
0.7097198496
 40
1.0
 40
1.0
 40
1.0
 40
1.0
 10
449.948329483
 20
512.9580630411
 30
0.0
 10
450.2412126572
 20
513.1300960915
 30
0.0
 10
450.8642350983
 20
513.4266582391
 30
0.0
 10
451.8747137257
 20
513.7103163127
 30
0.0
 10
452.9540271867
 20
513.8329565637
 30
0.0
 10
454.0905219932
 20
513.7943111346
 30
0.0
 10
455.2732815272
 20
513.5958988354
 30
0.0
 10
456.9426558612
 20
513.1086043734
 30
0.0
 10
458.1604526579
 20
512.5284079601
 30
0.0
 10
458.9542571867
 20
512.0701150697
 30
0.0
  0
SPLINE
  5
2C2
100
AcDbEntity
  8
0
100
AcDbSpline
 62
7
  6
CONTINUOUS
 70
0
 71
3
 72
10
 73
6
 74
0
 42
0.0000001
 43
0.0000001
 44
0.0000000001
 40
0.0
 40
0.0
 40
0.0
 40
0.0
 40
0.2761053273
 40
0.5340534929
 40
1.0
 40
1.0
 40
1.0
 40
1.0
 10
460.8259190319
 20
487.8064477535
 30
0.0
 10
460.8019887679
 20
487.4545624173
 30
0.0
 10
460.7190003362
 20
486.7750912718
 30
0.0
 10
460.4070098346
 20
485.5353140329
 30
0.0
 10
459.9886273514
 20
484.6861000894
 30
0.0
 10
459.6269587925
 20
484.2133831678
 30
0.0
  0
SPLINE
  5
2C3
100
AcDbEntity
  8
0
100
AcDbSpline
 62
7
  6
CONTINUOUS
 70
0
 71
3
 72
21
 73
17
 74
0
 42
0.0000001
 43
0.0000001
 44
0.0000000001
 40
0.0
 40
0.0
 40
0.0
 40
0.0
 40
0.0625399141
 40
0.129058066
 40
0.198843506
 40
0.2710123355
 40
0.4183376777
 40
0.5627536827
 40
0.6314176894
 40
0.6965269845
 40
0.7574457965
 40
0.8137993178
 40
0.8655585149
 40
0.9131357552
 40
0.9574653754
 40
1.0
 40
1.0
 40
1.0
 40
1.0
 10
458.9542571867
 20
512.0701150697
 30
0.0
 10
459.5999311835
 20
511.6973434471
 30
0.0
 10
460.8832545437
 20
510.8410293836
 30
0.0
 10
462.7028348299
 20
509.3157664977
 30
0.0
 10
464.4450996788
 20
507.5380929609
 30
0.0
 10
466.6291330545
 20
504.86431158
 30
0.0
 10
468.9326483036
 20
501.1631162348
 30
0.0
 10
470.5814290437
 20
497.1701269443
 30
0.0
 10
471.4083859178
 20
493.9536904274
 30
0.0
 10
471.7556792785
 20
491.6542295986
 30
0.0
 10
471.832964006
 20
489.4759695432
 30
0.0
 10
471.6374152801
 20
487.4634810334
 30
0.0
 10
471.170654432
 20
485.6579274602
 30
0.0
 10
470.4371908589
 20
484.0970779056
 30
0.0
 10
469.4470476499
 20
482.8188657859
 30
0.0
 10
468.6195476477
 20
482.174266043
 30
0.0
 10
468.182325293
 20
481.9174513741
 30
0.0
  0
SPLINE
  5
2C4
100
AcDbEntity
  8
0
100
AcDbSpline
 62
7
  6
CONTINUOUS
 70
0
 71
3
 72
9
 73
5
 74
0
 42
0.0000001
 43
0.0000001
 44
0.0000000001
 40
0.0
 40
0.0
 40
0.0
 40
0.0
 40
0.2646671643
 40
1.0
 40
1.0
 40
1.0
 40
1.0
 10
458.976471227
 20
509.1436434973
 30
0.0
 10
458.7475081303
 20
509.2758324122
 30
0.0
 10
457.8685014477
 20
509.7499030454
 30
0.0
 10
456.9290357398
 20
510.118806944
 30
0.0
 10
456.2170803624
 20
510.2995572032
 30
0.0
  0
SPLINE
  5
2C5
100
AcDbEntity
  8
0
100
AcDbSpline
 62
7
  6
CONTINUOUS
 70
0
 71
3
 72
11
 73
7
 74
0
 42
0.0000001
 43
0.0000001
 44
0.0000000001
 40
0.0
 40
0.0
 40
0.0
 40
0.0
 40
0.2722234861
 40
0.5263131304
 40
0.7668175115
 40
1.0
 40
1.0
 40
1.0
 40
1.0
 10
456.1094802835
 20
510.3261361777
 30
0.0
 10
455.7153001073
 20
510.4207907371
 30
0.0
 10
454.9382967943
 20
510.5496879656
 30
0.0
 10
453.7900639264
 20
510.5408355696
 30
0.0
 10
452.7214558792
 20
510.3200383647
 30
0.0
 10
452.0711451712
 20
510.0298727727
 30
0.0
 10
451.7717339522
 20
509.8539935616
 30
0.0
  0
SPLINE
  5
2C6
100
AcDbEntity
  8
0
100
AcDbSpline
 62
7
  6
CONTINUOUS
 70
0
 71
3
 72
11
 73
7
 74
0
 42
0.0000001
 43
0.0000001
 44
0.0000000001
 40
0.0
 40
0.0
 40
0.0
 40
0.0
 40
0.23286036
 40
0.4731966909
 40
0.7273785523
 40
1.0
 40
1.0
 40
1.0
 40
1.0
 10
466.3589208238
 20
485.0215208536
 30
0.0
 10
466.6618057749
 20
485.1994405936
 30
0.0
 10
467.2382627401
 20
485.632129445
 30
0.0
 10
467.9573122638
 20
486.4710577101
 30
0.0
 10
468.5262758403
 20
487.4862768955
 30
0.0
 10
468.7908288874
 20
488.2398363079
 30
0.0
 10
468.8989395908
 20
488.6366284076
 30
0.0
  0
SPLINE
  5
2C7
100
AcDbEntity
  8
0
100
AcDbSpline
 62
7
  6
CONTINUOUS
 70
0
 71
3
 72
15
 73
11
 74
0
 42
0.0000001
 43
0.0000001
 44
0.0000000001
 40
0.0
 40
0.0
 40
0.0
 40
0.0
 40
0.1026052658
 40
0.2184217627
 40
0.3453674052
 40
0.4797925298
 40
0.6171635896
 40
0.7526276112
 40
0.8815356084
 40
1.0
 40
1.0
 40
1.0
 40
1.0
 10
468.8989395908
 20
488.6366284076
 30
0.0
 10
469.115437647
 20
489.431227977
 30
0.0
 10
469.3355389327
 20
491.1903913871
 30
0.0
 10
469.1141027211
 20
493.9669362077
 30
0.0
 10
468.3812197272
 20
496.9168382964
 30
0.0
 10
467.1735816646
 20
499.8912491708
 30
0.0
 10
465.5529910543
 20
502.740716845
 30
0.0
 10
463.6013944785
 20
505.3201270992
 30
0.0
 10
461.4192447777
 20
507.4977204984
 30
0.0
 10
459.7999441665
 20
508.6682219294
 30
0.0
 10
458.976471227
 20
509.1436434973
 30
0.0
  0
SPLINE
  5
2C8
100
AcDbEntity
  8
0
100
AcDbSpline
 62
7
  6
CONTINUOUS
 70
0
 71
3
 72
10
 73
6
 74
0
 42
0.0000001
 43
0.0000001
 44
0.0000000001
 40
0.0
 40
0.0
 40
0.0
 40
0.0
 40
0.5202069041
 40
0.7669212349
 40
1.0
 40
1.0
 40
1.0
 40
1.0
 10
458.7952897179
 20
496.0595013609
 30
0.0
 10
459.3540161933
 20
494.9884251706
 30
0.0
 10
460.0452036266
 20
493.3321793455
 30
0.0
 10
460.6157841736
 20
491.0782619542
 30
0.0
 10
460.7719731443
 20
489.9719298956
 30
0.0
 10
460.8135778984
 20
489.4322652937
 30
0.0
  0
SPLINE
  5
2C9
100
AcDbEntity
  8
0
100
AcDbSpline
 62
7
  6
CONTINUOUS
 70
0
 71
3
 72
10
 73
6
 74
0
 42
0.0000001
 43
0.0000001
 44
0.0000000001
 40
0.0
 40
0.0
 40
0.0
 40
0.0
 40
0.2330883934
 40
0.4797983609
 40
1.0
 40
1.0
 40
1.0
 40
1.0
 10
462.934808637
 20
490.6783268332
 30
0.0
 10
462.8932648284
 20
491.2172008967
 30
0.0
 10
462.7374115063
 20
492.3218848488
 30
0.0
 10
462.1681977667
 20
494.5725297909
 30
0.0
 10
461.4787205916
 20
496.2264998487
 30
0.0
 10
460.9213834894
 20
497.2962347227
 30
0.0
  0
SPLINE
  5
2CA
100
AcDbEntity
  8
0
100
AcDbSpline
 62
7
  6
CONTINUOUS
 70
0
 71
3
 72
10
 73
6
 74
0
 42
0.0000001
 43
0.0000001
 44
0.0000000001
 40
0.0
 40
0.0
 40
0.0
 40
0.0
 40
0.5210916517
 40
0.7677428983
 40
1.0
 40
1.0
 40
1.0
 40
1.0
 10
462.1095107697
 20
497.9943031668
 30
0.0
 10
462.8214479733
 20
496.6557696295
 30
0.0
 10
463.6981239378
 20
494.5809608032
 30
0.0
 10
464.4072660077
 20
491.7553383492
 30
0.0
 10
464.5924085188
 20
490.3699816014
 30
0.0
 10
464.636804118
 20
489.6957015141
 30
0.0
  0
SPLINE
  5
2CB
100
AcDbEntity
  8
0
100
AcDbSpline
 62
7
  6
CONTINUOUS
 70
0
 71
3
 72
9
 73
5
 74
0
 42
0.0000001
 43
0.0000001
 44
0.0000000001
 40
0.0
 40
0.0
 40
0.0
 40
0.0
 40
0.480441467
 40
1.0
 40
1.0
 40
1.0
 40
1.0
 10
461.0121477098
 20
484.7076547764
 30
0.0
 10
461.341051789
 20
484.9675737543
 30
0.0
 10
461.9413364388
 20
485.6210689717
 30
0.0
 10
462.33618585
 20
486.4104585383
 30
0.0
 10
462.4945239799
 20
486.8352481683
 30
0.0
  0
SPLINE
  5
2CC
100
AcDbEntity
  8
0
100
AcDbSpline
 62
7
  6
CONTINUOUS
 70
0
 71
3
 72
10
 73
6
 74
0
 42
0.0000001
 43
0.0000001
 44
0.0000000001
 40
0.0
 40
0.0
 40
0.0
 40
0.0
 40
0.2325856391
 40
0.4793652293
 40
1.0
 40
1.0
 40
1.0
 40
1.0
 10
455.1036448153
 20
506.0166528754
 30
0.0
 10
455.6704655477
 20
505.6442708292
 30
0.0
 10
456.788480569
 20
504.7982211559
 30
0.0
 10
458.9045150515
 20
502.7865406923
 30
0.0
 10
460.2835193486
 20
501.0006396997
 30
0.0
 10
461.1007801072
 20
499.7212693863
 30
0.0
  0
SPLINE
  5
2CD
100
AcDbEntity
  8
0
100
AcDbSpline
 62
7
  6
CONTINUOUS
 70
0
 71
3
 72
11
 73
7
 74
0
 42
0.0000001
 43
0.0000001
 44
0.0000000001
 40
0.0
 40
0.0
 40
0.0
 40
0.0
 40
0.2838675569
 40
0.5421974659
 40
0.7785259636
 40
1.0
 40
1.0
 40
1.0
 40
1.0
 10
464.6491452515
 20
488.0698839738
 30
0.0
 10
464.6173303303
 20
487.4901699652
 30
0.0
 10
464.4774396781
 20
486.3843718741
 30
0.0
 10
463.9955541983
 20
484.8560364746
 30
0.0
 10
463.2577957809
 20
483.5755136261
 30
0.0
 10
462.5881988489
 20
482.9014878444
 30
0.0
 10
462.2261424889
 20
482.6292724569
 30
0.0
  0
SPLINE
  5
2CE
100
AcDbEntity
  8
0
100
AcDbSpline
 62
7
  6
CONTINUOUS
 70
0
 71
3
 72
10
 73
6
 74
0
 42
0.0000001
 43
0.0000001
 44
0.0000000001
 40
0.0
 40
0.0
 40
0.0
 40
0.0
 40
0.5197691535
 40
0.7666057177
 40
1.0
 40
1.0
 40
1.0
 40
1.0
 10
459.907789794
 20
499.0325291199
 30
0.0
 10
459.2484202956
 20
500.0467536967
 30
0.0
 10
458.1433732689
 20
501.4649071315
 30
0.0
 10
456.4578758854
 20
503.0738580736
 30
0.0
 10
455.5691535821
 20
503.7567179681
 30
0.0
 10
455.1184972156
 20
504.0600017306
 30
0.0
  0
SPLINE
  5
2CF
100
AcDbEntity
  8
0
100
AcDbSpline
 62
7
  6
CONTINUOUS
 70
0
 71
3
 72
11
 73
7
 74
0
 42
0.0000001
 43
0.0000001
 44
0.0000000001
 40
0.0
 40
0.0
 40
0.0
 40
0.0
 40
0.2210823602
 40
0.4574249422
 40
0.7159519473
 40
1.0
 40
1.0
 40
1.0
 40
1.0
 10
447.7354886482
 20
507.4375494423
 30
0.0
 10
448.1532902677
 20
507.6154819377
 30
0.0
 10
449.0747741799
 20
507.8594702412
 30
0.0
 10
450.5583201833
 20
507.8616033345
 30
0.0
 10
452.1317050371
 20
507.5203045374
 30
0.0
 10
453.1670766665
 20
507.0930610734
 30
0.0
 10
453.689425365
 20
506.8331343844
 30
0.0
  0
SPLINE
  5
2D0
100
AcDbEntity
  8
0
100
AcDbSpline
 62
7
  6
CONTINUOUS
 70
0
 71
3
 72
9
 73
5
 74
0
 42
0.0000001
 43
0.0000001
 44
0.0000000001
 40
0.0
 40
0.0
 40
0.0
 40
0.0
 40
0.5202223556
 40
1.0
 40
1.0
 40
1.0
 40
1.0
 10
451.5649292285
 20
505.5809696659
 30
0.0
 10
451.1117982269
 20
505.6570057318
 30
0.0
 10
450.2200952813
 20
505.7105877278
 30
0.0
 10
449.3432207066
 20
505.5157901138
 30
0.0
 10
448.9494834274
 20
505.3591671228
 30
0.0
  0
SPLINE
  5
2D1
100
AcDbEntity
  8
0
100
AcDbSpline
 62
7
  6
CONTINUOUS
 70
0
 71
3
 72
9
 73
5
 74
0
 42
0.0000001
 43
0.0000001
 44
0.0000000001
 40
0.0
 40
0.0
 40
0.0
 40
0.0
 40
0.2566411553
 40
1.0
 40
1.0
 40
1.0
 40
1.0
 10
462.5155733794
 20
488.4496399745
 30
0.0
 10
462.5247143992
 20
488.3108062226
 30
0.0
 10
462.5527876113
 20
487.7693917833
 30
0.0
 10
462.5499981507
 20
487.2262183457
 30
0.0
 10
462.5279145129
 20
486.8238224343
 30
0.0
  0
SPLINE
  5
2D2
100
AcDbEntity
  8
0
100
AcDbSpline
 62
7
  6
CONTINUOUS
 70
0
 71
3
 72
12
 73
8
 74
0
 42
0.0000001
 43
0.0000001
 44
0.0000000001
 40
0.0
 40
0.0
 40
0.0
 40
0.0
 40
0.2905942471
 40
0.5499368842
 40
0.782519261
 40
0.8923126767
 40
1.0
 40
1.0
 40
1.0
 40
1.0
 10
447.3064226899
 20
504.8196324636
 30
0.0
 10
446.5399359143
 20
505.2621537987
 30
0.0
 10
445.0175383596
 20
505.9871462943
 30
0.0
 10
442.6818906455
 20
506.5530189399
 30
0.0
 10
440.8199410226
 20
506.5018689314
 30
0.0
 10
439.4949064189
 20
506.1294289053
 30
0.0
 10
438.8932456278
 20
505.8431322073
 30
0.0
 10
438.6104461872
 20
505.677011041
 30
0.0
  0
SPLINE
  5
2D3
100
AcDbEntity
  8
0
100
AcDbSpline
 62
7
  6
CONTINUOUS
 70
0
 71
3
 72
12
 73
8
 74
0
 42
0.0000001
 43
0.0000001
 44
0.0000000001
 40
0.0
 40
0.0
 40
0.0
 40
0.0
 40
0.1076882489
 40
0.2174800117
 40
0.4500623533
 40
0.7094011904
 40
1.0
 40
1.0
 40
1.0
 40
1.0
 10
443.5320757361
 20
474.6320530295
 30
0.0
 10
443.3387677924
 20
474.5184958061
 30
0.0
 10
442.9274803631
 20
474.3228440527
 30
0.0
 10
442.0217685814
 20
474.0682106108
 30
0.0
 10
440.7490300316
 20
474.0332992655
 30
0.0
 10
439.1524850598
 20
474.420048936
 30
0.0
 10
438.1118456509
 20
474.9156352236
 30
0.0
 10
437.5879030781
 20
475.2181267658
 30
0.0
  0
SPLINE
  5
2D4
100
AcDbEntity
  8
0
100
AcDbSpline
 62
7
  6
CONTINUOUS
 70
0
 71
3
 72
12
 73
8
 74
0
 42
0.0000001
 43
0.0000001
 44
0.0000000001
 40
0.0
 40
0.0
 40
0.0
 40
0.0
 40
0.2916657882
 40
0.5514256592
 40
0.7835619248
 40
0.8928786277
 40
1.0
 40
1.0
 40
1.0
 40
1.0
 10
433.7173174182
 20
496.5603665693
 30
0.0
 10
433.6886578811
 20
497.4746753721
 30
0.0
 10
433.7724764811
 20
499.2138695929
 30
0.0
 10
434.4002967852
 20
501.6113775005
 30
0.0
 10
435.3607238232
 20
503.2710797578
 30
0.0
 10
436.3508053767
 20
504.2791186904
 30
0.0
 10
436.906607576
 20
504.6761368509
 30
0.0
 10
437.1962924861
 20
504.84630314
 30
0.0
  0
SPLINE
  5
2D5
100
AcDbEntity
  8
0
100
AcDbSpline
 62
7
  6
CONTINUOUS
 70
0
 71
3
 72
9
 73
5
 74
0
 42
0.0000001
 43
0.0000001
 44
0.0000000001
 40
0.0
 40
0.0
 40
0.0
 40
0.0
 40
0.2443120427
 40
1.0
 40
1.0
 40
1.0
 40
1.0
 10
437.5879030781
 20
475.2181267658
 30
0.0
 10
437.4992613904
 20
475.2693029102
 30
0.0
 10
437.1393079243
 20
475.4837195632
 30
0.0
 10
436.7907705783
 20
475.7171617992
 30
0.0
 10
436.5340564499
 20
475.9024441758
 30
0.0
  0
SPLINE
  5
2D6
100
AcDbEntity
  8
0
100
AcDbSpline
 62
7
  6
CONTINUOUS
 70
0
 71
3
 72
13
 73
9
 74
0
 42
0.0000001
 43
0.0000001
 44
0.0000000001
 40
0.0
 40
0.0
 40
0.0
 40
0.0
 40
0.2977872162
 40
0.4336769445
 40
0.5606755269
 40
0.7901544069
 40
0.896477362
 40
1.0
 40
1.0
 40
1.0
 40
1.0
 10
429.2216260714
 20
488.2085562881
 30
0.0
 10
429.1227932098
 20
488.9646662936
 30
0.0
 10
429.0679091423
 20
490.0832677027
 30
0.0
 10
429.2387311764
 20
491.5121872764
 30
0.0
 10
429.5428160445
 20
492.7374225119
 30
0.0
 10
430.0722977127
 20
493.826404122
 30
0.0
 10
430.8321078709
 20
494.6644352931
 30
0.0
 10
431.2685421964
 20
494.9854829596
 30
0.0
 10
431.4971113688
 20
495.1197541131
 30
0.0
  0
SPLINE
  5
2D7
100
AcDbEntity
  8
0
100
AcDbSpline
 62
7
  6
CONTINUOUS
 70
0
 71
3
 72
12
 73
8
 74
0
 42
0.0000001
 43
0.0000001
 44
0.0000000001
 40
0.0
 40
0.0
 40
0.0
 40
0.0
 40
0.1076868407
 40
0.217479859
 40
0.4500621674
 40
0.7094051811
 40
1.0
 40
1.0
 40
1.0
 40
1.0
 10
454.8027405276
 20
474.8739963189
 30
0.0
 10
454.5199425734
 20
474.7078755555
 30
0.0
 10
453.9182836419
 20
474.421581404
 30
0.0
 10
452.593253159
 20
474.049138188
 30
0.0
 10
450.7313034635
 20
473.997988998
 30
0.0
 10
448.3956526593
 20
474.5638584852
 30
0.0
 10
446.8732523963
 20
475.2888525038
 30
0.0
 10
446.1067641495
 20
475.7313746883
 30
0.0
  0
SPLINE
  5
2D8
100
AcDbEntity
  8
0
100
AcDbSpline
 62
7
  6
CONTINUOUS
 70
0
 71
3
 72
19
 73
15
 74
0
 42
0.0000001
 43
0.0000001
 44
0.0000000001
 40
0.0
 40
0.0
 40
0.0
 40
0.0
 40
0.0426954416
 40
0.0867790746
 40
0.1334311918
 40
0.1834992888
 40
0.2374707522
 40
0.295506472
 40
0.3574959107
 40
0.4231121904
 40
0.5629970587
 40
0.7100056305
 40
0.8578162337
 40
1.0
 40
1.0
 40
1.0
 40
1.0
 10
456.2168944779
 20
475.7047038039
 30
0.0
 10
456.5848981457
 20
475.9208753718
 30
0.0
 10
457.2851227254
 20
476.4473105563
 30
0.0
 10
458.1570533115
 20
477.4689864999
 30
0.0
 10
458.8452945419
 20
478.7062409486
 30
0.0
 10
459.3410490797
 20
480.1355277302
 30
0.0
 10
459.6394756279
 20
481.7332104647
 30
0.0
 10
459.7375932148
 20
483.4738798335
 30
0.0
 10
459.6349115487
 20
485.3302296176
 30
0.0
 10
459.223995304
 20
487.9759742702
 30
0.0
 10
458.2141415589
 20
491.3704695387
 30
0.0
 10
456.3521588759
 20
495.3134510533
 30
0.0
 10
453.9306849323
 20
498.9667137064
 30
0.0
 10
451.9782489325
 20
501.129217163
 30
0.0
 10
450.9373932751
 20
502.0970830303
 30
0.0
  0
SPLINE
  5
2D9
100
AcDbEntity
  8
0
100
AcDbSpline
 62
7
  6
CONTINUOUS
 70
0
 71
3
 72
9
 73
5
 74
0
 42
0.0000001
 43
0.0000001
 44
0.0000000001
 40
0.0
 40
0.0
 40
0.0
 40
0.0
 40
0.2615913118
 40
1.0
 40
1.0
 40
1.0
 40
1.0
 10
450.9373932751
 20
502.0970830303
 30
0.0
 10
450.6472641441
 20
502.3668669153
 30
0.0
 10
449.5130640588
 20
503.3703048389
 30
0.0
 10
448.274920525
 20
504.2604826274
 30
0.0
 10
447.3064226899
 20
504.8196324636
 30
0.0
  0
SPLINE
  5
2DA
100
AcDbEntity
  8
0
100
AcDbSpline
 62
7
  6
CONTINUOUS
 70
0
 71
3
 72
12
 73
8
 74
0
 42
0.0000001
 43
0.0000001
 44
0.0000000001
 40
0.0
 40
0.0
 40
0.0
 40
0.0
 40
0.2905949064
 40
0.5499335823
 40
0.7825174355
 40
0.8923103748
 40
1.0
 40
1.0
 40
1.0
 40
1.0
 10
445.9262069812
 20
499.5179265349
 30
0.0
 10
445.4022714397
 20
499.8204140177
 30
0.0
 10
444.3616402721
 20
500.3159971573
 30
0.0
 10
442.7651024058
 20
500.7027520651
 30
0.0
 10
441.492357986
 20
500.6678463342
 30
0.0
 10
440.5866375781
 20
500.4132118759
 30
0.0
 10
440.1753450125
 20
500.217558483
 30
0.0
 10
439.9820344329
 20
500.1040000848
 30
0.0
  0
SPLINE
  5
2DB
100
AcDbEntity
  8
0
100
AcDbSpline
 62
7
  6
CONTINUOUS
 70
0
 71
3
 72
12
 73
8
 74
0
 42
0.0000001
 43
0.0000001
 44
0.0000000001
 40
0.0
 40
0.0
 40
0.0
 40
0.0
 40
0.1076882489
 40
0.2174800117
 40
0.4500623533
 40
0.7094011904
 40
1.0
 40
1.0
 40
1.0
 40
1.0
 10
431.4971113688
 20
495.1197541131
 30
0.0
 10
431.6904193125
 20
495.2333113365
 30
0.0
 10
432.1017067418
 20
495.4289630899
 30
0.0
 10
433.0074185235
 20
495.6835965318
 30
0.0
 10
434.2801570733
 20
495.7185078771
 30
0.0
 10
435.876702045
 20
495.3317582065
 30
0.0
 10
436.9173414539
 20
494.836171919
 30
0.0
 10
437.4412840268
 20
494.5336803768
 30
0.0
  0
SPLINE
  5
2DC
100
AcDbEntity
  8
0
100
AcDbSpline
 62
7
  6
CONTINUOUS
 70
0
 71
3
 72
18
 73
14
 74
0
 42
0.0000001
 43
0.0000001
 44
0.0000000001
 40
0.0
 40
0.0
 40
0.0
 40
0.0
 40
0.1289295342
 40
0.2708090226
 40
0.4182123381
 40
0.5627044679
 40
0.6963707885
 40
0.7573208347
 40
0.8137032291
 40
0.8654889385
 40
0.913090675
 40
0.9574432612
 40
1.0
 40
1.0
 40
1.0
 40
1.0
 10
437.4412840268
 20
494.5336803768
 30
0.0
 10
438.3193874455
 20
494.0267186007
 30
0.0
 10
440.0255106552
 20
492.7176223777
 30
0.0
 10
442.2161027271
 20
490.2442181488
 30
0.0
 10
444.027646461
 20
487.3342986424
 30
0.0
 10
445.3102345115
 20
484.226900134
 30
0.0
 10
445.8710839298
 20
481.5982050264
 30
0.0
 10
445.9416471065
 20
479.620916607
 30
0.0
 10
445.8125079792
 20
478.2925730269
 30
0.0
 10
445.5044511752
 20
477.1008756048
 30
0.0
 10
445.0203431011
 20
476.0706736343
 30
0.0
 10
444.3668309394
 20
475.22700841
 30
0.0
 10
443.820647027
 20
474.8015719532
 30
0.0
 10
443.5320757361
 20
474.6320530295
 30
0.0
  0
SPLINE
  5
2DD
100
AcDbEntity
  8
0
100
AcDbSpline
 62
7
  6
CONTINUOUS
 70
0
 71
3
 72
12
 73
8
 74
0
 42
0.0000001
 43
0.0000001
 44
0.0000000001
 40
0.0
 40
0.0
 40
0.0
 40
0.0
 40
0.1076868407
 40
0.217479859
 40
0.4500621674
 40
0.7094051811
 40
1.0
 40
1.0
 40
1.0
 40
1.0
 10
437.1962924861
 20
504.84630314
 30
0.0
 10
437.4790904403
 20
505.0124239034
 30
0.0
 10
438.0807493718
 20
505.2987180548
 30
0.0
 10
439.4057798547
 20
505.6711612708
 30
0.0
 10
441.2677295502
 20
505.7223104609
 30
0.0
 10
443.6033803544
 20
505.1564409736
 30
0.0
 10
445.1257806174
 20
504.431446955
 30
0.0
 10
445.8922688642
 20
503.9889247706
 30
0.0
  0
SPLINE
  5
2DE
100
AcDbEntity
  8
0
100
AcDbSpline
 62
7
  6
CONTINUOUS
 70
0
 71
3
 72
20
 73
16
 74
0
 42
0.0000001
 43
0.0000001
 44
0.0000000001
 40
0.0
 40
0.0
 40
0.0
 40
0.0
 40
0.0625487477
 40
0.1290772946
 40
0.2709052652
 40
0.4182524266
 40
0.5626896919
 40
0.6313636466
 40
0.6964824125
 40
0.7574101152
 40
0.8137718836
 40
0.8655386478
 40
0.9131229
 40
0.9574591048
 40
1.0
 40
1.0
 40
1.0
 40
1.0
 10
445.8922688642
 20
503.9889247706
 30
0.0
 10
446.5157176657
 20
503.6289845801
 30
0.0
 10
447.754970645
 20
502.8021370608
 30
0.0
 10
450.1476841048
 20
500.7959393267
 30
0.0
 10
452.8788431467
 20
497.7121529783
 30
0.0
 10
455.5268534762
 20
493.4580765092
 30
0.0
 10
457.1193326118
 20
489.6016403189
 30
0.0
 10
457.9177705746
 20
486.496009133
 30
0.0
 10
458.2531181583
 20
484.2756705543
 30
0.0
 10
458.3277378398
 20
482.1723847041
 30
0.0
 10
458.1389171144
 20
480.2291592519
 30
0.0
 10
457.6882192463
 20
478.4857466959
 30
0.0
 10
456.9799982913
 20
476.9786168438
 30
0.0
 10
456.0239377046
 20
475.744386122
 30
0.0
 10
455.2249080255
 20
475.1219853372
 30
0.0
 10
454.8027405276
 20
474.8739963189
 30
0.0
  0
SPLINE
  5
2DF
100
AcDbEntity
  8
0
100
AcDbSpline
 62
7
  6
CONTINUOUS
 70
0
 71
3
 72
16
 73
12
 74
0
 42
0.0000001
 43
0.0000001
 44
0.0000000001
 40
0.0
 40
0.0
 40
0.0
 40
0.0
 40
0.0448871662
 40
0.0906319014
 40
0.1874244445
 40
0.2951740508
 40
0.4157710719
 40
0.5489203823
 40
0.6927466898
 40
0.8443081501
 40
1.0
 40
1.0
 40
1.0
 40
1.0
 10
452.0169985808
 20
479.6162993741
 30
0.0
 10
452.2080499635
 20
479.7285306294
 30
0.0
 10
452.5750200474
 20
479.9889422565
 30
0.0
 10
453.2319470733
 20
480.6456829759
 30
0.0
 10
453.8790054771
 20
481.7213870619
 30
0.0
 10
454.3231076438
 20
483.2779558065
 30
0.0
 10
454.4521234019
 20
485.0679630551
 30
0.0
 10
454.2661562293
 20
487.0291313771
 30
0.0
 10
453.7743033841
 20
489.0927375854
 30
0.0
 10
452.9950117217
 20
491.1838043948
 30
0.0
 10
452.305947567
 20
492.5391389685
 30
0.0
 10
451.9203843061
 20
493.2039707344
 30
0.0
  0
SPLINE
  5
2E0
100
AcDbEntity
  8
0
100
AcDbSpline
 62
7
  6
CONTINUOUS
 70
0
 71
3
 72
11
 73
7
 74
0
 42
0.0000001
 43
0.0000001
 44
0.0000000001
 40
0.0
 40
0.0
 40
0.0
 40
0.0
 40
0.265942544
 40
0.5253199251
 40
0.7717474625
 40
1.0
 40
1.0
 40
1.0
 40
1.0
 10
451.9203843061
 20
493.2039707344
 30
0.0
 10
451.5292800072
 20
493.8783569848
 30
0.0
 10
450.6812981466
 20
495.1683931101
 30
0.0
 10
449.227229612
 20
496.9082953309
 30
0.0
 10
447.6506573816
 20
498.3810429118
 30
0.0
 10
446.5056713295
 20
499.1833802059
 30
0.0
 10
445.9262069812
 20
499.5179265349
 30
0.0
  0
SPLINE
  5
2E1
100
AcDbEntity
  8
0
100
AcDbSpline
 62
7
  6
CONTINUOUS
 70
0
 71
3
 72
10
 73
6
 74
0
 42
0.0000001
 43
0.0000001
 44
0.0000000001
 40
0.0
 40
0.0
 40
0.0
 40
0.0
 40
0.5146623103
 40
0.7593584213
 40
1.0
 40
1.0
 40
1.0
 40
1.0
 10
107.290631826
 20
320.6024271267
 30
0.0
 10
106.2640642932
 20
320.6629965616
 30
0.0
 10
104.7233762498
 20
320.5664491737
 30
0.0
 10
102.8043999877
 20
319.9880720632
 30
0.0
 10
101.926786565
 20
319.5636471049
 30
0.0
 10
101.5122031066
 20
319.3200965551
 30
0.0
  0
SPLINE
  5
2E2
100
AcDbEntity
  8
0
100
AcDbSpline
 62
7
  6
CONTINUOUS
 70
0
 71
3
 72
12
 73
8
 74
0
 42
0.0000001
 43
0.0000001
 44
0.0000000001
 40
0.0
 40
0.0
 40
0.0
 40
0.0
 40
0.0367569079
 40
0.0950153347
 40
0.2914891315
 40
0.5957735258
 40
1.0
 40
1.0
 40
1.0
 40
1.0
 10
98.9651366602
 20
275.5519267228
 30
0.0
 10
98.9576269799
 20
275.564931255
 30
0.0
 10
98.920032689
 20
275.5852350021
 30
0.0
 10
98.8015100747
 20
275.5930352998
 30
0.0
 10
98.5735303269
 20
275.5542310908
 30
0.0
 10
98.2187346043
 20
275.4528310932
 30
0.0
 10
97.9463009797
 20
275.3533654539
 30
0.0
 10
97.7924333505
 20
275.29337867
 30
0.0
  0
SPLINE
  5
2E3
100
AcDbEntity
  8
0
100
AcDbSpline
 62
7
  6
CONTINUOUS
 70
0
 71
3
 72
16
 73
12
 74
0
 42
0.0000001
 43
0.0000001
 44
0.0000000001
 40
0.0
 40
0.0
 40
0.0
 40
0.0
 40
0.1430925852
 40
0.2899881726
 40
0.4359369665
 40
0.5736696337
 40
0.6375587309
 40
0.6976716499
 40
0.8077083778
 40
0.9074671393
 40
1.0
 40
1.0
 40
1.0
 40
1.0
 10
86.6727604218
 20
292.7250191098
 30
0.0
 10
87.2179368447
 20
293.6495077385
 30
0.0
 10
88.2267225053
 20
295.5814400737
 30
0.0
 10
89.4457725151
 20
298.6207213259
 30
0.0
 10
90.3722420636
 20
301.7183950801
 30
0.0
 10
90.9498296589
 20
304.2614361446
 30
0.0
 10
91.3473577488
 20
306.1839156345
 30
0.0
 10
91.7020987764
 20
307.9028844719
 30
0.0
 10
92.1657940974
 20
309.8757297708
 30
0.0
 10
92.9384189927
 20
312.0149171437
 30
0.0
 10
93.6428082559
 20
313.2836465476
 30
0.0
 10
94.0367000284
 20
313.8550861585
 30
0.0
  0
SPLINE
  5
2E4
100
AcDbEntity
  8
0
100
AcDbSpline
 62
7
  6
CONTINUOUS
 70
0
 71
3
 72
12
 73
8
 74
0
 42
0.0000001
 43
0.0000001
 44
0.0000000001
 40
0.0
 40
0.0
 40
0.0
 40
0.0
 40
0.0367569079
 40
0.0950153347
 40
0.2914891315
 40
0.5957735258
 40
1.0
 40
1.0
 40
1.0
 40
1.0
 10
104.702975399
 20
278.7772518801
 30
0.0
 10
104.6954657187
 20
278.7902564123
 30
0.0
 10
104.6578714278
 20
278.8105601594
 30
0.0
 10
104.5393488135
 20
278.8183604571
 30
0.0
 10
104.3113690657
 20
278.7795562481
 30
0.0
 10
103.9565733431
 20
278.6781562504
 30
0.0
 10
103.6841397185
 20
278.5786906112
 30
0.0
 10
103.5302720893
 20
278.5187038273
 30
0.0
  0
SPLINE
  5
2E5
100
AcDbEntity
  8
0
100
AcDbSpline
 62
7
  6
CONTINUOUS
 70
0
 71
3
 72
14
 73
10
 74
0
 42
0.0000001
 43
0.0000001
 44
0.0000000001
 40
0.0
 40
0.0
 40
0.0
 40
0.0
 40
0.1138707446
 40
0.22741097
 40
0.3433671562
 40
0.4640415342
 40
0.5907075133
 40
0.7233608815
 40
1.0
 40
1.0
 40
1.0
 40
1.0
 10
110.40860148
 20
299.7264045232
 30
0.0
 10
110.1117424736
 20
299.5520224611
 30
0.0
 10
109.558129842
 20
299.1305561465
 30
0.0
 10
108.906776676
 20
298.3091039531
 30
0.0
 10
108.4625782712
 20
297.3373777006
 30
0.0
 10
108.2346450534
 20
296.2548350102
 30
0.0
 10
108.220596143
 20
295.0993112951
 30
0.0
 10
108.4783249248
 20
293.4940049308
 30
0.0
 10
108.9572466123
 20
292.3279001854
 30
0.0
 10
109.3763904273
 20
291.6040809918
 30
0.0
  0
SPLINE
  5
2E6
100
AcDbEntity
  8
0
100
AcDbSpline
 62
7
  6
CONTINUOUS
 70
0
 71
3
 72
9
 73
5
 74
0
 42
0.0000001
 43
0.0000001
 44
0.0000000001
 40
0.0
 40
0.0
 40
0.0
 40
0.0
 40
0.2533931733
 40
1.0
 40
1.0
 40
1.0
 40
1.0
 10
110.2230498095
 20
290.3864723173
 30
0.0
 10
110.2953035188
 20
290.2992478205
 30
0.0
 10
110.5872174395
 20
289.9607118822
 30
0.0
 10
110.9063560069
 20
289.6454446662
 30
0.0
 10
111.1587461072
 20
289.4271065769
 30
0.0
  0
SPLINE
  5
2E7
100
AcDbEntity
  8
0
100
AcDbSpline
 62
7
  6
CONTINUOUS
 70
0
 71
3
 72
11
 73
7
 74
0
 42
0.0000001
 43
0.0000001
 44
0.0000000001
 40
0.0
 40
0.0
 40
0.0
 40
0.0
 40
0.2706516617
 40
0.5230931166
 40
0.7626004171
 40
1.0
 40
1.0
 40
1.0
 40
1.0
 10
111.1587461072
 20
289.4271065769
 30
0.0
 10
111.5759331612
 20
289.0662056374
 30
0.0
 10
112.4628396282
 20
288.452765741
 30
0.0
 10
113.9507737775
 20
287.9316079062
 30
0.0
 10
115.465560658
 20
287.9086668318
 30
0.0
 10
116.403645923
 20
288.2429896659
 30
0.0
 10
116.825458636
 20
288.4800358046
 30
0.0
  0
SPLINE
  5
2E8
100
AcDbEntity
  8
0
100
AcDbSpline
 62
7
  6
CONTINUOUS
 70
0
 71
3
 72
9
 73
5
 74
0
 42
0.0000001
 43
0.0000001
 44
0.0000000001
 40
0.0
 40
0.0
 40
0.0
 40
0.0
 40
0.2480154121
 40
1.0
 40
1.0
 40
1.0
 40
1.0
 10
78.6680372686
 20
264.5427362521
 30
0.0
 10
78.2297949955
 20
265.0987574782
 30
0.0
 10
76.5041099959
 20
267.3729327759
 30
0.0
 10
74.9423182103
 20
269.7711564933
 30
0.0
 10
73.8666405132
 20
271.6287436399
 30
0.0
  0
SPLINE
  5
2E9
100
AcDbEntity
  8
0
100
AcDbSpline
 62
7
  6
CONTINUOUS
 70
0
 71
3
 72
9
 73
5
 74
0
 42
0.0000001
 43
0.0000001
 44
0.0000000001
 40
0.0
 40
0.0
 40
0.0
 40
0.0
 40
0.2518121729
 40
1.0
 40
1.0
 40
1.0
 40
1.0
 10
73.8666405132
 20
271.6287436399
 30
0.0
 10
73.5095588168
 20
272.2453877993
 30
0.0
 10
72.1344692653
 20
274.7187813679
 30
0.0
 10
70.9313375428
 20
277.288232992
 30
0.0
 10
70.1405221294
 20
279.2521957737
 30
0.0
  0
SPLINE
  5
2EA
100
AcDbEntity
  8
0
100
AcDbSpline
 62
7
  6
CONTINUOUS
 70
0
 71
3
 72
16
 73
12
 74
0
 42
0.0000001
 43
0.0000001
 44
0.0000000001
 40
0.0
 40
0.0
 40
0.0
 40
0.0
 40
0.1408772505
 40
0.2862104215
 40
0.4318783387
 40
0.5704414171
 40
0.6349085462
 40
0.695588188
 40
0.8065546113
 40
0.9070010477
 40
1.0
 40
1.0
 40
1.0
 40
1.0
 10
98.5295361522
 20
272.2611158926
 30
0.0
 10
99.6046959437
 20
272.3098347706
 30
0.0
 10
101.7957766121
 20
272.2962805314
 30
0.0
 10
105.0808439304
 20
271.9325940355
 30
0.0
 10
108.2951530335
 20
271.2469914573
 30
0.0
 10
110.8497100778
 20
270.4861783006
 30
0.0
 10
112.7634372106
 20
269.8564227692
 30
0.0
 10
114.4734342373
 20
269.2828434478
 30
0.0
 10
116.45879504
 20
268.6607862857
 30
0.0
 10
118.7480651882
 20
268.2147856297
 30
0.0
 10
120.2339618488
 20
268.163853168
 30
0.0
 10
120.9431055927
 20
268.2075075645
 30
0.0
  0
SPLINE
  5
2EB
100
AcDbEntity
  8
0
100
AcDbSpline
 62
7
  6
CONTINUOUS
 70
0
 71
3
 72
9
 73
5
 74
0
 42
0.0000001
 43
0.0000001
 44
0.0000000001
 40
0.0
 40
0.0
 40
0.0
 40
0.0
 40
0.2455524239
 40
1.0
 40
1.0
 40
1.0
 40
1.0
 10
127.3485458674
 20
288.4607132103
 30
0.0
 10
127.0409717535
 20
289.3841352664
 30
0.0
 10
125.6864852886
 20
293.1102278689
 30
0.0
 10
123.9448177734
 20
296.6938002906
 30
0.0
 10
122.4462706323
 20
299.2816404168
 30
0.0
  0
SPLINE
  5
2EC
100
AcDbEntity
  8
0
100
AcDbSpline
 62
7
  6
CONTINUOUS
 70
0
 71
3
 72
9
 73
5
 74
0
 42
0.0000001
 43
0.0000001
 44
0.0000000001
 40
0.0
 40
0.0
 40
0.0
 40
0.0
 40
0.2530287621
 40
1.0
 40
1.0
 40
1.0
 40
1.0
 10
122.4462706323
 20
299.2816404168
 30
0.0
 10
121.9433435802
 20
300.1501448306
 30
0.0
 10
119.8715577585
 20
303.5328614221
 30
0.0
 10
117.4693799973
 20
306.7155318826
 30
0.0
 10
115.5006230748
 20
308.9295927965
 30
0.0
  0
SPLINE
  5
2ED
100
AcDbEntity
  8
0
100
AcDbSpline
 62
7
  6
CONTINUOUS
 70
0
 71
3
 72
12
 73
8
 74
0
 42
0.0000001
 43
0.0000001
 44
0.0000000001
 40
0.0
 40
0.0
 40
0.0
 40
0.0
 40
0.0367569079
 40
0.0950153347
 40
0.2914891315
 40
0.5957735258
 40
1.0
 40
1.0
 40
1.0
 40
1.0
 10
110.4408141377
 20
282.0025770374
 30
0.0
 10
110.4333044575
 20
282.0155815695
 30
0.0
 10
110.3957101665
 20
282.0358853166
 30
0.0
 10
110.2771875523
 20
282.0436856143
 30
0.0
 10
110.0492078044
 20
282.0048814054
 30
0.0
 10
109.6944120819
 20
281.9034814077
 30
0.0
 10
109.4219784572
 20
281.8040157685
 30
0.0
 10
109.2681108281
 20
281.7440289846
 30
0.0
  0
SPLINE
  5
2EE
100
AcDbEntity
  8
0
100
AcDbSpline
 62
7
  6
CONTINUOUS
 70
0
 71
3
 72
10
 73
6
 74
0
 42
0.0000001
 43
0.0000001
 44
0.0000000001
 40
0.0
 40
0.0
 40
0.0
 40
0.0
 40
0.241261701
 40
0.6127964244
 40
1.0
 40
1.0
 40
1.0
 40
1.0
 10
84.2649266017
 20
267.7273167127
 30
0.0
 10
85.0419054946
 20
268.0611110477
 30
0.0
 10
87.056603425
 20
268.8152321027
 30
0.0
 10
90.4677393771
 20
269.6667602694
 30
0.0
 10
93.1238522244
 20
269.9432093098
 30
0.0
 10
94.48039214
 20
269.9850313524
 30
0.0
  0
SPLINE
  5
2EF
100
AcDbEntity
  8
0
100
AcDbSpline
 62
7
  6
CONTINUOUS
 70
0
 71
3
 72
9
 73
5
 74
0
 42
0.0000001
 43
0.0000001
 44
0.0000000001
 40
0.0
 40
0.0
 40
0.0
 40
0.0
 40
0.2531448284
 40
1.0
 40
1.0
 40
1.0
 40
1.0
 10
110.3378577073
 20
290.4979477383
 30
0.0
 10
110.4123406164
 20
290.419498021
 30
0.0
 10
110.7147346871
 20
290.1174842366
 30
0.0
 10
111.0497568846
 20
289.847880878
 30
0.0
 10
111.3147491434
 20
289.6700113997
 30
0.0
  0
SPLINE
  5
2F0
100
AcDbEntity
  8
0
100
AcDbSpline
 62
7
  6
CONTINUOUS
 70
0
 71
3
 72
9
 73
5
 74
0
 42
0.0000001
 43
0.0000001
 44
0.0000000001
 40
0.0
 40
0.0
 40
0.0
 40
0.0
 40
0.2549958154
 40
1.0
 40
1.0
 40
1.0
 40
1.0
 10
112.3001681553
 20
289.1491567586
 30
0.0
 10
112.3931780819
 20
289.1123829674
 30
0.0
 10
112.7622177563
 20
288.9793852173
 30
0.0
 10
113.148345372
 20
288.8928012099
 30
0.0
 10
113.4385831428
 20
288.8589133479
 30
0.0
  0
SPLINE
  5
2F1
100
AcDbEntity
  8
0
100
AcDbSpline
 62
7
  6
CONTINUOUS
 70
0
 71
3
 72
12
 73
8
 74
0
 42
0.0000001
 43
0.0000001
 44
0.0000000001
 40
0.0
 40
0.0
 40
0.0
 40
0.0
 40
0.3968094069
 40
0.7056432759
 40
0.9074469836
 40
0.9659238623
 40
1.0
 40
1.0
 40
1.0
 40
1.0
 10
99.7701384743
 20
295.8959779931
 30
0.0
 10
100.0299104042
 20
296.0738183145
 30
0.0
 10
100.4849592484
 20
296.4022135166
 30
0.0
 10
101.0346727034
 20
296.863802801
 30
0.0
 10
101.3499863771
 20
297.197031832
 30
0.0
 10
101.4694438859
 20
297.3939501881
 30
0.0
 10
101.4805959219
 20
297.4760206467
 30
0.0
 10
101.4670283551
 20
297.4994045061
 30
0.0
  0
SPLINE
  5
2F2
100
AcDbEntity
  8
0
100
AcDbSpline
 62
7
  6
CONTINUOUS
 70
0
 71
3
 72
12
 73
8
 74
0
 42
0.0000001
 43
0.0000001
 44
0.0000000001
 40
0.0
 40
0.0
 40
0.0
 40
0.0
 40
0.3987318712
 40
0.7055282395
 40
0.9055069305
 40
0.9642595901
 40
1.0
 40
1.0
 40
1.0
 40
1.0
 10
94.3368774619
 20
292.8839626242
 30
0.0
 10
94.5538184422
 20
293.0396081943
 30
0.0
 10
94.9315181151
 20
293.3251410881
 30
0.0
 10
95.3850049769
 20
293.7255582021
 30
0.0
 10
95.6414142403
 20
294.0115744625
 30
0.0
 10
95.7357262598
 20
294.1831293658
 30
0.0
 10
95.7412002922
 20
294.253378809
 30
0.0
 10
95.7291896163
 20
294.2740793489
 30
0.0
  0
SPLINE
  5
2F3
100
AcDbEntity
  8
0
100
AcDbSpline
 62
7
  6
CONTINUOUS
 70
0
 71
3
 72
12
 73
8
 74
0
 42
0.0000001
 43
0.0000001
 44
0.0000000001
 40
0.0
 40
0.0
 40
0.0
 40
0.0
 40
0.3987318712
 40
0.7055282395
 40
0.9055069305
 40
0.9642595901
 40
1.0
 40
1.0
 40
1.0
 40
1.0
 10
88.5990387232
 20
289.6586374669
 30
0.0
 10
88.8159797034
 20
289.814283037
 30
0.0
 10
89.1936793763
 20
290.0998159308
 30
0.0
 10
89.6471662381
 20
290.5002330448
 30
0.0
 10
89.9035755016
 20
290.7862493052
 30
0.0
 10
89.9978875211
 20
290.9578042085
 30
0.0
 10
90.0033615535
 20
291.0280536517
 30
0.0
 10
89.9913508775
 20
291.0487541916
 30
0.0
  0
SPLINE
  5
2F4
100
AcDbEntity
  8
0
100
AcDbSpline
 62
7
  6
CONTINUOUS
 70
0
 71
3
 72
9
 73
5
 74
0
 42
0.0000001
 43
0.0000001
 44
0.0000000001
 40
0.0
 40
0.0
 40
0.0
 40
0.0
 40
0.483917625
 40
1.0
 40
1.0
 40
1.0
 40
1.0
 10
74.0192377299
 20
281.3303168555
 30
0.0
 10
75.7499022874
 20
282.4066419849
 30
0.0
 10
79.0291283484
 20
285.1301840285
 30
0.0
 10
81.5526012289
 20
288.5590104621
 30
0.0
 10
82.6248598879
 20
290.4496335473
 30
0.0
  0
SPLINE
  5
2F5
100
AcDbEntity
  8
0
100
AcDbSpline
 62
7
  6
CONTINUOUS
 70
0
 71
3
 72
9
 73
5
 74
0
 42
0.0000001
 43
0.0000001
 44
0.0000000001
 40
0.0
 40
0.0
 40
0.0
 40
0.0
 40
0.2480441357
 40
1.0
 40
1.0
 40
1.0
 40
1.0
 10
104.027778711
 20
298.3007306209
 30
0.0
 10
104.4624859818
 20
297.7480341106
 30
0.0
 10
106.1742792946
 20
295.4880289219
 30
0.0
 10
107.7243938567
 20
293.1058688373
 30
0.0
 10
108.7926154449
 20
291.2611576406
 30
0.0
  0
SPLINE
  5
2F6
100
AcDbEntity
  8
0
100
AcDbSpline
 62
7
  6
CONTINUOUS
 70
0
 71
3
 72
9
 73
5
 74
0
 42
0.0000001
 43
0.0000001
 44
0.0000000001
 40
0.0
 40
0.0
 40
0.0
 40
0.0
 40
0.2518366291
 40
1.0
 40
1.0
 40
1.0
 40
1.0
 10
108.7926154449
 20
291.2611576406
 30
0.0
 10
109.1522061793
 20
290.640180625
 30
0.0
 10
110.5365177588
 20
288.149477885
 30
0.0
 10
111.7464677094
 20
285.5613925722
 30
0.0
 10
112.5407014814
 20
283.5830685101
 30
0.0
  0
SPLINE
  5
2F7
100
AcDbEntity
  8
0
100
AcDbSpline
 62
7
  6
CONTINUOUS
 70
0
 71
3
 72
13
 73
9
 74
0
 42
0.0000001
 43
0.0000001
 44
0.0000000001
 40
0.0
 40
0.0
 40
0.0
 40
0.0
 40
0.1041156094
 40
0.1872688147
 40
0.2962291316
 40
0.432134799
 40
0.5952406526
 40
1.0
 40
1.0
 40
1.0
 40
1.0
 10
95.7291896163
 20
294.2740793489
 30
0.0
 10
95.7150097543
 20
294.2985185063
 30
0.0
 10
95.6555898
 20
294.3146157514
 30
0.0
 10
95.5780829496
 20
294.3044517457
 30
0.0
 10
95.4907190083
 20
294.2827736069
 30
0.0
 10
95.3868080818
 20
294.2450181707
 30
0.0
 10
95.2115746717
 20
294.168536008
 30
0.0
 10
95.0753070295
 20
294.0961917565
 30
0.0
 10
94.9795541818
 20
294.0423676456
 30
0.0
  0
SPLINE
  5
2F8
100
AcDbEntity
  8
0
100
AcDbSpline
 62
7
  6
CONTINUOUS
 70
0
 71
3
 72
11
 73
7
 74
0
 42
0.0000001
 43
0.0000001
 44
0.0000000001
 40
0.0
 40
0.0
 40
0.0
 40
0.0
 40
0.2725028998
 40
0.5506831628
 40
0.8030358266
 40
1.0
 40
1.0
 40
1.0
 40
1.0
 10
93.6447730494
 20
272.9619056388
 30
0.0
 10
94.0757815831
 20
273.1480557289
 30
0.0
 10
94.9501925375
 20
273.5162370564
 30
0.0
 10
96.2268536628
 20
274.0496406369
 30
0.0
 10
97.3751357885
 20
274.5517154209
 30
0.0
 10
98.0721644165
 20
274.8906238337
 30
0.0
 10
98.3679781176
 20
275.056905149
 30
0.0
  0
SPLINE
  5
2F9
100
AcDbEntity
  8
0
100
AcDbSpline
 62
7
  6
CONTINUOUS
 70
0
 71
3
 72
11
 73
7
 74
0
 42
0.0000001
 43
0.0000001
 44
0.0000000001
 40
0.0
 40
0.0
 40
0.0
 40
0.0
 40
0.2725028998
 40
0.5506831628
 40
0.8030358266
 40
1.0
 40
1.0
 40
1.0
 40
1.0
 10
99.3826117882
 20
276.1872307961
 30
0.0
 10
99.8136203218
 20
276.3733808862
 30
0.0
 10
100.6880312763
 20
276.7415622137
 30
0.0
 10
101.9646924016
 20
277.2749657942
 30
0.0
 10
103.1129745272
 20
277.7770405782
 30
0.0
 10
103.8100031553
 20
278.115948991
 30
0.0
 10
104.1058168564
 20
278.2822303062
 30
0.0
  0
SPLINE
  5
2FA
100
AcDbEntity
  8
0
100
AcDbSpline
 62
7
  6
CONTINUOUS
 70
0
 71
3
 72
11
 73
7
 74
0
 42
0.0000001
 43
0.0000001
 44
0.0000000001
 40
0.0
 40
0.0
 40
0.0
 40
0.0
 40
0.2725028998
 40
0.5506831628
 40
0.8030358266
 40
1.0
 40
1.0
 40
1.0
 40
1.0
 10
105.120450527
 20
279.4125559533
 30
0.0
 10
105.5514590606
 20
279.5987060435
 30
0.0
 10
106.4258700151
 20
279.966887371
 30
0.0
 10
107.7025311404
 20
280.5002909515
 30
0.0
 10
108.850813266
 20
281.0023657355
 30
0.0
 10
109.5478418941
 20
281.3412741483
 30
0.0
 10
109.8436555952
 20
281.5075554635
 30
0.0
  0
SPLINE
  5
2FB
100
AcDbEntity
  8
0
100
AcDbSpline
 62
7
  6
CONTINUOUS
 70
0
 71
3
 72
12
 73
8
 74
0
 42
0.0000001
 43
0.0000001
 44
0.0000000001
 40
0.0
 40
0.0
 40
0.0
 40
0.0
 40
0.0931086875
 40
0.2068254681
 40
0.4744482095
 40
0.7552874821
 40
1.0
 40
1.0
 40
1.0
 40
1.0
 10
89.241715443
 20
290.8170424883
 30
0.0
 10
89.0691988855
 20
290.7200683455
 30
0.0
 10
88.6957170026
 20
290.4874752037
 30
0.0
 10
87.8648922519
 20
289.9156845311
 30
0.0
 10
86.7399785553
 20
289.0691332029
 30
0.0
 10
85.4024615848
 20
288.0430861976
 30
0.0
 10
84.5053600194
 20
287.3770977798
 30
0.0
 10
84.0811352761
 20
287.076134259
 30
0.0
  0
SPLINE
  5
2FC
100
AcDbEntity
  8
0
100
AcDbSpline
 62
7
  6
CONTINUOUS
 70
0
 71
3
 72
12
 73
8
 74
0
 42
0.0000001
 43
0.0000001
 44
0.0000000001
 40
0.0
 40
0.0
 40
0.0
 40
0.0
 40
0.0931086875
 40
0.2068254681
 40
0.4744482095
 40
0.7552874821
 40
1.0
 40
1.0
 40
1.0
 40
1.0
 10
100.7173929206
 20
297.2676928028
 30
0.0
 10
100.544876363
 20
297.1707186601
 30
0.0
 10
100.1713944801
 20
296.9381255183
 30
0.0
 10
99.3405697295
 20
296.3663348457
 30
0.0
 10
98.2156560328
 20
295.5197835174
 30
0.0
 10
96.8781390624
 20
294.4937365121
 30
0.0
 10
95.981037497
 20
293.8277480944
 30
0.0
 10
95.5568127537
 20
293.5267845736
 30
0.0
  0
SPLINE
  5
2FD
100
AcDbEntity
  8
0
100
AcDbSpline
 62
7
  6
CONTINUOUS
 70
0
 71
3
 72
18
 73
14
 74
0
 42
0.0000001
 43
0.0000001
 44
0.0000000001
 40
0.0
 40
0.0
 40
0.0
 40
0.0
 40
0.1323877135
 40
0.2597945802
 40
0.3222401917
 40
0.3842685782
 40
0.446391319
 40
0.5090101031
 40
0.6358157391
 40
0.6997295505
 40
0.7629150248
 40
0.8849092122
 40
1.0
 40
1.0
 40
1.0
 40
1.0
 10
123.2994018552
 20
286.18462867
 30
0.0
 10
124.1051064927
 20
286.1028144544
 30
0.0
 10
125.6780618499
 20
285.7955981235
 30
0.0
 10
127.4817316298
 20
284.9223502477
 30
0.0
 10
128.6590418913
 20
283.9163355797
 30
0.0
 10
129.3814162222
 20
283.0238767883
 30
0.0
 10
129.9253452451
 20
282.0116570783
 30
0.0
 10
130.4040107392
 20
280.5419458465
 30
0.0
 10
130.5132841825
 20
278.9706281032
 30
0.0
 10
130.3386446302
 20
277.4260000814
 30
0.0
 10
130.0202831578
 20
275.9335763805
 30
0.0
 10
129.4056703836
 20
274.1932230379
 30
0.0
 10
128.6948509966
 20
272.9189402565
 30
0.0
 10
128.2944807403
 20
272.3398257218
 30
0.0
  0
SPLINE
  5
2FE
100
AcDbEntity
  8
0
100
AcDbSpline
 62
7
  6
CONTINUOUS
 70
0
 71
3
 72
13
 73
9
 74
0
 42
0.0000001
 43
0.0000001
 44
0.0000000001
 40
0.0
 40
0.0
 40
0.0
 40
0.0
 40
0.4121024169
 40
0.5776208322
 40
0.714977823
 40
0.8241980591
 40
0.9059791403
 40
1.0
 40
1.0
 40
1.0
 40
1.0
 10
109.8436555952
 20
281.5075554635
 30
0.0
 10
109.9393021996
 20
281.5613198534
 30
0.0
 10
110.0719057561
 20
281.6393560064
 30
0.0
 10
110.2295497752
 20
281.746539555
 30
0.0
 10
110.3166161948
 20
281.8126992577
 30
0.0
 10
110.3820906559
 20
281.8727321702
 30
0.0
 10
110.4306421049
 20
281.9264601446
 30
0.0
 10
110.4533325039
 20
281.9808989512
 30
0.0
 10
110.4408141377
 20
282.0025770374
 30
0.0
  0
SPLINE
  5
2FF
100
AcDbEntity
  8
0
100
AcDbSpline
 62
7
  6
CONTINUOUS
 70
0
 71
3
 72
13
 73
9
 74
0
 42
0.0000001
 43
0.0000001
 44
0.0000000001
 40
0.0
 40
0.0
 40
0.0
 40
0.0
 40
0.4121024169
 40
0.5776208322
 40
0.714977823
 40
0.8241980591
 40
0.9059791403
 40
1.0
 40
1.0
 40
1.0
 40
1.0
 10
104.1058168564
 20
278.2822303062
 30
0.0
 10
104.2014634608
 20
278.3359946961
 30
0.0
 10
104.3340670173
 20
278.4140308491
 30
0.0
 10
104.4917110364
 20
278.5212143977
 30
0.0
 10
104.578777456
 20
278.5873741004
 30
0.0
 10
104.6442519171
 20
278.6474070129
 30
0.0
 10
104.6928033661
 20
278.7011349873
 30
0.0
 10
104.7154937651
 20
278.7555737939
 30
0.0
 10
104.702975399
 20
278.7772518801
 30
0.0
  0
SPLINE
  5
300
100
AcDbEntity
  8
0
100
AcDbSpline
 62
7
  6
CONTINUOUS
 70
0
 71
3
 72
18
 73
14
 74
0
 42
0.0000001
 43
0.0000001
 44
0.0000000001
 40
0.0
 40
0.0
 40
0.0
 40
0.0
 40
0.131624778
 40
0.2591937691
 40
0.3220891766
 40
0.3847281753
 40
0.447485465
 40
0.5106200158
 40
0.6378250104
 40
0.7015669845
 40
0.7644456036
 40
0.8856938856
 40
1.0
 40
1.0
 40
1.0
 40
1.0
 10
111.4527225409
 20
306.654207234
 30
0.0
 10
111.7389968533
 20
307.4118291584
 30
0.0
 10
112.1585040534
 20
308.9661818063
 30
0.0
 10
112.1574670892
 20
310.9803849112
 30
0.0
 10
111.7715839324
 20
312.4965201439
 30
0.0
 10
111.2940766648
 20
313.558702253
 30
0.0
 10
110.63910933
 20
314.5230879461
 30
0.0
 10
109.5611098553
 20
315.6551845103
 30
0.0
 10
108.2374341827
 20
316.5281287866
 30
0.0
 10
106.8049391676
 20
317.1535178203
 30
0.0
 10
105.3545536338
 20
317.631735082
 30
0.0
 10
103.5445526917
 20
317.9873745029
 30
0.0
 10
102.0875111081
 20
318.0304584833
 30
0.0
 10
101.3855778245
 20
317.9860005441
 30
0.0
  0
SPLINE
  5
301
100
AcDbEntity
  8
0
100
AcDbSpline
 62
7
  6
CONTINUOUS
 70
0
 71
3
 72
13
 73
9
 74
0
 42
0.0000001
 43
0.0000001
 44
0.0000000001
 40
0.0
 40
0.0
 40
0.0
 40
0.0
 40
0.1041156094
 40
0.1872688147
 40
0.2962291316
 40
0.432134799
 40
0.5952406526
 40
1.0
 40
1.0
 40
1.0
 40
1.0
 10
101.4670283551
 20
297.4994045061
 30
0.0
 10
101.452848493
 20
297.5238436635
 30
0.0
 10
101.3934285388
 20
297.5399409086
 30
0.0
 10
101.3159216884
 20
297.529776903
 30
0.0
 10
101.2285577471
 20
297.5080987641
 30
0.0
 10
101.1246468206
 20
297.470343328
 30
0.0
 10
100.9494134105
 20
297.3938611652
 30
0.0
 10
100.8131457683
 20
297.3215169138
 30
0.0
 10
100.7173929206
 20
297.2676928028
 30
0.0
  0
SPLINE
  5
302
100
AcDbEntity
  8
0
100
AcDbSpline
 62
7
  6
CONTINUOUS
 70
0
 71
3
 72
13
 73
9
 74
0
 42
0.0000001
 43
0.0000001
 44
0.0000000001
 40
0.0
 40
0.0
 40
0.0
 40
0.0
 40
0.4121024169
 40
0.5776208322
 40
0.714977823
 40
0.8241980591
 40
0.9059791403
 40
1.0
 40
1.0
 40
1.0
 40
1.0
 10
98.3679781176
 20
275.056905149
 30
0.0
 10
98.463624722
 20
275.1106695389
 30
0.0
 10
98.5962282785
 20
275.1887056918
 30
0.0
 10
98.7538722976
 20
275.2958892404
 30
0.0
 10
98.8409387172
 20
275.3620489431
 30
0.0
 10
98.9064131783
 20
275.4220818556
 30
0.0
 10
98.9549646274
 20
275.47580983
 30
0.0
 10
98.9776550264
 20
275.5302486366
 30
0.0
 10
98.9651366602
 20
275.5519267228
 30
0.0
  0
SPLINE
  5
303
100
AcDbEntity
  8
0
100
AcDbSpline
 62
7
  6
CONTINUOUS
 70
0
 71
3
 72
11
 73
7
 74
0
 42
0.0000001
 43
0.0000001
 44
0.0000000001
 40
0.0
 40
0.0
 40
0.0
 40
0.0
 40
0.2442641261
 40
0.4924770776
 40
0.7443146354
 40
1.0
 40
1.0
 40
1.0
 40
1.0
 10
127.3485458674
 20
288.4607132103
 30
0.0
 10
126.3590835033
 20
288.5389763444
 30
0.0
 10
124.3451261511
 20
288.4927438627
 30
0.0
 10
121.3626313849
 20
287.9350453993
 30
0.0
 10
118.4402299828
 20
286.9632683979
 30
0.0
 10
116.5791000774
 20
286.060077891
 30
0.0
 10
115.6732797941
 20
285.5512241403
 30
0.0
  0
SPLINE
  5
304
100
AcDbEntity
  8
0
100
AcDbSpline
 62
7
  6
CONTINUOUS
 70
0
 71
3
 72
11
 73
7
 74
0
 42
0.0000001
 43
0.0000001
 44
0.0000000001
 40
0.0
 40
0.0
 40
0.0
 40
0.0
 40
0.2574565155
 40
0.5144636596
 40
0.7636558056
 40
1.0
 40
1.0
 40
1.0
 40
1.0
 10
118.8863347155
 20
300.4862496926
 30
0.0
 10
119.6104746626
 20
299.7094926597
 30
0.0
 10
120.8619496233
 20
297.9631765672
 30
0.0
 10
122.023685207
 20
295.001104735
 30
0.0
 10
122.3908468212
 20
291.9257122413
 30
0.0
 10
122.0613550638
 20
289.9141599862
 30
0.0
 10
121.7502152504
 20
288.9902822082
 30
0.0
  0
SPLINE
  5
305
100
AcDbEntity
  8
0
100
AcDbSpline
 62
7
  6
CONTINUOUS
 70
0
 71
3
 72
12
 73
8
 74
0
 42
0.0000001
 43
0.0000001
 44
0.0000000001
 40
0.0
 40
0.0
 40
0.0
 40
0.0
 40
0.0931086875
 40
0.2068254681
 40
0.4744482095
 40
0.7552874821
 40
1.0
 40
1.0
 40
1.0
 40
1.0
 10
94.9795541818
 20
294.0423676456
 30
0.0
 10
94.8070376243
 20
293.9453935028
 30
0.0
 10
94.4335557414
 20
293.712800361
 30
0.0
 10
93.6027309907
 20
293.1410096884
 30
0.0
 10
92.477817294
 20
292.2944583601
 30
0.0
 10
91.1403003236
 20
291.2684113548
 30
0.0
 10
90.2431987582
 20
290.6024229371
 30
0.0
 10
89.8189740149
 20
290.3014594163
 30
0.0
  0
SPLINE
  5
306
100
AcDbEntity
  8
0
100
AcDbSpline
 62
7
  6
CONTINUOUS
 70
0
 71
3
 72
11
 73
7
 74
0
 42
0.0000001
 43
0.0000001
 44
0.0000000001
 40
0.0
 40
0.0
 40
0.0
 40
0.0
 40
0.2353108367
 40
0.482321459
 40
0.7386970069
 40
1.0
 40
1.0
 40
1.0
 40
1.0
 10
118.320672279
 20
290.497285714
 30
0.0
 10
118.5107490039
 20
290.9537717798
 30
0.0
 10
118.7699792309
 20
291.9476464114
 30
0.0
 10
118.7838536889
 20
293.5133141293
 30
0.0
 10
118.4389566061
 20
295.0953451442
 30
0.0
 10
117.9850028404
 20
296.0942567777
 30
0.0
 10
117.7072582583
 20
296.5679298768
 30
0.0
  0
SPLINE
  5
307
100
AcDbEntity
  8
0
100
AcDbSpline
 62
7
  6
CONTINUOUS
 70
0
 71
3
 72
9
 73
5
 74
0
 42
0.0000001
 43
0.0000001
 44
0.0000000001
 40
0.0
 40
0.0
 40
0.0
 40
0.0
 40
0.5129789718
 40
1.0
 40
1.0
 40
1.0
 40
1.0
 10
113.3922753154
 20
300.3498139473
 30
0.0
 10
112.8807420371
 20
300.3946488238
 30
0.0
 10
111.8657993669
 20
300.3508412453
 30
0.0
 10
110.9054838949
 20
300.0065498175
 30
0.0
 10
110.4804870864
 20
299.7677108679
 30
0.0
  0
SPLINE
  5
308
100
AcDbEntity
  8
0
100
AcDbSpline
 62
7
  6
CONTINUOUS
 70
0
 71
3
 72
9
 73
5
 74
0
 42
0.0000001
 43
0.0000001
 44
0.0000000001
 40
0.0
 40
0.0
 40
0.0
 40
0.0
 40
0.2469730455
 40
1.0
 40
1.0
 40
1.0
 40
1.0
 10
113.559990389
 20
290.9320951569
 30
0.0
 10
113.4723600528
 20
290.9909148457
 30
0.0
 10
113.1244087226
 20
291.2391934833
 30
0.0
 10
112.8046665355
 20
291.5266636743
 30
0.0
 10
112.583098953
 20
291.7600314955
 30
0.0
  0
SPLINE
  5
309
100
AcDbEntity
  8
0
100
AcDbSpline
 62
7
  6
CONTINUOUS
 70
0
 71
3
 72
13
 73
9
 74
0
 42
0.0000001
 43
0.0000001
 44
0.0000000001
 40
0.0
 40
0.0
 40
0.0
 40
0.0
 40
0.1041156094
 40
0.1872688147
 40
0.2962291316
 40
0.432134799
 40
0.5952406526
 40
1.0
 40
1.0
 40
1.0
 40
1.0
 10
89.9913508775
 20
291.0487541916
 30
0.0
 10
89.9771710155
 20
291.073193349
 30
0.0
 10
89.9177510612
 20
291.0892905941
 30
0.0
 10
89.8402442108
 20
291.0791265885
 30
0.0
 10
89.7528802696
 20
291.0574484496
 30
0.0
 10
89.6489693431
 20
291.0196930134
 30
0.0
 10
89.4737359329
 20
290.9432108507
 30
0.0
 10
89.3374682907
 20
290.8708665992
 30
0.0
 10
89.241715443
 20
290.8170424883
 30
0.0
  0
SPLINE
  5
30A
100
AcDbEntity
  8
0
100
AcDbSpline
 62
7
  6
CONTINUOUS
 70
0
 71
3
 72
9
 73
5
 74
0
 42
0.0000001
 43
0.0000001
 44
0.0000000001
 40
0.0
 40
0.0
 40
0.0
 40
0.0
 40
0.2464391013
 40
1.0
 40
1.0
 40
1.0
 40
1.0
 10
115.5006230748
 20
308.9295927965
 30
0.0
 10
115.1128645544
 20
307.9790411327
 30
0.0
 10
113.1095027512
 20
304.3005156467
 30
0.0
 10
109.8109615834
 20
301.4215997238
 30
0.0
 10
107.073534368
 20
299.8851628115
 30
0.0
  0
SPLINE
  5
30B
100
AcDbEntity
  8
0
100
AcDbSpline
 62
7
  6
CONTINUOUS
 70
0
 71
3
 72
9
 73
5
 74
0
 42
0.0000001
 43
0.0000001
 44
0.0000000001
 40
0.0
 40
0.0
 40
0.0
 40
0.0
 40
0.2455784384
 40
1.0
 40
1.0
 40
1.0
 40
1.0
 10
115.6838243884
 20
290.1209971051
 30
0.0
 10
115.5881484336
 20
290.1321681306
 30
0.0
 10
115.2001794591
 20
290.1910113147
 30
0.0
 10
114.8205962622
 20
290.302438536
 30
0.0
 10
114.5454094009
 20
290.4112405157
 30
0.0
  0
SPLINE
  5
30C
100
AcDbEntity
  8
0
100
AcDbSpline
 62
7
  6
CONTINUOUS
 70
0
 71
3
 72
9
 73
5
 74
0
 42
0.0000001
 43
0.0000001
 44
0.0000000001
 40
0.0
 40
0.0
 40
0.0
 40
0.0
 40
0.48610204
 40
1.0
 40
1.0
 40
1.0
 40
1.0
 10
116.8971943115
 20
288.5212575962
 30
0.0
 10
117.3295418857
 20
288.7752288752
 30
0.0
 10
118.1315616947
 20
289.4564772965
 30
0.0
 10
118.6873155408
 20
290.3442465225
 30
0.0
 10
118.9068121478
 20
290.8267637197
 30
0.0
  0
SPLINE
  5
30D
100
AcDbEntity
  8
0
100
AcDbSpline
 62
7
  6
CONTINUOUS
 70
0
 71
3
 72
11
 73
7
 74
0
 42
0.0000001
 43
0.0000001
 44
0.0000000001
 40
0.0
 40
0.0
 40
0.0
 40
0.0
 40
0.254544759
 40
0.5075576449
 40
0.7569402755
 40
1.0
 40
1.0
 40
1.0
 40
1.0
 10
121.3785819852
 20
298.6544546984
 30
0.0
 10
121.8092913954
 20
297.9106628857
 30
0.0
 10
122.4888855027
 20
296.3155282096
 30
0.0
 10
122.9047911246
 20
293.7703636089
 30
0.0
 10
122.7298065127
 20
291.2383142484
 30
0.0
 10
122.2421114818
 20
289.6309934089
 30
0.0
 10
121.9139149719
 20
288.8787538435
 30
0.0
  0
SPLINE
  5
30E
100
AcDbEntity
  8
0
100
AcDbSpline
 62
7
  6
CONTINUOUS
 70
0
 71
3
 72
15
 73
11
 74
0
 42
0.0000001
 43
0.0000001
 44
0.0000000001
 40
0.0
 40
0.0
 40
0.0
 40
0.0
 40
0.1177576741
 40
0.2460216689
 40
0.3810040379
 40
0.5181405755
 40
0.6526388559
 40
0.7799885484
 40
0.8965065056
 40
1.0
 40
1.0
 40
1.0
 40
1.0
 10
132.4827716691
 20
282.5082798691
 30
0.0
 10
132.4688438008
 20
284.3431334246
 30
0.0
 10
132.0444014638
 20
288.1775104296
 30
0.0
 10
130.4615254554
 20
293.9193940803
 30
0.0
 10
127.9807466899
 20
299.6645436978
 30
0.0
 10
124.7266429367
 20
305.1214728585
 30
0.0
 10
120.8636982104
 20
310.0162423332
 30
0.0
 10
116.5832036218
 20
314.1035536503
 30
0.0
 10
112.0994695442
 20
317.1795942357
 30
0.0
 10
108.9111294429
 20
318.5357430988
 30
0.0
 10
107.3546250534
 20
318.9575318194
 30
0.0
  0
SPLINE
  5
30F
100
AcDbEntity
  8
0
100
AcDbSpline
 62
7
  6
CONTINUOUS
 70
0
 71
3
 72
10
 73
6
 74
0
 42
0.0000001
 43
0.0000001
 44
0.0000000001
 40
0.0
 40
0.0
 40
0.0
 40
0.0
 40
0.51853801
 40
0.7618717199
 40
1.0
 40
1.0
 40
1.0
 40
1.0
 10
107.4358007312
 20
320.6482930329
 30
0.0
 10
106.2251154104
 20
320.8052360646
 30
0.0
 10
104.393360571
 20
320.8043182311
 30
0.0
 10
102.1084174386
 20
320.1984772801
 30
0.0
 10
101.0753636599
 20
319.7134892798
 30
0.0
 10
100.5919553038
 20
319.4295382739
 30
0.0
  0
SPLINE
  5
310
100
AcDbEntity
  8
0
100
AcDbSpline
 62
7
  6
CONTINUOUS
 70
0
 71
3
 72
9
 73
5
 74
0
 42
0.0000001
 43
0.0000001
 44
0.0000000001
 40
0.0
 40
0.0
 40
0.0
 40
0.0
 40
0.4948791965
 40
1.0
 40
1.0
 40
1.0
 40
1.0
 10
126.853550261
 20
269.7688790929
 30
0.0
 10
127.3235984322
 20
270.0450016666
 30
0.0
 10
128.2251655958
 20
270.6893502801
 30
0.0
 10
128.9998707114
 20
271.4808028267
 30
0.0
 10
129.3558055737
 20
271.9085029147
 30
0.0
  0
SPLINE
  5
311
100
AcDbEntity
  8
0
100
AcDbSpline
 62
7
  6
CONTINUOUS
 70
0
 71
3
 72
11
 73
7
 74
0
 42
0.0000001
 43
0.0000001
 44
0.0000000001
 40
0.0
 40
0.0
 40
0.0
 40
0.0
 40
0.2208883099
 40
0.4592447635
 40
0.718552344
 40
1.0
 40
1.0
 40
1.0
 40
1.0
 10
129.3558055737
 20
271.9085029147
 30
0.0
 10
129.8862443604
 20
272.5458912119
 30
0.0
 10
130.8308564376
 20
274.0079159775
 30
0.0
 10
131.8093236618
 20
276.5375302308
 30
0.0
 10
132.384867173
 20
279.4174512345
 30
0.0
 10
132.4907916397
 20
281.4517311419
 30
0.0
 10
132.4827716691
 20
282.5082798691
 30
0.0
  0
SPLINE
  5
312
100
AcDbEntity
  8
0
100
AcDbSpline
 62
7
  6
CONTINUOUS
 70
0
 71
3
 72
9
 73
5
 74
0
 42
0.0000001
 43
0.0000001
 44
0.0000000001
 40
0.0
 40
0.0
 40
0.0
 40
0.0
 40
0.2537368277
 40
1.0
 40
1.0
 40
1.0
 40
1.0
 10
98.8582829658
 20
317.8194499712
 30
0.0
 10
98.9903514302
 20
317.9718899765
 30
0.0
 10
99.5283876236
 20
318.5571827663
 30
0.0
 10
100.1381187938
 20
319.0770633069
 30
0.0
 10
100.6246843576
 20
319.4163817121
 30
0.0
  0
SPLINE
  5
313
100
AcDbEntity
  8
0
100
AcDbSpline
 62
7
  6
CONTINUOUS
 70
0
 71
3
 72
9
 73
5
 74
0
 42
0.0000001
 43
0.0000001
 44
0.0000000001
 40
0.0
 40
0.0
 40
0.0
 40
0.0
 40
0.495052468
 40
1.0
 40
1.0
 40
1.0
 40
1.0
 10
100.5919553038
 20
319.4295382739
 30
0.0
 10
100.1302407761
 20
319.1583300853
 30
0.0
 10
99.2442003849
 20
318.5271292382
 30
0.0
 10
98.4800016382
 20
317.7537090751
 30
0.0
 10
98.1282088037
 20
317.3359136977
 30
0.0
  0
SPLINE
  5
314
100
AcDbEntity
  8
0
100
AcDbSpline
 62
7
  6
CONTINUOUS
 70
0
 71
3
 72
9
 73
5
 74
0
 42
0.0000001
 43
0.0000001
 44
0.0000000001
 40
0.0
 40
0.0
 40
0.0
 40
0.0
 40
0.2565553215
 40
1.0
 40
1.0
 40
1.0
 40
1.0
 10
122.5414901944
 20
268.4679727106
 30
0.0
 10
122.794236072
 20
268.4860728051
 30
0.0
 10
123.7766302639
 20
268.589224823
 30
0.0
 10
124.7457058805
 20
268.8304097066
 30
0.0
 10
125.432610684
 20
269.0898917446
 30
0.0
  0
SPLINE
  5
315
100
AcDbEntity
  8
0
100
AcDbSpline
 62
7
  6
CONTINUOUS
 70
0
 71
3
 72
15
 73
11
 74
0
 42
0.0000001
 43
0.0000001
 44
0.0000000001
 40
0.0
 40
0.0
 40
0.0
 40
0.0
 40
0.1286952451
 40
0.2705567195
 40
0.4181521532
 40
0.5629693595
 40
0.6970112038
 40
0.8144189008
 40
0.9136109077
 40
1.0
 40
1.0
 40
1.0
 40
1.0
 10
533.1299694099
 20
434.2591717701
 30
0.0
 10
533.1273773073
 20
434.6006546571
 30
0.0
 10
533.026075765
 20
435.3186134729
 30
0.0
 10
532.6613556295
 20
436.3719861322
 30
0.0
 10
532.104148704
 20
437.3869109027
 30
0.0
 10
531.3998044202
 20
438.2795548935
 30
0.0
 10
530.6048908429
 20
438.9784903572
 30
0.0
 10
529.7787721473
 20
439.4274505821
 30
0.0
 10
528.9727725283
 20
439.5876605975
 30
0.0
 10
528.4731961159
 20
439.4571795619
 30
0.0
 10
528.2755352986
 20
439.3410841461
 30
0.0
  0
SPLINE
  5
316
100
AcDbEntity
  8
0
100
AcDbSpline
 62
7
  6
CONTINUOUS
 70
0
 71
3
 72
15
 73
11
 74
0
 42
0.0000001
 43
0.0000001
 44
0.0000000001
 40
0.0
 40
0.0
 40
0.0
 40
0.0
 40
0.128691293
 40
0.2705449858
 40
0.418137736
 40
0.5629529663
 40
0.6969976939
 40
0.8144077201
 40
0.9136013372
 40
1.0
 40
1.0
 40
1.0
 40
1.0
 10
490.02158181
 20
573.5385558054
 30
0.0
 10
490.0186819725
 20
573.9205796043
 30
0.0
 10
489.9053692659
 20
574.7237672791
 30
0.0
 10
489.4973317861
 20
575.9021848764
 30
0.0
 10
488.8740015243
 20
577.0376196982
 30
0.0
 10
488.0860253409
 20
578.0362691596
 30
0.0
 10
487.1967346386
 20
578.8182536284
 30
0.0
 10
486.2725041827
 20
579.3205375582
 30
0.0
 10
485.3707747763
 20
579.4999211745
 30
0.0
 10
484.8118167747
 20
579.3538853272
 30
0.0
 10
484.5906885863
 20
579.2239371807
 30
0.0
  0
SPLINE
  5
317
100
AcDbEntity
  8
0
100
AcDbSpline
 62
7
  6
CONTINUOUS
 70
0
 71
3
 72
11
 73
7
 74
0
 42
0.0000001
 43
0.0000001
 44
0.0000000001
 40
0.0
 40
0.0
 40
0.0
 40
0.0
 40
0.2173502969
 40
0.4502678734
 40
0.7098611297
 40
1.0
 40
1.0
 40
1.0
 40
1.0
 10
532.3274868001
 20
432.4432510319
 30
0.0
 10
532.4569676647
 20
432.5193787449
 30
0.0
 10
532.6989731459
 20
432.7259119667
 30
0.0
 10
532.9545599207
 20
433.1525481193
 30
0.0
 10
533.1041200604
 20
433.6772814595
 30
0.0
 10
533.1314913337
 20
434.0586739419
 30
0.0
 10
533.1299694099
 20
434.2591717701
 30
0.0
  0
SPLINE
  5
318
100
AcDbEntity
  8
0
100
AcDbSpline
 62
7
  6
CONTINUOUS
 70
0
 71
3
 72
11
 73
7
 74
0
 42
0.0000001
 43
0.0000001
 44
0.0000000001
 40
0.0
 40
0.0
 40
0.0
 40
0.0
 40
0.2173693412
 40
0.4502881417
 40
0.7097982868
 40
1.0
 40
1.0
 40
1.0
 40
1.0
 10
489.1238429937
 20
571.5069291831
 30
0.0
 10
489.2687312112
 20
571.5920741637
 30
0.0
 10
489.5393517082
 20
571.8233229914
 30
0.0
 10
489.8253260694
 20
572.3004956351
 30
0.0
 10
489.9927446846
 20
572.8875231724
 30
0.0
 10
490.0232848395
 20
573.3141991691
 30
0.0
 10
490.02158181
 20
573.5385558054
 30
0.0
  0
SPLINE
  5
319
100
AcDbEntity
  8
0
100
AcDbSpline
 62
7
  6
CONTINUOUS
 70
0
 71
3
 72
9
 73
5
 74
0
 42
0.0000001
 43
0.0000001
 44
0.0000000001
 40
0.0
 40
0.0
 40
0.0
 40
0.0
 40
0.2400633112
 40
1.0
 40
1.0
 40
1.0
 40
1.0
 10
527.5216067706
 20
438.1225152163
 30
0.0
 10
527.5130268926
 20
438.0752844906
 30
0.0
 10
527.4824932435
 20
437.8776061801
 30
0.0
 10
527.4719381631
 20
437.6770524139
 30
0.0
 10
527.4730916087
 20
437.5250978063
 30
0.0
  0
SPLINE
  5
31A
100
AcDbEntity
  8
0
100
AcDbSpline
 62
7
  6
CONTINUOUS
 70
0
 71
3
 72
15
 73
11
 74
0
 42
0.0000001
 43
0.0000001
 44
0.0000000001
 40
0.0
 40
0.0
 40
0.0
 40
0.0
 40
0.1286874883
 40
0.2705456625
 40
0.4181328817
 40
0.5629487918
 40
0.6969967465
 40
0.8144076758
 40
0.9136015077
 40
1.0
 40
1.0
 40
1.0
 40
1.0
 10
527.4730916087
 20
437.5250978063
 30
0.0
 10
527.4756835565
 20
437.1836353187
 30
0.0
 10
527.576980106
 20
436.4657065709
 30
0.0
 10
527.9416568511
 20
435.4123729872
 30
0.0
 10
528.4988347069
 20
434.397469472
 30
0.0
 10
529.2031516441
 20
433.5048188484
 30
0.0
 10
529.9980539131
 20
432.8058294868
 30
0.0
 10
530.8242027967
 20
432.3568714068
 30
0.0
 10
531.6302048862
 20
432.1965421224
 30
0.0
 10
532.1298560884
 20
432.3270549117
 30
0.0
 10
532.3274868001
 20
432.4432510319
 30
0.0
  0
SPLINE
  5
31B
100
AcDbEntity
  8
0
100
AcDbSpline
 62
7
  6
CONTINUOUS
 70
0
 71
3
 72
15
 73
11
 74
0
 42
0.0000001
 43
0.0000001
 44
0.0000000001
 40
0.0
 40
0.0
 40
0.0
 40
0.0
 40
0.128691293
 40
0.2705449858
 40
0.418137736
 40
0.5629529663
 40
0.6969976939
 40
0.8144077201
 40
0.9136013372
 40
1.0
 40
1.0
 40
1.0
 40
1.0
 10
483.6929497699
 20
577.1923105584
 30
0.0
 10
483.6958496074
 20
576.8102867594
 30
0.0
 10
483.809162314
 20
576.0070990847
 30
0.0
 10
484.2171997939
 20
574.8286814874
 30
0.0
 10
484.8405300556
 20
573.6932466655
 30
0.0
 10
485.628506239
 20
572.6945972041
 30
0.0
 10
486.5177969413
 20
571.9126127354
 30
0.0
 10
487.4420273972
 20
571.4103288056
 30
0.0
 10
488.3437568036
 20
571.2309451892
 30
0.0
 10
488.9027148053
 20
571.3769810366
 30
0.0
 10
489.1238429937
 20
571.5069291831
 30
0.0
  0
SPLINE
  5
31C
100
AcDbEntity
  8
0
100
AcDbSpline
 62
7
  6
CONTINUOUS
 70
0
 71
3
 72
9
 73
5
 74
0
 42
0.0000001
 43
0.0000001
 44
0.0000000001
 40
0.0
 40
0.0
 40
0.0
 40
0.0
 40
0.248766951
 40
1.0
 40
1.0
 40
1.0
 40
1.0
 10
489.5855769663
 20
575.5666989624
 30
0.0
 10
489.458354505
 20
575.7207514413
 30
0.0
 10
488.9728699262
 20
576.3609281073
 30
0.0
 10
488.5865565614
 20
577.0767080229
 30
0.0
 10
488.3662348431
 20
577.6383859639
 30
0.0
  0
SPLINE
  5
31D
100
AcDbEntity
  8
0
100
AcDbSpline
 62
7
  6
CONTINUOUS
 70
0
 71
3
 72
11
 73
7
 74
0
 42
0.0000001
 43
0.0000001
 44
0.0000000001
 40
0.0
 40
0.0
 40
0.0
 40
0.0
 40
0.2173693412
 40
0.4502881417
 40
0.7097982868
 40
1.0
 40
1.0
 40
1.0
 40
1.0
 10
484.5906885863
 20
579.2239371807
 30
0.0
 10
484.4458003687
 20
579.1387922
 30
0.0
 10
484.1751798717
 20
578.9075433724
 30
0.0
 10
483.8892055105
 20
578.4303707287
 30
0.0
 10
483.7217868953
 20
577.8433431913
 30
0.0
 10
483.6912467404
 20
577.4166671947
 30
0.0
 10
483.6929497699
 20
577.1923105584
 30
0.0
  0
ELLIPSE
  5
31E
100
AcDbEntity
  8
0
100
AcDbEllipse
 62
7
  6
CONTINUOUS
 10
221.3065497034
 20
357.7964951663
 30
0.0
 11
554.7583568935
 21
285.2954666483
 31
0.0
 40
0.0011917003
 41
1.7789538729
 42
1.7831958056
  0
ELLIPSE
  5
31F
100
AcDbEntity
  8
0
100
AcDbEllipse
 62
7
  6
CONTINUOUS
 10
256.4118549847
 20
378.4181889542
 30
0.0
 11
659.9916827256
 21
428.2600702044
 31
0.0
 40
0.0016161797
 41
-1.7915987143
 42
-1.7889502451
  0
ELLIPSE
  5
320
100
AcDbEntity
  8
0
100
AcDbEllipse
 62
7
  6
CONTINUOUS
 10
95.9366027416
 20
284.1511975189
 30
0.0
 11
6.2688648189
 21
42.4535403539
 31
0.0
 40
0.3852107034
 41
-1.1231573451
 42
-1.0294469152
  0
ELLIPSE
  5
321
100
AcDbEntity
  8
0
100
AcDbEllipse
 62
7
  6
CONTINUOUS
 10
95.9366027416
 20
284.1511975189
 30
0.0
 11
39.961487662
 21
-15.4022489045
 31
0.0
 40
0.3776801788
 41
1.0165761318
 42
1.1102865616
  0
ENDSEC
  0
SECTION
  2
OBJECTS
  0
DICTIONARY
  5
C
100
AcDbDictionary
280
0
281
1
  3
ACAD_GROUP
350
D
  3
ACAD_MLINESTYLE
350
17
  3
ACAD_LAYOUT
350
1A
  3
ACAD_PLOTSETTINGS
350
19
  3
ACAD_PLOTSTYLENAME
350
E
  0
DICTIONARY
  5
D
102
{ACAD_REACTORS
330
C
102
}
100
AcDbDictionary
280
0
281
1
  0
ACDBDICTIONARYWDFLT
  5
E
102
{ACAD_REACTORS
330
C
102
}
100
AcDbDictionary
281
1
  3
Normal
350
F
100
AcDbDictionaryWithDefault
340
F
  0
DICTIONARY
  5
17
102
{ACAD_REACTORS
330
C
102
}
100
AcDbDictionary
280
0
281
1
  3
Standard
350
18
  0
DICTIONARY
  5
19
102
{ACAD_REACTORS
330
C
102
}
100
AcDbDictionary
281
1
  0
DICTIONARY
  5
1A
102
{ACAD_REACTORS
330
C
102
}
100
AcDbDictionary
281
1
  3
Model
350
322
  3
Layout1
350
323
  0
ACDBPLACEHOLDER
  5
F
102
{ACAD_REACTORS
330
E
102
}
  0
MLINESTYLE
  5
18
102
{ACAD_REACTORS
330
17
102
}
100
AcDbMlineStyle
  2
STANDARD
 70
0
  3

 62
256
 51
90.0
 52
90.0
 71
2
 49
0.5
 62
256
  6
BYLAYER
 49
-0.5
 62
256
  6
BYLAYER
  0
LAYOUT
  5
322
102
{ACAD_REACTORS
330
1A
102
}
100
AcDbPlotSettings
  1

  2
none_device
  4

  6

 40
0.0
 41
0.0
 42
0.0
 43
0.0
 44
210.0
 45
297.0
 46
0.0
 47
0.0
 48
0.0
 49
0.0
140
0.0
141
0.0
142
1.0
143
1.0
 70
1024
 72
1
 73
0
 74
0
  7

 75
0
147
1.0
148
0.0
149
0.0
100
AcDbLayout
  1
Model
 70
0
 71
0
 10
0.0
 20
0.0
 11
210.0
 21
297.0
 12
0.0
 22
0.0
 32
0.0
 14
0.0
 24
0.0
 34
0.0
 15
0.0
 25
0.0
 35
0.0
146
0.0
 13
0.0
 23
0.0
 33
0.0
 16
1.0
 26
0.0
 36
0.0
 17
0.0
 27
1.0
 37
0.0
 76
0
330
210
345
0
346
0
  0
LAYOUT
  5
323
102
{ACAD_REACTORS
330
1A
102
}
100
AcDbPlotSettings
  1

  2
none_device
  4

  6

 40
0.0
 41
0.0
 42
0.0
 43
0.0
 44
210.0
 45
297.0
 46
0.0
 47
0.0
 48
0.0
 49
0.0
140
0.0
141
0.0
142
1.0
143
1.0
 70
0
 72
1
 73
0
 74
0
  7

 75
0
147
1.0
148
0.0
149
0.0
100
AcDbLayout
  1
Layout1
 70
0
 71
1
 10
0.0
 20
0.0
 11
210.0
 21
297.0
 12
0.0
 22
0.0
 32
0.0
 14
0.0
 24
0.0
 34
0.0
 15
0.0
 25
0.0
 35
0.0
146
0.0
 13
0.0
 23
0.0
 33
0.0
 16
1.0
 26
0.0
 36
0.0
 17
0.0
 27
1.0
 37
0.0
 76
0
330
211
345
0
346
0
  0
ENDSEC
  0
EOF
