999
DXF file: C:\Users\sesa63760\Dev\_Creo\CAD\MCADPP0003408_3D-CAD\drw0001_1.dxf
999
Pro/ENGINEER 2019471 by Parametric Technology Corporation
  0
SECTION
  2
HEADER
  9
$ACADVER
  1
AC1024
  9
$DWGCODEPAGE
  3
ANSI_1252
  9
$EXTMAX
 10
82.6187646986
 20
116.8465386452
 30
0.0
  9
$EXTMIN
 10
0.0
 20
0.0
 30
0.0
  9
$LIMMIN
 10
0.0
 20
0.0
  9
$LIMMAX
 10
82.6187646986
 20
116.8465386452
  9
$VIEWCTR
 10
41.3093823493
 20
58.4232693226
  9
$VIEWSIZE
 40
116.8465386452
  9
$CLAYER
  8
0
  9
$LTSCALE
 40
7.6166632598
  9
$CELTYPE
  6
BYLAYER
  9
$DIMSCALE
 40
1.0
  9
$DIMASZ
 40
0.9835567226
  9
$DIMEXO
 40
1.0
  9
$DIMDLI
 40
5.2624218886
  9
$DIMEXE
 40
1.0
  9
$DIMCEN
 40
1.2463630789
  9
$DIMLFAC
 40
1.0
  9
$DIMBLK
  1
_FILLED
  9
$DIMALT
 70
0
  9
$DIMALTF
 40
0.0393700787
  9
$DIMTXT
 40
1.3769794116
  9
$DIMTOL
 70
1
  9
$DIMLIM
 70
0
  9
$DIMTFAC
 40
1.0
  9
$DIMTP
 40
0.01
  9
$DIMTM
 40
0.01
  9
$DIMGAP
 40
0.625
  9
$DIMDSEP
 70
46
  9
$AUNITS
 70
0
  9
$PDMODE
 70
3
  9
$PDSIZE
 40
0.3125
  9
$HANDSEED
  5
2F3
  9
$TILEMODE
 70
1
  9
$MEASUREMENT
 70
1
  9
$INSUNITS
 70
4
  0
ENDSEC
  0
SECTION
  2
CLASSES
  0
CLASS
  1
ACDBDICTIONARYWDFLT
  2
AcDbDictionaryWithDefault
  3
AutoCAD 2000
 90
0
 91
1
280
0
281
0
  0
CLASS
  1
ACDBPLACEHOLDER
  2
AcDbPlaceHolder
  3
AutoCAD 2000
 90
0
 91
1
280
0
281
0
  0
CLASS
  1
LAYOUT
  2
AcDbLayout
  3
AutoCAD 2000
 90
0
 91
0
280
0
281
0
  0
ENDSEC
  0
SECTION
  2
TABLES
  0
TABLE
  2
VPORT
  5
8
100
AcDbSymbolTable
 70
2
  0
VPORT
  5
1F4
100
AcDbSymbolTableRecord
100
AcDbViewportTableRecord
  2
*ACTIVE
 70
0
 10
0.0
 20
0.0
 11
1.0
 21
1.0
 12
41.3093823493
 22
58.4232693226
 13
0.0
 23
0.0
 14
1.0
 24
1.0
 15
0.0
 25
0.0
 16
0.0
 26
0.0
 36
1.0
 17
0.0
 27
0.0
 37
0.0
 40
116.8465386452
 41
0.7070707071
 42
50.0
 43
0.0
 44
0.0
 50
0.0
 51
0.0
 71
0
 72
100
 73
1
 74
1
 75
0
 76
0
 77
0
 78
0
  0
ENDTAB
  0
TABLE
  2
LTYPE
  5
5
100
AcDbSymbolTable
 70
6
  0
LTYPE
  5
14
100
AcDbSymbolTableRecord
100
AcDbLinetypeTableRecord
  2
BYBLOCK
 70
0
  3

 72
65
 73
0
 40
0.0
  0
LTYPE
  5
15
100
AcDbSymbolTableRecord
100
AcDbLinetypeTableRecord
  2
BYLAYER
 70
0
  3

 72
65
 73
0
 40
0.0
  0
LTYPE
  5
16
100
AcDbSymbolTableRecord
100
AcDbLinetypeTableRecord
  2
CONTINUOUS
 70
64
  3
Solid line
 72
65
 73
0
 40
0.0
  0
LTYPE
  5
1F5
100
AcDbSymbolTableRecord
100
AcDbLinetypeTableRecord
  2
CENTER
 70
64
  3
____ _ ____ _ ____ _ ____ _ ____ _ ____ _ ____
 72
65
 73
4
 40
0.6
 49
0.375
 74
0
 49
-0.075
 74
0
 49
0.075
 74
0
 49
-0.075
 74
0
  0
LTYPE
  5
1F6
100
AcDbSymbolTableRecord
100
AcDbLinetypeTableRecord
  2
HIDDEN
 70
64
  3
- - - - - - - - - - - - - - - - - - - -
 72
65
 73
2
 40
0.2
 49
0.1
 74
0
 49
-0.1
 74
0
  0
LTYPE
  5
1F7
100
AcDbSymbolTableRecord
100
AcDbLinetypeTableRecord
  2
PHANTOM
 70
64
  3
_____ _ _ _____ _ _ _____ _ _ _____
 72
65
 73
6
 40
0.8
 49
0.45
 74
0
 49
-0.05
 74
0
 49
0.1
 74
0
 49
-0.05
 74
0
 49
0.1
 74
0
 49
-0.05
 74
0
  0
LTYPE
  5
1F8
100
AcDbSymbolTableRecord
100
AcDbLinetypeTableRecord
  2
DOT
 70
64
  3
. . . . . . . . . . . . . . . . . . . .
 72
65
 73
2
 40
0.2
 49
0.1
 74
0
 49
-0.1
 74
0
  0
LTYPE
  5
1F9
100
AcDbSymbolTableRecord
100
AcDbLinetypeTableRecord
  2
DASHED
 70
64
  3
- - - - - - - - - - - - - - - - - - - -
 72
65
 73
2
 40
0.2
 49
0.1
 74
0
 49
-0.1
 74
0
  0
ENDTAB
  0
TABLE
  2
LAYER
  5
2
100
AcDbSymbolTable
 70
36
  0
LAYER
  5
10
100
AcDbSymbolTableRecord
100
AcDbLayerTableRecord
  2
0
 70
0
 62
7
  6
CONTINUOUS
370
-3
390
F
  0
LAYER
  5
1FA
100
AcDbSymbolTableRecord
100
AcDbLayerTableRecord
  2
DEFAULT_1
 70
0
 62
7
  6
CENTER
370
-3
390
F
  0
LAYER
  5
1FB
100
AcDbSymbolTableRecord
100
AcDbLayerTableRecord
  2
DEFAULT_2
 70
0
 62
8
  6
HIDDEN
370
-3
390
F
  0
LAYER
  5
1FC
100
AcDbSymbolTableRecord
100
AcDbLayerTableRecord
  2
DEFAULT_3
 70
0
 62
7
  6
PHANTOM
370
-3
390
F
  0
LAYER
  5
1FD
100
AcDbSymbolTableRecord
100
AcDbLayerTableRecord
  2
00_COMPONENTS
 70
0
 62
7
  6
CONTINUOUS
370
-3
390
F
  0
LAYER
  5
1FE
100
AcDbSymbolTableRecord
100
AcDbLayerTableRecord
  2
01_1_DEFAULT_DATUMS
 70
0
 62
7
  6
CONTINUOUS
370
-3
390
F
  0
LAYER
  5
1FF
100
AcDbSymbolTableRecord
100
AcDbLayerTableRecord
  2
01_PLANES
 70
0
 62
7
  6
CONTINUOUS
370
-3
390
F
  0
LAYER
  5
200
100
AcDbSymbolTableRecord
100
AcDbLayerTableRecord
  2
02_COORD_SYS
 70
0
 62
7
  6
CONTINUOUS
370
-3
390
F
  0
LAYER
  5
201
100
AcDbSymbolTableRecord
100
AcDbLayerTableRecord
  2
03_AXES
 70
0
 62
7
  6
CONTINUOUS
370
-3
390
F
  0
LAYER
  5
202
100
AcDbSymbolTableRecord
100
AcDbLayerTableRecord
  2
04_POINTS
 70
0
 62
7
  6
CONTINUOUS
370
-3
390
F
  0
LAYER
  5
203
100
AcDbSymbolTableRecord
100
AcDbLayerTableRecord
  2
05_CURVES
 70
0
 62
7
  6
CONTINUOUS
370
-3
390
F
  0
LAYER
  5
204
100
AcDbSymbolTableRecord
100
AcDbLayerTableRecord
  2
06_SURFS
 70
0
 62
7
  6
CONTINUOUS
370
-3
390
F
  0
LAYER
  5
205
100
AcDbSymbolTableRecord
100
AcDbLayerTableRecord
  2
07_COSMETICS
 70
0
 62
7
  6
CONTINUOUS
370
-3
390
F
  0
LAYER
  5
206
100
AcDbSymbolTableRecord
100
AcDbLayerTableRecord
  2
10_NOTES
 70
0
 62
7
  6
CONTINUOUS
370
-3
390
F
  0
LAYER
  5
207
100
AcDbSymbolTableRecord
100
AcDbLayerTableRecord
  2
11_NOTES_PUB
 70
0
 62
7
  6
CONTINUOUS
370
-3
390
F
  0
LAYER
  5
208
100
AcDbSymbolTableRecord
100
AcDbLayerTableRecord
  2
13_REF_GTOL
 70
0
 62
7
  6
CONTINUOUS
370
-3
390
F
  0
LAYER
  5
209
100
AcDbSymbolTableRecord
100
AcDbLayerTableRecord
  2
16_MISC
 70
0
 62
7
  6
CONTINUOUS
370
-3
390
F
  0
LAYER
  5
20A
100
AcDbSymbolTableRecord
100
AcDbLayerTableRecord
  2
17_NO_PRINT
 70
0
 62
7
  6
CONTINUOUS
370
-3
390
F
  0
LAYER
  5
20B
100
AcDbSymbolTableRecord
100
AcDbLayerTableRecord
  2
18_DATUM_CAMS_JOINTS
 70
0
 62
7
  6
CONTINUOUS
370
-3
390
F
  0
LAYER
  5
20C
100
AcDbSymbolTableRecord
100
AcDbLayerTableRecord
  2
19_DATUM_FUNCTIONAL
 70
0
 62
7
  6
CONTINUOUS
370
-3
390
F
  0
LAYER
  5
20D
100
AcDbSymbolTableRecord
100
AcDbLayerTableRecord
  2
20_DATUM_KINEMATIC_SCHEME
 70
0
 62
7
  6
CONTINUOUS
370
-3
390
F
  0
ENDTAB
  0
TABLE
  2
STYLE
  5
3
100
AcDbSymbolTable
 70
1
  0
STYLE
  5
11
100
AcDbSymbolTableRecord
100
AcDbTextStyleTableRecord
  2
STANDARD
 70
0
 40
0.0
 41
0.8
 50
0.0
 71
0
 42
0.2
  3
txt
  4

  0
STYLE
  5
20E
100
AcDbSymbolTableRecord
100
AcDbTextStyleTableRecord
  2
TEXTSTYLE_1
 70
0
 40
0.0
 41
0.8
 50
0.0
 71
0
 42
0.2
  3
gdt
  4

  0
ENDTAB
  0
TABLE
  2
VIEW
  5
6
100
AcDbSymbolTable
 70
0
  0
ENDTAB
  0
TABLE
  2
UCS
  5
7
100
AcDbSymbolTable
 70
0
  0
ENDTAB
  0
TABLE
  2
APPID
  5
9
100
AcDbSymbolTable
 70
1
  0
APPID
  5
20F
100
AcDbSymbolTableRecord
100
AcDbRegAppTableRecord
  2
ACAD
 70
0
  0
ENDTAB
  0
TABLE
  2
BLOCK_RECORD
  5
1
100
AcDbSymbolTable
 70
0
  0
BLOCK_RECORD
  5
210
100
AcDbSymbolTableRecord
100
AcDbBlockTableRecord
  2
*Model_Space
  0
BLOCK_RECORD
  5
211
100
AcDbSymbolTableRecord
100
AcDbBlockTableRecord
  2
*Paper_Space
  0
BLOCK_RECORD
  5
212
100
AcDbSymbolTableRecord
100
AcDbBlockTableRecord
  2
_FILLED
  0
ENDTAB
  0
TABLE
  2
DIMSTYLE
  5
A
100
AcDbSymbolTable
 70
1
100
AcDbDimStyleTable
 71
0
  0
DIMSTYLE
105
213
100
AcDbSymbolTableRecord
100
AcDbDimStyleTableRecord
  2
STANDARD
 70
0
  3

  4

 40
1.0
 41
0.9835567226
 42
1.0
 43
0.38
 44
1.0
 45
0.0
 46
0.0
 47
0.01
 48
0.01
140
1.3769794116
141
0.09
142
0.0
143
25.4
144
1.0
145
0.0
146
1.0
147
0.625
 71
1
 72
0
 73
0
 74
0
 75
0
 76
0
 77
1
 78
8
 79
2
170
0
171
1
172
0
173
0
174
0
175
0
176
0
177
0
178
0
270
2
179
2
271
2
272
2
273
2
274
2
275
0
280
0
281
0
282
0
283
1
284
8
285
0
286
0
287
3
288
0
340
11
278
46
341
212
342
212
343
212
344
212
  0
ENDTAB
  0
ENDSEC
  0
SECTION
  2
BLOCKS
  0
BLOCK
  5
20
100
AcDbEntity
  8
0
100
AcDbBlockBegin
  2
*Model_Space
 70
0
 10
0.0
 20
0.0
 30
0.0
  3
*Model_Space
  1

  0
ENDBLK
  5
21
100
AcDbEntity
  8
0
100
AcDbBlockEnd
  0
BLOCK
  5
1C
100
AcDbEntity
  8
0
100
AcDbBlockBegin
  2
*Paper_Space
 70
0
 10
0.0
 20
0.0
 30
0.0
  3
*Paper_Space
  1

  0
ENDBLK
  5
1D
100
AcDbEntity
  8
0
100
AcDbBlockEnd
  0
BLOCK
  5
214
100
AcDbEntity
  8
0
100
AcDbBlockBegin
  2
_FILLED
 70
64
 10
0.0
 20
0.0
  3
_FILLED
  1

  0
SOLID
  5
215
100
AcDbEntity
  8
0
  6
BYBLOCK
 62
0
100
AcDbTrace
 10
0.0
 20
0.0
 11
-1.0
 21
0.25
 12
-1.0
 22
-0.25
 13
-1.0
 23
-0.25
  0
ENDBLK
  5
216
100
AcDbEntity
  8
0
  6
BYBLOCK
 62
0
100
AcDbBlockEnd
  0
ENDSEC
  0
SECTION
  2
ENTITIES
  0
LINE
  5
217
100
AcDbEntity
  8
0
100
AcDbLine
 62
7
  6
CONTINUOUS
 10
22.0222235601
 20
92.7567473375
 11
9.8953927519
 21
85.7553600986
  0
LINE
  5
218
100
AcDbEntity
  8
0
100
AcDbLine
 62
7
  6
CONTINUOUS
 10
22.7722630408
 20
92.682452675
 11
10.6454322326
 21
85.6810654361
  0
LINE
  5
219
100
AcDbEntity
  8
0
100
AcDbLine
 62
7
  6
CONTINUOUS
 10
62.1904511096
 20
27.588016886
 11
49.70264793
 21
24.3071916356
  0
LINE
  5
21A
100
AcDbEntity
  8
0
100
AcDbLine
 62
7
  6
CONTINUOUS
 10
9.5847272565
 20
47.4687599511
 11
9.5847272565
 21
85.0686962599
  0
LINE
  5
21B
100
AcDbEntity
  8
0
100
AcDbLine
 62
7
  6
CONTINUOUS
 10
21.4502900143
 20
84.919392898
 11
33.5771208225
 21
91.9207801369
  0
LINE
  5
21C
100
AcDbEntity
  8
0
100
AcDbLine
 62
7
  6
CONTINUOUS
 10
34.077118584
 20
91.8712558579
 11
21.9502877758
 21
84.869868619
  0
LINE
  5
21D
100
AcDbEntity
  8
0
100
AcDbLine
 62
7
  6
CONTINUOUS
 10
66.1528369699
 20
31.7578666486
 11
65.0921753261
 21
31.4720838759
  0
LINE
  5
21E
100
AcDbEntity
  8
0
100
AcDbLine
 62
7
  6
CONTINUOUS
 10
72.3373911736
 20
33.4463204941
 11
71.7367622779
 21
33.2885218469
  0
LINE
  5
21F
100
AcDbEntity
  8
0
100
AcDbLine
 62
7
  6
CONTINUOUS
 10
48.4298504247
 20
27.114501823
 11
49.4905150125
 21
27.3282474428
  0
LINE
  5
220
100
AcDbEntity
  8
0
100
AcDbLine
 62
7
  6
CONTINUOUS
 10
25.3073541693
 20
84.0747833927
 11
35.4542942333
 21
89.9330870008
  0
LINE
  5
221
100
AcDbEntity
  8
0
100
AcDbLine
 62
7
  6
CONTINUOUS
 10
26.6162804652
 20
83.3190915395
 11
36.4442396054
 21
88.9932325246
  0
LINE
  5
222
100
AcDbEntity
  8
0
100
AcDbLine
 62
7
  6
CONTINUOUS
 10
38.6704333448
 20
89.0183500956
 11
26.5082473447
 21
81.996550649
  0
LINE
  5
223
100
AcDbEntity
  8
0
100
AcDbLine
 62
7
  6
CONTINUOUS
 10
28.924163225
 20
83.3338698943
 11
37.4094092716
 21
88.2327997408
  0
LINE
  5
224
100
AcDbEntity
  8
0
100
AcDbLine
 62
7
  6
CONTINUOUS
 10
23.2843792448
 20
39.5594411205
 11
9.5847272565
 21
47.4687599511
  0
LINE
  5
225
100
AcDbEntity
  8
0
100
AcDbLine
 62
7
  6
CONTINUOUS
 10
48.4298504247
 20
25.0420249937
 11
49.70264793
 21
24.3071916356
  0
LINE
  5
226
100
AcDbEntity
  8
0
100
AcDbLine
 62
7
  6
CONTINUOUS
 10
24.1329038494
 20
40.0493341052
 11
25.5144889605
 21
39.2516936144
  0
LINE
  5
227
100
AcDbEntity
  8
0
100
AcDbLine
 62
7
  6
CONTINUOUS
 10
20.076498413
 20
85.1099780264
 11
20.076498413
 21
84.6720454085
  0
LINE
  5
228
100
AcDbEntity
  8
0
100
AcDbLine
 62
7
  6
CONTINUOUS
 10
43.0662870728
 20
84.9668737046
 11
34.5810410262
 21
80.0679438582
  0
LINE
  5
229
100
AcDbEntity
  8
0
100
AcDbLine
 62
7
  6
CONTINUOUS
 10
24.5295417148
 20
42.5556484945
 11
28.8181117805
 21
40.0796974261
  0
LINE
  5
22A
100
AcDbEntity
  8
0
100
AcDbLine
 62
7
  6
CONTINUOUS
 10
42.9603062834
 20
31.9148823357
 11
47.0156309744
 21
29.5735925007
  0
LINE
  5
22B
100
AcDbEntity
  8
0
100
AcDbLine
 62
7
  6
CONTINUOUS
 10
47.7227406996
 20
29.1653517462
 11
49.4905150125
 21
28.1447498599
  0
LINE
  5
22C
100
AcDbEntity
  8
0
100
AcDbLine
 62
7
  6
CONTINUOUS
 10
21.2091936872
 20
79.9881160251
 11
21.2091936872
 21
79.5822128911
  0
LINE
  5
22D
100
AcDbEntity
  8
0
100
AcDbLine
 62
7
  6
CONTINUOUS
 10
21.2091936872
 20
79.9881160251
 11
21.2432049753
 21
84.4687166491
  0
LINE
  5
22E
100
AcDbEntity
  8
0
100
AcDbLine
 62
7
  6
CONTINUOUS
 10
32.9193484807
 20
78.0879464523
 11
33.0317269115
 21
78.1921729849
  0
LINE
  5
22F
100
AcDbEntity
  8
0
100
AcDbLine
 62
7
  6
CONTINUOUS
 10
45.1939117045
 20
85.2139745222
 11
34.2641331706
 21
78.9037016108
  0
LINE
  5
230
100
AcDbEntity
  8
0
100
AcDbLine
 62
7
  6
CONTINUOUS
 10
45.6939094661
 20
85.1644502432
 11
33.531723466
 21
78.1426507966
  0
LINE
  5
231
100
AcDbEntity
  8
0
100
AcDbLine
 62
7
  6
CONTINUOUS
 10
24.2820536054
 20
81.9559698496
 11
24.2820536054
 21
81.971433078
  0
LINE
  5
232
100
AcDbEntity
  8
0
100
AcDbLine
 62
7
  6
CONTINUOUS
 10
24.5295417148
 20
41.3308948688
 11
24.5295417148
 21
42.5556484945
  0
LINE
  5
233
100
AcDbEntity
  8
0
100
AcDbLine
 62
7
  6
CONTINUOUS
 10
25.3780663194
 20
41.8207878534
 11
25.3780663194
 21
42.0657636682
  0
LINE
  5
234
100
AcDbEntity
  8
0
100
AcDbLine
 62
7
  6
CONTINUOUS
 10
40.5925487749
 20
77.6325599852
 11
40.9887167777
 21
77.9489959545
  0
LINE
  5
235
100
AcDbEntity
  8
0
100
AcDbLine
 62
7
  6
CONTINUOUS
 10
53.1508978516
 20
84.970803936
 11
40.9887118515
 21
77.9490044894
  0
LINE
  5
236
100
AcDbEntity
  8
0
100
AcDbLine
 62
7
  6
CONTINUOUS
 10
38.1304680313
 20
75.5284485241
 11
39.1204134034
 21
76.0999903395
  0
LINE
  5
237
100
AcDbEntity
  8
0
100
AcDbLine
 62
7
  6
CONTINUOUS
 10
55.6508866594
 20
84.7231825409
 11
43.4887006593
 21
77.7013830943
  0
LINE
  5
238
100
AcDbEntity
  8
0
100
AcDbLine
 62
7
  6
CONTINUOUS
 10
28.924163225
 20
82.0274660269
 11
28.924163225
 21
83.3338698943
  0
LINE
  5
239
100
AcDbEntity
  8
0
100
AcDbLine
 62
7
  6
CONTINUOUS
 10
38.4299073999
 20
75.3147469596
 11
40.5925487749
 21
77.6325599852
  0
LINE
  5
23A
100
AcDbEntity
  8
0
100
AcDbLine
 62
7
  6
CONTINUOUS
 10
45.5952642118
 20
72.86917185
 11
45.9637647107
 21
73.0819244423
  0
LINE
  5
23B
100
AcDbEntity
  8
0
100
AcDbLine
 62
7
  6
CONTINUOUS
 10
45.3785460176
 20
72.6013889231
 11
44.9796760675
 21
72.3711026247
  0
LINE
  5
23C
100
AcDbEntity
  8
0
100
AcDbLine
 62
7
  6
CONTINUOUS
 10
47.1306144996
 20
72.7410122664
 11
47.0952574965
 21
72.7205990129
  0
LINE
  5
23D
100
AcDbEntity
  8
0
100
AcDbLine
 62
7
  6
CONTINUOUS
 10
44.5161500791
 20
70.7397085969
 11
44.3038150556
 21
70.6171176457
  0
LINE
  5
23E
100
AcDbEntity
  8
0
100
AcDbLine
 62
7
  6
CONTINUOUS
 10
44.406896743
 20
70.4561758778
 11
44.3038150556
 21
70.3966619931
  0
LINE
  5
23F
100
AcDbEntity
  8
0
100
AcDbLine
 62
7
  6
CONTINUOUS
 10
34.5810410262
 20
79.0866673543
 11
34.5810410262
 21
80.0679438582
  0
LINE
  5
240
100
AcDbEntity
  8
0
100
AcDbLine
 62
7
  6
CONTINUOUS
 10
35.4542942333
 20
88.4216907092
 11
35.4542942333
 21
89.9330870008
  0
LINE
  5
241
100
AcDbEntity
  8
0
100
AcDbLine
 62
7
  6
CONTINUOUS
 10
45.4730927571
 20
72.9805175771
 11
44.9796760675
 21
72.3711026247
  0
LINE
  5
242
100
AcDbEntity
  8
0
100
AcDbLine
 62
7
  6
CONTINUOUS
 10
45.1018601241
 20
72.2597350563
 11
45.5953241277
 21
72.8690681988
  0
LINE
  5
243
100
AcDbEntity
  8
0
100
AcDbLine
 62
7
  6
CONTINUOUS
 10
52.3124288777
 20
72.6071164799
 11
64.4746148778
 21
79.6289159265
  0
LINE
  5
244
100
AcDbEntity
  8
0
100
AcDbLine
 62
7
  6
CONTINUOUS
 10
51.6367673348
 20
70.9012485845
 11
51.6001482481
 21
70.8899211845
  0
LINE
  5
245
100
AcDbEntity
  8
0
100
AcDbLine
 62
7
  6
CONTINUOUS
 10
52.4022360664
 20
70.9696290149
 11
52.3656169797
 21
70.9583016148
  0
LINE
  5
246
100
AcDbEntity
  8
0
100
AcDbLine
 62
7
  6
CONTINUOUS
 10
36.4302352441
 20
77.9390728758
 11
36.4302352441
 21
77.7757723924
  0
LINE
  5
247
100
AcDbEntity
  8
0
100
AcDbLine
 62
7
  6
CONTINUOUS
 10
37.1869354701
 20
77.3388939459
 11
37.1869354701
 21
77.5021944293
  0
LINE
  5
248
100
AcDbEntity
  8
0
100
AcDbLine
 62
7
  6
CONTINUOUS
 10
24.5295417148
 20
41.3308948688
 11
23.2843792448
 21
39.5594411205
  0
LINE
  5
249
100
AcDbEntity
  8
0
100
AcDbLine
 62
7
  6
CONTINUOUS
 10
24.1329038494
 20
40.0493341052
 11
25.3780663194
 21
41.8207878534
  0
LINE
  5
24A
100
AcDbEntity
  8
0
100
AcDbLine
 62
7
  6
CONTINUOUS
 10
51.8135381498
 20
70.7992054954
 11
51.5720561322
 21
70.6597866197
  0
LINE
  5
24B
100
AcDbEntity
  8
0
100
AcDbLine
 62
7
  6
CONTINUOUS
 10
65.1814822941
 20
78.4256861903
 11
53.019296294
 21
71.4038867437
  0
LINE
  5
24C
100
AcDbEntity
  8
0
100
AcDbLine
 62
7
  6
CONTINUOUS
 10
51.9192683728
 20
70.581375075
 11
51.6604675876
 21
70.4319572639
  0
LINE
  5
24D
100
AcDbEntity
  8
0
100
AcDbLine
 62
7
  6
CONTINUOUS
 10
51.3628299839
 20
70.2567706278
 11
51.6619166652
 21
70.429447373
  0
LINE
  5
24E
100
AcDbEntity
  8
0
100
AcDbLine
 62
7
  6
CONTINUOUS
 10
52.5790188347
 20
70.8675652219
 11
52.3375336155
 21
70.7281444978
  0
LINE
  5
24F
100
AcDbEntity
  8
0
100
AcDbLine
 62
7
  6
CONTINUOUS
 10
52.6847385466
 20
70.6497517872
 11
52.4259456445
 21
70.5003385273
  0
LINE
  5
250
100
AcDbEntity
  8
0
100
AcDbLine
 62
7
  6
CONTINUOUS
 10
65.2004833146
 20
77.5768402354
 11
53.0382973145
 21
70.5550407889
  0
LINE
  5
251
100
AcDbEntity
  8
0
100
AcDbLine
 62
7
  6
CONTINUOUS
 10
52.1990942066
 20
67.7485858648
 11
64.3259250148
 21
74.7499731038
  0
LINE
  5
252
100
AcDbEntity
  8
0
100
AcDbLine
 62
7
  6
CONTINUOUS
 10
69.8789284181
 20
36.6770826957
 11
71.646702731
 21
35.6564808094
  0
LINE
  5
253
100
AcDbEntity
  8
0
100
AcDbLine
 62
7
  6
CONTINUOUS
 10
72.5365221952
 20
37.5786661595
 11
74.3172819178
 21
36.550567313
  0
LINE
  5
254
100
AcDbEntity
  8
0
100
AcDbLine
 62
7
  6
CONTINUOUS
 10
44.9796760675
 20
72.3711026247
 11
44.3038150556
 21
70.6171176457
  0
LINE
  5
255
100
AcDbEntity
  8
0
100
AcDbLine
 62
7
  6
CONTINUOUS
 10
44.3745257337
 20
70.3721670906
 11
45.1018601241
 21
72.2597350563
  0
LINE
  5
256
100
AcDbEntity
  8
0
100
AcDbLine
 62
7
  6
CONTINUOUS
 10
26.8859808386
 20
41.2028722651
 11
25.5144889605
 21
39.2516936144
  0
LINE
  5
257
100
AcDbEntity
  8
0
100
AcDbLine
 62
7
  6
CONTINUOUS
 10
52.4566969631
 20
66.7407314706
 11
64.5835277713
 21
73.7421187095
  0
LINE
  5
258
100
AcDbEntity
  8
0
100
AcDbLine
 62
7
  6
CONTINUOUS
 10
43.0662870728
 20
83.9855972008
 11
43.0662870728
 21
84.9668737046
  0
LINE
  5
259
100
AcDbEntity
  8
0
100
AcDbLine
 62
7
  6
CONTINUOUS
 10
44.3038150556
 20
70.6171176457
 11
44.3038150556
 21
70.3966619931
  0
LINE
  5
25A
100
AcDbEntity
  8
0
100
AcDbLine
 62
7
  6
CONTINUOUS
 10
65.1403865075
 20
68.6119986872
 11
53.0135556992
 21
61.6106114483
  0
LINE
  5
25B
100
AcDbEntity
  8
0
100
AcDbLine
 62
7
  6
CONTINUOUS
 10
53.0078050895
 20
61.2326623698
 11
65.1346358977
 21
68.2340496087
  0
LINE
  5
25C
100
AcDbEntity
  8
0
100
AcDbLine
 62
7
  6
CONTINUOUS
 10
66.1528369699
 20
39.7381385461
 11
65.0921753261
 21
40.6771093991
  0
LINE
  5
25D
100
AcDbEntity
  8
0
100
AcDbLine
 62
7
  6
CONTINUOUS
 10
38.1304680313
 20
75.5284485241
 11
39.0712027951
 21
73.4339727495
  0
LINE
  5
25E
100
AcDbEntity
  8
0
100
AcDbLine
 62
7
  6
CONTINUOUS
 10
47.0861075069
 20
83.217449954
 11
47.0861075069
 21
83.0541494706
  0
LINE
  5
25F
100
AcDbEntity
  8
0
100
AcDbLine
 62
7
  6
CONTINUOUS
 10
48.4298504247
 20
27.114501823
 11
48.4298504247
 21
25.0420249937
  0
LINE
  5
260
100
AcDbEntity
  8
0
100
AcDbLine
 62
7
  6
CONTINUOUS
 10
24.5295417148
 20
41.3308948688
 11
25.3780663194
 21
41.8207878534
  0
LINE
  5
261
100
AcDbEntity
  8
0
100
AcDbLine
 62
7
  6
CONTINUOUS
 10
39.1341157906
 20
76.0694829966
 11
39.1204134034
 21
76.0999903395
  0
LINE
  5
262
100
AcDbEntity
  8
0
100
AcDbLine
 62
7
  6
CONTINUOUS
 10
49.4905150125
 20
28.1447498599
 11
49.4905150125
 21
27.3282474428
  0
LINE
  5
263
100
AcDbEntity
  8
0
100
AcDbLine
 62
7
  6
CONTINUOUS
 10
23.2843792448
 20
39.5594411205
 11
24.1329038494
 21
40.0493341052
  0
LINE
  5
264
100
AcDbEntity
  8
0
100
AcDbLine
 62
7
  6
CONTINUOUS
 10
62.3644892894
 20
61.2316704042
 11
63.2967166226
 21
61.7698888932
  0
LINE
  5
265
100
AcDbEntity
  8
0
100
AcDbLine
 62
7
  6
CONTINUOUS
 10
25.5144889605
 20
39.2516936144
 11
27.8833692029
 21
40.6193590961
  0
LINE
  5
266
100
AcDbEntity
  8
0
100
AcDbLine
 62
7
  6
CONTINUOUS
 10
21.2091936872
 20
79.5822128911
 11
10.6454322326
 21
85.6810654361
  0
LINE
  5
267
100
AcDbEntity
  8
0
100
AcDbLine
 62
7
  6
CONTINUOUS
 10
61.1324112195
 20
56.5329594771
 11
53.0078050895
 21
61.2326623698
  0
LINE
  5
268
100
AcDbEntity
  8
0
100
AcDbLine
 62
7
  6
CONTINUOUS
 10
53.019296294
 20
71.4038867437
 11
53.0382973145
 21
70.5550407889
  0
LINE
  5
269
100
AcDbEntity
  8
0
100
AcDbLine
 62
7
  6
CONTINUOUS
 10
53.0078050895
 20
61.2326623698
 11
53.0135556992
 21
61.6106114483
  0
LINE
  5
26A
100
AcDbEntity
  8
0
100
AcDbLine
 62
7
  6
CONTINUOUS
 10
61.1324112195
 20
56.5329594771
 11
73.2592420277
 21
63.534346716
  0
LINE
  5
26B
100
AcDbEntity
  8
0
100
AcDbLine
 62
7
  6
CONTINUOUS
 10
53.0382973145
 20
70.5550407889
 11
52.7320865067
 21
70.5276865339
  0
LINE
  5
26C
100
AcDbEntity
  8
0
100
AcDbLine
 62
7
  6
CONTINUOUS
 10
52.4259456445
 20
70.5003385273
 11
51.9666177751
 21
70.4593061036
  0
LINE
  5
26D
100
AcDbEntity
  8
0
100
AcDbLine
 62
7
  6
CONTINUOUS
 10
51.6604675876
 20
70.4319572639
 11
51.2011723602
 21
70.3909277561
  0
LINE
  5
26E
100
AcDbEntity
  8
0
100
AcDbLine
 62
7
  6
CONTINUOUS
 10
44.3038150556
 20
70.3966619931
 11
24.2820536054
 21
81.9559698496
  0
LINE
  5
26F
100
AcDbEntity
  8
0
100
AcDbLine
 62
7
  6
CONTINUOUS
 10
44.3745257337
 20
70.3721670906
 11
44.3108856413
 21
70.4089088838
  0
LINE
  5
270
100
AcDbEntity
  8
0
100
AcDbLine
 62
7
  6
CONTINUOUS
 10
21.2429606984
 20
84.4365359473
 11
20.076498413
 21
85.1099780264
  0
LINE
  5
271
100
AcDbEntity
  8
0
100
AcDbLine
 62
7
  6
CONTINUOUS
 10
60.0281978838
 20
62.044375396
 11
61.3746144922
 21
61.2670389905
  0
LINE
  5
272
100
AcDbEntity
  8
0
100
AcDbLine
 62
7
  6
CONTINUOUS
 10
26.908915817
 20
81.5579928658
 11
32.9193484807
 21
78.0879464523
  0
LINE
  5
273
100
AcDbEntity
  8
0
100
AcDbLine
 62
7
  6
CONTINUOUS
 10
33.531723466
 20
78.1426507966
 11
38.4299073999
 21
75.3147469596
  0
LINE
  5
274
100
AcDbEntity
  8
0
100
AcDbLine
 62
7
  6
CONTINUOUS
 10
38.1304680313
 20
75.5284485241
 11
21.9502877758
 21
84.869868619
  0
LINE
  5
275
100
AcDbEntity
  8
0
100
AcDbLine
 62
7
  6
CONTINUOUS
 10
51.3628299839
 20
70.2567706278
 11
52.1990942066
 21
67.7485858648
  0
LINE
  5
276
100
AcDbEntity
  8
0
100
AcDbLine
 62
7
  6
CONTINUOUS
 10
74.3172819178
 20
61.6988417606
 11
62.1904511096
 21
54.6974545217
  0
LINE
  5
277
100
AcDbEntity
  8
0
100
AcDbLine
 62
7
  6
CONTINUOUS
 10
63.2967166226
 20
61.7698888932
 11
63.7120633015
 21
61.5300938013
  0
LINE
  5
278
100
AcDbEntity
  8
0
100
AcDbLine
 62
7
  6
CONTINUOUS
 10
25.3073541693
 20
84.0747833927
 11
39.1204134034
 21
76.0999903395
  0
LINE
  5
279
100
AcDbEntity
  8
0
100
AcDbLine
 62
7
  6
CONTINUOUS
 10
37.1869354701
 20
77.3388939459
 11
36.4302352441
 21
77.7757723924
  0
LINE
  5
27A
100
AcDbEntity
  8
0
100
AcDbLine
 62
7
  6
CONTINUOUS
 10
37.1869354701
 20
77.5021944293
 11
36.4302352441
 21
77.9390728758
  0
LINE
  5
27B
100
AcDbEntity
  8
0
100
AcDbLine
 62
7
  6
CONTINUOUS
 10
51.3628299839
 20
70.2567706278
 11
47.0952574965
 21
72.7205990129
  0
LINE
  5
27C
100
AcDbEntity
  8
0
100
AcDbLine
 62
7
  6
CONTINUOUS
 10
51.2011723602
 20
70.3909277561
 11
46.9730734519
 21
72.831966575
  0
LINE
  5
27D
100
AcDbEntity
  8
0
100
AcDbLine
 62
7
  6
CONTINUOUS
 10
34.5810410262
 20
80.0679438582
 11
28.924163225
 21
83.3338698943
  0
LINE
  5
27E
100
AcDbEntity
  8
0
100
AcDbLine
 62
7
  6
CONTINUOUS
 10
51.5720567143
 20
70.6597851197
 11
51.6604675876
 21
70.4319572639
  0
LINE
  5
27F
100
AcDbEntity
  8
0
100
AcDbLine
 62
7
  6
CONTINUOUS
 10
52.3375341981
 20
70.7281429967
 11
52.4259456445
 21
70.5003385273
  0
LINE
  5
280
100
AcDbEntity
  8
0
100
AcDbLine
 62
7
  6
CONTINUOUS
 10
51.9666177751
 20
70.4593061036
 11
51.87825206
 21
70.6871170459
  0
LINE
  5
281
100
AcDbEntity
  8
0
100
AcDbLine
 62
7
  6
CONTINUOUS
 10
52.7320865067
 20
70.5276865339
 11
52.6437207915
 21
70.7554974763
  0
LINE
  5
282
100
AcDbEntity
  8
0
100
AcDbLine
 62
7
  6
CONTINUOUS
 10
60.0281978838
 20
62.044375396
 11
60.0281978838
 21
61.6116320566
  0
LINE
  5
283
100
AcDbEntity
  8
0
100
AcDbLine
 62
7
  6
CONTINUOUS
 10
43.4887006593
 20
77.7013830943
 11
52.3124288777
 21
72.6071164799
  0
LINE
  5
284
100
AcDbEntity
  8
0
100
AcDbLine
 62
7
  6
CONTINUOUS
 10
62.1904511096
 20
54.6974545217
 11
62.1904511096
 21
27.588016886
  0
LINE
  5
285
100
AcDbEntity
  8
0
100
AcDbLine
 62
7
  6
CONTINUOUS
 10
63.2967166226
 20
61.4228995437
 11
63.2967166226
 21
61.7698888932
  0
LINE
  5
286
100
AcDbEntity
  8
0
100
AcDbLine
 62
7
  6
CONTINUOUS
 10
64.09963147
 20
28.879248639
 11
64.09963147
 21
28.6902761015
  0
LINE
  5
287
100
AcDbEntity
  8
0
100
AcDbLine
 62
7
  6
CONTINUOUS
 10
28.834374114
 20
89.1825703929
 11
22.7722630408
 21
92.682452675
  0
LINE
  5
288
100
AcDbEntity
  8
0
100
AcDbLine
 62
7
  6
CONTINUOUS
 10
73.2592420277
 20
63.534346716
 11
65.1346358977
 21
68.2340496087
  0
LINE
  5
289
100
AcDbEntity
  8
0
100
AcDbLine
 62
7
  6
CONTINUOUS
 10
65.2004833146
 20
77.5768402354
 11
65.1814822941
 21
78.4256861903
  0
LINE
  5
28A
100
AcDbEntity
  8
0
100
AcDbLine
 62
7
  6
CONTINUOUS
 10
65.0921753261
 20
31.4720838759
 11
65.0921753261
 21
40.6771093991
  0
LINE
  5
28B
100
AcDbEntity
  8
0
100
AcDbLine
 62
7
  6
CONTINUOUS
 10
66.1528369699
 20
31.7578666486
 11
66.1528369699
 21
39.7381385461
  0
LINE
  5
28C
100
AcDbEntity
  8
0
100
AcDbLine
 62
7
  6
CONTINUOUS
 10
66.8331303631
 20
32.877380096
 11
66.8331303631
 21
39.5198886842
  0
LINE
  5
28D
100
AcDbEntity
  8
0
100
AcDbLine
 62
7
  6
CONTINUOUS
 10
65.1346358977
 20
68.2340496087
 11
65.1403865075
 21
68.6119986872
  0
LINE
  5
28E
100
AcDbEntity
  8
0
100
AcDbLine
 62
7
  6
CONTINUOUS
 10
71.983839255
 20
46.9609964119
 11
74.3172819178
 21
48.3082021197
  0
LINE
  5
28F
100
AcDbEntity
  8
0
100
AcDbLine
 62
7
  6
CONTINUOUS
 10
37.4094092716
 20
88.2327997408
 11
43.0662870728
 21
84.9668737046
  0
LINE
  5
290
100
AcDbEntity
  8
0
100
AcDbLine
 62
7
  6
CONTINUOUS
 10
35.4542942333
 20
89.9330870008
 11
48.6001943521
 21
82.3434697286
  0
LINE
  5
291
100
AcDbEntity
  8
0
100
AcDbLine
 62
7
  6
CONTINUOUS
 10
49.5901397242
 20
82.915011544
 11
34.077118584
 21
91.8712558579
  0
LINE
  5
292
100
AcDbEntity
  8
0
100
AcDbLine
 62
7
  6
CONTINUOUS
 10
69.8789284181
 20
41.2783705144
 11
69.8789284181
 21
36.6770826957
  0
LINE
  5
293
100
AcDbEntity
  8
0
100
AcDbLine
 62
7
  6
CONTINUOUS
 10
47.7227406996
 20
29.1653517462
 11
47.6814583742
 21
29.1347846677
  0
LINE
  5
294
100
AcDbEntity
  8
0
100
AcDbLine
 62
7
  6
CONTINUOUS
 10
71.983839255
 20
45.8154110744
 11
72.8355982584
 21
46.3071714289
  0
LINE
  5
295
100
AcDbEntity
  8
0
100
AcDbLine
 62
7
  6
CONTINUOUS
 10
65.0921753261
 20
40.6771093991
 11
71.983839255
 21
44.6559896728
  0
LINE
  5
296
100
AcDbEntity
  8
0
100
AcDbLine
 62
7
  6
CONTINUOUS
 10
66.1528369699
 20
39.7381385461
 11
72.2666866778
 21
43.2679502506
  0
LINE
  5
297
100
AcDbEntity
  8
0
100
AcDbLine
 62
7
  6
CONTINUOUS
 10
64.3259250148
 20
74.7499731038
 11
63.6767244442
 21
76.6971028927
  0
LINE
  5
298
100
AcDbEntity
  8
0
100
AcDbLine
 62
7
  6
CONTINUOUS
 10
71.983839255
 20
44.6559896728
 11
72.2666866778
 21
43.2679502506
  0
LINE
  5
299
100
AcDbEntity
  8
0
100
AcDbLine
 62
7
  6
CONTINUOUS
 10
71.646702731
 20
42.2989893975
 11
71.646702731
 21
35.6564808094
  0
LINE
  5
29A
100
AcDbEntity
  8
0
100
AcDbLine
 62
7
  6
CONTINUOUS
 10
71.983839255
 20
44.6559896728
 11
71.983839255
 21
46.9609964119
  0
LINE
  5
29B
100
AcDbEntity
  8
0
100
AcDbLine
 62
7
  6
CONTINUOUS
 10
72.2666866778
 20
43.2679502506
 11
72.2666866778
 21
35.2876783531
  0
LINE
  5
29C
100
AcDbEntity
  8
0
100
AcDbLine
 62
7
  6
CONTINUOUS
 10
72.3373911736
 20
33.6352930316
 11
72.3373911736
 21
33.4463204941
  0
LINE
  5
29D
100
AcDbEntity
  8
0
100
AcDbLine
 62
7
  6
CONTINUOUS
 10
72.5365221952
 20
37.5786661595
 11
72.5365221952
 21
46.1345008141
  0
LINE
  5
29E
100
AcDbEntity
  8
0
100
AcDbLine
 62
7
  6
CONTINUOUS
 10
72.8355982584
 20
46.3071714289
 11
72.8355982584
 21
47.4527567664
  0
LINE
  5
29F
100
AcDbEntity
  8
0
100
AcDbLine
 62
7
  6
CONTINUOUS
 10
66.8331303631
 20
39.5198886842
 11
71.646702731
 21
42.2989893975
  0
LINE
  5
2A0
100
AcDbEntity
  8
0
100
AcDbLine
 62
7
  6
CONTINUOUS
 10
48.4298504247
 20
27.114501823
 11
49.4905150125
 21
27.7268731529
  0
LINE
  5
2A1
100
AcDbEntity
  8
0
100
AcDbLine
 62
7
  6
CONTINUOUS
 10
55.6508866594
 20
84.7231825409
 11
64.4746148778
 21
79.6289159265
  0
LINE
  5
2A2
100
AcDbEntity
  8
0
100
AcDbLine
 62
7
  6
CONTINUOUS
 10
74.3172819178
 20
34.5894041249
 11
74.3172819178
 21
36.550567313
  0
LINE
  5
2A3
100
AcDbEntity
  8
0
100
AcDbLine
 62
7
  6
CONTINUOUS
 10
74.3172819178
 20
48.3082021197
 11
74.3172819178
 21
61.6988417606
  0
LINE
  5
2A4
100
AcDbEntity
  8
0
100
AcDbLine
 62
7
  6
CONTINUOUS
 10
69.8789284181
 20
36.6770826957
 11
66.8331303631
 21
34.9186008654
  0
LINE
  5
2A5
100
AcDbEntity
  8
0
100
AcDbLine
 62
7
  6
CONTINUOUS
 10
72.5365221952
 20
37.5786661595
 11
72.2666866778
 21
37.4228774808
  0
LINE
  5
2A6
100
AcDbEntity
  8
0
100
AcDbLine
 62
7
  6
CONTINUOUS
 10
71.646702731
 20
35.6564808094
 11
66.8331303631
 21
32.877380096
  0
LINE
  5
2A7
100
AcDbEntity
  8
0
100
AcDbLine
 62
7
  6
CONTINUOUS
 10
72.2666866778
 20
35.3666626662
 11
74.3172819178
 21
36.550567313
  0
LINE
  5
2A8
100
AcDbEntity
  8
0
100
AcDbLine
 62
7
  6
CONTINUOUS
 10
72.2666866778
 20
35.2876783531
 11
66.1528369699
 21
31.7578666486
  0
LINE
  5
2A9
100
AcDbEntity
  8
0
100
AcDbLine
 62
7
  6
CONTINUOUS
 10
64.09963147
 20
28.879248639
 11
72.3373911736
 21
33.6352930316
  0
LINE
  5
2AA
100
AcDbEntity
  8
0
100
AcDbLine
 62
7
  6
CONTINUOUS
 10
62.1904511096
 20
27.588016886
 11
64.09963147
 21
28.6902761015
  0
LINE
  5
2AB
100
AcDbEntity
  8
0
100
AcDbLine
 62
7
  6
CONTINUOUS
 10
72.3373911736
 20
33.4463204941
 11
74.3172819178
 21
34.5894041249
  0
ARC
  5
2AC
100
AcDbEntity
  8
0
100
AcDbCircle
 62
7
  6
CONTINUOUS
 10
45.7669382537
 20
70.4236246151
 40
2.6533984614
100
AcDbArc
 50
59.9595986173
 51
63.5047290265
  0
ARC
  5
2AD
100
AcDbEntity
  8
0
100
AcDbCircle
 62
7
  6
CONTINUOUS
 10
45.9751207756
 20
72.1104489846
 40
1.0045300984
100
AcDbArc
 50
114.6728289783
 51
119.9848691429
  0
ARC
  5
2AE
100
AcDbEntity
  8
0
100
AcDbCircle
 62
7
  6
CONTINUOUS
 10
41.1640802555
 20
79.5927278025
 40
0.4583656375
100
AcDbArc
 50
11.0723873218
 51
18.5625758422
  0
ARC
  5
2AF
100
AcDbEntity
  8
0
100
AcDbCircle
 62
7
  6
CONTINUOUS
 10
43.9924956044
 20
81.225704418
 40
0.4583656375
100
AcDbArc
 50
11.0723873218
 51
18.5625758423
  0
ARC
  5
2B0
100
AcDbEntity
  8
0
100
AcDbCircle
 62
7
  6
CONTINUOUS
 10
39.5183842198
 20
79.5941719269
 40
0.4527310661
100
AcDbArc
 50
161.3907543222
 51
168.9750796912
  0
ARC
  5
2B1
100
AcDbEntity
  8
0
100
AcDbCircle
 62
7
  6
CONTINUOUS
 10
42.3467995687
 20
81.2271485424
 40
0.4527310661
100
AcDbArc
 50
161.3907543221
 51
168.9750796912
  0
SPLINE
  5
2B2
100
AcDbEntity
  8
0
100
AcDbSpline
 62
7
  6
CONTINUOUS
 70
0
 71
3
 72
12
 73
8
 74
0
 42
0.0000001
 43
0.0000001
 44
0.0000000001
 40
0.0
 40
0.0
 40
0.0
 40
0.0
 40
0.1159636156
 40
0.235776605
 40
0.4844275146
 40
0.7410431039
 40
1.0
 40
1.0
 40
1.0
 40
1.0
 10
20.076498413
 20
85.1099780264
 30
0.0
 10
20.1593027923
 20
85.1444430191
 30
0.0
 10
20.330153393
 20
85.2086634519
 30
0.0
 10
20.688739674
 20
85.3179419698
 30
0.0
 10
21.1632624623
 20
85.4165302641
 30
0.0
 10
21.7526750861
 20
85.4728888937
 30
0.0
 10
22.1523069426
 20
85.4688790969
 30
0.0
 10
22.3521929563
 20
85.4562129309
 30
0.0
  0
SPLINE
  5
2B3
100
AcDbEntity
  8
0
100
AcDbSpline
 62
7
  6
CONTINUOUS
 70
0
 71
3
 72
18
 73
14
 74
0
 42
0.0000001
 43
0.0000001
 44
0.0000000001
 40
0.0
 40
0.0
 40
0.0
 40
0.0
 40
0.0592721289
 40
0.1204808431
 40
0.2474642358
 40
0.3785465954
 40
0.5109696372
 40
0.6418893432
 40
0.7685609239
 40
0.829549088
 40
0.8885934465
 40
0.945469
 40
1.0
 40
1.0
 40
1.0
 40
1.0
 10
60.0281978838
 20
62.044375396
 30
0.0
 10
60.109382754
 20
62.0781663136
 30
0.0
 10
60.2768004945
 20
62.1412255973
 30
0.0
 10
60.6279744632
 20
62.2489448807
 30
0.0
 10
61.0925169811
 20
62.3470967433
 30
0.0
 10
61.6699395566
 20
62.4053198225
 30
0.0
 10
62.2561688725
 20
62.4035766683
 30
0.0
 10
62.8325335567
 20
62.3419286196
 30
0.0
 10
63.295424251
 20
62.2409814653
 30
0.0
 10
63.6447722204
 20
62.1311375046
 30
0.0
 10
63.8898665807
 20
62.0367046527
 30
0.0
 10
64.1193259375
 20
61.9299564735
 30
0.0
 10
64.2638547943
 20
61.8493700299
 30
0.0
 10
64.3328416953
 20
61.8071088041
 30
0.0
  0
SPLINE
  5
2B4
100
AcDbEntity
  8
0
100
AcDbSpline
 62
7
  6
CONTINUOUS
 70
0
 71
3
 72
10
 73
6
 74
0
 42
0.0000001
 43
0.0000001
 44
0.0000000001
 40
0.0
 40
0.0
 40
0.0
 40
0.0
 40
0.5217406781
 40
0.7717773042
 40
1.0
 40
1.0
 40
1.0
 40
1.0
 10
52.6437207915
 20
70.7554974763
 30
0.0
 10
52.628123219
 20
70.795713624
 30
0.0
 10
52.5956094288
 20
70.8521641688
 30
0.0
 10
52.5389301472
 20
70.9126482873
 30
0.0
 10
52.5069866934
 20
70.9365167955
 30
0.0
 10
52.4906462501
 20
70.9459509635
 30
0.0
  0
SPLINE
  5
2B5
100
AcDbEntity
  8
0
100
AcDbSpline
 62
7
  6
CONTINUOUS
 70
0
 71
3
 72
9
 73
5
 74
0
 42
0.0000001
 43
0.0000001
 44
0.0000000001
 40
0.0
 40
0.0
 40
0.0
 40
0.0
 40
0.2798293171
 40
1.0
 40
1.0
 40
1.0
 40
1.0
 10
52.4906462501
 20
70.9459509635
 30
0.0
 10
52.4831932189
 20
70.9502536767
 30
0.0
 10
52.4558705121
 20
70.9641489626
 30
0.0
 10
52.4242958228
 20
70.9716055759
 30
0.0
 10
52.4022360664
 20
70.9696290149
 30
0.0
  0
SPLINE
  5
2B6
100
AcDbEntity
  8
0
100
AcDbSpline
 62
7
  6
CONTINUOUS
 70
0
 71
3
 72
10
 73
6
 74
0
 42
0.0000001
 43
0.0000001
 44
0.0000000001
 40
0.0
 40
0.0
 40
0.0
 40
0.0
 40
0.5217406781
 40
0.7717773042
 40
1.0
 40
1.0
 40
1.0
 40
1.0
 10
51.87825206
 20
70.6871170459
 30
0.0
 10
51.8626544875
 20
70.7273331936
 30
0.0
 10
51.8301406973
 20
70.7837837384
 30
0.0
 10
51.7734614157
 20
70.844267857
 30
0.0
 10
51.7415179618
 20
70.8681363651
 30
0.0
 10
51.7251775185
 20
70.8775705332
 30
0.0
  0
SPLINE
  5
2B7
100
AcDbEntity
  8
0
100
AcDbSpline
 62
7
  6
CONTINUOUS
 70
0
 71
3
 72
9
 73
5
 74
0
 42
0.0000001
 43
0.0000001
 44
0.0000000001
 40
0.0
 40
0.0
 40
0.0
 40
0.0
 40
0.2798293171
 40
1.0
 40
1.0
 40
1.0
 40
1.0
 10
51.7251775185
 20
70.8775705332
 30
0.0
 10
51.7177244873
 20
70.8818732464
 30
0.0
 10
51.6904017805
 20
70.8957685322
 30
0.0
 10
51.6588270912
 20
70.9032251455
 30
0.0
 10
51.6367673348
 20
70.9012485845
 30
0.0
  0
SPLINE
  5
2B8
100
AcDbEntity
  8
0
100
AcDbSpline
 62
7
  6
CONTINUOUS
 70
0
 71
3
 72
12
 73
8
 74
0
 42
0.0000001
 43
0.0000001
 44
0.0000000001
 40
0.0
 40
0.0
 40
0.0
 40
0.0
 40
0.2876724426
 40
0.5471217195
 40
0.7815797652
 40
0.8921568832
 40
1.0
 40
1.0
 40
1.0
 40
1.0
 10
46.9730734519
 20
72.831966575
 30
0.0
 10
46.8499325465
 20
72.9030604016
 30
0.0
 10
46.6048927102
 20
73.021137009
 30
0.0
 10
46.2288864414
 20
73.1207459017
 30
0.0
 10
45.9262689528
 20
73.1270763654
 30
0.0
 10
45.706091377
 20
73.0828565299
 30
0.0
 10
45.6042303189
 20
73.0455258301
 30
0.0
 10
45.5557935579
 20
73.0232717512
 30
0.0
  0
SPLINE
  5
2B9
100
AcDbEntity
  8
0
100
AcDbSpline
 62
7
  6
CONTINUOUS
 70
0
 71
3
 72
12
 73
8
 74
0
 42
0.0000001
 43
0.0000001
 44
0.0000000001
 40
0.0
 40
0.0
 40
0.0
 40
0.0
 40
0.108160086
 40
0.2183661675
 40
0.4513442184
 40
0.7104418196
 40
1.0
 40
1.0
 40
1.0
 40
1.0
 10
39.0660430243
 20
79.7617706173
 30
0.0
 10
39.0660430246
 20
79.7375782768
 30
0.0
 10
39.070238182
 20
79.6886329529
 30
0.0
 10
39.0956875872
 20
79.5905241928
 30
0.0
 10
39.1609253542
 20
79.4701954274
 30
0.0
 10
39.2825016243
 20
79.3425319663
 30
0.0
 10
39.3842445983
 20
79.2724463624
 30
0.0
 10
39.4403338685
 20
79.2400639398
 30
0.0
  0
SPLINE
  5
2BA
100
AcDbEntity
  8
0
100
AcDbSpline
 62
7
  6
CONTINUOUS
 70
0
 71
3
 72
12
 73
8
 74
0
 42
0.0000001
 43
0.0000001
 44
0.0000000001
 40
0.0
 40
0.0
 40
0.0
 40
0.0
 40
0.108160086
 40
0.2183661675
 40
0.4513442184
 40
0.7104418196
 40
1.0
 40
1.0
 40
1.0
 40
1.0
 10
41.8944583732
 20
81.3947472327
 30
0.0
 10
41.8944583735
 20
81.3705548922
 30
0.0
 10
41.8986535309
 20
81.3216095684
 30
0.0
 10
41.9241029361
 20
81.2235008083
 30
0.0
 10
41.9893407031
 20
81.1031720429
 30
0.0
 10
42.1109169732
 20
80.9755085818
 30
0.0
 10
42.2126599472
 20
80.9054229779
 30
0.0
 10
42.2687492174
 20
80.8730405553
 30
0.0
  0
SPLINE
  5
2BB
100
AcDbEntity
  8
0
100
AcDbSpline
 62
7
  6
CONTINUOUS
 70
0
 71
3
 72
15
 73
11
 74
0
 42
0.0000001
 43
0.0000001
 44
0.0000000001
 40
0.0
 40
0.0
 40
0.0
 40
0.0
 40
0.1485697328
 40
0.289508684
 40
0.4227257076
 40
0.5486382334
 40
0.668001559
 40
0.7819415702
 40
0.8919845965
 40
1.0
 40
1.0
 40
1.0
 40
1.0
 10
55.6508866594
 20
84.7231825409
 30
0.0
 10
55.5381300918
 20
84.7882811028
 30
0.0
 10
55.313002101
 20
84.9061187929
 30
0.0
 10
54.9696189926
 20
85.0466817679
 30
0.0
 10
54.6323331236
 20
85.1450048226
 30
0.0
 10
54.3043685587
 20
85.2000008046
 30
0.0
 10
53.9887570883
 20
85.2110024445
 30
0.0
 10
53.6885449011
 20
85.1774930547
 30
0.0
 10
53.4069229494
 20
85.0996361746
 30
0.0
 10
53.232874136
 20
85.0181358017
 30
0.0
 10
53.1508974501
 20
84.9708046288
 30
0.0
  0
SPLINE
  5
2BC
100
AcDbEntity
  8
0
100
AcDbSpline
 62
7
  6
CONTINUOUS
 70
0
 71
3
 72
11
 73
7
 74
0
 42
0.0000001
 43
0.0000001
 44
0.0000000001
 40
0.0
 40
0.0
 40
0.0
 40
0.0
 40
0.2714188438
 40
0.5265239826
 40
0.7680546301
 40
1.0
 40
1.0
 40
1.0
 40
1.0
 10
38.6704333447
 20
89.0183500956
 30
0.0
 10
38.4734849247
 20
89.0742946453
 30
0.0
 10
38.084156487
 20
89.1595817633
 30
0.0
 10
37.5040779715
 20
89.2014948457
 30
0.0
 10
36.9541802015
 20
89.1517319473
 30
0.0
 10
36.607591111
 20
89.0559114689
 30
0.0
 10
36.4442396054
 20
88.9932325246
 30
0.0
  0
SPLINE
  5
2BD
100
AcDbEntity
  8
0
100
AcDbSpline
 62
7
  6
CONTINUOUS
 70
0
 71
3
 72
15
 73
11
 74
0
 42
0.0000001
 43
0.0000001
 44
0.0000000001
 40
0.0
 40
0.0
 40
0.0
 40
0.0
 40
0.1141469224
 40
0.2373360366
 40
0.366976904
 40
0.5000005214
 40
0.6330240662
 40
0.7626647219
 40
0.8858535023
 40
1.0
 40
1.0
 40
1.0
 40
1.0
 10
39.4403338685
 20
79.2400639398
 30
0.0
 10
39.5021905171
 20
79.2043517949
 30
0.0
 10
39.637468765
 20
79.1413678171
 30
0.0
 10
39.8577444238
 20
79.0744043499
 30
0.0
 10
40.0962386994
 20
79.0332110814
 30
0.0
 10
40.3439670205
 20
79.0192963633
 30
0.0
 10
40.5916951437
 20
79.0332122571
 30
0.0
 10
40.8301888342
 20
79.0744066581
 30
0.0
 10
41.0504635447
 20
79.1413711723
 30
0.0
 10
41.1857409637
 20
79.2043558259
 30
0.0
 10
41.2475971247
 20
79.2400682839
 30
0.0
  0
SPLINE
  5
2BE
100
AcDbEntity
  8
0
100
AcDbSpline
 62
7
  6
CONTINUOUS
 70
0
 71
3
 72
12
 73
8
 74
0
 42
0.0000001
 43
0.0000001
 44
0.0000000001
 40
0.0
 40
0.0
 40
0.0
 40
0.0
 40
0.2895577052
 40
0.5486551371
 40
0.7816333826
 40
0.8918396704
 40
1.0
 40
1.0
 40
1.0
 40
1.0
 10
41.2475971247
 20
79.2400682839
 30
0.0
 10
41.303685346
 20
79.2724506403
 30
0.0
 10
41.4054263893
 20
79.3425359754
 30
0.0
 10
41.5270001898
 20
79.4701984943
 30
0.0
 10
41.5922365265
 20
79.5905260488
 30
0.0
 10
41.6176853783
 20
79.6886337425
 30
0.0
 10
41.6218804449
 20
79.7375785343
 30
0.0
 10
41.6218804445
 20
79.7617706173
 30
0.0
  0
SPLINE
  5
2BF
100
AcDbEntity
  8
0
100
AcDbSpline
 62
7
  6
CONTINUOUS
 70
0
 71
3
 72
15
 73
11
 74
0
 42
0.0000001
 43
0.0000001
 44
0.0000000001
 40
0.0
 40
0.0
 40
0.0
 40
0.0
 40
0.1141469224
 40
0.2373360366
 40
0.366976904
 40
0.5000005214
 40
0.6330240662
 40
0.7626647219
 40
0.8858535023
 40
1.0
 40
1.0
 40
1.0
 40
1.0
 10
42.2687492174
 20
80.8730405553
 30
0.0
 10
42.330605866
 20
80.8373284104
 30
0.0
 10
42.4658841138
 20
80.7743444325
 30
0.0
 10
42.6861597726
 20
80.7073809654
 30
0.0
 10
42.9246540482
 20
80.6661876968
 30
0.0
 10
43.1723823694
 20
80.6522729788
 30
0.0
 10
43.4201104925
 20
80.6661888726
 30
0.0
 10
43.6586041831
 20
80.7073832736
 30
0.0
 10
43.8788788935
 20
80.7743477878
 30
0.0
 10
44.0141563126
 20
80.8373324414
 30
0.0
 10
44.0760124736
 20
80.8730448994
 30
0.0
  0
SPLINE
  5
2C0
100
AcDbEntity
  8
0
100
AcDbSpline
 62
7
  6
CONTINUOUS
 70
0
 71
3
 72
15
 73
11
 74
0
 42
0.0000001
 43
0.0000001
 44
0.0000000001
 40
0.0
 40
0.0
 40
0.0
 40
0.0
 40
0.1151280367
 40
0.2389356178
 40
0.3687410996
 40
0.501615895
 40
0.6342667446
 40
0.7634179259
 40
0.8861916526
 40
1.0
 40
1.0
 40
1.0
 40
1.0
 10
65.1814822941
 20
78.4256861903
 30
0.0
 10
65.1802391755
 20
78.4812209016
 30
0.0
 10
65.1679223832
 20
78.5963607116
 30
0.0
 10
65.1251269415
 20
78.7695047659
 30
0.0
 10
65.0586971932
 20
78.9442104188
 30
0.0
 10
64.9711385676
 20
79.114109708
 30
0.0
 10
64.865550572
 20
79.2730546955
 30
0.0
 10
64.7457851793
 20
79.4153562524
 30
0.0
 10
64.6161628792
 20
79.5357568464
 30
0.0
 10
64.52217023
 20
79.6014604522
 30
0.0
 10
64.4746148778
 20
79.6289159265
 30
0.0
  0
SPLINE
  5
2C1
100
AcDbEntity
  8
0
100
AcDbSpline
 62
7
  6
CONTINUOUS
 70
0
 71
3
 72
12
 73
8
 74
0
 42
0.0000001
 43
0.0000001
 44
0.0000000001
 40
0.0
 40
0.0
 40
0.0
 40
0.0
 40
0.2895577052
 40
0.5486551371
 40
0.7816333826
 40
0.8918396704
 40
1.0
 40
1.0
 40
1.0
 40
1.0
 10
44.0760124736
 20
80.8730448994
 30
0.0
 10
44.1321006949
 20
80.9054272558
 30
0.0
 10
44.2338417381
 20
80.9755125909
 30
0.0
 10
44.3554155387
 20
81.1031751097
 30
0.0
 10
44.4206518754
 20
81.2235026643
 30
0.0
 10
44.4461007272
 20
81.321610358
 30
0.0
 10
44.4502957937
 20
81.3705551497
 30
0.0
 10
44.4502957934
 20
81.3947472327
 30
0.0
  0
SPLINE
  5
2C2
100
AcDbEntity
  8
0
100
AcDbSpline
 62
7
  6
CONTINUOUS
 70
0
 71
3
 72
14
 73
10
 74
0
 42
0.0000001
 43
0.0000001
 44
0.0000000001
 40
0.0
 40
0.0
 40
0.0
 40
0.0
 40
0.2166129491
 40
0.3336355523
 40
0.4564462602
 40
0.5848674935
 40
0.7185718613
 40
0.8571455688
 40
1.0
 40
1.0
 40
1.0
 40
1.0
 10
36.4302352441
 20
77.9390728758
 30
0.0
 10
36.9499964355
 20
78.5971400478
 30
0.0
 10
37.8747257092
 20
79.5162197921
 30
0.0
 10
39.2864995293
 20
80.5803856355
 30
0.0
 10
40.494912574
 20
81.3402891005
 30
0.0
 10
41.8149816086
 20
82.0344663194
 30
0.0
 10
43.23671937
 20
82.6580012472
 30
0.0
 10
44.7486723207
 20
83.2057903183
 30
0.0
 10
45.7945958728
 20
83.5135221891
 30
0.0
 10
46.3294033475
 20
83.6543234207
 30
0.0
  0
SPLINE
  5
2C3
100
AcDbEntity
  8
0
100
AcDbSpline
 62
7
  6
CONTINUOUS
 70
0
 71
3
 72
11
 73
7
 74
0
 42
0.0000001
 43
0.0000001
 44
0.0000000001
 40
0.0
 40
0.0
 40
0.0
 40
0.0
 40
0.2319453699
 40
0.4734760174
 40
0.7285811562
 40
1.0
 40
1.0
 40
1.0
 40
1.0
 10
24.2820536054
 20
81.971433078
 30
0.0
 10
24.4454051109
 20
82.0341120223
 30
0.0
 10
24.7919942015
 20
82.1299325007
 30
0.0
 10
25.3418919715
 20
82.1796953991
 30
0.0
 10
25.9219704869
 20
82.1377823167
 30
0.0
 10
26.3112989246
 20
82.0524951987
 30
0.0
 10
26.5082473447
 20
81.996550649
 30
0.0
  0
SPLINE
  5
2C4
100
AcDbEntity
  8
0
100
AcDbSpline
 62
7
  6
CONTINUOUS
 70
0
 71
3
 72
15
 73
11
 74
0
 42
0.0000001
 43
0.0000001
 44
0.0000000001
 40
0.0
 40
0.0
 40
0.0
 40
0.0
 40
0.1080154035
 40
0.2180584298
 40
0.331998441
 40
0.4513617666
 40
0.5772742924
 40
0.710491316
 40
0.8514302672
 40
1.0
 40
1.0
 40
1.0
 40
1.0
 10
40.98871145
 20
77.9490051822
 30
0.0
 10
41.0706881359
 20
77.9963363551
 30
0.0
 10
41.2447369494
 20
78.077836728
 30
0.0
 10
41.526358901
 20
78.1556936081
 30
0.0
 10
41.8265710883
 20
78.1892029979
 30
0.0
 10
42.1421825586
 20
78.178201358
 30
0.0
 10
42.4701471235
 20
78.123205376
 30
0.0
 10
42.8074329925
 20
78.0248823213
 30
0.0
 10
43.1508161009
 20
77.8843193463
 30
0.0
 10
43.3759440917
 20
77.7664816562
 30
0.0
 10
43.4887006593
 20
77.7013830943
 30
0.0
  0
SPLINE
  5
2C5
100
AcDbEntity
  8
0
100
AcDbSpline
 62
7
  6
CONTINUOUS
 70
0
 71
3
 72
11
 73
7
 74
0
 42
0.0000001
 43
0.0000001
 44
0.0000000001
 40
0.0
 40
0.0
 40
0.0
 40
0.0
 40
0.2130857085
 40
0.4608396516
 40
0.7295069433
 40
1.0
 40
1.0
 40
1.0
 40
1.0
 10
26.5082473447
 20
81.996550649
 30
0.0
 10
26.5500881063
 20
81.9846654937
 30
0.0
 10
26.6353352486
 20
81.9405961488
 30
0.0
 10
26.7466699069
 20
81.8401605209
 30
0.0
 10
26.8424756814
 20
81.7099969105
 30
0.0
 10
26.8903239162
 20
81.6099828708
 30
0.0
 10
26.908915817
 20
81.5579928658
 30
0.0
  0
SPLINE
  5
2C6
100
AcDbEntity
  8
0
100
AcDbSpline
 62
7
  6
CONTINUOUS
 70
0
 71
3
 72
11
 73
7
 74
0
 42
0.0000001
 43
0.0000001
 44
0.0000000001
 40
0.0
 40
0.0
 40
0.0
 40
0.0
 40
0.2816193046
 40
0.5410708559
 40
0.7792100589
 40
1.0
 40
1.0
 40
1.0
 40
1.0
 10
41.2475896004
 20
80.1201768113
 30
0.0
 10
41.2905943746
 20
80.095348555
 30
0.0
 10
41.3704198494
 20
80.0424665863
 30
0.0
 10
41.4728616018
 20
79.9500090183
 30
0.0
 10
41.5508725172
 20
79.84926677
 30
0.0
 10
41.5862224703
 20
79.7755553898
 30
0.0
 10
41.5986001284
 20
79.7386440033
 30
0.0
  0
SPLINE
  5
2C7
100
AcDbEntity
  8
0
100
AcDbSpline
 62
7
  6
CONTINUOUS
 70
0
 71
3
 72
15
 73
11
 74
0
 42
0.0000001
 43
0.0000001
 44
0.0000000001
 40
0.0
 40
0.0
 40
0.0
 40
0.0
 40
0.1138083118
 40
0.2365819773
 40
0.3657331356
 40
0.4983839767
 40
0.6312587802
 40
0.7610642847
 40
0.8848719274
 40
1.0
 40
1.0
 40
1.0
 40
1.0
 10
52.3124288777
 20
72.6071164799
 30
0.0
 10
52.3599842151
 20
72.5796610142
 30
0.0
 10
52.4539768349
 20
72.5139574483
 30
0.0
 10
52.5835990913
 20
72.3935568918
 30
0.0
 10
52.70336447
 20
72.2512553829
 30
0.0
 10
52.8089524767
 20
72.092310416
 30
0.0
 10
52.8965111255
 20
71.922411127
 30
0.0
 10
52.9629409087
 20
71.7477054385
 30
0.0
 10
53.005736362
 20
71.5745613276
 30
0.0
 10
53.018053175
 20
71.4594214723
 30
0.0
 10
53.019296294
 20
71.4038867437
 30
0.0
  0
SPLINE
  5
2C8
100
AcDbEntity
  8
0
100
AcDbSpline
 62
7
  6
CONTINUOUS
 70
0
 71
3
 72
15
 73
11
 74
0
 42
0.0000001
 43
0.0000001
 44
0.0000000001
 40
0.0
 40
0.0
 40
0.0
 40
0.0
 40
0.1141464977
 40
0.2373352781
 40
0.3669759338
 40
0.4999994786
 40
0.633023096
 40
0.7626639634
 40
0.8858530776
 40
1.0
 40
1.0
 40
1.0
 40
1.0
 10
39.4403263441
 20
80.1201724672
 30
0.0
 10
39.5021825051
 20
80.1558849252
 30
0.0
 10
39.6374599242
 20
80.2188695787
 30
0.0
 10
39.8577346347
 20
80.285834093
 30
0.0
 10
40.0962283252
 20
80.327028494
 30
0.0
 10
40.3439564483
 20
80.3409443878
 30
0.0
 10
40.5916847695
 20
80.3270296697
 30
0.0
 10
40.8301790451
 20
80.2858364012
 30
0.0
 10
41.0504547039
 20
80.218872934
 30
0.0
 10
41.1857329517
 20
80.1558889561
 30
0.0
 10
41.2475896004
 20
80.1201768113
 30
0.0
  0
SPLINE
  5
2C9
100
AcDbEntity
  8
0
100
AcDbSpline
 62
7
  6
CONTINUOUS
 70
0
 71
3
 72
9
 73
5
 74
0
 42
0.0000001
 43
0.0000001
 44
0.0000000001
 40
0.0
 40
0.0
 40
0.0
 40
0.0
 40
0.232489781
 40
1.0
 40
1.0
 40
1.0
 40
1.0
 10
52.3138363282
 20
70.8439105324
 30
0.0
 10
52.3138365123
 20
70.8347229397
 30
0.0
 10
52.3161512031
 20
70.7952103562
 30
0.0
 10
52.3265600454
 20
70.7564187397
 30
0.0
 10
52.3375341981
 20
70.7281429967
 30
0.0
  0
SPLINE
  5
2CA
100
AcDbEntity
  8
0
100
AcDbSpline
 62
7
  6
CONTINUOUS
 70
0
 71
3
 72
11
 73
7
 74
0
 42
0.0000001
 43
0.0000001
 44
0.0000000001
 40
0.0
 40
0.0
 40
0.0
 40
0.0
 40
0.2207903613
 40
0.4589297195
 40
0.7183811194
 40
1.0
 40
1.0
 40
1.0
 40
1.0
 10
39.0893233247
 20
79.7386439534
 30
0.0
 10
39.1017007998
 20
79.775554811
 30
0.0
 10
39.1370500723
 20
79.8492651319
 30
0.0
 10
39.2150593149
 20
79.9500061291
 30
0.0
 10
39.317498792
 20
80.042462741
 30
0.0
 10
39.3973225137
 20
80.0953443423
 30
0.0
 10
39.4403263441
 20
80.1201724672
 30
0.0
  0
SPLINE
  5
2CB
100
AcDbEntity
  8
0
100
AcDbSpline
 62
7
  6
CONTINUOUS
 70
0
 71
3
 72
12
 73
8
 74
0
 42
0.0000001
 43
0.0000001
 44
0.0000000001
 40
0.0
 40
0.0
 40
0.0
 40
0.0
 40
0.108160086
 40
0.2183661675
 40
0.4513442184
 40
0.7104418196
 40
1.0
 40
1.0
 40
1.0
 40
1.0
 10
41.6218804445
 20
79.7617706173
 30
0.0
 10
41.6218804442
 20
79.7859629578
 30
0.0
 10
41.6176852869
 20
79.8349082816
 30
0.0
 10
41.5922358817
 20
79.9330170417
 30
0.0
 10
41.5269981146
 20
80.0533458071
 30
0.0
 10
41.4054218446
 20
80.1810092682
 30
0.0
 10
41.3036788706
 20
80.2510948721
 30
0.0
 10
41.2475896004
 20
80.2834772947
 30
0.0
  0
SPLINE
  5
2CC
100
AcDbEntity
  8
0
100
AcDbSpline
 62
7
  6
CONTINUOUS
 70
0
 71
3
 72
14
 73
10
 74
0
 42
0.0000001
 43
0.0000001
 44
0.0000000001
 40
0.0
 40
0.0
 40
0.0
 40
0.0
 40
0.1428544466
 40
0.2814281659
 40
0.4151325409
 40
0.5435537766
 40
0.6663644818
 40
0.7833870777
 40
1.0
 40
1.0
 40
1.0
 40
1.0
 10
37.1869354701
 20
77.3388939459
 30
0.0
 10
37.721743294
 20
77.4796952694
 30
0.0
 10
38.7676675123
 20
77.7874273575
 30
0.0
 10
40.27962138
 20
78.3352168661
 30
0.0
 10
41.7013599244
 20
78.9587523259
 30
0.0
 10
43.0214295869
 20
79.6529301598
 30
0.0
 10
44.2298430868
 20
80.4128343131
 30
0.0
 10
45.6416172222
 20
81.477001104
 30
0.0
 10
46.5663464981
 20
82.3960817037
 30
0.0
 10
47.0861075069
 20
83.0541494706
 30
0.0
  0
SPLINE
  5
2CD
100
AcDbEntity
  8
0
100
AcDbSpline
 62
7
  6
CONTINUOUS
 70
0
 71
3
 72
11
 73
7
 74
0
 42
0.0000001
 43
0.0000001
 44
0.0000000001
 40
0.0
 40
0.0
 40
0.0
 40
0.0
 40
0.2816193046
 40
0.5410708559
 40
0.7792100589
 40
1.0
 40
1.0
 40
1.0
 40
1.0
 10
44.0760049492
 20
81.7531534268
 30
0.0
 10
44.1190097235
 20
81.7283251705
 30
0.0
 10
44.1988351982
 20
81.6754432017
 30
0.0
 10
44.3012769507
 20
81.5829856338
 30
0.0
 10
44.379287866
 20
81.4822433855
 30
0.0
 10
44.4146378191
 20
81.4085320053
 30
0.0
 10
44.4270154772
 20
81.3716206188
 30
0.0
  0
SPLINE
  5
2CE
100
AcDbEntity
  8
0
100
AcDbSpline
 62
7
  6
CONTINUOUS
 70
0
 71
3
 72
9
 73
5
 74
0
 42
0.0000001
 43
0.0000001
 44
0.0000000001
 40
0.0
 40
0.0
 40
0.0
 40
0.0
 40
0.232491733
 40
1.0
 40
1.0
 40
1.0
 40
1.0
 10
51.5483675967
 20
70.7755301023
 30
0.0
 10
51.5483677807
 20
70.7663442963
 30
0.0
 10
51.550681552
 20
70.7268397263
 30
0.0
 10
51.561086507
 20
70.6880557107
 30
0.0
 10
51.5720567143
 20
70.6597851197
 30
0.0
  0
SPLINE
  5
2CF
100
AcDbEntity
  8
0
100
AcDbSpline
 62
7
  6
CONTINUOUS
 70
0
 71
3
 72
15
 73
11
 74
0
 42
0.0000001
 43
0.0000001
 44
0.0000000001
 40
0.0
 40
0.0
 40
0.0
 40
0.0
 40
0.1141464977
 40
0.2373352781
 40
0.3669759338
 40
0.4999994786
 40
0.633023096
 40
0.7626639634
 40
0.8858530776
 40
1.0
 40
1.0
 40
1.0
 40
1.0
 10
42.268741693
 20
81.7531490827
 30
0.0
 10
42.330597854
 20
81.7888615407
 30
0.0
 10
42.4658752731
 20
81.8518461942
 30
0.0
 10
42.6861499835
 20
81.9188107085
 30
0.0
 10
42.9246436741
 20
81.9600051094
 30
0.0
 10
43.1723717972
 20
81.9739210033
 30
0.0
 10
43.4201001184
 20
81.9600062852
 30
0.0
 10
43.658594394
 20
81.9188130166
 30
0.0
 10
43.8788700528
 20
81.8518495495
 30
0.0
 10
44.0141483006
 20
81.7888655716
 30
0.0
 10
44.0760049492
 20
81.7531534268
 30
0.0
  0
SPLINE
  5
2D0
100
AcDbEntity
  8
0
100
AcDbSpline
 62
7
  6
CONTINUOUS
 70
0
 71
3
 72
12
 73
8
 74
0
 42
0.0000001
 43
0.0000001
 44
0.0000000001
 40
0.0
 40
0.0
 40
0.0
 40
0.0
 40
0.2895577052
 40
0.5486551371
 40
0.7816333826
 40
0.8918396704
 40
1.0
 40
1.0
 40
1.0
 40
1.0
 10
39.4403263441
 20
80.2834729506
 30
0.0
 10
39.3842381228
 20
80.2510905942
 30
0.0
 10
39.2824970796
 20
80.1810052591
 30
0.0
 10
39.160923279
 20
80.0533427403
 30
0.0
 10
39.0956869423
 20
79.9330151857
 30
0.0
 10
39.0702380906
 20
79.834907492
 30
0.0
 10
39.066043024
 20
79.7859627003
 30
0.0
 10
39.0660430243
 20
79.7617706173
 30
0.0
  0
SPLINE
  5
2D1
100
AcDbEntity
  8
0
100
AcDbSpline
 62
7
  6
CONTINUOUS
 70
0
 71
3
 72
11
 73
7
 74
0
 42
0.0000001
 43
0.0000001
 44
0.0000000001
 40
0.0
 40
0.0
 40
0.0
 40
0.0
 40
0.2207903613
 40
0.4589297195
 40
0.7183811194
 40
1.0
 40
1.0
 40
1.0
 40
1.0
 10
41.9177386735
 20
81.3716205689
 30
0.0
 10
41.9301161486
 20
81.4085314265
 30
0.0
 10
41.9654654212
 20
81.4822417474
 30
0.0
 10
42.0434746638
 20
81.5829827446
 30
0.0
 10
42.1459141409
 20
81.6754393565
 30
0.0
 10
42.2257378625
 20
81.7283209578
 30
0.0
 10
42.268741693
 20
81.7531490827
 30
0.0
  0
SPLINE
  5
2D2
100
AcDbEntity
  8
0
100
AcDbSpline
 62
7
  6
CONTINUOUS
 70
0
 71
3
 72
12
 73
8
 74
0
 42
0.0000001
 43
0.0000001
 44
0.0000000001
 40
0.0
 40
0.0
 40
0.0
 40
0.0
 40
0.108160086
 40
0.2183661675
 40
0.4513442184
 40
0.7104418196
 40
1.0
 40
1.0
 40
1.0
 40
1.0
 10
44.4502957934
 20
81.3947472327
 30
0.0
 10
44.4502957931
 20
81.4189395732
 30
0.0
 10
44.4461006357
 20
81.4678848971
 30
0.0
 10
44.4206512305
 20
81.5659936572
 30
0.0
 10
44.3554134635
 20
81.6863224226
 30
0.0
 10
44.2338371934
 20
81.8139858837
 30
0.0
 10
44.1320942194
 20
81.8840714876
 30
0.0
 10
44.0760049492
 20
81.9164539102
 30
0.0
  0
SPLINE
  5
2D3
100
AcDbEntity
  8
0
100
AcDbSpline
 62
7
  6
CONTINUOUS
 70
0
 71
3
 72
15
 73
11
 74
0
 42
0.0000001
 43
0.0000001
 44
0.0000000001
 40
0.0
 40
0.0
 40
0.0
 40
0.0
 40
0.1141469224
 40
0.2373360366
 40
0.366976904
 40
0.5000005214
 40
0.6330240662
 40
0.7626647219
 40
0.8858535023
 40
1.0
 40
1.0
 40
1.0
 40
1.0
 10
41.2475896004
 20
80.2834772947
 30
0.0
 10
41.1857329517
 20
80.3191894396
 30
0.0
 10
41.0504547039
 20
80.3821734175
 30
0.0
 10
40.8301790451
 20
80.4491368846
 30
0.0
 10
40.5916847695
 20
80.4903301532
 30
0.0
 10
40.3439564483
 20
80.5042448712
 30
0.0
 10
40.0962283252
 20
80.4903289774
 30
0.0
 10
39.8577346347
 20
80.4491345764
 30
0.0
 10
39.6374599242
 20
80.3821700622
 30
0.0
 10
39.5021825051
 20
80.3191854086
 30
0.0
 10
39.4403263441
 20
80.2834729506
 30
0.0
  0
SPLINE
  5
2D4
100
AcDbEntity
  8
0
100
AcDbSpline
 62
7
  6
CONTINUOUS
 70
0
 71
3
 72
11
 73
7
 74
0
 42
0.0000001
 43
0.0000001
 44
0.0000000001
 40
0.0
 40
0.0
 40
0.0
 40
0.0
 40
0.2178920527
 40
0.4510046309
 40
0.7106618113
 40
1.0
 40
1.0
 40
1.0
 40
1.0
 10
52.3656125537
 20
70.9583092877
 30
0.0
 10
52.3573587656
 20
70.9535565498
 30
0.0
 10
52.3419161503
 20
70.940600117
 30
0.0
 10
52.3254949133
 20
70.9137261838
 30
0.0
 10
52.3157845455
 20
70.8806325948
 30
0.0
 10
52.3138364572
 20
70.856557908
 30
0.0
 10
52.3138363282
 20
70.8439105324
 30
0.0
  0
SPLINE
  5
2D5
100
AcDbEntity
  8
0
100
AcDbSpline
 62
7
  6
CONTINUOUS
 70
0
 71
3
 72
12
 73
8
 74
0
 42
0.0000001
 43
0.0000001
 44
0.0000000001
 40
0.0
 40
0.0
 40
0.0
 40
0.0
 40
0.2895577052
 40
0.5486551371
 40
0.7816333826
 40
0.8918396704
 40
1.0
 40
1.0
 40
1.0
 40
1.0
 10
42.268741693
 20
81.9164495661
 30
0.0
 10
42.2126534717
 20
81.8840672097
 30
0.0
 10
42.1109124284
 20
81.8139818746
 30
0.0
 10
41.9893386279
 20
81.6863193557
 30
0.0
 10
41.9241022912
 20
81.5659918012
 30
0.0
 10
41.8986534394
 20
81.4678841075
 30
0.0
 10
41.8944583729
 20
81.4189393157
 30
0.0
 10
41.8944583732
 20
81.3947472327
 30
0.0
  0
SPLINE
  5
2D6
100
AcDbEntity
  8
0
100
AcDbSpline
 62
7
  6
CONTINUOUS
 70
0
 71
3
 72
15
 73
11
 74
0
 42
0.0000001
 43
0.0000001
 44
0.0000000001
 40
0.0
 40
0.0
 40
0.0
 40
0.0
 40
0.1141469224
 40
0.2373360366
 40
0.366976904
 40
0.5000005214
 40
0.6330240662
 40
0.7626647219
 40
0.8858535023
 40
1.0
 40
1.0
 40
1.0
 40
1.0
 10
44.0760049492
 20
81.9164539102
 30
0.0
 10
44.0141483006
 20
81.9521660551
 30
0.0
 10
43.8788700528
 20
82.0151500329
 30
0.0
 10
43.658594394
 20
82.0821135001
 30
0.0
 10
43.4201001184
 20
82.1233067686
 30
0.0
 10
43.1723717972
 20
82.1372214867
 30
0.0
 10
42.9246436741
 20
82.1233055929
 30
0.0
 10
42.6861499835
 20
82.0821111919
 30
0.0
 10
42.4658752731
 20
82.0151466777
 30
0.0
 10
42.330597854
 20
81.9521620241
 30
0.0
 10
42.268741693
 20
81.9164495661
 30
0.0
  0
SPLINE
  5
2D7
100
AcDbEntity
  8
0
100
AcDbSpline
 62
7
  6
CONTINUOUS
 70
0
 71
3
 72
11
 73
7
 74
0
 42
0.0000001
 43
0.0000001
 44
0.0000000001
 40
0.0
 40
0.0
 40
0.0
 40
0.0
 40
0.2178920527
 40
0.4510046309
 40
0.7106618113
 40
1.0
 40
1.0
 40
1.0
 40
1.0
 10
51.6001438221
 20
70.8899288573
 30
0.0
 10
51.5918900341
 20
70.8851761194
 30
0.0
 10
51.5764474188
 20
70.8722196867
 30
0.0
 10
51.5600261818
 20
70.8453457535
 30
0.0
 10
51.550315814
 20
70.8122521645
 30
0.0
 10
51.5483677256
 20
70.7881774778
 30
0.0
 10
51.5483675967
 20
70.7755301023
 30
0.0
  0
SPLINE
  5
2D8
100
AcDbEntity
  8
0
100
AcDbSpline
 62
7
  6
CONTINUOUS
 70
0
 71
3
 72
11
 73
7
 74
0
 42
0.0000001
 43
0.0000001
 44
0.0000000001
 40
0.0
 40
0.0
 40
0.0
 40
0.0
 40
0.217802755
 40
0.4509154285
 40
0.7103023347
 40
1.0
 40
1.0
 40
1.0
 40
1.0
 10
33.0317269084
 20
78.1921729901
 30
0.0
 10
33.0647107715
 20
78.2112273639
 30
0.0
 10
33.1405076776
 20
78.2387286686
 30
0.0
 10
33.2663925304
 20
78.2418959133
 30
0.0
 10
33.4005577827
 20
78.2095133973
 30
0.0
 10
33.4878452384
 20
78.16798333
 30
0.0
 10
33.531723466
 20
78.1426507966
 30
0.0
  0
SPLINE
  5
2D9
100
AcDbEntity
  8
0
100
AcDbSpline
 62
7
  6
CONTINUOUS
 70
0
 71
3
 72
14
 73
10
 74
0
 42
0.0000001
 43
0.0000001
 44
0.0000000001
 40
0.0
 40
0.0
 40
0.0
 40
0.0
 40
0.2166129223
 40
0.3336355182
 40
0.4564462234
 40
0.5848674591
 40
0.7185718341
 40
0.8571455534
 40
1.0
 40
1.0
 40
1.0
 40
1.0
 10
47.0861075069
 20
83.217449954
 30
0.0
 10
46.5663464981
 20
82.5593821871
 30
0.0
 10
45.6416172222
 20
81.6403015875
 30
0.0
 10
44.2298430868
 20
80.5761347965
 30
0.0
 10
43.0214295869
 20
79.8162306432
 30
0.0
 10
41.7013599244
 20
79.1220528093
 30
0.0
 10
40.27962138
 20
78.4985173495
 30
0.0
 10
38.7676675123
 20
77.9507278409
 30
0.0
 10
37.721743294
 20
77.6429957528
 30
0.0
 10
37.1869354701
 20
77.5021944293
 30
0.0
  0
SPLINE
  5
2DA
100
AcDbEntity
  8
0
100
AcDbSpline
 62
7
  6
CONTINUOUS
 70
0
 71
3
 72
13
 73
9
 74
0
 42
0.0000001
 43
0.0000001
 44
0.0000000001
 40
0.0
 40
0.0
 40
0.0
 40
0.0
 40
0.1141920769
 40
0.2374805452
 40
0.4998541387
 40
0.7623072055
 40
0.8857041942
 40
1.0
 40
1.0
 40
1.0
 40
1.0
 10
74.3172819178
 20
61.6988417606
 30
0.0
 10
74.3172819178
 20
61.7825208676
 30
0.0
 10
74.3019590141
 20
61.9567182088
 30
0.0
 10
74.2188554382
 20
62.3143545085
 30
0.0
 10
74.0256753873
 20
62.7531311914
 30
0.0
 10
73.7427518336
 20
63.1402587337
 30
0.0
 10
73.4748643904
 20
63.3916434438
 30
0.0
 10
73.3317414449
 20
63.4924092097
 30
0.0
 10
73.2592420277
 20
63.534346716
 30
0.0
  0
SPLINE
  5
2DB
100
AcDbEntity
  8
0
100
AcDbSpline
 62
7
  6
CONTINUOUS
 70
0
 71
3
 72
9
 73
5
 74
0
 42
0.0000001
 43
0.0000001
 44
0.0000000001
 40
0.0
 40
0.0
 40
0.0
 40
0.0
 40
0.2428743529
 40
1.0
 40
1.0
 40
1.0
 40
1.0
 10
65.1403865075
 20
68.6119986872
 30
0.0
 10
65.1247586445
 20
69.0296555713
 30
0.0
 10
65.0284080017
 20
70.7480308382
 30
0.0
 10
64.8086898899
 20
72.4588260345
 30
0.0
 10
64.5835277713
 20
73.7421187094
 30
0.0
  0
SPLINE
  5
2DC
100
AcDbEntity
  8
0
100
AcDbSpline
 62
7
  6
CONTINUOUS
 70
0
 71
3
 72
9
 73
5
 74
0
 42
0.0000001
 43
0.0000001
 44
0.0000000001
 40
0.0
 40
0.0
 40
0.0
 40
0.0
 40
0.2435876586
 40
1.0
 40
1.0
 40
1.0
 40
1.0
 10
64.5835277713
 20
73.7421187094
 30
0.0
 10
64.5689233192
 20
73.8253555636
 30
0.0
 10
64.5021026399
 20
74.1658444518
 30
0.0
 10
64.4089287716
 20
74.5010221714
 30
0.0
 10
64.3259250148
 20
74.7499731038
 30
0.0
  0
SPLINE
  5
2DD
100
AcDbEntity
  8
0
100
AcDbSpline
 62
7
  6
CONTINUOUS
 70
0
 71
3
 72
11
 73
7
 74
0
 42
0.0000001
 43
0.0000001
 44
0.0000000001
 40
0.0
 40
0.0
 40
0.0
 40
0.0
 40
0.2895456361
 40
0.5491148988
 40
0.7822517802
 40
1.0
 40
1.0
 40
1.0
 40
1.0
 10
34.077118584
 20
91.8712558579
 30
0.0
 10
34.0332643152
 20
91.896574559
 30
0.0
 10
33.9459540414
 20
91.9380566347
 30
0.0
 10
33.8118094131
 20
91.9705221354
 30
0.0
 10
33.6858789702
 20
91.9673600499
 30
0.0
 10
33.6101287874
 20
91.9397720447
 30
0.0
 10
33.5771481535
 20
91.9207327699
 30
0.0
  0
SPLINE
  5
2DE
100
AcDbEntity
  8
0
100
AcDbSpline
 62
7
  6
CONTINUOUS
 70
0
 71
3
 72
11
 73
7
 74
0
 42
0.0000001
 43
0.0000001
 44
0.0000000001
 40
0.0
 40
0.0
 40
0.0
 40
0.0
 40
0.2177239861
 40
0.4508730345
 40
0.7104683317
 40
1.0
 40
1.0
 40
1.0
 40
1.0
 10
27.3735360138
 20
78.7119842859
 30
0.0
 10
27.406513822
 20
78.731022226
 30
0.0
 10
27.4682685811
 20
78.782845408
 30
0.0
 10
27.5339851038
 20
78.8903195855
 30
0.0
 10
27.5729367652
 20
79.0227371785
 30
0.0
 10
27.5806697615
 20
79.1190950387
 30
0.0
 10
27.5806697615
 20
79.1697323516
 30
0.0
  0
SPLINE
  5
2DF
100
AcDbEntity
  8
0
100
AcDbSpline
 62
7
  6
CONTINUOUS
 70
0
 71
3
 72
13
 73
9
 74
0
 42
0.0000001
 43
0.0000001
 44
0.0000000001
 40
0.0
 40
0.0
 40
0.0
 40
0.0
 40
0.0893245218
 40
0.1859601104
 40
0.294705534
 40
0.417221935
 40
0.6966800971
 40
1.0
 40
1.0
 40
1.0
 40
1.0
 10
47.6816529833
 20
29.1344473104
 30
0.0
 10
47.6590815017
 20
29.1214484385
 30
0.0
 10
47.6064814565
 20
29.1032507614
 30
0.0
 10
47.5192186487
 20
29.1048680319
 30
0.0
 10
47.4267449664
 20
29.1325590226
 30
0.0
 10
47.2955587194
 20
29.2048516084
 30
0.0
 10
47.1447080329
 20
29.3492193375
 30
0.0
 10
47.0525928148
 20
29.4940898189
 30
0.0
 10
47.0148147975
 20
29.57406371
 30
0.0
  0
SPLINE
  5
2E0
100
AcDbEntity
  8
0
100
AcDbSpline
 62
7
  6
CONTINUOUS
 70
0
 71
3
 72
12
 73
8
 74
0
 42
0.0000001
 43
0.0000001
 44
0.0000000001
 40
0.0
 40
0.0
 40
0.0
 40
0.0
 40
0.1081861929
 40
0.2184170689
 40
0.4514079111
 40
0.7105341334
 40
1.0
 40
1.0
 40
1.0
 40
1.0
 10
58.6664990418
 20
63.0935209977
 30
0.0
 10
58.6664359883
 20
63.0313348956
 30
0.0
 10
58.6771563473
 20
62.9055161375
 30
0.0
 10
58.7423091658
 20
62.6532935331
 30
0.0
 10
58.9096680931
 20
62.3438551249
 30
0.0
 10
59.2217933632
 20
62.0155215739
 30
0.0
 10
59.4830555291
 20
61.8351800473
 30
0.0
 10
59.6270819727
 20
61.7518675171
 30
0.0
  0
SPLINE
  5
2E1
100
AcDbEntity
  8
0
100
AcDbSpline
 62
7
  6
CONTINUOUS
 70
0
 71
3
 72
20
 73
16
 74
0
 42
0.0000001
 43
0.0000001
 44
0.0000000001
 40
0.0
 40
0.0
 40
0.0
 40
0.0
 40
0.0624034554
 40
0.1288253056
 40
0.2703068192
 40
0.4173390054
 40
0.5615567602
 40
0.6301787033
 40
0.6952950353
 40
0.7562727469
 40
0.8127445738
 40
0.8646880537
 40
0.9125090165
 40
0.9571366795
 40
1.0
 40
1.0
 40
1.0
 40
1.0
 10
59.6270819727
 20
61.7518675171
 30
0.0
 10
59.7448276863
 20
61.6837571543
 30
0.0
 10
59.9973328264
 20
61.5590602606
 30
0.0
 10
60.5519355352
 20
61.3575107191
 30
0.0
 10
61.3153178505
 20
61.2042313986
 30
0.0
 10
62.2621208953
 20
61.1774527807
 30
0.0
 10
63.0435550654
 20
61.2865968767
 30
0.0
 10
63.6266302948
 20
61.4543498376
 30
0.0
 10
64.0211761556
 20
61.6131082761
 30
0.0
 10
64.3716935661
 20
61.8036457989
 30
0.0
 10
64.6708896746
 20
62.0221814381
 30
0.0
 10
64.9124400462
 20
62.2645749392
 30
0.0
 10
65.0906362473
 20
62.526648664
 30
0.0
 10
65.2006396159
 20
62.8030903048
 30
0.0
 10
65.2257097569
 20
62.9945964924
 30
0.0
 10
65.225804493
 20
63.0880291926
 30
0.0
  0
SPLINE
  5
2E2
100
AcDbEntity
  8
0
100
AcDbSpline
 62
7
  6
CONTINUOUS
 70
0
 71
3
 72
11
 73
7
 74
0
 42
0.0000001
 43
0.0000001
 44
0.0000000001
 40
0.0
 40
0.0
 40
0.0
 40
0.0
 40
0.2890374126
 40
0.5484290207
 40
0.7817731361
 40
1.0
 40
1.0
 40
1.0
 40
1.0
 10
21.2432049753
 20
84.4687166491
 30
0.0
 10
21.2435835151
 20
84.5185849719
 30
0.0
 10
21.2519083147
 20
84.613461901
 30
0.0
 10
21.2911942572
 20
84.7437360692
 30
0.0
 10
21.3566042361
 20
84.8494787922
 30
0.0
 10
21.417708592
 20
84.900520962
 30
0.0
 10
21.4503173439
 20
84.9193455318
 30
0.0
  0
SPLINE
  5
2E3
100
AcDbEntity
  8
0
100
AcDbSpline
 62
7
  6
CONTINUOUS
 70
0
 71
3
 72
15
 73
11
 74
0
 42
0.0000001
 43
0.0000001
 44
0.0000000001
 40
0.0
 40
0.0
 40
0.0
 40
0.0
 40
0.1465173707
 40
0.288253263
 40
0.4241855166
 40
0.5535937477
 40
0.675932881
 40
0.790957008
 40
0.8988145517
 40
1.0
 40
1.0
 40
1.0
 40
1.0
 10
42.9603062834
 20
31.9148823357
 30
0.0
 10
42.4190989653
 20
32.5290625552
 30
0.0
 10
41.3122639206
 20
33.7011834594
 30
0.0
 10
39.5608045198
 20
35.3010909548
 30
0.0
 10
37.7627265598
 20
36.6981414543
 30
0.0
 10
35.9406152211
 20
37.8748666848
 30
0.0
 10
34.1165292583
 20
38.8164156997
 30
0.0
 10
32.3123851851
 20
39.510974676
 30
0.0
 10
30.5504712931
 20
39.9487869785
 30
0.0
 10
29.3833358456
 20
40.0684828883
 30
0.0
 10
28.8181117805
 20
40.0796974261
 30
0.0
  0
SPLINE
  5
2E4
100
AcDbEntity
  8
0
100
AcDbSpline
 62
7
  6
CONTINUOUS
 70
0
 71
3
 72
17
 73
13
 74
0
 42
0.0000001
 43
0.0000001
 44
0.0000000001
 40
0.0
 40
0.0
 40
0.0
 40
0.0
 40
0.1286846513
 40
0.2703032228
 40
0.4174430309
 40
0.5617811216
 40
0.695448235
 40
0.8127121431
 40
0.8646788239
 40
0.9125086207
 40
0.9571391214
 40
1.0
 40
1.0
 40
1.0
 40
1.0
 10
27.5806697615
 20
79.1697323516
 30
0.0
 10
27.5806697615
 20
79.2552038485
 30
0.0
 10
27.5567400368
 20
79.4349391686
 30
0.0
 10
27.4675128629
 20
79.6988367387
 30
0.0
 10
27.3299534634
 20
79.9530313756
 30
0.0
 10
27.1552212859
 20
80.176699289
 30
0.0
 10
26.9575258224
 20
80.35178625
 30
0.0
 10
26.7785820341
 20
80.449592762
 30
0.0
 10
26.638617925
 20
80.4868845658
 30
0.0
 10
26.5422819992
 20
80.4939222518
 30
0.0
 10
26.4525649006
 20
80.4808356891
 30
0.0
 10
26.3982385795
 20
80.4581948698
 30
0.0
 10
26.3735840589
 20
80.4439619262
 30
0.0
  0
SPLINE
  5
2E5
100
AcDbEntity
  8
0
100
AcDbSpline
 62
7
  6
CONTINUOUS
 70
0
 71
3
 72
12
 73
8
 74
0
 42
0.0000001
 43
0.0000001
 44
0.0000000001
 40
0.0
 40
0.0
 40
0.0
 40
0.0
 40
0.1081861929
 40
0.2184170689
 40
0.4514079111
 40
0.7105341334
 40
1.0
 40
1.0
 40
1.0
 40
1.0
 10
65.225804493
 20
63.0880291926
 30
0.0
 10
65.2258675466
 20
63.1502152947
 30
0.0
 10
65.2151471875
 20
63.2760340529
 30
0.0
 10
65.149994369
 20
63.5282566573
 30
0.0
 10
64.9826354417
 20
63.8376950655
 30
0.0
 10
64.6705101716
 20
64.1660286164
 30
0.0
 10
64.4092480057
 20
64.346370143
 30
0.0
 10
64.2652215621
 20
64.4296826732
 30
0.0
  0
SPLINE
  5
2E6
100
AcDbEntity
  8
0
100
AcDbSpline
 62
7
  6
CONTINUOUS
 70
0
 71
3
 72
11
 73
7
 74
0
 42
0.0000001
 43
0.0000001
 44
0.0000000001
 40
0.0
 40
0.0
 40
0.0
 40
0.0
 40
0.2215493183
 40
0.4563253617
 40
0.7141333467
 40
1.0
 40
1.0
 40
1.0
 40
1.0
 10
45.5952660624
 20
72.8691687706
 30
0.0
 10
45.6854933187
 20
72.9212625923
 30
0.0
 10
45.889791839
 20
72.999082272
 30
0.0
 10
46.2288749004
 20
73.0217647592
 30
0.0
 10
46.5918688503
 20
72.9548150958
 30
0.0
 10
46.8303551014
 20
72.8582829305
 30
0.0
 10
46.9506828465
 20
72.7983397842
 30
0.0
  0
SPLINE
  5
2E7
100
AcDbEntity
  8
0
100
AcDbSpline
 62
7
  6
CONTINUOUS
 70
0
 71
3
 72
20
 73
16
 74
0
 42
0.0000001
 43
0.0000001
 44
0.0000000001
 40
0.0
 40
0.0
 40
0.0
 40
0.0
 40
0.0624034554
 40
0.1288253056
 40
0.2703068192
 40
0.4173390054
 40
0.5615567602
 40
0.6301787033
 40
0.6952950353
 40
0.7562727469
 40
0.8127445738
 40
0.8646880537
 40
0.9125090165
 40
0.9571366795
 40
1.0
 40
1.0
 40
1.0
 40
1.0
 10
64.2652215621
 20
64.4296826732
 30
0.0
 10
64.1474758485
 20
64.497793036
 30
0.0
 10
63.8949707085
 20
64.6224899298
 30
0.0
 10
63.3403679996
 20
64.8240394712
 30
0.0
 10
62.5769856843
 20
64.9773187917
 30
0.0
 10
61.6301826395
 20
65.0040974096
 30
0.0
 10
60.8487484694
 20
64.8949533136
 30
0.0
 10
60.26567324
 20
64.7272003527
 30
0.0
 10
59.8711273792
 20
64.5684419142
 30
0.0
 10
59.5206099687
 20
64.3779043914
 30
0.0
 10
59.2214138602
 20
64.1593687522
 30
0.0
 10
58.9798634887
 20
63.9169752511
 30
0.0
 10
58.8016672875
 20
63.6549015263
 30
0.0
 10
58.6916639189
 20
63.3784598855
 30
0.0
 10
58.6665937779
 20
63.1869536979
 30
0.0
 10
58.6664990418
 20
63.0935209977
 30
0.0
  0
SPLINE
  5
2E8
100
AcDbEntity
  8
0
100
AcDbSpline
 62
7
  6
CONTINUOUS
 70
0
 71
3
 72
11
 73
7
 74
0
 42
0.0000001
 43
0.0000001
 44
0.0000000001
 40
0.0
 40
0.0
 40
0.0
 40
0.0
 40
0.2177239861
 40
0.4508730345
 40
0.7104683317
 40
1.0
 40
1.0
 40
1.0
 40
1.0
 10
26.3735840589
 20
80.4439619262
 30
0.0
 10
26.3406062507
 20
80.4249239862
 30
0.0
 10
26.2788514916
 20
80.3731008042
 30
0.0
 10
26.2131349689
 20
80.2656266267
 30
0.0
 10
26.1741833075
 20
80.1332090337
 30
0.0
 10
26.1664503112
 20
80.0368511735
 30
0.0
 10
26.1664503112
 20
79.9862138606
 30
0.0
  0
SPLINE
  5
2E9
100
AcDbEntity
  8
0
100
AcDbSpline
 62
7
  6
CONTINUOUS
 70
0
 71
3
 72
11
 73
7
 74
0
 42
0.0000001
 43
0.0000001
 44
0.0000000001
 40
0.0
 40
0.0
 40
0.0
 40
0.0
 40
0.2177483561
 40
0.450885262
 40
0.7104543308
 40
1.0
 40
1.0
 40
1.0
 40
1.0
 10
21.4503173439
 20
84.9193455318
 30
0.0
 10
21.4832980089
 20
84.9383848017
 30
0.0
 10
21.5590482101
 20
84.9659728422
 30
0.0
 10
21.684978652
 20
84.9691348685
 30
0.0
 10
21.8191232716
 20
84.9366694413
 30
0.0
 10
21.9064335013
 20
84.8951873234
 30
0.0
 10
21.9502877758
 20
84.869868619
 30
0.0
  0
SPLINE
  5
2EA
100
AcDbEntity
  8
0
100
AcDbSpline
 62
7
  6
CONTINUOUS
 70
0
 71
3
 72
9
 73
5
 74
0
 42
0.0000001
 43
0.0000001
 44
0.0000000001
 40
0.0
 40
0.0
 40
0.0
 40
0.0
 40
0.2561343922
 40
1.0
 40
1.0
 40
1.0
 40
1.0
 10
52.1990942066
 20
67.7485858648
 30
0.0
 10
52.2272002417
 20
67.6642881906
 30
0.0
 10
52.3312259553
 20
67.3333182281
 30
0.0
 10
52.4120987957
 20
66.9949149979
 30
0.0
 10
52.4566969631
 20
66.7407314706
 30
0.0
  0
SPLINE
  5
2EB
100
AcDbEntity
  8
0
100
AcDbSpline
 62
7
  6
CONTINUOUS
 70
0
 71
3
 72
9
 73
5
 74
0
 42
0.0000001
 43
0.0000001
 44
0.0000000001
 40
0.0
 40
0.0
 40
0.0
 40
0.0
 40
0.2570594288
 40
1.0
 40
1.0
 40
1.0
 40
1.0
 10
52.4566969631
 20
66.7407314706
 30
0.0
 10
52.5331427877
 20
66.3050348831
 30
0.0
 10
52.8038806894
 20
64.6056322614
 30
0.0
 10
52.9657516289
 20
62.8881820977
 30
0.0
 10
53.0135556992
 20
61.6106114483
 30
0.0
  0
SPLINE
  5
2EC
100
AcDbEntity
  8
0
100
AcDbSpline
 62
7
  6
CONTINUOUS
 70
0
 71
3
 72
13
 73
9
 74
0
 42
0.0000001
 43
0.0000001
 44
0.0000000001
 40
0.0
 40
0.0
 40
0.0
 40
0.0
 40
0.1142958058
 40
0.2376927945
 40
0.5001458613
 40
0.7625194548
 40
0.8858079231
 40
1.0
 40
1.0
 40
1.0
 40
1.0
 10
61.1324112195
 20
56.5329594771
 30
0.0
 10
61.2049106366
 20
56.4910219708
 30
0.0
 10
61.3480335822
 20
56.3902562049
 30
0.0
 10
61.6159210254
 20
56.1388714948
 30
0.0
 10
61.8988445791
 20
55.7517439525
 30
0.0
 10
62.09202463
 20
55.3129672696
 30
0.0
 10
62.1751282059
 20
54.9553309699
 30
0.0
 10
62.1904511096
 20
54.7811336287
 30
0.0
 10
62.1904511096
 20
54.6974545217
 30
0.0
  0
SPLINE
  5
2ED
100
AcDbEntity
  8
0
100
AcDbSpline
 62
7
  6
CONTINUOUS
 70
0
 71
3
 72
17
 73
13
 74
0
 42
0.0000001
 43
0.0000001
 44
0.0000000001
 40
0.0
 40
0.0
 40
0.0
 40
0.0
 40
0.1286846513
 40
0.2703032228
 40
0.4174430309
 40
0.5617811216
 40
0.695448235
 40
0.8127121431
 40
0.8646788239
 40
0.9125086207
 40
0.9571391214
 40
1.0
 40
1.0
 40
1.0
 40
1.0
 10
26.1664503112
 20
79.9862138606
 30
0.0
 10
26.1664503112
 20
79.9007423636
 30
0.0
 10
26.1903800359
 20
79.7210070436
 30
0.0
 10
26.2796072098
 20
79.4571094734
 30
0.0
 10
26.4171666093
 20
79.2029148366
 30
0.0
 10
26.5918987868
 20
78.9792469232
 30
0.0
 10
26.7895942503
 20
78.8041599622
 30
0.0
 10
26.9685380386
 20
78.7063534502
 30
0.0
 10
27.1085021477
 20
78.6690616464
 30
0.0
 10
27.2048380735
 20
78.6620239604
 30
0.0
 10
27.2945551721
 20
78.6751105231
 30
0.0
 10
27.3488814932
 20
78.6977513423
 30
0.0
 10
27.3735360138
 20
78.7119842859
 30
0.0
  0
ELLIPSE
  5
2EE
100
AcDbEntity
  8
0
100
AcDbEllipse
 62
7
  6
CONTINUOUS
 10
22.7722630408
 20
91.4576990493
 30
0.0
 11
-0.7500537606
 21
1.2990400434
 31
0.0
 40
0.5773567993
 41
-0.7854276015
 42
-0.0000190396
  0
ELLIPSE
  5
2EF
100
AcDbEntity
  8
0
100
AcDbEllipse
 62
7
  6
CONTINUOUS
 10
10.6454322326
 20
84.4563118104
 30
0.0
 11
-0.7500537606
 21
1.2990400434
 31
0.0
 40
0.5773567993
 41
-0.7854276015
 42
0.7853687253
  0
ELLIPSE
  5
2F0
100
AcDbEntity
  8
0
100
AcDbEllipse
 62
7
  6
CONTINUOUS
 10
21.994410152
 20
86.1506191876
 30
0.0
 11
3.279674376
 21
-0.000001326
 31
0.0
 40
0.5773420155
 41
6.7107034779
 42
10.7598104701
  0
ENDSEC
  0
SECTION
  2
OBJECTS
  0
DICTIONARY
  5
C
100
AcDbDictionary
280
0
281
1
  3
ACAD_GROUP
350
D
  3
ACAD_MLINESTYLE
350
17
  3
ACAD_LAYOUT
350
1A
  3
ACAD_PLOTSETTINGS
350
19
  3
ACAD_PLOTSTYLENAME
350
E
  0
DICTIONARY
  5
D
102
{ACAD_REACTORS
330
C
102
}
100
AcDbDictionary
280
0
281
1
  0
ACDBDICTIONARYWDFLT
  5
E
102
{ACAD_REACTORS
330
C
102
}
100
AcDbDictionary
281
1
  3
Normal
350
F
100
AcDbDictionaryWithDefault
340
F
  0
DICTIONARY
  5
17
102
{ACAD_REACTORS
330
C
102
}
100
AcDbDictionary
280
0
281
1
  3
Standard
350
18
  0
DICTIONARY
  5
19
102
{ACAD_REACTORS
330
C
102
}
100
AcDbDictionary
281
1
  0
DICTIONARY
  5
1A
102
{ACAD_REACTORS
330
C
102
}
100
AcDbDictionary
281
1
  3
Model
350
2F1
  3
Layout1
350
2F2
  0
ACDBPLACEHOLDER
  5
F
102
{ACAD_REACTORS
330
E
102
}
  0
MLINESTYLE
  5
18
102
{ACAD_REACTORS
330
17
102
}
100
AcDbMlineStyle
  2
STANDARD
 70
0
  3

 62
256
 51
90.0
 52
90.0
 71
2
 49
0.5
 62
256
  6
BYLAYER
 49
-0.5
 62
256
  6
BYLAYER
  0
LAYOUT
  5
2F1
102
{ACAD_REACTORS
330
1A
102
}
100
AcDbPlotSettings
  1

  2
none_device
  4

  6

 40
0.0
 41
0.0
 42
0.0
 43
0.0
 44
210.0
 45
297.0
 46
0.0
 47
0.0
 48
0.0
 49
0.0
140
0.0
141
0.0
142
1.0
143
1.0
 70
1024
 72
1
 73
0
 74
0
  7

 75
0
147
1.0
148
0.0
149
0.0
100
AcDbLayout
  1
Model
 70
0
 71
0
 10
0.0
 20
0.0
 11
210.0
 21
297.0
 12
0.0
 22
0.0
 32
0.0
 14
0.0
 24
0.0
 34
0.0
 15
0.0
 25
0.0
 35
0.0
146
0.0
 13
0.0
 23
0.0
 33
0.0
 16
1.0
 26
0.0
 36
0.0
 17
0.0
 27
1.0
 37
0.0
 76
0
330
210
345
0
346
0
  0
LAYOUT
  5
2F2
102
{ACAD_REACTORS
330
1A
102
}
100
AcDbPlotSettings
  1

  2
none_device
  4

  6

 40
0.0
 41
0.0
 42
0.0
 43
0.0
 44
210.0
 45
297.0
 46
0.0
 47
0.0
 48
0.0
 49
0.0
140
0.0
141
0.0
142
1.0
143
1.0
 70
0
 72
1
 73
0
 74
0
  7

 75
0
147
1.0
148
0.0
149
0.0
100
AcDbLayout
  1
Layout1
 70
0
 71
1
 10
0.0
 20
0.0
 11
210.0
 21
297.0
 12
0.0
 22
0.0
 32
0.0
 14
0.0
 24
0.0
 34
0.0
 15
0.0
 25
0.0
 35
0.0
146
0.0
 13
0.0
 23
0.0
 33
0.0
 16
1.0
 26
0.0
 36
0.0
 17
0.0
 27
1.0
 37
0.0
 76
0
330
211
345
0
346
0
  0
ENDSEC
  0
EOF
