999
DXF file: C:\Users\sesa63760\Dev\_Creo\CAD\MCADID0005853_3D-CAD\mcadid0005853_3d-simplified_1.dxf
999
Pro/ENGINEER 2019471 by Parametric Technology Corporation
  0
SECTION
  2
HEADER
  9
$ACADVER
  1
AC1024
  9
$DWGCODEPAGE
  3
ANSI_1252
  9
$EXTMAX
 10
65.2205330087
 20
92.2404681123
 30
0.0
  9
$EXTMIN
 10
0.0
 20
0.0
 30
0.0
  9
$LIMMIN
 10
0.0
 20
0.0
  9
$LIMMAX
 10
65.2205330087
 20
92.2404681123
  9
$VIEWCTR
 10
32.6102665043
 20
46.1202340561
  9
$VIEWSIZE
 40
92.2404681123
  9
$CLAYER
  8
0
  9
$LTSCALE
 40
6.0127119955
  9
$CELTYPE
  6
BYLAYER
  9
$DIMSCALE
 40
1.0
  9
$DIMASZ
 40
0.7764349168
  9
$DIMEXO
 40
1.0
  9
$DIMDLI
 40
4.1542373787
  9
$DIMEXE
 40
1.0
  9
$DIMCEN
 40
0.9838983265
  9
$DIMLFAC
 40
1.0
  9
$DIMBLK
  1
_FILLED
  9
$DIMALT
 70
0
  9
$DIMALTF
 40
0.0393700787
  9
$DIMTXT
 40
1.0870088835
  9
$DIMTOL
 70
1
  9
$DIMLIM
 70
0
  9
$DIMTFAC
 40
1.0
  9
$DIMTP
 40
0.01
  9
$DIMTM
 40
0.01
  9
$DIMGAP
 40
0.625
  9
$DIMDSEP
 70
46
  9
$AUNITS
 70
0
  9
$PDMODE
 70
3
  9
$PDSIZE
 40
0.3125
  9
$HANDSEED
  5
2AF
  9
$TILEMODE
 70
1
  9
$MEASUREMENT
 70
1
  9
$INSUNITS
 70
4
  0
ENDSEC
  0
SECTION
  2
CLASSES
  0
CLASS
  1
ACDBDICTIONARYWDFLT
  2
AcDbDictionaryWithDefault
  3
AutoCAD 2000
 90
0
 91
1
280
0
281
0
  0
CLASS
  1
ACDBPLACEHOLDER
  2
AcDbPlaceHolder
  3
AutoCAD 2000
 90
0
 91
1
280
0
281
0
  0
CLASS
  1
LAYOUT
  2
AcDbLayout
  3
AutoCAD 2000
 90
0
 91
0
280
0
281
0
  0
ENDSEC
  0
SECTION
  2
TABLES
  0
TABLE
  2
VPORT
  5
8
100
AcDbSymbolTable
 70
2
  0
VPORT
  5
1F4
100
AcDbSymbolTableRecord
100
AcDbViewportTableRecord
  2
*ACTIVE
 70
0
 10
0.0
 20
0.0
 11
1.0
 21
1.0
 12
32.6102665043
 22
46.1202340561
 13
0.0
 23
0.0
 14
1.0
 24
1.0
 15
0.0
 25
0.0
 16
0.0
 26
0.0
 36
1.0
 17
0.0
 27
0.0
 37
0.0
 40
92.2404681123
 41
0.7070707071
 42
50.0
 43
0.0
 44
0.0
 50
0.0
 51
0.0
 71
0
 72
100
 73
1
 74
1
 75
0
 76
0
 77
0
 78
0
  0
ENDTAB
  0
TABLE
  2
LTYPE
  5
5
100
AcDbSymbolTable
 70
6
  0
LTYPE
  5
14
100
AcDbSymbolTableRecord
100
AcDbLinetypeTableRecord
  2
BYBLOCK
 70
0
  3

 72
65
 73
0
 40
0.0
  0
LTYPE
  5
15
100
AcDbSymbolTableRecord
100
AcDbLinetypeTableRecord
  2
BYLAYER
 70
0
  3

 72
65
 73
0
 40
0.0
  0
LTYPE
  5
16
100
AcDbSymbolTableRecord
100
AcDbLinetypeTableRecord
  2
CONTINUOUS
 70
64
  3
Solid line
 72
65
 73
0
 40
0.0
  0
LTYPE
  5
1F5
100
AcDbSymbolTableRecord
100
AcDbLinetypeTableRecord
  2
CENTER
 70
64
  3
____ _ ____ _ ____ _ ____ _ ____ _ ____ _ ____
 72
65
 73
4
 40
0.6
 49
0.375
 74
0
 49
-0.075
 74
0
 49
0.075
 74
0
 49
-0.075
 74
0
  0
LTYPE
  5
1F6
100
AcDbSymbolTableRecord
100
AcDbLinetypeTableRecord
  2
HIDDEN
 70
64
  3
- - - - - - - - - - - - - - - - - - - -
 72
65
 73
2
 40
0.2
 49
0.1
 74
0
 49
-0.1
 74
0
  0
LTYPE
  5
1F7
100
AcDbSymbolTableRecord
100
AcDbLinetypeTableRecord
  2
PHANTOM
 70
64
  3
_____ _ _ _____ _ _ _____ _ _ _____
 72
65
 73
6
 40
0.8
 49
0.45
 74
0
 49
-0.05
 74
0
 49
0.1
 74
0
 49
-0.05
 74
0
 49
0.1
 74
0
 49
-0.05
 74
0
  0
LTYPE
  5
1F8
100
AcDbSymbolTableRecord
100
AcDbLinetypeTableRecord
  2
DOT
 70
64
  3
. . . . . . . . . . . . . . . . . . . .
 72
65
 73
2
 40
0.2
 49
0.1
 74
0
 49
-0.1
 74
0
  0
LTYPE
  5
1F9
100
AcDbSymbolTableRecord
100
AcDbLinetypeTableRecord
  2
DASHED
 70
64
  3
- - - - - - - - - - - - - - - - - - - -
 72
65
 73
2
 40
0.2
 49
0.1
 74
0
 49
-0.1
 74
0
  0
ENDTAB
  0
TABLE
  2
LAYER
  5
2
100
AcDbSymbolTable
 70
36
  0
LAYER
  5
10
100
AcDbSymbolTableRecord
100
AcDbLayerTableRecord
  2
0
 70
0
 62
7
  6
CONTINUOUS
370
-3
390
F
  0
LAYER
  5
1FA
100
AcDbSymbolTableRecord
100
AcDbLayerTableRecord
  2
DEFAULT_1
 70
0
 62
7
  6
CENTER
370
-3
390
F
  0
LAYER
  5
1FB
100
AcDbSymbolTableRecord
100
AcDbLayerTableRecord
  2
DEFAULT_2
 70
0
 62
7
  6
HIDDEN
370
-3
390
F
  0
LAYER
  5
1FC
100
AcDbSymbolTableRecord
100
AcDbLayerTableRecord
  2
DEFAULT_3
 70
0
 62
7
  6
PHANTOM
370
-3
390
F
  0
LAYER
  5
1FD
100
AcDbSymbolTableRecord
100
AcDbLayerTableRecord
  2
00_COMPONENTS
 70
0
 62
7
  6
CONTINUOUS
370
-3
390
F
  0
LAYER
  5
1FE
100
AcDbSymbolTableRecord
100
AcDbLayerTableRecord
  2
01_1_DEFAULT_DATUMS
 70
0
 62
7
  6
CONTINUOUS
370
-3
390
F
  0
LAYER
  5
1FF
100
AcDbSymbolTableRecord
100
AcDbLayerTableRecord
  2
01_PLANES
 70
0
 62
7
  6
CONTINUOUS
370
-3
390
F
  0
LAYER
  5
200
100
AcDbSymbolTableRecord
100
AcDbLayerTableRecord
  2
02_COORD_SYS
 70
0
 62
7
  6
CONTINUOUS
370
-3
390
F
  0
LAYER
  5
201
100
AcDbSymbolTableRecord
100
AcDbLayerTableRecord
  2
03_AXES
 70
0
 62
7
  6
CONTINUOUS
370
-3
390
F
  0
LAYER
  5
202
100
AcDbSymbolTableRecord
100
AcDbLayerTableRecord
  2
04_POINTS
 70
0
 62
7
  6
CONTINUOUS
370
-3
390
F
  0
LAYER
  5
203
100
AcDbSymbolTableRecord
100
AcDbLayerTableRecord
  2
05_CURVES
 70
0
 62
7
  6
CONTINUOUS
370
-3
390
F
  0
LAYER
  5
204
100
AcDbSymbolTableRecord
100
AcDbLayerTableRecord
  2
06_SURFS
 70
0
 62
7
  6
CONTINUOUS
370
-3
390
F
  0
LAYER
  5
205
100
AcDbSymbolTableRecord
100
AcDbLayerTableRecord
  2
07_COSMETICS
 70
0
 62
7
  6
CONTINUOUS
370
-3
390
F
  0
LAYER
  5
206
100
AcDbSymbolTableRecord
100
AcDbLayerTableRecord
  2
10_NOTES
 70
0
 62
7
  6
CONTINUOUS
370
-3
390
F
  0
LAYER
  5
207
100
AcDbSymbolTableRecord
100
AcDbLayerTableRecord
  2
11_NOTES_PUB
 70
0
 62
7
  6
CONTINUOUS
370
-3
390
F
  0
LAYER
  5
208
100
AcDbSymbolTableRecord
100
AcDbLayerTableRecord
  2
13_REF_GTOL
 70
0
 62
7
  6
CONTINUOUS
370
-3
390
F
  0
LAYER
  5
209
100
AcDbSymbolTableRecord
100
AcDbLayerTableRecord
  2
16_MISC
 70
0
 62
7
  6
CONTINUOUS
370
-3
390
F
  0
LAYER
  5
20A
100
AcDbSymbolTableRecord
100
AcDbLayerTableRecord
  2
17_NO_PRINT
 70
0
 62
7
  6
CONTINUOUS
370
-3
390
F
  0
LAYER
  5
20B
100
AcDbSymbolTableRecord
100
AcDbLayerTableRecord
  2
18_DATUM_CAMS_JOINTS
 70
0
 62
7
  6
CONTINUOUS
370
-3
390
F
  0
LAYER
  5
20C
100
AcDbSymbolTableRecord
100
AcDbLayerTableRecord
  2
19_DATUM_FUNCTIONAL
 70
0
 62
7
  6
CONTINUOUS
370
-3
390
F
  0
LAYER
  5
20D
100
AcDbSymbolTableRecord
100
AcDbLayerTableRecord
  2
20_DATUM_KINEMATIC_SCHEME
 70
0
 62
7
  6
CONTINUOUS
370
-3
390
F
  0
ENDTAB
  0
TABLE
  2
STYLE
  5
3
100
AcDbSymbolTable
 70
1
  0
STYLE
  5
11
100
AcDbSymbolTableRecord
100
AcDbTextStyleTableRecord
  2
STANDARD
 70
0
 40
0.0
 41
1.0
 50
0.0
 71
0
 42
0.2
  3
ARIAL.TTF
  4

  0
STYLE
  5
20E
100
AcDbSymbolTableRecord
100
AcDbTextStyleTableRecord
  2
TEXTSTYLE_1
 70
0
 40
0.0
 41
0.8
 50
0.0
 71
0
 42
0.2
  3
gdt
  4

  0
ENDTAB
  0
TABLE
  2
VIEW
  5
6
100
AcDbSymbolTable
 70
0
  0
ENDTAB
  0
TABLE
  2
UCS
  5
7
100
AcDbSymbolTable
 70
0
  0
ENDTAB
  0
TABLE
  2
APPID
  5
9
100
AcDbSymbolTable
 70
1
  0
APPID
  5
20F
100
AcDbSymbolTableRecord
100
AcDbRegAppTableRecord
  2
ACAD
 70
0
  0
ENDTAB
  0
TABLE
  2
BLOCK_RECORD
  5
1
100
AcDbSymbolTable
 70
0
  0
BLOCK_RECORD
  5
210
100
AcDbSymbolTableRecord
100
AcDbBlockTableRecord
  2
*Model_Space
  0
BLOCK_RECORD
  5
211
100
AcDbSymbolTableRecord
100
AcDbBlockTableRecord
  2
*Paper_Space
  0
BLOCK_RECORD
  5
212
100
AcDbSymbolTableRecord
100
AcDbBlockTableRecord
  2
_FILLED
  0
ENDTAB
  0
TABLE
  2
DIMSTYLE
  5
A
100
AcDbSymbolTable
 70
1
100
AcDbDimStyleTable
 71
0
  0
DIMSTYLE
105
213
100
AcDbSymbolTableRecord
100
AcDbDimStyleTableRecord
  2
STANDARD
 70
0
  3

  4

 40
1.0
 41
0.7764349168
 42
1.0
 43
0.38
 44
1.0
 45
0.0
 46
0.0
 47
0.01
 48
0.01
140
1.0870088835
141
0.09
142
0.0
143
25.4
144
1.0
145
0.0
146
1.0
147
0.625
 71
1
 72
0
 73
0
 74
0
 75
0
 76
0
 77
1
 78
8
 79
2
170
0
171
1
172
0
173
0
174
0
175
0
176
0
177
0
178
0
270
2
179
2
271
2
272
2
273
2
274
2
275
0
280
0
281
0
282
0
283
1
284
8
285
0
286
0
287
3
288
0
340
11
278
46
341
212
342
212
343
212
344
212
  0
ENDTAB
  0
ENDSEC
  0
SECTION
  2
BLOCKS
  0
BLOCK
  5
20
100
AcDbEntity
  8
0
100
AcDbBlockBegin
  2
*Model_Space
 70
0
 10
0.0
 20
0.0
 30
0.0
  3
*Model_Space
  1

  0
ENDBLK
  5
21
100
AcDbEntity
  8
0
100
AcDbBlockEnd
  0
BLOCK
  5
1C
100
AcDbEntity
  8
0
100
AcDbBlockBegin
  2
*Paper_Space
 70
0
 10
0.0
 20
0.0
 30
0.0
  3
*Paper_Space
  1

  0
ENDBLK
  5
1D
100
AcDbEntity
  8
0
100
AcDbBlockEnd
  0
BLOCK
  5
214
100
AcDbEntity
  8
0
100
AcDbBlockBegin
  2
_FILLED
 70
64
 10
0.0
 20
0.0
  3
_FILLED
  1

  0
SOLID
  5
215
100
AcDbEntity
  8
0
  6
BYBLOCK
 62
0
100
AcDbTrace
 10
0.0
 20
0.0
 11
-1.0
 21
0.25
 12
-1.0
 22
-0.25
 13
-1.0
 23
-0.25
  0
ENDBLK
  5
216
100
AcDbEntity
  8
0
  6
BYBLOCK
 62
0
100
AcDbBlockEnd
  0
ENDSEC
  0
SECTION
  2
ENTITIES
  0
LINE
  5
217
100
AcDbEntity
  8
0
100
AcDbLine
 62
7
  6
BYLAYER
 10
40.8569419588
 20
59.5866699633
 11
38.9060533732
 21
58.4603306365
  0
LINE
  5
218
100
AcDbEntity
  8
0
100
AcDbLine
 62
7
  6
BYLAYER
 10
44.5628840157
 20
61.7262838356
 11
46.5137727102
 21
62.8526232252
  0
LWPOLYLINE
  5
219
100
AcDbEntity
  8
0
100
AcDbPolyline
 62
7
  6
BYLAYER
 90
4
 70
0
 10
22.786848825
 20
45.2844585146
 10
22.2671126983
 20
44.855747092
 10
21.8917578585
 20
44.2790765927
 10
21.7414873298
 20
43.5262235613
  0
LINE
  5
21A
100
AcDbEntity
  8
0
100
AcDbLine
 62
7
  6
BYLAYER
 10
46.2549996887
 20
60.0688863029
 11
44.3041109988
 21
58.942546916
  0
LINE
  5
21B
100
AcDbEntity
  8
0
100
AcDbLine
 62
7
  6
BYLAYER
 10
49.9609417493
 20
62.2085001775
 11
51.911830332
 21
63.3348395025
  0
LINE
  5
21C
100
AcDbEntity
  8
0
100
AcDbLine
 62
7
  6
BYLAYER
 10
46.7066489435
 20
59.8456151139
 11
44.8322617203
 21
58.7634436057
  0
LINE
  5
21D
100
AcDbEntity
  8
0
100
AcDbLine
 62
7
  6
BYLAYER
 10
50.4890923898
 20
62.0293968204
 11
52.3634796695
 21
63.1115683611
  0
LINE
  5
21E
100
AcDbEntity
  8
0
100
AcDbLine
 62
7
  6
BYLAYER
 10
43.8231110271
 20
57.4296776625
 11
22.786848825
 21
45.2844585146
  0
LINE
  5
21F
100
AcDbEntity
  8
0
100
AcDbLine
 62
7
  6
BYLAYER
 10
22.5797427494
 20
44.0101876646
 11
17.1350432028
 21
40.8667076798
  0
LINE
  5
220
100
AcDbEntity
  8
0
100
AcDbLine
 62
7
  6
BYLAYER
 10
17.0643328191
 20
40.8258832644
 11
15.6501251447
 21
40.0093949566
  0
LINE
  5
221
100
AcDbEntity
  8
0
100
AcDbLine
 62
7
  6
BYLAYER
 10
14.750390575
 20
35.3377899891
 11
15.9814122639
 21
36.1580019778
  0
LINE
  5
222
100
AcDbEntity
  8
0
100
AcDbLine
 62
7
  6
BYLAYER
 10
7.7734441726
 20
30.8429980195
 11
14.8444825448
 21
34.9254395582
  0
LINE
  5
223
100
AcDbEntity
  8
0
100
AcDbLine
 62
7
  6
BYLAYER
 10
8.7734396958
 20
29.1109446272
 11
15.8444780679
 21
33.1933861659
  0
LINE
  5
224
100
AcDbEntity
  8
0
100
AcDbLine
 62
7
  6
BYLAYER
 10
52.3496566435
 20
52.8256804922
 11
50.4752693655
 21
51.7435089524
  0
LINE
  5
225
100
AcDbEntity
  8
0
100
AcDbLine
 62
7
  6
BYLAYER
 10
56.1321000911
 20
55.0094621994
 11
58.0064873134
 21
56.0916337071
  0
LINE
  5
226
100
AcDbEntity
  8
0
100
AcDbLine
 62
7
  6
BYLAYER
 10
38.1611024982
 20
54.1726927518
 11
38.1623072331
 21
54.161430577
  0
LINE
  5
227
100
AcDbEntity
  8
0
100
AcDbLine
 62
7
  6
BYLAYER
 10
38.1611024982
 20
54.1726927518
 11
38.1617369944
 21
54.1611013515
  0
LINE
  5
228
100
AcDbEntity
  8
0
100
AcDbLine
 62
7
  6
BYLAYER
 10
38.1611024982
 20
54.1726927518
 11
38.1611076827
 21
54.1607372929
  0
LINE
  5
229
100
AcDbEntity
  8
0
100
AcDbLine
 62
7
  6
BYLAYER
 10
52.5716197937
 20
52.2109737557
 11
50.6207312081
 21
51.084634429
  0
LINE
  5
22A
100
AcDbEntity
  8
0
100
AcDbLine
 62
7
  6
BYLAYER
 10
56.2775618505
 20
54.350587628
 11
58.2284505451
 21
55.4769270177
  0
LINE
  5
22B
100
AcDbEntity
  8
0
100
AcDbLine
 62
7
  6
BYLAYER
 10
16.1545365443
 20
32.9057233115
 11
17.4803751986
 21
33.5617065185
  0
LINE
  5
22C
100
AcDbEntity
  8
0
100
AcDbLine
 62
7
  6
BYLAYER
 10
44.0480347038
 20
60.0839662091
 11
44.0459156361
 21
60.0720188564
  0
LINE
  5
22D
100
AcDbEntity
  8
0
100
AcDbLine
 62
7
  6
BYLAYER
 10
27.579720365
 20
35.3499207031
 11
22.1350208184
 21
32.2064407183
  0
LINE
  5
22E
100
AcDbEntity
  8
0
100
AcDbLine
 62
7
  6
BYLAYER
 10
22.0643104347
 20
32.1656163029
 11
20.6501027603
 21
31.3491279952
  0
LINE
  5
22F
100
AcDbEntity
  8
0
100
AcDbLine
 62
7
  6
BYLAYER
 10
53.0052053433
 20
48.8745448607
 11
28.7868219637
 21
34.8921381609
  0
LINE
  5
230
100
AcDbEntity
  8
0
100
AcDbLine
 62
7
  6
BYLAYER
 10
44.038696907
 20
60.0806961205
 11
44.0368612085
 21
60.0688401962
  0
LINE
  5
231
100
AcDbEntity
  8
0
100
AcDbLine
 62
7
  6
BYLAYER
 10
52.5716198474
 20
45.0135420683
 11
50.6207311528
 21
43.8872026787
  0
LINE
  5
232
100
AcDbEntity
  8
0
100
AcDbLine
 62
7
  6
BYLAYER
 10
56.2775619042
 20
47.1531559406
 11
58.2284504898
 21
48.2794952674
  0
LINE
  5
233
100
AcDbEntity
  8
0
100
AcDbLine
 62
7
  6
BYLAYER
 10
52.3496566161
 20
44.5667956158
 11
50.4752693929
 21
43.4846241076
  0
LINE
  5
234
100
AcDbEntity
  8
0
100
AcDbLine
 62
7
  6
BYLAYER
 10
56.1321000624
 20
46.7505773222
 11
58.0064873421
 21
47.832748863
  0
ARC
  5
235
100
AcDbEntity
  8
0
100
AcDbCircle
 62
7
  6
BYLAYER
 10
35.2019582641
 20
53.3650372262
 40
19.2731060001
100
AcDbArc
 50
332.8382819628
 51
334.3213186856
  0
ARC
  5
236
100
AcDbEntity
  8
0
100
AcDbCircle
 62
7
  6
BYLAYER
 10
35.1240508029
 20
46.2582937651
 40
18.4350770272
100
AcDbArc
 50
18.8383747126
 51
20.8697093538
  0
ARC
  5
237
100
AcDbEntity
  8
0
100
AcDbCircle
 62
7
  6
BYLAYER
 10
40.8063756949
 20
49.5334526434
 40
18.4079759811
100
AcDbArc
 50
18.836879244
 51
20.871204821
  0
ARC
  5
238
100
AcDbEntity
  8
0
100
AcDbCircle
 62
7
  6
BYLAYER
 10
40.7834316799
 20
48.4321475264
 40
12.8589169773
100
AcDbArc
 50
62.5721601644
 51
64.8171974833
  0
ARC
  5
239
100
AcDbEntity
  8
0
100
AcDbCircle
 62
7
  6
BYLAYER
 10
15.1415394048
 20
34.036123514
 40
7.9416210496
100
AcDbArc
 50
39.4984856505
 51
39.6148209583
  0
ARC
  5
23A
100
AcDbEntity
  8
0
100
AcDbCircle
 62
7
  6
BYLAYER
 10
15.2259446552
 20
34.0882842198
 40
7.9238429493
100
AcDbArc
 50
39.6148157042
 51
39.7908851525
  0
ARC
  5
23B
100
AcDbEntity
  8
0
100
AcDbCircle
 62
7
  6
BYLAYER
 10
15.2678291944
 20
34.1109420047
 40
7.8474679015
100
AcDbArc
 50
39.6148096027
 51
39.8065322153
  0
ARC
  5
23C
100
AcDbEntity
  8
0
100
AcDbCircle
 62
7
  6
BYLAYER
 10
20.6726603831
 20
36.2256628768
 40
5.2710100235
100
AcDbArc
 50
234.4453251844
 51
235.3841478997
  0
ARC
  5
23D
100
AcDbEntity
  8
0
100
AcDbCircle
 62
7
  6
BYLAYER
 10
17.5639055628
 20
37.0803363299
 40
4.099555531
100
AcDbArc
 50
64.3297888638
 51
64.7468751291
  0
ARC
  5
23E
100
AcDbEntity
  8
0
100
AcDbCircle
 62
7
  6
BYLAYER
 10
17.9822169504
 20
39.3957236863
 40
1.6974689071
100
AcDbArc
 50
107.262434558
 51
119.9386355206
  0
ARC
  5
23F
100
AcDbEntity
  8
0
100
AcDbCircle
 62
7
  6
BYLAYER
 10
21.228041803
 20
33.61394634
 40
1.6723985774
100
AcDbArc
 50
302.6468254423
 51
303.0499995262
  0
ARC
  5
240
100
AcDbEntity
  8
0
100
AcDbCircle
 62
7
  6
BYLAYER
 10
17.8996613666
 20
39.3784719884
 40
1.6711482527
100
AcDbArc
 50
117.0064519256
 51
118.1619962486
  0
ARC
  5
241
100
AcDbEntity
  8
0
100
AcDbCircle
 62
7
  6
BYLAYER
 10
21.2290194647
 20
33.6124123406
 40
1.6705795233
100
AcDbArc
 50
300.761071889
 51
302.6469738538
  0
ARC
  5
242
100
AcDbEntity
  8
0
100
AcDbCircle
 62
7
  6
BYLAYER
 10
21.2999337681
 20
33.6529580085
 40
1.6702357991
100
AcDbArc
 50
297.955893078
 51
299.9982146559
  0
ARC
  5
243
100
AcDbEntity
  8
0
100
AcDbCircle
 62
7
  6
BYLAYER
 10
17.9696978135
 20
39.4209565462
 40
1.669356068
100
AcDbArc
 50
119.9985080143
 51
120.9748839455
  0
ARC
  5
244
100
AcDbEntity
  8
0
100
AcDbCircle
 62
7
  6
BYLAYER
 10
21.3003662079
 20
33.6521918515
 40
1.6693560676
100
AcDbArc
 50
299.9985080142
 51
300.3987851207
  0
ARC
  5
245
100
AcDbEntity
  8
0
100
AcDbCircle
 62
7
  6
BYLAYER
 10
21.2296565547
 20
33.6113579655
 40
1.6693476444
100
AcDbArc
 50
299.9986489728
 51
300.7607785742
  0
ARC
  5
246
100
AcDbEntity
  8
0
100
AcDbCircle
 62
7
  6
BYLAYER
 10
17.8979905279
 20
39.3815914095
 40
1.6676095397
100
AcDbArc
 50
118.1619695073
 51
119.9939130668
  0
ARC
  5
247
100
AcDbEntity
  8
0
100
AcDbCircle
 62
7
  6
BYLAYER
 10
41.2320153618
 20
56.4455552298
 40
18.8563873456
100
AcDbArc
 50
332.8218937556
 51
334.3377068907
  0
ARC
  5
248
100
AcDbEntity
  8
0
100
AcDbCircle
 62
7
  6
BYLAYER
 10
61.9019453892
 20
42.890892834
 40
25.6010742646
100
AcDbArc
 50
132.6313525073
 51
133.4518310562
  0
ARC
  5
249
100
AcDbEntity
  8
0
100
AcDbCircle
 62
7
  6
BYLAYER
 10
55.7420556549
 20
40.1636198613
 40
24.8640422843
100
AcDbArc
 50
132.6191917784
 51
133.463991784
  0
ARC
  5
24A
100
AcDbEntity
  8
0
100
AcDbCircle
 62
7
  6
BYLAYER
 10
70.3781742897
 20
55.792040947
 40
20.3104957038
100
AcDbArc
 50
191.4978997006
 51
193.4014260554
  0
ARC
  5
24B
100
AcDbEntity
  8
0
100
AcDbCircle
 62
7
  6
BYLAYER
 10
46.3781525622
 20
51.5724604716
 40
12.9990442521
100
AcDbArc
 50
62.5842622329
 51
64.805095421
  0
ARC
  5
24C
100
AcDbEntity
  8
0
100
AcDbCircle
 62
7
  6
BYLAYER
 10
62.0047395754
 20
39.5463047739
 40
12.1835562289
100
AcDbArc
 50
159.127379877
 51
161.1404902728
  0
ARC
  5
24D
100
AcDbEntity
  8
0
100
AcDbCircle
 62
7
  6
BYLAYER
 10
67.442141241
 20
42.8915432438
 40
11.9502793055
100
AcDbArc
 50
159.1077292105
 51
161.1601409421
  0
ARC
  5
24E
100
AcDbEntity
  8
0
100
AcDbCircle
 62
7
  6
BYLAYER
 10
49.0239416408
 20
53.6111843909
 40
9.5591932236
100
AcDbArc
 50
39.2727208621
 51
39.6146424464
  0
ARC
  5
24F
100
AcDbEntity
  8
0
100
AcDbCircle
 62
7
  6
BYLAYER
 10
49.3830661547
 20
53.8249801131
 40
9.1885766444
100
AcDbArc
 50
39.6146467386
 51
40.0547888421
  0
ARC
  5
250
100
AcDbEntity
  8
0
100
AcDbCircle
 62
7
  6
BYLAYER
 10
52.7841271167
 20
54.1307956921
 40
5.8123563161
100
AcDbArc
 50
0.0114927265
 51
1.4893690622
  0
ARC
  5
251
100
AcDbEntity
  8
0
100
AcDbCircle
 62
7
  6
BYLAYER
 10
53.1465670796
 20
54.1306679876
 40
5.4499163898
100
AcDbArc
 50
357.1472202481
 51
0.0135996124
  0
ARC
  5
252
100
AcDbEntity
  8
0
100
AcDbCircle
 62
7
  6
BYLAYER
 10
52.5279618817
 20
49.6449790073
 40
3.4354742632
100
AcDbArc
 50
274.2676309236
 51
275.1037883261
  0
ARC
  5
253
100
AcDbEntity
  8
0
100
AcDbCircle
 62
7
  6
BYLAYER
 10
61.9698682044
 20
64.9714325517
 40
27.9416650098
100
AcDbArc
 50
229.7927117039
 51
230.7846350251
  0
ARC
  5
254
100
AcDbEntity
  8
0
100
AcDbCircle
 62
7
  6
BYLAYER
 10
75.8882865786
 20
59.0256026982
 40
20.1602651338
100
AcDbArc
 50
191.4908066782
 51
193.4085190791
  0
ARC
  5
255
100
AcDbEntity
  8
0
100
AcDbCircle
 62
7
  6
BYLAYER
 10
54.8759451898
 20
59.0512298859
 40
18.951071214
100
AcDbArc
 50
236.0928351367
 51
237.9959151106
  0
ARC
  5
256
100
AcDbEntity
  8
0
100
AcDbCircle
 62
7
  6
BYLAYER
 10
55.9098455974
 20
78.8827138392
 40
17.7036397353
100
AcDbArc
 50
250.3649884756
 51
252.1699709686
  0
ARC
  5
257
100
AcDbEntity
  8
0
100
AcDbCircle
 62
7
  6
BYLAYER
 10
50.1648187132
 20
75.3566823759
 40
17.4290486777
100
AcDbArc
 50
250.3507687112
 51
252.1841907381
  0
ARC
  5
258
100
AcDbEntity
  8
0
100
AcDbCircle
 62
7
  6
BYLAYER
 10
51.4195030611
 20
62.0509792338
 40
15.8908956747
100
AcDbArc
 50
274.8920160011
 51
275.1053181724
  0
ARC
  5
259
100
AcDbEntity
  8
0
100
AcDbCircle
 62
7
  6
BYLAYER
 10
51.4683315042
 20
56.4835424968
 40
5.7701321548
100
AcDbArc
 50
58.4217070094
 51
59.9937912835
  0
ARC
  5
25A
100
AcDbEntity
  8
0
100
AcDbCircle
 62
7
  6
BYLAYER
 10
51.6951238777
 20
56.8843391186
 40
5.3096378841
100
AcDbArc
 50
59.9501932898
 51
63.5491433306
  0
SPLINE
  5
25B
100
AcDbEntity
  8
0
100
AcDbSpline
 62
7
  6
BYLAYER
 70
0
 71
3
 72
11
 73
7
 74
0
 42
0.0000001
 43
0.0000001
 44
0.0000000001
 40
0.0
 40
0.0
 40
0.0
 40
0.0
 40
0.2369356325
 40
0.4817765987
 40
0.7358511538
 40
1.0
 40
1.0
 40
1.0
 40
1.0
 10
58.2284504914
 20
55.4769269867
 30
0.0
 10
58.2970002149
 20
55.2186673635
 30
0.0
 10
58.421665751
 20
54.6894694909
 30
0.0
 10
58.5612429359
 20
53.870852754
 30
0.0
 10
58.6482831083
 20
53.0140638953
 30
0.0
 10
58.6672138722
 20
52.4294216188
 30
0.0
 10
58.6672138722
 20
52.1315297714
 30
0.0
  0
SPLINE
  5
25C
100
AcDbEntity
  8
0
100
AcDbSpline
 62
7
  6
BYLAYER
 70
0
 71
3
 72
11
 73
7
 74
0
 42
0.0000001
 43
0.0000001
 44
0.0000000001
 40
0.0
 40
0.0
 40
0.0
 40
0.0
 40
0.2543807273
 40
0.505829437
 40
0.7542971546
 40
1.0
 40
1.0
 40
1.0
 40
1.0
 10
55.6619975488
 20
59.8770035693
 30
0.0
 10
55.8990515162
 20
59.5821070432
 30
0.0
 10
56.3513217546
 20
58.9800521099
 30
0.0
 10
56.9661201109
 20
58.040723044
 30
0.0
 10
57.5172332759
 20
57.0776647494
 30
0.0
 10
57.8488805913
 20
56.4213577053
 30
0.0
 10
58.0064873134
 20
56.0916337071
 30
0.0
  0
SPLINE
  5
25D
100
AcDbEntity
  8
0
100
AcDbSpline
 62
7
  6
BYLAYER
 70
0
 71
3
 72
9
 73
5
 74
0
 42
0.0000001
 43
0.0000001
 44
0.0000000001
 40
0.0
 40
0.0
 40
0.0
 40
0.0
 40
0.2524682696
 40
1.0
 40
1.0
 40
1.0
 40
1.0
 10
44.2949472587
 20
61.476064879
 30
0.0
 10
44.2704692883
 20
61.3592010619
 30
0.0
 10
44.1761149487
 20
60.8957810474
 30
0.0
 10
44.092882221
 20
60.4300492285
 30
0.0
 10
44.038696907
 20
60.0806961205
 30
0.0
  0
SPLINE
  5
25E
100
AcDbEntity
  8
0
100
AcDbSpline
 62
7
  6
BYLAYER
 70
0
 71
3
 72
11
 73
7
 74
0
 42
0.0000001
 43
0.0000001
 44
0.0000000001
 40
0.0
 40
0.0
 40
0.0
 40
0.0
 40
0.2717564807
 40
0.5308670711
 40
0.7744586116
 40
1.0
 40
1.0
 40
1.0
 40
1.0
 10
46.5137726566
 20
62.8526231942
 30
0.0
 10
46.7958489775
 20
62.9101460184
 30
0.0
 10
47.3477794259
 20
63.0181699185
 30
0.0
 10
48.1561095618
 20
63.1589120442
 30
0.0
 10
48.919535938
 20
63.2706660529
 30
0.0
 10
49.4135881104
 20
63.325791184
 30
0.0
 10
49.6515648754
 20
63.3470499931
 30
0.0
  0
SPLINE
  5
25F
100
AcDbEntity
  8
0
100
AcDbSpline
 62
7
  6
BYLAYER
 70
0
 71
3
 72
11
 73
7
 74
0
 42
0.0000001
 43
0.0000001
 44
0.0000000001
 40
0.0
 40
0.0
 40
0.0
 40
0.0
 40
0.2890263223
 40
0.5505040858
 40
0.7863800248
 40
1.0
 40
1.0
 40
1.0
 40
1.0
 10
49.6515648754
 20
63.3470499931
 30
0.0
 10
49.8688594075
 20
63.3664612283
 30
0.0
 10
50.2835661174
 20
63.3951020568
 30
0.0
 10
50.8772933379
 20
63.4066592123
 30
0.0
 10
51.4138761619
 20
63.3872796916
 30
0.0
 10
51.7518675115
 20
63.3551127915
 30
0.0
 10
51.911830332
 20
63.3348395025
 30
0.0
  0
SPLINE
  5
260
100
AcDbEntity
  8
0
100
AcDbSpline
 62
7
  6
BYLAYER
 70
0
 71
3
 72
11
 73
7
 74
0
 42
0.0000001
 43
0.0000001
 44
0.0000000001
 40
0.0
 40
0.0
 40
0.0
 40
0.0
 40
0.251702205
 40
0.5026362332
 40
0.7522736644
 40
1.0
 40
1.0
 40
1.0
 40
1.0
 10
52.3634796412
 20
63.1115683448
 30
0.0
 10
52.6659897871
 20
62.8680844301
 30
0.0
 10
53.2608925884
 20
62.3702453248
 30
0.0
 10
54.1157908867
 20
61.5845556813
 30
0.0
 10
54.9218358572
 20
60.7571703153
 30
0.0
 10
55.4225448041
 20
60.1748841884
 30
0.0
 10
55.6619975488
 20
59.8770035693
 30
0.0
  0
SPLINE
  5
261
100
AcDbEntity
  8
0
100
AcDbSpline
 62
7
  6
BYLAYER
 70
0
 71
3
 72
11
 73
7
 74
0
 42
0.0000001
 43
0.0000001
 44
0.0000000001
 40
0.0
 40
0.0
 40
0.0
 40
0.0
 40
0.2389836203
 40
0.4861217523
 40
0.7402452716
 40
1.0
 40
1.0
 40
1.0
 40
1.0
 10
58.6672138722
 20
52.1315297714
 30
0.0
 10
58.6672138722
 20
51.8222015633
 30
0.0
 10
58.6460746935
 20
51.1928505632
 30
0.0
 10
58.5574583698
 20
50.2383714234
 30
0.0
 10
58.4171230831
 20
49.2630543789
 30
0.0
 10
58.2953888901
 20
48.60897761
 30
0.0
 10
58.2284504898
 20
48.2794952674
 30
0.0
  0
SPLINE
  5
262
100
AcDbEntity
  8
0
100
AcDbSpline
 62
7
  6
BYLAYER
 70
0
 71
3
 72
11
 73
7
 74
0
 42
0.0000001
 43
0.0000001
 44
0.0000000001
 40
0.0
 40
0.0
 40
0.0
 40
0.0
 40
0.224855009
 40
0.4683869333
 40
0.7278139689
 40
1.0
 40
1.0
 40
1.0
 40
1.0
 10
52.8335822001
 20
46.2231257618
 30
0.0
 10
53.0830833846
 20
46.2454140641
 30
0.0
 10
53.6017671534
 20
46.3038455837
 30
0.0
 10
54.403875727
 20
46.4230855697
 30
0.0
 10
55.2542707159
 20
46.5736337543
 30
0.0
 10
55.8351716101
 20
46.6891155936
 30
0.0
 10
56.1321000906
 20
46.7505773385
 30
0.0
  0
SPLINE
  5
263
100
AcDbEntity
  8
0
100
AcDbSpline
 62
7
  6
BYLAYER
 70
0
 71
3
 72
11
 73
7
 74
0
 42
0.0000001
 43
0.0000001
 44
0.0000000001
 40
0.0
 40
0.0
 40
0.0
 40
0.0
 40
0.2890263245
 40
0.5505040874
 40
0.7863800259
 40
1.0
 40
1.0
 40
1.0
 40
1.0
 10
46.8231495377
 20
61.7140733786
 30
0.0
 10
46.605855003
 20
61.694662143
 30
0.0
 10
46.1911482902
 20
61.6660213105
 30
0.0
 10
45.5974210661
 20
61.6544641566
 30
0.0
 10
45.0608382412
 20
61.6738436768
 30
0.0
 10
44.7228468914
 20
61.7060105786
 30
0.0
 10
44.5628840709
 20
61.7262838675
 30
0.0
  0
SPLINE
  5
264
100
AcDbEntity
  8
0
100
AcDbSpline
 62
7
  6
BYLAYER
 70
0
 71
3
 72
15
 73
11
 74
0
 42
0.0000001
 43
0.0000001
 44
0.0000000001
 40
0.0
 40
0.0
 40
0.0
 40
0.0
 40
0.1108410465
 40
0.2280578197
 40
0.3507094003
 40
0.477625969
 40
0.60747378
 40
0.7388131746
 40
0.8701524765
 40
1.0
 40
1.0
 40
1.0
 40
1.0
 10
55.8387985234
 20
50.4985531559
 30
0.0
 10
55.8387985234
 20
50.8108817602
 30
0.0
 10
55.8013882868
 20
51.4538693182
 30
0.0
 10
55.6458411242
 20
52.4311606755
 30
0.0
 10
55.3918872004
 20
53.4343610705
 30
0.0
 10
55.0438336612
 20
54.4464617283
 30
0.0
 10
54.6075643645
 20
55.450456866
 30
0.0
 10
54.0904374938
 20
56.4293918863
 30
0.0
 10
53.5012563472
 20
57.3666420571
 30
0.0
 10
53.0628184986
 20
57.958855654
 30
0.0
 10
52.8335821907
 20
58.2440269653
 30
0.0
  0
SPLINE
  5
265
100
AcDbEntity
  8
0
100
AcDbSpline
 62
7
  6
BYLAYER
 70
0
 71
3
 72
20
 73
16
 74
0
 42
0.0000001
 43
0.0000001
 44
0.0000000001
 40
0.0
 40
0.0
 40
0.0
 40
0.0
 40
0.0583200426
 40
0.1153282855
 40
0.171402901
 40
0.2269993555
 40
0.2825983495
 40
0.33867052
 40
0.3956661541
 40
0.4539997022
 40
0.5759539202
 40
0.6402638394
 40
0.7070129713
 40
0.8482026032
 40
1.0
 40
1.0
 40
1.0
 40
1.0
 10
52.8335822001
 20
46.2231257618
 30
0.0
 10
52.9455404394
 20
46.2331271537
 30
0.0
 10
53.1661459683
 20
46.2638834527
 30
0.0
 10
53.4873213763
 20
46.3438080274
 30
0.0
 10
53.7929124957
 20
46.4567356757
 30
0.0
 10
54.0814416591
 20
46.602105997
 30
0.0
 10
54.3515856702
 20
46.7793142725
 30
0.0
 10
54.6021560898
 20
46.9874699057
 30
0.0
 10
54.8319914439
 20
47.2256865078
 30
0.0
 10
55.1135795722
 20
47.5869281716
 30
0.0
 10
55.3451628512
 20
48.0013769419
 30
0.0
 10
55.5262198387
 20
48.4545473563
 30
0.0
 10
55.6808873667
 20
48.9565421094
 30
0.0
 10
55.8080285045
 20
49.6406143254
 30
0.0
 10
55.8387985234
 20
50.2059840043
 30
0.0
 10
55.8387985234
 20
50.4985531559
 30
0.0
  0
SPLINE
  5
266
100
AcDbEntity
  8
0
100
AcDbSpline
 62
7
  6
BYLAYER
 70
0
 71
3
 72
15
 73
11
 74
0
 42
0.0000001
 43
0.0000001
 44
0.0000000001
 40
0.0
 40
0.0
 40
0.0
 40
0.0
 40
0.1274308573
 40
0.2517376532
 40
0.3740157008
 40
0.4955633827
 40
0.6177093179
 40
0.7417306672
 40
0.8688130257
 40
1.0
 40
1.0
 40
1.0
 40
1.0
 10
46.8231495278
 20
61.7140733777
 30
0.0
 10
46.6972383243
 20
61.7028255479
 30
0.0
 10
46.4494684904
 20
61.6667283654
 30
0.0
 10
46.0904547775
 20
61.5696087804
 30
0.0
 10
45.7516676332
 20
61.4306447683
 30
0.0
 10
45.4352254477
 20
61.2506733549
 30
0.0
 10
45.1429606184
 20
61.0307665693
 30
0.0
 10
44.8765828652
 20
60.7722319605
 30
0.0
 10
44.637571756
 20
60.4767225486
 30
0.0
 10
44.4997607284
 20
60.2600235287
 30
0.0
 10
44.4357120498
 20
60.1467369532
 30
0.0
  0
SPLINE
  5
267
100
AcDbEntity
  8
0
100
AcDbSpline
 62
7
  6
BYLAYER
 70
0
 71
3
 72
16
 73
12
 74
0
 42
0.0000001
 43
0.0000001
 44
0.0000000001
 40
0.0
 40
0.0
 40
0.0
 40
0.0
 40
0.1491232976
 40
0.2932350962
 40
0.4309609536
 40
0.5611954099
 40
0.6831905483
 40
0.7966605164
 40
0.8503030766
 40
0.9019889226
 40
1.0
 40
1.0
 40
1.0
 40
1.0
 10
52.8335821907
 20
58.2440269653
 30
0.0
 10
52.6095211633
 20
58.5227601973
 30
0.0
 10
52.1473622651
 20
59.0539964757
 30
0.0
 10
51.4055988239
 20
59.7754606571
 30
0.0
 10
50.6369181718
 20
60.3988667871
 30
0.0
 10
49.8540810557
 20
60.9136794346
 30
0.0
 10
49.0700421473
 20
61.3111469103
 30
0.0
 10
48.4139963859
 20
61.5430924054
 30
0.0
 10
47.9019236496
 20
61.6601526469
 30
0.0
 10
47.4189866557
 20
61.7299123565
 30
0.0
 10
47.0572657003
 20
61.7349873137
 30
0.0
 10
46.8231495278
 20
61.7140733777
 30
0.0
  0
SPLINE
  5
268
100
AcDbEntity
  8
0
100
AcDbSpline
 62
7
  6
BYLAYER
 70
0
 71
3
 72
11
 73
7
 74
0
 42
0.0000001
 43
0.0000001
 44
0.0000000001
 40
0.0
 40
0.0
 40
0.0
 40
0.0
 40
0.2389836203
 40
0.4861217523
 40
0.7402452716
 40
1.0
 40
1.0
 40
1.0
 40
1.0
 10
55.8387985234
 20
50.4985531559
 30
0.0
 10
55.8387985234
 20
50.807881364
 30
0.0
 10
55.8599377021
 20
51.4372323641
 30
0.0
 10
55.9485540258
 20
52.3917115039
 30
0.0
 10
56.0888893125
 20
53.3670285484
 30
0.0
 10
56.2106235056
 20
54.0211053173
 30
0.0
 10
56.2775619058
 20
54.35058766
 30
0.0
  0
SPLINE
  5
269
100
AcDbEntity
  8
0
100
AcDbSpline
 62
7
  6
BYLAYER
 70
0
 71
3
 72
11
 73
7
 74
0
 42
0.0000001
 43
0.0000001
 44
0.0000000001
 40
0.0
 40
0.0
 40
0.0
 40
0.0
 40
0.251702205
 40
0.5026362331
 40
0.7522736643
 40
1.0
 40
1.0
 40
1.0
 40
1.0
 10
56.1321000911
 20
55.0094621994
 30
0.0
 10
55.8295899461
 20
55.2529461135
 30
0.0
 10
55.2346871484
 20
55.7507852196
 30
0.0
 10
54.379788852
 20
56.5364748603
 30
0.0
 10
53.5737438864
 20
57.3638602266
 30
0.0
 10
53.0730349351
 20
57.946146347
 30
0.0
 10
52.8335821907
 20
58.2440269653
 30
0.0
  0
SPLINE
  5
26A
100
AcDbEntity
  8
0
100
AcDbSpline
 62
7
  6
BYLAYER
 70
0
 71
3
 72
11
 73
7
 74
0
 42
0.0000001
 43
0.0000001
 44
0.0000000001
 40
0.0
 40
0.0
 40
0.0
 40
0.0
 40
0.2369356325
 40
0.4817765987
 40
0.7358511538
 40
1.0
 40
1.0
 40
1.0
 40
1.0
 10
56.2775619042
 20
47.1531559406
 30
0.0
 10
56.2090121807
 20
47.4114155638
 30
0.0
 10
56.0843466446
 20
47.9406134364
 30
0.0
 10
55.9447694597
 20
48.7592301733
 30
0.0
 10
55.8577292873
 20
49.616019032
 30
0.0
 10
55.8387985234
 20
50.2006613086
 30
0.0
 10
55.8387985234
 20
50.4985531559
 30
0.0
  0
SPLINE
  5
26B
100
AcDbEntity
  8
0
100
AcDbSpline
 62
7
  6
BYLAYER
 70
0
 71
3
 72
11
 73
7
 74
0
 42
0.0000001
 43
0.0000001
 44
0.0000000001
 40
0.0
 40
0.0
 40
0.0
 40
0.0
 40
0.2543807275
 40
0.5058294372
 40
0.7542971548
 40
1.0
 40
1.0
 40
1.0
 40
1.0
 10
52.8335821907
 20
58.2440269653
 30
0.0
 10
52.5965282222
 20
58.5389234923
 30
0.0
 10
52.1442579762
 20
59.1409784229
 30
0.0
 10
51.5294596211
 20
60.0803074938
 30
0.0
 10
50.9783464539
 20
61.0433657905
 30
0.0
 10
50.6466991405
 20
61.6996728377
 30
0.0
 10
50.489092418
 20
62.0293968366
 30
0.0
  0
SPLINE
  5
26C
100
AcDbEntity
  8
0
100
AcDbSpline
 62
7
  6
BYLAYER
 70
0
 71
3
 72
11
 73
7
 74
0
 42
0.0000001
 43
0.0000001
 44
0.0000000001
 40
0.0
 40
0.0
 40
0.0
 40
0.0
 40
0.2717564801
 40
0.5308670699
 40
0.7744586102
 40
1.0
 40
1.0
 40
1.0
 40
1.0
 10
49.9609417493
 20
62.2085001775
 30
0.0
 10
49.6788654296
 20
62.1509773536
 30
0.0
 10
49.1269349836
 20
62.0429534547
 30
0.0
 10
48.3186048509
 20
61.9022113295
 30
0.0
 10
47.5551784758
 20
61.7904573222
 30
0.0
 10
47.0611263036
 20
61.7353321879
 30
0.0
 10
46.8231495377
 20
61.7140733786
 30
0.0
  0
SPLINE
  5
26D
100
AcDbEntity
  8
0
100
AcDbSpline
 62
7
  6
BYLAYER
 70
0
 71
3
 72
11
 73
7
 74
0
 42
0.0000001
 43
0.0000001
 44
0.0000000001
 40
0.0
 40
0.0
 40
0.0
 40
0.0
 40
0.2389836203
 40
0.4861217523
 40
0.7402452716
 40
1.0
 40
1.0
 40
1.0
 40
1.0
 10
53.0103831745
 20
48.8655765404
 30
0.0
 10
53.0103831745
 20
48.5562483323
 30
0.0
 10
52.9892439958
 20
47.9268973323
 30
0.0
 10
52.9006276721
 20
46.9724181925
 30
0.0
 10
52.7602923854
 20
45.997101148
 30
0.0
 10
52.6385581923
 20
45.343024379
 30
0.0
 10
52.5716197921
 20
45.0135420364
 30
0.0
  0
SPLINE
  5
26E
100
AcDbEntity
  8
0
100
AcDbSpline
 62
7
  6
BYLAYER
 70
0
 71
3
 72
11
 73
7
 74
0
 42
0.0000001
 43
0.0000001
 44
0.0000000001
 40
0.0
 40
0.0
 40
0.0
 40
0.0
 40
0.224855009
 40
0.4683869331
 40
0.7278139688
 40
1.0
 40
1.0
 40
1.0
 40
1.0
 10
47.176751495
 20
42.9571725301
 30
0.0
 10
47.42625268
 20
42.9794608324
 30
0.0
 10
47.9449364498
 20
43.037892352
 30
0.0
 10
48.7470450252
 20
43.157132338
 30
0.0
 10
49.597440016
 20
43.3076805229
 30
0.0
 10
50.1783409117
 20
43.4231623625
 30
0.0
 10
50.4752693929
 20
43.4846241076
 30
0.0
  0
SPLINE
  5
26F
100
AcDbEntity
  8
0
100
AcDbSpline
 62
7
  6
BYLAYER
 70
0
 71
3
 72
11
 73
7
 74
0
 42
0.0000001
 43
0.0000001
 44
0.0000000001
 40
0.0
 40
0.0
 40
0.0
 40
0.0
 40
0.2369356325
 40
0.4817765987
 40
0.7358511538
 40
1.0
 40
1.0
 40
1.0
 40
1.0
 10
52.5716197937
 20
52.2109737557
 30
0.0
 10
52.6401695172
 20
51.9527141326
 30
0.0
 10
52.7648350533
 20
51.4235162599
 30
0.0
 10
52.9044122382
 20
50.6048995231
 30
0.0
 10
52.9914524106
 20
49.7481106644
 30
0.0
 10
53.0103831745
 20
49.1634683878
 30
0.0
 10
53.0103831745
 20
48.8655765404
 30
0.0
  0
SPLINE
  5
270
100
AcDbEntity
  8
0
100
AcDbSpline
 62
7
  6
BYLAYER
 70
0
 71
3
 72
11
 73
7
 74
0
 42
0.0000001
 43
0.0000001
 44
0.0000000001
 40
0.0
 40
0.0
 40
0.0
 40
0.0
 40
0.2543807273
 40
0.505829437
 40
0.7542971547
 40
1.0
 40
1.0
 40
1.0
 40
1.0
 10
50.0051668418
 20
56.6110503498
 30
0.0
 10
50.2422208102
 20
56.316153823
 30
0.0
 10
50.6944910506
 20
55.714098888
 30
0.0
 10
51.3092894094
 20
54.7747698193
 30
0.0
 10
51.8604025766
 20
53.8117115216
 30
0.0
 10
52.192049893
 20
53.1554044754
 30
0.0
 10
52.3496566157
 20
52.8256804761
 30
0.0
  0
SPLINE
  5
271
100
AcDbEntity
  8
0
100
AcDbSpline
 62
7
  6
BYLAYER
 70
0
 71
3
 72
11
 73
7
 74
0
 42
0.0000001
 43
0.0000001
 44
0.0000000001
 40
0.0
 40
0.0
 40
0.0
 40
0.0
 40
0.251702205
 40
0.5026362331
 40
0.7522736644
 40
1.0
 40
1.0
 40
1.0
 40
1.0
 10
46.7066489435
 20
59.8456151139
 30
0.0
 10
47.0091590884
 20
59.6021311999
 30
0.0
 10
47.6040618879
 20
59.1042920962
 30
0.0
 10
48.4589601836
 20
58.3186024554
 30
0.0
 10
49.2650051519
 20
57.4912170924
 30
0.0
 10
49.7657140976
 20
56.9089309678
 30
0.0
 10
50.0051668418
 20
56.6110503498
 30
0.0
  0
SPLINE
  5
272
100
AcDbEntity
  8
0
100
AcDbSpline
 62
7
  6
BYLAYER
 70
0
 71
3
 72
11
 73
7
 74
0
 42
0.0000001
 43
0.0000001
 44
0.0000000001
 40
0.0
 40
0.0
 40
0.0
 40
0.0
 40
0.2890263222
 40
0.5505040856
 40
0.7863800247
 40
1.0
 40
1.0
 40
1.0
 40
1.0
 10
43.9947341889
 20
60.0810967631
 30
0.0
 10
44.2120287199
 20
60.1005079981
 30
0.0
 10
44.6267354276
 20
60.1291488261
 30
0.0
 10
45.220462645
 20
60.1407059813
 30
0.0
 10
45.7570454664
 20
60.1213264605
 30
0.0
 10
46.0950368145
 20
60.0891595604
 30
0.0
 10
46.2549996343
 20
60.0688862715
 30
0.0
  0
SPLINE
  5
273
100
AcDbEntity
  8
0
100
AcDbSpline
 62
7
  6
BYLAYER
 70
0
 71
3
 72
11
 73
7
 74
0
 42
0.0000001
 43
0.0000001
 44
0.0000000001
 40
0.0
 40
0.0
 40
0.0
 40
0.0
 40
0.2717564809
 40
0.5308670712
 40
0.7744586117
 40
1.0
 40
1.0
 40
1.0
 40
1.0
 10
40.8569419588
 20
59.5866699633
 30
0.0
 10
41.1390182809
 20
59.6441927876
 30
0.0
 10
41.6909487314
 20
59.7522166881
 30
0.0
 10
42.4992788705
 20
59.8929588142
 30
0.0
 10
43.2627052492
 20
60.0047128231
 30
0.0
 10
43.7567574232
 20
60.0598379541
 30
0.0
 10
43.9947341889
 20
60.0810967631
 30
0.0
  0
SPLINE
  5
274
100
AcDbEntity
  8
0
100
AcDbSpline
 62
7
  6
BYLAYER
 70
0
 71
3
 72
11
 73
7
 74
0
 42
0.0000001
 43
0.0000001
 44
0.0000000001
 40
0.0
 40
0.0
 40
0.0
 40
0.0
 40
0.2599639266
 40
0.5142397542
 40
0.7613508266
 40
1.0
 40
1.0
 40
1.0
 40
1.0
 10
38.638116561
 20
58.2101116481
 30
0.0
 10
38.5657726591
 20
57.8647241681
 30
0.0
 10
38.4339032303
 20
57.1790639841
 30
0.0
 10
38.2811646572
 20
56.1565551548
 30
0.0
 10
38.1843134993
 20
55.1561842532
 30
0.0
 10
38.1611024982
 20
54.4966421142
 30
0.0
 10
38.1611024982
 20
54.1726927518
 30
0.0
  0
SPLINE
  5
275
100
AcDbEntity
  8
0
100
AcDbSpline
 62
7
  6
BYLAYER
 70
0
 71
3
 72
11
 73
7
 74
0
 42
0.0000001
 43
0.0000001
 44
0.0000000001
 40
0.0
 40
0.0
 40
0.0
 40
0.0
 40
0.2121784117
 40
0.4472959875
 40
0.7091459226
 40
1.0
 40
1.0
 40
1.0
 40
1.0
 10
44.8322617208
 20
42.9805260601
 30
0.0
 10
44.9968643211
 20
42.9578274692
 30
0.0
 10
45.3455044682
 20
42.9212819296
 30
0.0
 10
45.9006682372
 20
42.8975929943
 30
0.0
 10
46.5178602492
 20
42.9074523436
 30
0.0
 10
46.94988246
 20
42.9369059907
 30
0.0
 10
47.176751495
 20
42.9571725301
 30
0.0
  0
SPLINE
  5
276
100
AcDbEntity
  8
0
100
AcDbSpline
 62
7
  6
BYLAYER
 70
0
 71
3
 72
20
 73
16
 74
0
 42
0.0000001
 43
0.0000001
 44
0.0000000001
 40
0.0
 40
0.0
 40
0.0
 40
0.0
 40
0.0583200426
 40
0.1153282856
 40
0.1714029011
 40
0.2269993556
 40
0.2825983496
 40
0.3386705201
 40
0.3956661542
 40
0.4539997023
 40
0.5759539202
 40
0.6402638394
 40
0.7070129713
 40
0.8482026032
 40
1.0
 40
1.0
 40
1.0
 40
1.0
 10
41.1663188301
 20
58.4481201467
 30
0.0
 10
41.0543605905
 20
58.438118755
 30
0.0
 10
40.8337550611
 20
58.4073624564
 30
0.0
 10
40.5125796522
 20
58.3274378825
 30
0.0
 10
40.206988532
 20
58.2145102347
 30
0.0
 10
39.9184593678
 20
58.0691399138
 30
0.0
 10
39.6483153559
 20
57.8919316386
 30
0.0
 10
39.3977449356
 20
57.6837760056
 30
0.0
 10
39.1679095808
 20
57.4455594035
 30
0.0
 10
38.8863214516
 20
57.0843177397
 30
0.0
 10
38.6547381719
 20
56.6698689691
 30
0.0
 10
38.4736811838
 20
56.2166985542
 30
0.0
 10
38.3190136554
 20
55.7147038005
 30
0.0
 10
38.1918725172
 20
55.0306315836
 30
0.0
 10
38.1611024982
 20
54.4652619039
 30
0.0
 10
38.1611024982
 20
54.1726927518
 30
0.0
  0
SPLINE
  5
277
100
AcDbEntity
  8
0
100
AcDbSpline
 62
7
  6
BYLAYER
 70
0
 71
3
 72
16
 73
12
 74
0
 42
0.0000001
 43
0.0000001
 44
0.0000000001
 40
0.0
 40
0.0
 40
0.0
 40
0.0
 40
0.1491232976
 40
0.2932350963
 40
0.4309609537
 40
0.5611954099
 40
0.6831905483
 40
0.7966605164
 40
0.8503030767
 40
0.9019889226
 40
1.0
 40
1.0
 40
1.0
 40
1.0
 10
47.1767515022
 20
54.9780737228
 30
0.0
 10
46.9526904747
 20
55.2568069556
 30
0.0
 10
46.490531576
 20
55.7880432356
 30
0.0
 10
45.7487681339
 20
56.5095074192
 30
0.0
 10
44.9800874808
 20
57.1329135513
 30
0.0
 10
44.1972503634
 20
57.6477262006
 30
0.0
 10
43.4132114536
 20
58.0451936776
 30
0.0
 10
42.7571656911
 20
58.2771391737
 30
0.0
 10
42.2450929538
 20
58.3941994155
 30
0.0
 10
41.7621559591
 20
58.4639591254
 30
0.0
 10
41.4004350029
 20
58.4690340836
 30
0.0
 10
41.1663188301
 20
58.4481201467
 30
0.0
  0
SPLINE
  5
278
100
AcDbEntity
  8
0
100
AcDbSpline
 62
7
  6
BYLAYER
 70
0
 71
3
 72
11
 73
7
 74
0
 42
0.0000001
 43
0.0000001
 44
0.0000000001
 40
0.0
 40
0.0
 40
0.0
 40
0.0
 40
0.2389836203
 40
0.4861217523
 40
0.7402452716
 40
1.0
 40
1.0
 40
1.0
 40
1.0
 10
50.1819678257
 20
47.232599925
 30
0.0
 10
50.1819678257
 20
47.5419281331
 30
0.0
 10
50.2031070044
 20
48.1712791331
 30
0.0
 10
50.2917233281
 20
49.1257582729
 30
0.0
 10
50.4320586148
 20
50.1010753174
 30
0.0
 10
50.5537928079
 20
50.7551520864
 30
0.0
 10
50.6207312081
 20
51.084634429
 30
0.0
  0
SPLINE
  5
279
100
AcDbEntity
  8
0
100
AcDbSpline
 62
7
  6
BYLAYER
 70
0
 71
3
 72
11
 73
7
 74
0
 42
0.0000001
 43
0.0000001
 44
0.0000000001
 40
0.0
 40
0.0
 40
0.0
 40
0.0
 40
0.251702205
 40
0.5026362331
 40
0.7522736643
 40
1.0
 40
1.0
 40
1.0
 40
1.0
 10
50.4752693934
 20
51.7435089685
 30
0.0
 10
50.1727592494
 20
51.9869928817
 30
0.0
 10
49.5778564536
 20
52.4848319862
 30
0.0
 10
48.7229581597
 20
53.2705216242
 30
0.0
 10
47.9169131963
 20
54.0979069875
 30
0.0
 10
47.4162042461
 20
54.6801931057
 30
0.0
 10
47.1767515022
 20
54.9780737228
 30
0.0
  0
SPLINE
  5
27A
100
AcDbEntity
  8
0
100
AcDbSpline
 62
7
  6
BYLAYER
 70
0
 71
3
 72
11
 73
7
 74
0
 42
0.0000001
 43
0.0000001
 44
0.0000000001
 40
0.0
 40
0.0
 40
0.0
 40
0.0
 40
0.2717564802
 40
0.5308670701
 40
0.7744586104
 40
1.0
 40
1.0
 40
1.0
 40
1.0
 10
44.3041110515
 20
58.9425469465
 30
0.0
 10
44.0220347308
 20
58.8850241223
 30
0.0
 10
43.4701042826
 20
58.777000223
 30
0.0
 10
42.6617741469
 20
58.6362580975
 30
0.0
 10
41.8983477691
 20
58.52450409
 30
0.0
 10
41.4042955953
 20
58.4693789558
 30
0.0
 10
41.1663188288
 20
58.4481201466
 30
0.0
  0
SPLINE
  5
27B
100
AcDbEntity
  8
0
100
AcDbSpline
 62
7
  6
BYLAYER
 70
0
 71
3
 72
11
 73
7
 74
0
 42
0.0000001
 43
0.0000001
 44
0.0000000001
 40
0.0
 40
0.0
 40
0.0
 40
0.0
 40
0.2543807275
 40
0.5058294372
 40
0.7542971548
 40
1.0
 40
1.0
 40
1.0
 40
1.0
 10
47.1767515022
 20
54.9780737228
 30
0.0
 10
46.9396975327
 20
55.2729702506
 30
0.0
 10
46.4874272847
 20
55.8750251829
 30
0.0
 10
45.8726289271
 20
56.8143542566
 30
0.0
 10
45.3215157578
 20
57.7774125563
 30
0.0
 10
44.9898684433
 20
58.4337196056
 30
0.0
 10
44.8322617203
 20
58.7634436057
 30
0.0
  0
SPLINE
  5
27C
100
AcDbEntity
  8
0
100
AcDbSpline
 62
7
  6
BYLAYER
 70
0
 71
3
 72
11
 73
7
 74
0
 42
0.0000001
 43
0.0000001
 44
0.0000000001
 40
0.0
 40
0.0
 40
0.0
 40
0.0
 40
0.2890263243
 40
0.5505040872
 40
0.7863800258
 40
1.0
 40
1.0
 40
1.0
 40
1.0
 10
41.1663188288
 20
58.4481201466
 30
0.0
 10
40.9490242952
 20
58.4287089112
 30
0.0
 10
40.5343175846
 20
58.4000680793
 30
0.0
 10
39.9405903636
 20
58.3885109257
 30
0.0
 10
39.4040075412
 20
58.407890446
 30
0.0
 10
39.066016193
 20
58.4400573477
 30
0.0
 10
38.9060533732
 20
58.4603306365
 30
0.0
  0
SPLINE
  5
27D
100
AcDbEntity
  8
0
100
AcDbSpline
 62
7
  6
BYLAYER
 70
0
 71
3
 72
11
 73
7
 74
0
 42
0.0000001
 43
0.0000001
 44
0.0000000001
 40
0.0
 40
0.0
 40
0.0
 40
0.0
 40
0.2369356325
 40
0.4817765987
 40
0.7358511538
 40
1.0
 40
1.0
 40
1.0
 40
1.0
 10
50.6207312065
 20
43.8872027097
 30
0.0
 10
50.552181483
 20
44.1454623328
 30
0.0
 10
50.4275159469
 20
44.6746602055
 30
0.0
 10
50.287938762
 20
45.4932769423
 30
0.0
 10
50.2008985896
 20
46.350065801
 30
0.0
 10
50.1819678257
 20
46.9347080776
 30
0.0
 10
50.1819678257
 20
47.232599925
 30
0.0
  0
SPLINE
  5
27E
100
AcDbEntity
  8
0
100
AcDbSpline
 62
7
  6
BYLAYER
 70
0
 71
3
 72
15
 73
11
 74
0
 42
0.0000001
 43
0.0000001
 44
0.0000000001
 40
0.0
 40
0.0
 40
0.0
 40
0.0
 40
0.1108410465
 40
0.2280578197
 40
0.3507094003
 40
0.477625969
 40
0.6074737799
 40
0.7388131746
 40
0.8701524765
 40
1.0
 40
1.0
 40
1.0
 40
1.0
 10
50.1819678257
 20
47.232599925
 30
0.0
 10
50.1819678257
 20
47.5449285287
 30
0.0
 10
50.1445575893
 20
48.1879160855
 30
0.0
 10
49.9890104271
 20
49.1652074411
 30
0.0
 10
49.7350565042
 20
50.1684078343
 30
0.0
 10
49.3870029662
 20
51.1805084904
 30
0.0
 10
48.9507336708
 20
52.1845036266
 30
0.0
 10
48.4336068017
 20
53.1634386455
 30
0.0
 10
47.8444256569
 20
54.1006888153
 30
0.0
 10
47.4059878095
 20
54.6929024117
 30
0.0
 10
47.1767515022
 20
54.9780737228
 30
0.0
  0
SPLINE
  5
27F
100
AcDbEntity
  8
0
100
AcDbSpline
 62
7
  6
BYLAYER
 70
0
 71
3
 72
20
 73
16
 74
0
 42
0.0000001
 43
0.0000001
 44
0.0000000001
 40
0.0
 40
0.0
 40
0.0
 40
0.0
 40
0.0583200426
 40
0.1153282856
 40
0.1714029011
 40
0.2269993556
 40
0.2825983496
 40
0.33867052
 40
0.3956661542
 40
0.4539997023
 40
0.5759539202
 40
0.6402638394
 40
0.7070129713
 40
0.8482026032
 40
1.0
 40
1.0
 40
1.0
 40
1.0
 10
47.176751495
 20
42.9571725301
 30
0.0
 10
47.2887097346
 20
42.9671739219
 30
0.0
 10
47.5093152639
 20
42.9979302205
 30
0.0
 10
47.8304906727
 20
43.0778547946
 30
0.0
 10
48.1360817927
 20
43.1907824424
 30
0.0
 10
48.4246109568
 20
43.3361527634
 30
0.0
 10
48.6947549686
 20
43.5133610387
 30
0.0
 10
48.9453253888
 20
43.7215166717
 30
0.0
 10
49.1751607435
 20
43.9597332738
 30
0.0
 10
49.4567488726
 20
44.3209749376
 30
0.0
 10
49.6883321522
 20
44.7354237081
 30
0.0
 10
49.8693891401
 20
45.1885941229
 30
0.0
 10
50.0240566685
 20
45.6905888765
 30
0.0
 10
50.1511978067
 20
46.3746610933
 30
0.0
 10
50.1819678257
 20
46.9400307729
 30
0.0
 10
50.1819678257
 20
47.232599925
 30
0.0
  0
SPLINE
  5
280
100
AcDbEntity
  8
0
100
AcDbSpline
 62
7
  6
BYLAYER
 70
0
 71
3
 72
12
 73
8
 74
0
 42
0.0000001
 43
0.0000001
 44
0.0000000001
 40
0.0
 40
0.0
 40
0.0
 40
0.0
 40
0.2780924402
 40
0.5367090798
 40
0.6589498354
 40
0.7767175943
 40
1.0
 40
1.0
 40
1.0
 40
1.0
 10
44.1622922612
 20
43.7677226218
 30
0.0
 10
44.4163923051
 20
43.620569418
 30
0.0
 10
44.9228837088
 20
43.3629827053
 30
0.0
 10
45.5809408958
 20
43.1295632011
 30
0.0
 10
46.094658207
 20
43.0116838612
 30
0.0
 10
46.5790727197
 20
42.9413995793
 30
0.0
 10
46.9419258038
 20
42.936195211
 30
0.0
 10
47.176751495
 20
42.9571725301
 30
0.0
  0
SPLINE
  5
281
100
AcDbEntity
  8
0
100
AcDbSpline
 62
7
  6
BYLAYER
 70
0
 71
3
 72
17
 73
13
 74
0
 42
0.0000001
 43
0.0000001
 44
0.0000000001
 40
0.0
 40
0.0
 40
0.0
 40
0.0
 40
0.128688864
 40
0.2702797703
 40
0.4174318348
 40
0.5617733576
 40
0.6954455149
 40
0.8127096012
 40
0.8646749146
 40
0.9125085807
 40
0.9571389861
 40
1.0
 40
1.0
 40
1.0
 40
1.0
 10
7.5663322091
 20
30.3852120779
 30
0.0
 10
7.5663322091
 20
30.2997371675
 30
0.0
 10
7.5902452099
 20
30.1200131832
 30
0.0
 10
7.6794921647
 20
29.856128373
 30
0.0
 10
7.8170216109
 20
29.6019258356
 30
0.0
 10
7.9917719308
 20
29.3782472948
 30
0.0
 10
8.1894666657
 20
29.2031598117
 30
0.0
 10
8.3684078674
 20
29.1053146894
 30
0.0
 10
8.5083844943
 20
29.0680819785
 30
0.0
 10
8.6047229272
 20
29.0609881487
 30
0.0
 10
8.6944299423
 20
29.0741354509
 30
0.0
 10
8.7487805862
 20
29.0967189117
 30
0.0
 10
8.7734291579
 20
29.1109627444
 30
0.0
  0
SPLINE
  5
282
100
AcDbEntity
  8
0
100
AcDbSpline
 62
7
  6
BYLAYER
 70
0
 71
3
 72
20
 73
16
 74
0
 42
0.0000001
 43
0.0000001
 44
0.0000000001
 40
0.0
 40
0.0
 40
0.0
 40
0.0
 40
0.1479375387
 40
0.2970818587
 40
0.4423604421
 40
0.5120986915
 40
0.5791829282
 40
0.6431931103
 40
0.7038160564
 40
0.7608736925
 40
0.8143600917
 40
0.8644643431
 40
0.9116166869
 40
0.9564923549
 40
1.0
 40
1.0
 40
1.0
 40
1.0
 10
21.2696229494
 20
39.0874537315
 30
0.0
 10
21.5083035352
 20
38.7978956836
 30
0.0
 10
21.9475178419
 20
38.1822572402
 30
0.0
 10
22.4766477746
 20
37.1895540972
 30
0.0
 10
22.801198379
 20
36.3211969234
 30
0.0
 10
22.9767185375
 20
35.626888833
 30
0.0
 10
23.0627055623
 20
35.1241917276
 30
0.0
 10
23.1037799528
 20
34.6389886031
 30
0.0
 10
23.0993268136
 20
34.1773819924
 30
0.0
 10
23.049263798
 20
33.7451914313
 30
0.0
 10
22.9541124691
 20
33.3478203976
 30
0.0
 10
22.8146138684
 20
32.9903593619
 30
0.0
 10
22.632184444
 20
32.6774588283
 30
0.0
 10
22.4087213508
 20
32.4137895264
 30
0.0
 10
22.2326212979
 20
32.2723367668
 30
0.0
 10
22.1401189837
 20
32.2121502714
 30
0.0
  0
SPLINE
  5
283
100
AcDbEntity
  8
0
100
AcDbSpline
 62
7
  6
BYLAYER
 70
0
 71
3
 72
11
 73
7
 74
0
 42
0.0000001
 43
0.0000001
 44
0.0000000001
 40
0.0
 40
0.0
 40
0.0
 40
0.0
 40
0.2328559764
 40
0.4782900107
 40
0.7347442638
 40
1.0
 40
1.0
 40
1.0
 40
1.0
 10
54.4953561998
 20
61.398656757
 30
0.0
 10
54.666828575
 20
61.2996454164
 30
0.0
 10
55.0082198368
 20
61.0771297664
 30
0.0
 10
55.4980488016
 20
60.6880528961
 30
0.0
 10
55.973040827
 20
60.239897379
 30
0.0
 10
56.271122977
 20
59.9106579607
 30
0.0
 10
56.4162731391
 20
59.738011507
 30
0.0
  0
SPLINE
  5
284
100
AcDbEntity
  8
0
100
AcDbSpline
 62
7
  6
BYLAYER
 70
0
 71
3
 72
15
 73
11
 74
0
 42
0.0000001
 43
0.0000001
 44
0.0000000001
 40
0.0
 40
0.0
 40
0.0
 40
0.0
 40
0.1293491427
 40
0.2605166206
 40
0.3918446258
 40
0.5218335337
 40
0.6489527365
 40
0.7718006218
 40
0.8891488986
 40
1.0
 40
1.0
 40
1.0
 40
1.0
 10
56.4614886581
 20
59.6838089734
 30
0.0
 10
56.6237341605
 20
59.4877912796
 30
0.0
 10
56.9343796117
 20
59.0793809305
 30
0.0
 10
57.3522303696
 20
58.4307683234
 30
0.0
 10
57.7195712697
 20
57.7507827351
 30
0.0
 10
58.0299132341
 20
57.0516572197
 30
0.0
 10
58.2777697905
 20
56.3456188252
 30
0.0
 10
58.4587729197
 20
55.6450969249
 30
0.0
 10
58.5697536182
 20
54.9624979157
 30
0.0
 10
58.5964664992
 20
54.5133242558
 30
0.0
 10
58.5964774115
 20
54.2952598725
 30
0.0
  0
SPLINE
  5
285
100
AcDbEntity
  8
0
100
AcDbSpline
 62
7
  6
BYLAYER
 70
0
 71
3
 72
13
 73
9
 74
0
 42
0.0000001
 43
0.0000001
 44
0.0000000001
 40
0.0
 40
0.0
 40
0.0
 40
0.0
 40
0.276642473
 40
0.5316794697
 40
0.6527123859
 40
0.7704135402
 40
0.8858001216
 40
1.0
 40
1.0
 40
1.0
 40
1.0
 10
26.6506433354
 20
34.7931945839
 30
0.0
 10
26.8431360365
 20
34.7282741116
 30
0.0
 10
27.2233567834
 20
34.6308901536
 30
0.0
 10
27.7051474045
 20
34.5992879729
 30
0.0
 10
28.066638399
 20
34.6353522217
 30
0.0
 10
28.3213266373
 20
34.6908560215
 30
0.0
 10
28.5626867555
 20
34.7750770703
 30
0.0
 10
28.7141953327
 20
34.8502114837
 30
0.0
 10
28.7868216959
 20
34.8921386247
 30
0.0
  0
SPLINE
  5
286
100
AcDbEntity
  8
0
100
AcDbSpline
 62
7
  6
BYLAYER
 70
0
 71
3
 72
16
 73
12
 74
0
 42
0.0000001
 43
0.0000001
 44
0.0000000001
 40
0.0
 40
0.0
 40
0.0
 40
0.0
 40
0.0473967195
 40
0.0955791612
 40
0.1961281948
 40
0.3050940432
 40
0.4243115852
 40
0.5543158367
 40
0.6945629794
 40
0.8437829993
 40
1.0
 40
1.0
 40
1.0
 40
1.0
 10
17.1408082683
 20
40.8673905415
 30
0.0
 10
17.2083735274
 20
40.901826629
 30
0.0
 10
17.3495554558
 20
40.9620422315
 30
0.0
 10
17.6527417037
 20
41.0459247249
 30
0.0
 10
18.0683036496
 20
41.0772769415
 30
0.0
 10
18.5919927159
 20
40.9996172494
 30
0.0
 10
19.1364352984
 20
40.8120964045
 30
0.0
 10
19.6892965488
 20
40.5201611935
 30
0.0
 10
20.2383002899
 20
40.1312177904
 30
0.0
 10
20.7704936028
 20
39.6546057895
 30
0.0
 10
21.099981711
 20
39.2924323044
 30
0.0
 10
21.259353931
 20
39.0998859806
 30
0.0
  0
SPLINE
  5
287
100
AcDbEntity
  8
0
100
AcDbSpline
 62
7
  6
BYLAYER
 70
0
 71
3
 72
11
 73
7
 74
0
 42
0.0000001
 43
0.0000001
 44
0.0000000001
 40
0.0
 40
0.0
 40
0.0
 40
0.0
 40
0.2390934366
 40
0.4816799562
 40
0.7341959618
 40
1.0
 40
1.0
 40
1.0
 40
1.0
 10
16.1545365443
 20
32.9057233115
 30
0.0
 10
16.1034028362
 20
32.8804239632
 30
0.0
 10
15.9924842583
 20
32.8441174626
 30
0.0
 10
15.8157633498
 20
32.8356379721
 30
0.0
 10
15.6359110315
 20
32.8688464279
 30
0.0
 10
15.5201865188
 20
32.9145335521
 30
0.0
 10
15.4632098592
 20
32.9423939537
 30
0.0
  0
SPLINE
  5
288
100
AcDbEntity
  8
0
100
AcDbSpline
 62
7
  6
BYLAYER
 70
0
 71
3
 72
14
 73
10
 74
0
 42
0.0000001
 43
0.0000001
 44
0.0000000001
 40
0.0
 40
0.0
 40
0.0
 40
0.0
 40
0.1111404985
 40
0.2237464379
 40
0.3394426627
 40
0.4595227971
 40
0.5850207362
 40
0.716737385
 40
1.0
 40
1.0
 40
1.0
 40
1.0
 10
15.6501251447
 20
40.0093949566
 30
0.0
 10
15.5604188491
 20
39.9576033119
 30
0.0
 10
15.3885550293
 20
39.8373571801
 30
0.0
 10
15.162775021
 20
39.6137817051
 30
0.0
 10
14.9709041971
 20
39.3502151309
 30
0.0
 10
14.8143555435
 20
39.0508788264
 30
0.0
 10
14.6939749382
 20
38.7194585164
 30
0.0
 10
14.5791833254
 20
38.2280838975
 30
0.0
 10
14.5528932229
 20
37.8390108657
 30
0.0
 10
14.5564209804
 20
37.5750316186
 30
0.0
  0
SPLINE
  5
289
100
AcDbEntity
  8
0
100
AcDbSpline
 62
7
  6
BYLAYER
 70
0
 71
3
 72
9
 73
5
 74
0
 42
0.0000001
 43
0.0000001
 44
0.0000000001
 40
0.0
 40
0.0
 40
0.0
 40
0.0
 40
0.4806584564
 40
1.0
 40
1.0
 40
1.0
 40
1.0
 10
14.5564209804
 20
37.5750316186
 30
0.0
 10
14.5609388121
 20
37.2369659151
 30
0.0
 10
14.6432548135
 20
36.5339271619
 30
0.0
 10
14.8372008669
 20
35.8548786989
 30
0.0
 10
14.9615939005
 20
35.5114044233
 30
0.0
  0
SPLINE
  5
28A
100
AcDbEntity
  8
0
100
AcDbSpline
 62
7
  6
BYLAYER
 70
0
 71
3
 72
17
 73
13
 74
0
 42
0.0000001
 43
0.0000001
 44
0.0000000001
 40
0.0
 40
0.0
 40
0.0
 40
0.0
 40
0.1533979781
 40
0.2999809861
 40
0.4380186273
 40
0.5665382404
 40
0.685421898
 40
0.7956656612
 40
0.8482640641
 40
0.8995607255
 40
0.9499787952
 40
1.0
 40
1.0
 40
1.0
 40
1.0
 10
16.3931241623
 20
33.0225398244
 30
0.0
 10
16.5549459039
 20
32.8289608002
 30
0.0
 10
16.8898952288
 20
32.4653159623
 30
0.0
 10
17.4322274172
 20
31.9888859023
 30
0.0
 10
17.9935084906
 20
31.6026505931
 30
0.0
 10
18.5617923001
 20
31.3164224752
 30
0.0
 10
19.125528436
 20
31.1385244565
 30
0.0
 10
19.589929107
 20
31.0865224968
 30
0.0
 10
19.9421813898
 20
31.1091667093
 30
0.0
 10
20.1922369873
 20
31.1566623653
 30
0.0
 10
20.4298797478
 20
31.2351816275
 30
0.0
 10
20.5788509193
 20
31.3079909712
 30
0.0
 10
20.6501027603
 20
31.3491279952
 30
0.0
  0
SPLINE
  5
28B
100
AcDbEntity
  8
0
100
AcDbSpline
 62
7
  6
BYLAYER
 70
0
 71
3
 72
11
 73
7
 74
0
 42
0.0000001
 43
0.0000001
 44
0.0000000001
 40
0.0
 40
0.0
 40
0.0
 40
0.0
 40
0.2667076236
 40
0.5195053432
 40
0.7617565518
 40
1.0
 40
1.0
 40
1.0
 40
1.0
 10
14.435028973
 20
34.6951763325
 30
0.0
 10
14.4381925868
 20
34.7610048511
 30
0.0
 10
14.4544949111
 20
34.8891281772
 30
0.0
 10
14.5148166072
 20
35.0689527903
 30
0.0
 10
14.6119175688
 20
35.2241685312
 30
0.0
 10
14.7013984221
 20
35.3051472245
 30
0.0
 10
14.750390575
 20
35.3377899891
 30
0.0
  0
SPLINE
  5
28C
100
AcDbEntity
  8
0
100
AcDbSpline
 62
7
  6
BYLAYER
 70
0
 71
3
 72
11
 73
7
 74
0
 42
0.0000001
 43
0.0000001
 44
0.0000000001
 40
0.0
 40
0.0
 40
0.0
 40
0.0
 40
0.2177660095
 40
0.4508968553
 40
0.7103699668
 40
1.0
 40
1.0
 40
1.0
 40
1.0
 10
7.7734547105
 20
30.8429799023
 30
0.0
 10
7.7404784208
 20
30.8239236762
 30
0.0
 10
7.6787285829
 20
30.7720895618
 30
0.0
 10
7.613032851
 20
30.6646253523
 30
0.0
 10
7.5740321371
 20
30.5322278463
 30
0.0
 10
7.5663322091
 20
30.4358672342
 30
0.0
 10
7.5663322091
 20
30.3852120779
 30
0.0
  0
SPLINE
  5
28D
100
AcDbEntity
  8
0
100
AcDbSpline
 62
7
  6
BYLAYER
 70
0
 71
3
 72
11
 73
7
 74
0
 42
0.0000001
 43
0.0000001
 44
0.0000000001
 40
0.0
 40
0.0
 40
0.0
 40
0.0
 40
0.2691492005
 40
0.5273846721
 40
0.7716553047
 40
1.0
 40
1.0
 40
1.0
 40
1.0
 10
21.3145094546
 20
39.1594444191
 30
0.0
 10
21.1669870808
 20
39.3365633736
 30
0.0
 10
20.8626932959
 20
39.6713191884
 30
0.0
 10
20.3734633413
 20
40.11718574
 30
0.0
 10
19.8687682326
 20
40.4893718222
 30
0.0
 10
19.516055215
 20
40.6905612967
 30
0.0
 10
19.3397942521
 20
40.7752754248
 30
0.0
  0
SPLINE
  5
28E
100
AcDbEntity
  8
0
100
AcDbSpline
 62
7
  6
BYLAYER
 70
0
 71
3
 72
9
 73
5
 74
0
 42
0.0000001
 43
0.0000001
 44
0.0000000001
 40
0.0
 40
0.0
 40
0.0
 40
0.0
 40
0.2686986739
 40
1.0
 40
1.0
 40
1.0
 40
1.0
 10
19.3128500215
 20
40.7881050433
 30
0.0
 10
19.2174111764
 20
40.8331223674
 30
0.0
 10
18.8562761593
 20
40.9867735813
 30
0.0
 10
18.4667488413
 20
41.0813023281
 30
0.0
 10
18.1800020347
 20
41.0973605825
 30
0.0
  0
SPLINE
  5
28F
100
AcDbEntity
  8
0
100
AcDbSpline
 62
7
  6
BYLAYER
 70
0
 71
3
 72
9
 73
5
 74
0
 42
0.0000001
 43
0.0000001
 44
0.0000000001
 40
0.0
 40
0.0
 40
0.0
 40
0.0
 40
0.5121279413
 40
1.0
 40
1.0
 40
1.0
 40
1.0
 10
18.1800020347
 20
41.0973605825
 30
0.0
 10
18.0591628387
 20
41.10412776
 30
0.0
 10
17.8216386233
 20
41.0989127591
 30
0.0
 10
17.5885778583
 20
41.051009366
 30
0.0
 10
17.4784950378
 20
41.0167310661
 30
0.0
  0
SPLINE
  5
290
100
AcDbEntity
  8
0
100
AcDbSpline
 62
7
  6
BYLAYER
 70
0
 71
3
 72
11
 73
7
 74
0
 42
0.0000001
 43
0.0000001
 44
0.0000000001
 40
0.0
 40
0.0
 40
0.0
 40
0.0
 40
0.2341529001
 40
0.4799808632
 40
0.7359903922
 40
1.0
 40
1.0
 40
1.0
 40
1.0
 10
54.4899372813
 20
61.3992645812
 30
0.0
 10
54.6597647932
 20
61.2949136667
 30
0.0
 10
54.9973195746
 20
61.0634515203
 30
0.0
 10
55.481455446
 20
60.6646959708
 30
0.0
 10
55.9501940773
 20
60.2106736644
 30
0.0
 10
56.2445690552
 20
59.8794543375
 30
0.0
 10
56.3878691828
 20
59.7063255905
 30
0.0
  0
SPLINE
  5
291
100
AcDbEntity
  8
0
100
AcDbSpline
 62
7
  6
BYLAYER
 70
0
 71
3
 72
18
 73
14
 74
0
 42
0.0000001
 43
0.0000001
 44
0.0000000001
 40
0.0
 40
0.0
 40
0.0
 40
0.0
 40
0.1412834968
 40
0.2842108334
 40
0.4250880019
 40
0.5603808632
 40
0.6249902298
 40
0.6871198467
 40
0.746515235
 40
0.803009262
 40
0.8565208882
 40
0.9070902922
 40
1.0
 40
1.0
 40
1.0
 40
1.0
 10
21.3131139917
 20
39.1146690341
 30
0.0
 10
21.5182343206
 20
38.8668519098
 30
0.0
 10
21.9009221509
 20
38.3428507352
 30
0.0
 10
22.3805906544
 20
37.4998983789
 30
0.0
 10
22.7562097996
 20
36.6204069876
 30
0.0
 10
22.974045758
 20
35.8732595196
 30
0.0
 10
23.0818895924
 20
35.2860182786
 30
0.0
 10
23.1281930407
 20
34.8643257213
 30
0.0
 10
23.1405550699
 20
34.4587088489
 30
0.0
 10
23.1189988509
 20
34.0730966435
 30
0.0
 10
23.0633922891
 20
33.7109607127
 30
0.0
 10
22.9483239709
 20
33.2770624983
 30
0.0
 10
22.80827131
 20
32.9762010841
 30
0.0
 10
22.6902847266
 20
32.8006084764
 30
0.0
  0
SPLINE
  5
292
100
AcDbEntity
  8
0
100
AcDbSpline
 62
7
  6
BYLAYER
 70
0
 71
3
 72
20
 73
16
 74
0
 42
0.0000001
 43
0.0000001
 44
0.0000000001
 40
0.0
 40
0.0
 40
0.0
 40
0.0
 40
0.1519980537
 40
0.3083693605
 40
0.4587343288
 40
0.5288049322
 40
0.5942005555
 40
0.654427139
 40
0.7094260847
 40
0.7597441571
 40
0.8066234054
 40
0.8519629681
 40
0.8980078455
 40
0.9468361453
 40
1.0
 40
1.0
 40
1.0
 40
1.0
 10
16.1503212925
 20
33.9148185188
 30
0.0
 10
16.1197164709
 20
34.0350417925
 30
0.0
 10
16.031226955
 20
34.2727085131
 30
0.0
 10
15.8385500515
 20
34.5957711675
 30
0.0
 10
15.6341616228
 20
34.8286230246
 30
0.0
 10
15.4534125728
 20
34.97684201
 30
0.0
 10
15.318060942
 20
35.0625106364
 30
0.0
 10
15.1830899512
 20
35.123234013
 30
0.0
 10
15.05152324
 20
35.1572406373
 30
0.0
 10
14.9264196988
 20
35.1633285273
 30
0.0
 10
14.8109849224
 20
35.1405181931
 30
0.0
 10
14.7090765947
 20
35.0886762807
 30
0.0
 10
14.6243565217
 20
35.0096501498
 30
0.0
 10
14.5593459849
 20
34.9064830328
 30
0.0
 10
14.5311206181
 20
34.8274857305
 30
0.0
 10
14.5201401494
 20
34.7855068412
 30
0.0
  0
SPLINE
  5
293
100
AcDbEntity
  8
0
100
AcDbSpline
 62
7
  6
BYLAYER
 70
0
 71
3
 72
9
 73
5
 74
0
 42
0.0000001
 43
0.0000001
 44
0.0000000001
 40
0.0
 40
0.0
 40
0.0
 40
0.0
 40
0.2372407711
 40
1.0
 40
1.0
 40
1.0
 40
1.0
 10
16.1968243664
 20
33.567323174
 30
0.0
 10
16.1968243664
 20
33.5950894406
 30
0.0
 10
16.1925300643
 20
33.7121189817
 30
0.0
 10
16.1723445762
 20
33.8283056384
 30
0.0
 10
16.1503212925
 20
33.9148185188
 30
0.0
  0
SPLINE
  5
294
100
AcDbEntity
  8
0
100
AcDbSpline
 62
7
  6
BYLAYER
 70
0
 71
3
 72
20
 73
16
 74
0
 42
0.0000001
 43
0.0000001
 44
0.0000000001
 40
0.0
 40
0.0
 40
0.0
 40
0.0
 40
0.1486274282
 40
0.2984709858
 40
0.4442431208
 40
0.5140957908
 40
0.5811826991
 40
0.6450766865
 40
0.7054702933
 40
0.7622002554
 40
0.8152937587
 40
0.8649920817
 40
0.9117949268
 40
0.9564658503
 40
1.0
 40
1.0
 40
1.0
 40
1.0
 10
26.7747638613
 20
42.2841903808
 30
0.0
 10
27.0184550015
 20
41.9897737431
 30
0.0
 10
27.46623972
 20
41.3629345843
 30
0.0
 10
28.0032335555
 20
40.351269466
 30
0.0
 10
28.3296987981
 20
39.4662591595
 30
0.0
 10
28.5031274527
 20
38.7596237624
 30
0.0
 10
28.5857156945
 20
38.2492112548
 30
0.0
 10
28.6215762411
 20
37.7577203695
 30
0.0
 10
28.6101924977
 20
37.2915575216
 30
0.0
 10
28.551492319
 20
36.8568070411
 30
0.0
 10
28.4461272013
 20
36.4591074753
 30
0.0
 10
28.2949642505
 20
36.103759013
 30
0.0
 10
28.0995176431
 20
35.7956713713
 30
0.0
 10
27.8620581805
 20
35.5396731544
 30
0.0
 10
27.6766599091
 20
35.4059073932
 30
0.0
 10
27.5797107224
 20
35.3499374049
 30
0.0
  0
SPLINE
  5
295
100
AcDbEntity
  8
0
100
AcDbSpline
 62
7
  6
BYLAYER
 70
0
 71
3
 72
10
 73
6
 74
0
 42
0.0000001
 43
0.0000001
 44
0.0000000001
 40
0.0
 40
0.0
 40
0.0
 40
0.0
 40
0.527133373
 40
0.7678446626
 40
1.0
 40
1.0
 40
1.0
 40
1.0
 10
15.5553211949
 20
32.9840873393
 30
0.0
 10
15.620576563
 20
32.965663406
 30
0.0
 10
15.7209244382
 20
32.9513516825
 30
0.0
 10
15.8487277333
 20
32.9714397195
 30
0.0
 10
15.9060133977
 20
32.993592678
 30
0.0
 10
15.9324706238
 20
33.0074416651
 30
0.0
  0
SPLINE
  5
296
100
AcDbEntity
  8
0
100
AcDbSpline
 62
7
  6
BYLAYER
 70
0
 71
3
 72
11
 73
7
 74
0
 42
0.0000001
 43
0.0000001
 44
0.0000000001
 40
0.0
 40
0.0
 40
0.0
 40
0.0
 40
0.2179124239
 40
0.4503803908
 40
0.7095727193
 40
1.0
 40
1.0
 40
1.0
 40
1.0
 10
15.9324706238
 20
33.0074416651
 30
0.0
 10
15.9742383009
 20
33.02930488
 30
0.0
 10
16.052957995
 20
33.0906278909
 30
0.0
 10
16.1371348735
 20
33.2217729112
 30
0.0
 10
16.1870305405
 20
33.3851521079
 30
0.0
 10
16.1968243664
 20
33.5044912854
 30
0.0
 10
16.1968243664
 20
33.567323174
 30
0.0
  0
SPLINE
  5
297
100
AcDbEntity
  8
0
100
AcDbSpline
 62
7
  6
BYLAYER
 70
0
 71
3
 72
11
 73
7
 74
0
 42
0.0000001
 43
0.0000001
 44
0.0000000001
 40
0.0
 40
0.0
 40
0.0
 40
0.0
 40
0.2896413964
 40
0.5491107671
 40
0.7822355978
 40
1.0
 40
1.0
 40
1.0
 40
1.0
 10
16.0515900315
 20
33.6511721075
 30
0.0
 10
16.0515900315
 20
33.6005148916
 30
0.0
 10
16.0438901159
 20
33.5041528765
 30
0.0
 10
16.0048887413
 20
33.3717545648
 30
0.0
 10
15.9391910709
 20
33.2642945067
 30
0.0
 10
15.8774451054
 20
33.2124578995
 30
0.0
 10
15.8444690979
 20
33.1934016385
 30
0.0
  0
SPLINE
  5
298
100
AcDbEntity
  8
0
100
AcDbSpline
 62
7
  6
BYLAYER
 70
0
 71
3
 72
20
 73
16
 74
0
 42
0.0000001
 43
0.0000001
 44
0.0000000001
 40
0.0
 40
0.0
 40
0.0
 40
0.0
 40
0.0435345262
 40
0.0882047632
 40
0.1350077917
 40
0.1847069576
 40
0.2377988579
 40
0.2945304704
 40
0.3549231553
 40
0.4188169367
 40
0.4859047283
 40
0.5557568282
 40
0.7015284593
 40
0.8513725962
 40
1.0
 40
1.0
 40
1.0
 40
1.0
 10
28.7868216959
 20
34.8921386247
 30
0.0
 10
28.9031624485
 20
34.9593020476
 30
0.0
 10
29.1256050797
 20
35.11986768
 30
0.0
 10
29.4105872127
 20
35.4270280508
 30
0.0
 10
29.6451341314
 20
35.7967358039
 30
0.0
 10
29.8264763296
 20
36.223171
 30
0.0
 10
29.9529875025
 20
36.7003937577
 30
0.0
 10
30.0233663163
 20
37.2221031774
 30
0.0
 10
30.0370529876
 20
37.7814961077
 30
0.0
 10
29.9940351524
 20
38.3712883401
 30
0.0
 10
29.8948918004
 20
38.9837771207
 30
0.0
 10
29.6868195064
 20
39.8317488353
 30
0.0
 10
29.2950351131
 20
40.893753786
 30
0.0
 10
28.6506456878
 20
42.1077517391
 30
0.0
 10
28.1133035964
 20
42.8599617256
 30
0.0
 10
27.8208741594
 20
43.2132617741
 30
0.0
  0
SPLINE
  5
299
100
AcDbEntity
  8
0
100
AcDbSpline
 62
7
  6
BYLAYER
 70
0
 71
3
 72
17
 73
13
 74
0
 42
0.0000001
 43
0.0000001
 44
0.0000000001
 40
0.0
 40
0.0
 40
0.0
 40
0.0
 40
0.128688864
 40
0.2702797703
 40
0.4174318348
 40
0.5617733576
 40
0.6954455149
 40
0.8127096012
 40
0.8646749146
 40
0.9125085807
 40
0.9571389861
 40
1.0
 40
1.0
 40
1.0
 40
1.0
 10
8.9805516594
 20
29.5687305688
 30
0.0
 10
8.9805516594
 20
29.6542054792
 30
0.0
 10
8.9566386585
 20
29.8339294635
 30
0.0
 10
8.8673917038
 20
30.0978142737
 30
0.0
 10
8.7298622575
 20
30.3520168111
 30
0.0
 10
8.5551119377
 20
30.5756953519
 30
0.0
 10
8.3574172027
 20
30.750782835
 30
0.0
 10
8.178476001
 20
30.8486279573
 30
0.0
 10
8.0384993741
 20
30.8858606682
 30
0.0
 10
7.9421609413
 20
30.892954498
 30
0.0
 10
7.8524539261
 20
30.8798071958
 30
0.0
 10
7.7981032822
 20
30.857223735
 30
0.0
 10
7.7734547105
 20
30.8429799023
 30
0.0
  0
SPLINE
  5
29A
100
AcDbEntity
  8
0
100
AcDbSpline
 62
7
  6
BYLAYER
 70
0
 71
3
 72
14
 73
10
 74
0
 42
0.0000001
 43
0.0000001
 44
0.0000000001
 40
0.0
 40
0.0
 40
0.0
 40
0.0
 40
0.2069115195
 40
0.3217196349
 40
0.4442040384
 40
0.5740346635
 40
0.7105735643
 40
0.8529832738
 40
1.0
 40
1.0
 40
1.0
 40
1.0
 10
18.088143737
 20
41.0552083176
 30
0.0
 10
18.3532746043
 20
41.0529810985
 30
0.0
 10
18.7661752046
 20
40.9742862853
 30
0.0
 10
19.2957599404
 20
40.7646166868
 30
0.0
 10
19.7117357138
 20
40.5425038192
 30
0.0
 10
20.1260270991
 20
40.2644199387
 30
0.0
 10
20.5333943779
 20
39.9340561898
 30
0.0
 10
20.927972348
 20
39.5561137244
 30
0.0
 10
21.1757299387
 20
39.2795927174
 30
0.0
 10
21.2963367529
 20
39.1348696596
 30
0.0
  0
SPLINE
  5
29B
100
AcDbEntity
  8
0
100
AcDbSpline
 62
7
  6
BYLAYER
 70
0
 71
3
 72
15
 73
11
 74
0
 42
0.0000001
 43
0.0000001
 44
0.0000000001
 40
0.0
 40
0.0
 40
0.0
 40
0.0
 40
0.1290186205
 40
0.2597160544
 40
0.3905690108
 40
0.5201967741
 40
0.6471839148
 40
0.7702206162
 40
0.8881468918
 40
1.0
 40
1.0
 40
1.0
 40
1.0
 10
56.4241115564
 20
59.6622719218
 30
0.0
 10
56.5846847936
 20
59.4659004944
 30
0.0
 10
56.8924585048
 20
59.0577076219
 30
0.0
 10
57.3078626363
 20
58.4110708422
 30
0.0
 10
57.6748291613
 20
57.7343520721
 30
0.0
 10
57.98734745
 20
57.0388098974
 30
0.0
 10
58.2403037771
 20
56.3357283077
 30
0.0
 10
58.4295706706
 20
55.6366010146
 30
0.0
 10
58.5520459691
 20
54.9529192654
 30
0.0
 10
58.588814648
 20
54.5017082939
 30
0.0
 10
58.594519814
 20
54.281867357
 30
0.0
  0
SPLINE
  5
29C
100
AcDbEntity
  8
0
100
AcDbSpline
 62
7
  6
BYLAYER
 70
0
 71
3
 72
9
 73
5
 74
0
 42
0.0000001
 43
0.0000001
 44
0.0000000001
 40
0.0
 40
0.0
 40
0.0
 40
0.0
 40
0.5146649569
 40
1.0
 40
1.0
 40
1.0
 40
1.0
 10
16.4319577685
 20
33.0372747385
 30
0.0
 10
16.6106083489
 20
32.8259385163
 30
0.0
 10
16.9803405652
 20
32.4337678895
 30
0.0
 10
17.3953668806
 20
32.089112718
 30
0.0
 10
17.6076757651
 20
31.9373746449
 30
0.0
  0
SPLINE
  5
29D
100
AcDbEntity
  8
0
100
AcDbSpline
 62
7
  6
BYLAYER
 70
0
 71
3
 72
28
 73
24
 74
0
 42
0.0000001
 43
0.0000001
 44
0.0000000001
 40
0.0
 40
0.0
 40
0.0
 40
0.0
 40
0.0653196024
 40
0.1249516661
 40
0.1790087873
 40
0.2042417281
 40
0.2284933861
 40
0.2520163065
 40
0.2751065326
 40
0.2980915099
 40
0.3213051386
 40
0.345065768
 40
0.3696544597
 40
0.422103132
 40
0.4503423203
 40
0.4799999952
 40
0.5435596078
 40
0.6125192737
 40
0.6860595998
 40
0.7630222173
 40
0.8420099591
 40
0.9215275652
 40
1.0
 40
1.0
 40
1.0
 40
1.0
 10
17.6783500151
 20
31.8877311014
 30
0.0
 10
17.8632769262
 20
31.7600984467
 30
0.0
 10
18.2334767339
 20
31.53818744
 30
0.0
 10
18.8074679076
 20
31.3075712529
 30
0.0
 10
19.28085031
 20
31.2167672908
 30
0.0
 10
19.6378498369
 20
31.2133373379
 30
0.0
 10
19.8879631737
 20
31.2432548154
 30
0.0
 10
20.1245316889
 20
31.3053774291
 30
0.0
 10
20.3456087051
 20
31.3995148051
 30
0.0
 10
20.5494129585
 20
31.5247978189
 30
0.0
 10
20.7342067894
 20
31.6802901024
 30
0.0
 10
20.8986009975
 20
31.8646146733
 30
0.0
 10
21.0930676138
 20
32.1527375508
 30
0.0
 10
21.2366427437
 20
32.4892942917
 30
0.0
 10
21.3315172791
 20
32.8571539821
 30
0.0
 10
21.3979645177
 20
33.2702324308
 30
0.0
 10
21.4148700265
 20
33.8303218212
 30
0.0
 10
21.3367862048
 20
34.5367296826
 30
0.0
 10
21.1632654304
 20
35.27318055
 30
0.0
 10
20.8993062128
 20
36.0186905701
 30
0.0
 10
20.5524942722
 20
36.7521858685
 30
0.0
 10
20.132751693
 20
37.4524472433
 30
0.0
 10
19.8080445826
 20
37.8896353122
 30
0.0
 10
19.635924197
 20
38.0975833942
 30
0.0
  0
SPLINE
  5
29E
100
AcDbEntity
  8
0
100
AcDbSpline
 62
7
  6
BYLAYER
 70
0
 71
3
 72
10
 73
6
 74
0
 42
0.0000001
 43
0.0000001
 44
0.0000000001
 40
0.0
 40
0.0
 40
0.0
 40
0.0
 40
0.2330968102
 40
0.4787484136
 40
1.0
 40
1.0
 40
1.0
 40
1.0
 10
14.6145665043
 20
37.5571682668
 30
0.0
 10
14.6145665043
 20
37.3962006329
 30
0.0
 10
14.6321744972
 20
37.065403685
 30
0.0
 10
14.7322466655
 20
36.3814912454
 30
0.0
 10
14.8757321454
 20
35.8686571802
 30
0.0
 10
14.9967900724
 20
35.5296683588
 30
0.0
  0
SPLINE
  5
29F
100
AcDbEntity
  8
0
100
AcDbSpline
 62
7
  6
BYLAYER
 70
0
 71
3
 72
20
 73
16
 74
0
 42
0.0000001
 43
0.0000001
 44
0.0000000001
 40
0.0
 40
0.0
 40
0.0
 40
0.0
 40
0.0435251461
 40
0.0882188942
 40
0.1350654021
 40
0.1848166006
 40
0.2379629234
 40
0.2947383467
 40
0.3551653383
 40
0.4190786396
 40
0.4861690266
 40
0.5560093422
 40
0.701720706
 40
0.8514728098
 40
1.0
 40
1.0
 40
1.0
 40
1.0
 10
22.1450862123
 20
32.212331513
 30
0.0
 10
22.2414764791
 20
32.2688806004
 30
0.0
 10
22.4256985481
 20
32.4037209086
 30
0.0
 10
22.6613500766
 20
32.6608455827
 30
0.0
 10
22.8550922538
 20
32.9696991737
 30
0.0
 10
23.0047073041
 20
33.3254695929
 30
0.0
 10
23.1086916601
 20
33.7232804765
 30
0.0
 10
23.1661970615
 20
34.1578551748
 30
0.0
 10
23.1765921293
 20
34.6235834526
 30
0.0
 10
23.1399435738
 20
35.1144109126
 30
0.0
 10
23.0567925833
 20
35.6239653348
 30
0.0
 10
22.8829079374
 20
36.3291711198
 30
0.0
 10
22.5564367799
 20
37.2121915931
 30
0.0
 10
22.0201352305
 20
38.2215205125
 30
0.0
 10
21.5732241884
 20
38.8469356105
 30
0.0
 10
21.3300643148
 20
39.140710396
 30
0.0
  0
SPLINE
  5
2A0
100
AcDbEntity
  8
0
100
AcDbSpline
 62
7
  6
BYLAYER
 70
0
 71
3
 72
23
 73
19
 74
0
 42
0.0000001
 43
0.0000001
 44
0.0000000001
 40
0.0
 40
0.0
 40
0.0
 40
0.0
 40
0.0825837767
 40
0.1623183951
 40
0.2383951213
 40
0.3102808336
 40
0.377594428
 40
0.4402149882
 40
0.4983465018
 40
0.5525764202
 40
0.6039140349
 40
0.6537480324
 40
0.7036947067
 40
0.7553543464
 40
0.810068231
 40
0.8687825742
 40
0.9320640227
 40
1.0
 40
1.0
 40
1.0
 40
1.0
 10
19.635924197
 20
38.0975833942
 30
0.0
 10
19.5092872918
 20
38.250580388
 30
0.0
 10
19.2485644367
 20
38.541778482
 30
0.0
 10
18.8314683853
 20
38.9361342618
 30
0.0
 10
18.4005331201
 20
39.2753447127
 30
0.0
 10
17.9629076786
 20
39.5537804261
 30
0.0
 10
17.5255094799
 20
39.7668778163
 30
0.0
 10
17.0952328404
 20
39.9109631694
 30
0.0
 10
16.6787711898
 20
39.9832118224
 30
0.0
 10
16.2827639758
 20
39.9815889452
 30
0.0
 10
15.9141182022
 20
39.9049839323
 30
0.0
 10
15.5802602652
 20
39.7537344823
 30
0.0
 10
15.288500373
 20
39.5306585478
 30
0.0
 10
15.0446445066
 20
39.2409562476
 30
0.0
 10
14.852480089
 20
38.890958119
 30
0.0
 10
14.7142782597
 20
38.4871629237
 30
0.0
 10
14.6316235301
 20
38.0365238371
 30
0.0
 10
14.6145665043
 20
37.720549056
 30
0.0
 10
14.6145665043
 20
37.5571682668
 30
0.0
  0
SPLINE
  5
2A1
100
AcDbEntity
  8
0
100
AcDbSpline
 62
7
  6
BYLAYER
 70
0
 71
3
 72
13
 73
9
 74
0
 42
0.0000001
 43
0.0000001
 44
0.0000000001
 40
0.0
 40
0.0
 40
0.0
 40
0.0
 40
0.2904081422
 40
0.5489692364
 40
0.6678879865
 40
0.7814452777
 40
0.8914504951
 40
1.0
 40
1.0
 40
1.0
 40
1.0
 10
17.8193525685
 20
34.263540038
 30
0.0
 10
17.8193525685
 20
34.1841584276
 30
0.0
 10
17.8068909852
 20
34.0336003282
 30
0.0
 10
17.7518830128
 20
33.857298016
 30
0.0
 10
17.685170735
 20
33.7402821904
 30
0.0
 10
17.6264109935
 20
33.6668589696
 30
0.0
 10
17.5582534833
 20
33.6062376842
 30
0.0
 10
17.5069683365
 20
33.5748663688
 30
0.0
 10
17.4803715782
 20
33.5617131117
 30
0.0
  0
SPLINE
  5
2A2
100
AcDbEntity
  8
0
100
AcDbSpline
 62
7
  6
BYLAYER
 70
0
 71
3
 72
17
 73
13
 74
0
 42
0.0000001
 43
0.0000001
 44
0.0000000001
 40
0.0
 40
0.0
 40
0.0
 40
0.0
 40
0.0475140974
 40
0.0956323613
 40
0.1449220894
 40
0.1958807205
 40
0.304205247
 40
0.4229329719
 40
0.5527655672
 40
0.6932107996
 40
0.842980548
 40
1.0
 40
1.0
 40
1.0
 40
1.0
 10
22.5797523919
 20
44.0101709627
 30
0.0
 10
22.6467913074
 20
44.0488733742
 30
0.0
 10
22.7873549085
 20
44.117442886
 30
0.0
 10
23.0124625095
 20
44.1909095102
 30
0.0
 10
23.2508356985
 20
44.2349458175
 30
0.0
 10
23.5908336183
 20
44.2545479093
 30
0.0
 10
24.044340279
 20
44.1998297611
 30
0.0
 10
24.6000307745
 20
44.0193964661
 30
0.0
 10
25.1659302058
 20
43.7290003663
 30
0.0
 10
25.7285858654
 20
43.3363433263
 30
0.0
 10
26.2742367255
 20
42.8513298495
 30
0.0
 10
26.6116523441
 20
42.4812543546
 30
0.0
 10
26.7747638613
 20
42.2841903808
 30
0.0
  0
SPLINE
  5
2A3
100
AcDbEntity
  8
0
100
AcDbSpline
 62
7
  6
BYLAYER
 70
0
 71
3
 72
17
 73
13
 74
0
 42
0.0000001
 43
0.0000001
 44
0.0000000001
 40
0.0
 40
0.0
 40
0.0
 40
0.0
 40
0.1570274606
 40
0.3067858387
 40
0.4472364023
 40
0.577067081
 40
0.6957938793
 40
0.8041185875
 40
0.8550779632
 40
0.9043677096
 40
0.952485714
 40
1.0
 40
1.0
 40
1.0
 40
1.0
 10
27.8208741594
 20
43.2132617741
 30
0.0
 10
27.6251303528
 20
43.4497506072
 30
0.0
 10
27.2202451734
 20
43.8938456894
 30
0.0
 10
26.565447189
 20
44.475847759
 30
0.0
 10
25.890284064
 20
44.9470427987
 30
0.0
 10
25.2111915335
 20
45.2955062695
 30
0.0
 10
24.5443664828
 20
45.512013919
 30
0.0
 10
24.000158684
 20
45.5776856141
 30
0.0
 10
23.592161522
 20
45.5541654065
 30
0.0
 10
23.30610346
 20
45.501352646
 30
0.0
 10
23.035998198
 20
45.4131278805
 30
0.0
 10
22.8672965793
 20
45.3309003199
 30
0.0
 10
22.7868490928
 20
45.2844580507
 30
0.0
  0
SPLINE
  5
2A4
100
AcDbEntity
  8
0
100
AcDbSpline
 62
7
  6
BYLAYER
 70
0
 71
3
 72
9
 73
5
 74
0
 42
0.0000001
 43
0.0000001
 44
0.0000000001
 40
0.0
 40
0.0
 40
0.0
 40
0.0
 40
0.492572535
 40
1.0
 40
1.0
 40
1.0
 40
1.0
 10
16.1545338015
 20
32.905728307
 30
0.0
 10
16.1895951138
 20
32.9230664411
 30
0.0
 10
16.2565540661
 20
32.967510938
 30
0.0
 10
16.3104298631
 20
33.026961662
 30
0.0
 10
16.3340971692
 20
33.0595719973
 30
0.0
  0
SPLINE
  5
2A5
100
AcDbEntity
  8
0
100
AcDbSpline
 62
7
  6
BYLAYER
 70
0
 71
3
 72
10
 73
6
 74
0
 42
0.0000001
 43
0.0000001
 44
0.0000000001
 40
0.0
 40
0.0
 40
0.0
 40
0.0
 40
0.4616402091
 40
0.7211273946
 40
1.0
 40
1.0
 40
1.0
 40
1.0
 10
16.3340971692
 20
33.0595719973
 30
0.0
 10
16.3819204907
 20
33.125466043
 30
0.0
 10
16.4340558383
 20
33.2453920107
 30
0.0
 10
16.466717612
 20
33.4188178919
 30
0.0
 10
16.472071886
 20
33.5139776971
 30
0.0
 10
16.472071886
 20
33.5631623213
 30
0.0
  0
SPLINE
  5
2A6
100
AcDbEntity
  8
0
100
AcDbSpline
 62
7
  6
BYLAYER
 70
0
 71
3
 72
17
 73
13
 74
0
 42
0.0000001
 43
0.0000001
 44
0.0000000001
 40
0.0
 40
0.0
 40
0.0
 40
0.0
 40
0.1570252328
 40
0.306786764
 40
0.4472356851
 40
0.5770668961
 40
0.6957938928
 40
0.8041188315
 40
0.8550776979
 40
0.9043677855
 40
0.9524856469
 40
1.0
 40
1.0
 40
1.0
 40
1.0
 10
19.8451462566
 20
38.2833976729
 30
0.0
 10
19.6820287372
 20
38.4804688984
 30
0.0
 10
19.3446213461
 20
38.8505470737
 30
0.0
 10
18.7989605356
 20
39.3355520731
 30
0.0
 10
18.2363189785
 20
39.7282119214
 30
0.0
 10
17.6704118777
 20
40.0186020672
 30
0.0
 10
17.1147235186
 20
40.1990238122
 30
0.0
 10
16.6612166755
 20
40.2537612941
 30
0.0
 10
16.3212201604
 20
40.2341439462
 30
0.0
 10
16.0828377591
 20
40.1901434397
 30
0.0
 10
15.8577485365
 20
40.1166214865
 30
0.0
 10
15.71717013
 20
40.0480876842
 30
0.0
 10
15.6501281471
 20
40.0093897558
 30
0.0
  0
SPLINE
  5
2A7
100
AcDbEntity
  8
0
100
AcDbSpline
 62
7
  6
BYLAYER
 70
0
 71
3
 72
20
 73
16
 74
0
 42
0.0000001
 43
0.0000001
 44
0.0000000001
 40
0.0
 40
0.0
 40
0.0
 40
0.0
 40
0.0435341497
 40
0.0882050732
 40
0.1350079183
 40
0.1847062413
 40
0.2377997446
 40
0.2945297067
 40
0.3549233135
 40
0.4188173009
 40
0.4859042092
 40
0.5557568792
 40
0.7015290142
 40
0.8513725718
 40
1.0
 40
1.0
 40
1.0
 40
1.0
 10
20.6500931177
 20
31.349144697
 30
0.0
 10
20.7470423044
 20
31.4051146852
 30
0.0
 10
20.9324405758
 20
31.5388804465
 30
0.0
 10
21.1699000384
 20
31.7948786633
 30
0.0
 10
21.3653466458
 20
32.102966305
 30
0.0
 10
21.5165095966
 20
32.4583147674
 30
0.0
 10
21.6218747143
 20
32.8560143332
 30
0.0
 10
21.680574893
 20
33.2907648137
 30
0.0
 10
21.6919586364
 20
33.7569276616
 30
0.0
 10
21.6560980898
 20
34.2484185468
 30
0.0
 10
21.573509848
 20
34.7588310544
 30
0.0
 10
21.4000811935
 20
35.4654664515
 30
0.0
 10
21.0736159508
 20
36.3504767581
 30
0.0
 10
20.5366221153
 20
37.3621418763
 30
0.0
 10
20.0888373968
 20
37.9889810352
 30
0.0
 10
19.8451462566
 20
38.2833976729
 30
0.0
  0
SPLINE
  5
2A8
100
AcDbEntity
  8
0
100
AcDbSpline
 62
7
  6
BYLAYER
 70
0
 71
3
 72
9
 73
5
 74
0
 42
0.0000001
 43
0.0000001
 44
0.0000000001
 40
0.0
 40
0.0
 40
0.0
 40
0.0
 40
0.2372406965
 40
1.0
 40
1.0
 40
1.0
 40
1.0
 10
16.472071886
 20
33.5631623213
 30
0.0
 10
16.472071886
 20
33.5955293005
 30
0.0
 10
16.4670662273
 20
33.7319500219
 30
0.0
 10
16.4435359541
 20
33.8673881786
 30
0.0
 10
16.4178635268
 20
33.9682357932
 30
0.0
  0
SPLINE
  5
2A9
100
AcDbEntity
  8
0
100
AcDbSpline
 62
7
  6
BYLAYER
 70
0
 71
3
 72
20
 73
16
 74
0
 42
0.0000001
 43
0.0000001
 44
0.0000000001
 40
0.0
 40
0.0
 40
0.0
 40
0.0
 40
0.0428750209
 40
0.0871465051
 40
0.1344092688
 40
0.1857319022
 40
0.2416485888
 40
0.3022008997
 40
0.3670604511
 40
0.4356110668
 40
0.5801697694
 40
0.7280086956
 40
0.8704270046
 40
0.9372742003
 40
1.0
 40
1.0
 40
1.0
 40
1.0
 10
15.9814185676
 20
36.1579916985
 30
0.0
 10
16.017361765
 20
36.1819561282
 30
0.0
 10
16.0972292452
 20
36.2211850473
 30
0.0
 10
16.2312191537
 20
36.2483580849
 30
0.0
 10
16.3761954351
 20
36.2439704016
 30
0.0
 10
16.528722785
 20
36.2089612802
 30
0.0
 10
16.6856793989
 20
36.1444361856
 30
0.0
 10
16.8438718729
 20
36.0520468789
 30
0.0
 10
17.0000314985
 20
35.9338470835
 30
0.0
 10
17.2045420314
 20
35.7418872631
 30
0.0
 10
17.4324274743
 20
35.4556295871
 30
0.0
 10
17.6443358648
 20
35.0700464552
 30
0.0
 10
17.7619201754
 20
34.7275050687
 30
0.0
 10
17.8106009374
 20
34.4573872792
 30
0.0
 10
17.8193525685
 20
34.3267407262
 30
0.0
 10
17.8193525685
 20
34.263540038
 30
0.0
  0
SPLINE
  5
2AA
100
AcDbEntity
  8
0
100
AcDbSpline
 62
7
  6
BYLAYER
 70
0
 71
3
 72
18
 73
14
 74
0
 42
0.0000001
 43
0.0000001
 44
0.0000000001
 40
0.0
 40
0.0
 40
0.0
 40
0.0
 40
0.0428466426
 40
0.0874623676
 40
0.1352823221
 40
0.1872320218
 40
0.2437228455
 40
0.304726044
 40
0.43835816
 40
0.5826623131
 40
0.7297821897
 40
0.8713439803
 40
1.0
 40
1.0
 40
1.0
 40
1.0
 10
14.8444915148
 20
34.9254240856
 30
0.0
 10
14.8691382848
 20
34.9396670251
 30
0.0
 10
14.9234865514
 20
34.9622436692
 30
0.0
 10
15.0131886645
 20
34.9754019961
 30
0.0
 10
15.1095178521
 20
34.9682950049
 30
0.0
 10
15.2103363086
 20
34.9415274502
 30
0.0
 10
15.3136593508
 20
34.8958539678
 30
0.0
 10
15.4563077756
 20
34.808567836
 30
0.0
 10
15.6262261327
 20
34.6580695646
 30
0.0
 10
15.800857181
 20
34.4345081898
 30
0.0
 10
15.9384309077
 20
34.1802663891
 30
0.0
 10
16.0276736074
 20
33.9163797969
 30
0.0
 10
16.0515900315
 20
33.7366478386
 30
0.0
 10
16.0515900315
 20
33.6511721075
 30
0.0
  0
SPLINE
  5
2AB
100
AcDbEntity
  8
0
100
AcDbSpline
 62
7
  6
BYLAYER
 70
0
 71
3
 72
17
 73
13
 74
0
 42
0.0000001
 43
0.0000001
 44
0.0000000001
 40
0.0
 40
0.0
 40
0.0
 40
0.0
 40
0.143951925
 40
0.2928256468
 40
0.4401288921
 40
0.5795768569
 40
0.7060363329
 40
0.8166428194
 40
0.8662586078
 40
0.9126756035
 40
0.9568364901
 40
1.0
 40
1.0
 40
1.0
 40
1.0
 10
16.4178635268
 20
33.9682357932
 30
0.0
 10
16.3891971026
 20
34.0808445647
 30
0.0
 10
16.3108759618
 20
34.3051281903
 30
0.0
 10
16.1444465563
 20
34.6203588531
 30
0.0
 10
15.935912542
 20
34.9051382053
 30
0.0
 10
15.6982696529
 20
35.1414533289
 30
0.0
 10
15.446278118
 20
35.3146077173
 30
0.0
 10
15.2278011089
 20
35.40018339
 30
0.0
 10
15.0617212945
 20
35.4223802019
 30
0.0
 10
14.9479630431
 20
35.4169391601
 30
0.0
 10
14.8426872921
 20
35.389677403
 30
0.0
 10
14.7793832307
 20
35.3571136292
 30
0.0
 10
14.7503916447
 20
35.3377882249
 30
0.0
  0
SPLINE
  5
2AC
100
AcDbEntity
  8
0
100
AcDbSpline
 62
7
  6
BYLAYER
 70
0
 71
3
 72
11
 73
7
 74
0
 42
0.0000001
 43
0.0000001
 44
0.0000000001
 40
0.0
 40
0.0
 40
0.0
 40
0.0
 40
0.2177660095
 40
0.4508968553
 40
0.7103699668
 40
1.0
 40
1.0
 40
1.0
 40
1.0
 10
8.7734291579
 20
29.1109627444
 30
0.0
 10
8.8064054476
 20
29.1300189705
 30
0.0
 10
8.8681552855
 20
29.1818530849
 30
0.0
 10
8.9338510174
 20
29.2893172944
 30
0.0
 10
8.9728517313
 20
29.4217148004
 30
0.0
 10
8.9805516594
 20
29.5180754125
 30
0.0
 10
8.9805516594
 20
29.5687305688
 30
0.0
  0
ENDSEC
  0
SECTION
  2
OBJECTS
  0
DICTIONARY
  5
C
100
AcDbDictionary
280
0
281
1
  3
ACAD_GROUP
350
D
  3
ACAD_MLINESTYLE
350
17
  3
ACAD_LAYOUT
350
1A
  3
ACAD_PLOTSETTINGS
350
19
  3
ACAD_PLOTSTYLENAME
350
E
  0
DICTIONARY
  5
D
102
{ACAD_REACTORS
330
C
102
}
100
AcDbDictionary
280
0
281
1
  0
ACDBDICTIONARYWDFLT
  5
E
102
{ACAD_REACTORS
330
C
102
}
100
AcDbDictionary
281
1
  3
Normal
350
F
100
AcDbDictionaryWithDefault
340
F
  0
DICTIONARY
  5
17
102
{ACAD_REACTORS
330
C
102
}
100
AcDbDictionary
280
0
281
1
  3
Standard
350
18
  0
DICTIONARY
  5
19
102
{ACAD_REACTORS
330
C
102
}
100
AcDbDictionary
281
1
  0
DICTIONARY
  5
1A
102
{ACAD_REACTORS
330
C
102
}
100
AcDbDictionary
281
1
  3
Model
350
2AD
  3
Layout1
350
2AE
  0
ACDBPLACEHOLDER
  5
F
102
{ACAD_REACTORS
330
E
102
}
  0
MLINESTYLE
  5
18
102
{ACAD_REACTORS
330
17
102
}
100
AcDbMlineStyle
  2
STANDARD
 70
0
  3

 62
256
 51
90.0
 52
90.0
 71
2
 49
0.5
 62
256
  6
BYLAYER
 49
-0.5
 62
256
  6
BYLAYER
  0
LAYOUT
  5
2AD
102
{ACAD_REACTORS
330
1A
102
}
100
AcDbPlotSettings
  1

  2
none_device
  4

  6

 40
0.0
 41
0.0
 42
0.0
 43
0.0
 44
210.0
 45
297.0
 46
0.0
 47
0.0
 48
0.0
 49
0.0
140
0.0
141
0.0
142
1.0
143
1.0
 70
1024
 72
1
 73
0
 74
0
  7

 75
0
147
1.0
148
0.0
149
0.0
100
AcDbLayout
  1
Model
 70
0
 71
0
 10
0.0
 20
0.0
 11
210.0
 21
297.0
 12
0.0
 22
0.0
 32
0.0
 14
0.0
 24
0.0
 34
0.0
 15
0.0
 25
0.0
 35
0.0
146
0.0
 13
0.0
 23
0.0
 33
0.0
 16
1.0
 26
0.0
 36
0.0
 17
0.0
 27
1.0
 37
0.0
 76
0
330
210
345
0
346
0
  0
LAYOUT
  5
2AE
102
{ACAD_REACTORS
330
1A
102
}
100
AcDbPlotSettings
  1

  2
none_device
  4

  6

 40
0.0
 41
0.0
 42
0.0
 43
0.0
 44
210.0
 45
297.0
 46
0.0
 47
0.0
 48
0.0
 49
0.0
140
0.0
141
0.0
142
1.0
143
1.0
 70
0
 72
1
 73
0
 74
0
  7

 75
0
147
1.0
148
0.0
149
0.0
100
AcDbLayout
  1
Layout1
 70
0
 71
1
 10
0.0
 20
0.0
 11
210.0
 21
297.0
 12
0.0
 22
0.0
 32
0.0
 14
0.0
 24
0.0
 34
0.0
 15
0.0
 25
0.0
 35
0.0
146
0.0
 13
0.0
 23
0.0
 33
0.0
 16
1.0
 26
0.0
 36
0.0
 17
0.0
 27
1.0
 37
0.0
 76
0
330
211
345
0
346
0
  0
ENDSEC
  0
EOF
