999
DXF file: C:\Users\sesa63760\Dev\_Creo\CAD\MCADPD0004091_3D-CAD\drw0001_1.dxf
999
Pro/ENGINEER 2019471 by Parametric Technology Corporation
  0
SECTION
  2
HEADER
  9
$ACADVER
  1
AC1024
  9
$DWGCODEPAGE
  3
ANSI_1252
  9
$EXTMAX
 10
325.6930520381
 20
460.6230307396
 30
0.0
  9
$EXTMIN
 10
0.0
 20
0.0
 30
0.0
  9
$LIMMIN
 10
0.0
 20
0.0
  9
$LIMMAX
 10
325.6930520381
 20
460.6230307396
  9
$VIEWCTR
 10
162.846526019
 20
230.3115153698
  9
$VIEWSIZE
 40
460.6230307396
  9
$CLAYER
  8
0
  9
$LTSCALE
 40
30.0257975593
  9
$CELTYPE
  6
BYLAYER
  9
$DIMSCALE
 40
1.0
  9
$DIMASZ
 40
3.8772982385
  9
$DIMEXO
 40
1.0
  9
$DIMDLI
 40
20.7450964955
  9
$DIMEXE
 40
1.0
  9
$DIMCEN
 40
4.9133123279
  9
$DIMLFAC
 40
1.0
  9
$DIMBLK
  1
_FILLED
  9
$DIMALT
 70
0
  9
$DIMALTF
 40
0.0393700787
  9
$DIMTXT
 40
5.428217534
  9
$DIMTOL
 70
1
  9
$DIMLIM
 70
0
  9
$DIMTFAC
 40
1.0
  9
$DIMTP
 40
0.01
  9
$DIMTM
 40
0.01
  9
$DIMGAP
 40
0.625
  9
$DIMDSEP
 70
46
  9
$AUNITS
 70
0
  9
$PDMODE
 70
3
  9
$PDSIZE
 40
0.3125
  9
$HANDSEED
  5
293
  9
$TILEMODE
 70
1
  9
$MEASUREMENT
 70
1
  9
$INSUNITS
 70
4
  0
ENDSEC
  0
SECTION
  2
CLASSES
  0
CLASS
  1
ACDBDICTIONARYWDFLT
  2
AcDbDictionaryWithDefault
  3
AutoCAD 2000
 90
0
 91
1
280
0
281
0
  0
CLASS
  1
ACDBPLACEHOLDER
  2
AcDbPlaceHolder
  3
AutoCAD 2000
 90
0
 91
1
280
0
281
0
  0
CLASS
  1
LAYOUT
  2
AcDbLayout
  3
AutoCAD 2000
 90
0
 91
0
280
0
281
0
  0
ENDSEC
  0
SECTION
  2
TABLES
  0
TABLE
  2
VPORT
  5
8
100
AcDbSymbolTable
 70
2
  0
VPORT
  5
1F4
100
AcDbSymbolTableRecord
100
AcDbViewportTableRecord
  2
*ACTIVE
 70
0
 10
0.0
 20
0.0
 11
1.0
 21
1.0
 12
162.846526019
 22
230.3115153698
 13
0.0
 23
0.0
 14
1.0
 24
1.0
 15
0.0
 25
0.0
 16
0.0
 26
0.0
 36
1.0
 17
0.0
 27
0.0
 37
0.0
 40
460.6230307396
 41
0.7070707071
 42
50.0
 43
0.0
 44
0.0
 50
0.0
 51
0.0
 71
0
 72
100
 73
1
 74
1
 75
0
 76
0
 77
0
 78
0
  0
ENDTAB
  0
TABLE
  2
LTYPE
  5
5
100
AcDbSymbolTable
 70
6
  0
LTYPE
  5
14
100
AcDbSymbolTableRecord
100
AcDbLinetypeTableRecord
  2
BYBLOCK
 70
0
  3

 72
65
 73
0
 40
0.0
  0
LTYPE
  5
15
100
AcDbSymbolTableRecord
100
AcDbLinetypeTableRecord
  2
BYLAYER
 70
0
  3

 72
65
 73
0
 40
0.0
  0
LTYPE
  5
16
100
AcDbSymbolTableRecord
100
AcDbLinetypeTableRecord
  2
CONTINUOUS
 70
64
  3
Solid line
 72
65
 73
0
 40
0.0
  0
LTYPE
  5
1F5
100
AcDbSymbolTableRecord
100
AcDbLinetypeTableRecord
  2
CENTER
 70
64
  3
____ _ ____ _ ____ _ ____ _ ____ _ ____ _ ____
 72
65
 73
4
 40
0.6
 49
0.375
 74
0
 49
-0.075
 74
0
 49
0.075
 74
0
 49
-0.075
 74
0
  0
LTYPE
  5
1F6
100
AcDbSymbolTableRecord
100
AcDbLinetypeTableRecord
  2
HIDDEN
 70
64
  3
- - - - - - - - - - - - - - - - - - - -
 72
65
 73
2
 40
0.2
 49
0.1
 74
0
 49
-0.1
 74
0
  0
LTYPE
  5
1F7
100
AcDbSymbolTableRecord
100
AcDbLinetypeTableRecord
  2
PHANTOM
 70
64
  3
_____ _ _ _____ _ _ _____ _ _ _____
 72
65
 73
6
 40
0.8
 49
0.45
 74
0
 49
-0.05
 74
0
 49
0.1
 74
0
 49
-0.05
 74
0
 49
0.1
 74
0
 49
-0.05
 74
0
  0
LTYPE
  5
1F8
100
AcDbSymbolTableRecord
100
AcDbLinetypeTableRecord
  2
DOT
 70
64
  3
. . . . . . . . . . . . . . . . . . . .
 72
65
 73
2
 40
0.2
 49
0.1
 74
0
 49
-0.1
 74
0
  0
LTYPE
  5
1F9
100
AcDbSymbolTableRecord
100
AcDbLinetypeTableRecord
  2
DASHED
 70
64
  3
- - - - - - - - - - - - - - - - - - - -
 72
65
 73
2
 40
0.2
 49
0.1
 74
0
 49
-0.1
 74
0
  0
ENDTAB
  0
TABLE
  2
LAYER
  5
2
100
AcDbSymbolTable
 70
36
  0
LAYER
  5
10
100
AcDbSymbolTableRecord
100
AcDbLayerTableRecord
  2
0
 70
0
 62
7
  6
CONTINUOUS
370
-3
390
F
  0
LAYER
  5
1FA
100
AcDbSymbolTableRecord
100
AcDbLayerTableRecord
  2
DEFAULT_1
 70
0
 62
7
  6
CENTER
370
-3
390
F
  0
LAYER
  5
1FB
100
AcDbSymbolTableRecord
100
AcDbLayerTableRecord
  2
DEFAULT_2
 70
0
 62
7
  6
HIDDEN
370
-3
390
F
  0
LAYER
  5
1FC
100
AcDbSymbolTableRecord
100
AcDbLayerTableRecord
  2
DEFAULT_3
 70
0
 62
7
  6
PHANTOM
370
-3
390
F
  0
LAYER
  5
1FD
100
AcDbSymbolTableRecord
100
AcDbLayerTableRecord
  2
00_COMPONENTS
 70
0
 62
7
  6
CONTINUOUS
370
-3
390
F
  0
LAYER
  5
1FE
100
AcDbSymbolTableRecord
100
AcDbLayerTableRecord
  2
01_1_DEFAULT_DATUMS
 70
0
 62
7
  6
CONTINUOUS
370
-3
390
F
  0
LAYER
  5
1FF
100
AcDbSymbolTableRecord
100
AcDbLayerTableRecord
  2
01_PLANES
 70
0
 62
7
  6
CONTINUOUS
370
-3
390
F
  0
LAYER
  5
200
100
AcDbSymbolTableRecord
100
AcDbLayerTableRecord
  2
02_COORD_SYS
 70
0
 62
7
  6
CONTINUOUS
370
-3
390
F
  0
LAYER
  5
201
100
AcDbSymbolTableRecord
100
AcDbLayerTableRecord
  2
03_AXES
 70
0
 62
7
  6
CONTINUOUS
370
-3
390
F
  0
LAYER
  5
202
100
AcDbSymbolTableRecord
100
AcDbLayerTableRecord
  2
04_POINTS
 70
0
 62
7
  6
CONTINUOUS
370
-3
390
F
  0
LAYER
  5
203
100
AcDbSymbolTableRecord
100
AcDbLayerTableRecord
  2
05_CURVES
 70
0
 62
7
  6
CONTINUOUS
370
-3
390
F
  0
LAYER
  5
204
100
AcDbSymbolTableRecord
100
AcDbLayerTableRecord
  2
06_SURFS
 70
0
 62
7
  6
CONTINUOUS
370
-3
390
F
  0
LAYER
  5
205
100
AcDbSymbolTableRecord
100
AcDbLayerTableRecord
  2
07_COSMETICS
 70
0
 62
7
  6
CONTINUOUS
370
-3
390
F
  0
LAYER
  5
206
100
AcDbSymbolTableRecord
100
AcDbLayerTableRecord
  2
10_NOTES
 70
0
 62
7
  6
CONTINUOUS
370
-3
390
F
  0
LAYER
  5
207
100
AcDbSymbolTableRecord
100
AcDbLayerTableRecord
  2
11_NOTES_PUB
 70
0
 62
7
  6
CONTINUOUS
370
-3
390
F
  0
LAYER
  5
208
100
AcDbSymbolTableRecord
100
AcDbLayerTableRecord
  2
13_REF_GTOL
 70
0
 62
7
  6
CONTINUOUS
370
-3
390
F
  0
LAYER
  5
209
100
AcDbSymbolTableRecord
100
AcDbLayerTableRecord
  2
16_MISC
 70
0
 62
7
  6
CONTINUOUS
370
-3
390
F
  0
LAYER
  5
20A
100
AcDbSymbolTableRecord
100
AcDbLayerTableRecord
  2
17_NO_PRINT
 70
0
 62
7
  6
CONTINUOUS
370
-3
390
F
  0
LAYER
  5
20B
100
AcDbSymbolTableRecord
100
AcDbLayerTableRecord
  2
18_DATUM_CAMS_JOINTS
 70
0
 62
7
  6
CONTINUOUS
370
-3
390
F
  0
LAYER
  5
20C
100
AcDbSymbolTableRecord
100
AcDbLayerTableRecord
  2
19_DATUM_FUNCTIONAL
 70
0
 62
7
  6
CONTINUOUS
370
-3
390
F
  0
LAYER
  5
20D
100
AcDbSymbolTableRecord
100
AcDbLayerTableRecord
  2
20_DATUM_KINEMATIC_SCHEME
 70
0
 62
7
  6
CONTINUOUS
370
-3
390
F
  0
ENDTAB
  0
TABLE
  2
STYLE
  5
3
100
AcDbSymbolTable
 70
1
  0
STYLE
  5
11
100
AcDbSymbolTableRecord
100
AcDbTextStyleTableRecord
  2
STANDARD
 70
0
 40
0.0
 41
1.0
 50
0.0
 71
0
 42
0.2
  3
ARIAL.TTF
  4

  0
STYLE
  5
20E
100
AcDbSymbolTableRecord
100
AcDbTextStyleTableRecord
  2
TEXTSTYLE_1
 70
0
 40
0.0
 41
0.8
 50
0.0
 71
0
 42
0.2
  3
gdt
  4

  0
ENDTAB
  0
TABLE
  2
VIEW
  5
6
100
AcDbSymbolTable
 70
0
  0
ENDTAB
  0
TABLE
  2
UCS
  5
7
100
AcDbSymbolTable
 70
0
  0
ENDTAB
  0
TABLE
  2
APPID
  5
9
100
AcDbSymbolTable
 70
1
  0
APPID
  5
20F
100
AcDbSymbolTableRecord
100
AcDbRegAppTableRecord
  2
ACAD
 70
0
  0
ENDTAB
  0
TABLE
  2
BLOCK_RECORD
  5
1
100
AcDbSymbolTable
 70
0
  0
BLOCK_RECORD
  5
210
100
AcDbSymbolTableRecord
100
AcDbBlockTableRecord
  2
*Model_Space
  0
BLOCK_RECORD
  5
211
100
AcDbSymbolTableRecord
100
AcDbBlockTableRecord
  2
*Paper_Space
  0
BLOCK_RECORD
  5
212
100
AcDbSymbolTableRecord
100
AcDbBlockTableRecord
  2
_FILLED
  0
ENDTAB
  0
TABLE
  2
DIMSTYLE
  5
A
100
AcDbSymbolTable
 70
1
100
AcDbDimStyleTable
 71
0
  0
DIMSTYLE
105
213
100
AcDbSymbolTableRecord
100
AcDbDimStyleTableRecord
  2
STANDARD
 70
0
  3

  4

 40
1.0
 41
3.8772982385
 42
1.0
 43
0.38
 44
1.0
 45
0.0
 46
0.0
 47
0.01
 48
0.01
140
5.428217534
141
0.09
142
0.0
143
25.4
144
1.0
145
0.0
146
1.0
147
0.625
 71
1
 72
0
 73
0
 74
0
 75
0
 76
0
 77
1
 78
8
 79
2
170
0
171
1
172
0
173
0
174
0
175
0
176
0
177
0
178
0
270
2
179
2
271
2
272
2
273
2
274
2
275
0
280
0
281
0
282
0
283
1
284
8
285
0
286
0
287
3
288
0
340
11
278
46
341
212
342
212
343
212
344
212
  0
ENDTAB
  0
ENDSEC
  0
SECTION
  2
BLOCKS
  0
BLOCK
  5
20
100
AcDbEntity
  8
0
100
AcDbBlockBegin
  2
*Model_Space
 70
0
 10
0.0
 20
0.0
 30
0.0
  3
*Model_Space
  1

  0
ENDBLK
  5
21
100
AcDbEntity
  8
0
100
AcDbBlockEnd
  0
BLOCK
  5
1C
100
AcDbEntity
  8
0
100
AcDbBlockBegin
  2
*Paper_Space
 70
0
 10
0.0
 20
0.0
 30
0.0
  3
*Paper_Space
  1

  0
ENDBLK
  5
1D
100
AcDbEntity
  8
0
100
AcDbBlockEnd
  0
BLOCK
  5
214
100
AcDbEntity
  8
0
100
AcDbBlockBegin
  2
_FILLED
 70
64
 10
0.0
 20
0.0
  3
_FILLED
  1

  0
SOLID
  5
215
100
AcDbEntity
  8
0
  6
BYBLOCK
 62
0
100
AcDbTrace
 10
0.0
 20
0.0
 11
-1.0
 21
0.25
 12
-1.0
 22
-0.25
 13
-1.0
 23
-0.25
  0
ENDBLK
  5
216
100
AcDbEntity
  8
0
  6
BYBLOCK
 62
0
100
AcDbBlockEnd
  0
ENDSEC
  0
SECTION
  2
ENTITIES
  0
LINE
  5
217
100
AcDbEntity
  8
0
100
AcDbLine
 62
7
  6
BYLAYER
 10
38.3501036841
 20
157.8813463799
 11
39.3649191125
 21
155.7722426445
  0
LINE
  5
218
100
AcDbEntity
  8
0
100
AcDbLine
 62
7
  6
BYLAYER
 10
41.1185512309
 20
154.7598055733
 11
40.1037358025
 21
156.8689093087
  0
LINE
  5
219
100
AcDbEntity
  8
0
100
AcDbLine
 62
7
  6
BYLAYER
 10
39.9290868005
 20
155.1411906705
 11
41.6827189189
 21
154.1287535993
  0
LINE
  5
21A
100
AcDbEntity
  8
0
100
AcDbLine
 62
7
  6
BYLAYER
 10
39.3649191125
 20
155.7722426445
 11
41.1185512309
 21
154.7598055733
  0
LINE
  5
21B
100
AcDbEntity
  8
0
100
AcDbLine
 62
7
  6
BYLAYER
 10
38.3500964033
 20
158.1725517438
 11
38.3501036841
 21
157.8813463799
  0
LINE
  5
21C
100
AcDbEntity
  8
0
100
AcDbLine
 62
7
  6
BYLAYER
 10
40.1037283731
 20
157.1601423276
 11
40.1037358025
 21
156.8689093087
  0
LINE
  5
21D
100
AcDbEntity
  8
0
100
AcDbLine
 62
7
  6
BYLAYER
 10
39.6573141104
 20
157.1266487467
 11
40.1037358025
 21
156.8689093087
  0
LINE
  5
21E
100
AcDbEntity
  8
0
100
AcDbLine
 62
7
  6
BYLAYER
 10
38.3501036841
 20
157.8813463799
 11
38.7965205997
 21
157.6236168689
  0
LINE
  5
21F
100
AcDbEntity
  8
0
100
AcDbLine
 62
7
  6
BYLAYER
 10
72.3182132916
 20
167.0211777906
 11
72.6970152169
 21
166.837669707
  0
LINE
  5
220
100
AcDbEntity
  8
0
100
AcDbLine
 62
7
  6
BYLAYER
 10
69.7879792033
 20
176.5011448771
 11
69.7879792033
 21
167.5196143963
  0
LINE
  5
221
100
AcDbEntity
  8
0
100
AcDbLine
 62
7
  6
BYLAYER
 10
71.6264499481
 20
177.5625781743
 11
71.6264499481
 21
168.5810515859
  0
LINE
  5
222
100
AcDbEntity
  8
0
100
AcDbLine
 62
7
  6
BYLAYER
 10
72.2276498487
 20
182.5431949981
 11
72.2276498487
 21
179.6037862964
  0
LINE
  5
223
100
AcDbEntity
  8
0
100
AcDbLine
 62
7
  6
BYLAYER
 10
72.3182132916
 20
168.2459314163
 11
72.3182132916
 21
167.0211777906
  0
LINE
  5
224
100
AcDbEntity
  8
0
100
AcDbLine
 62
7
  6
BYLAYER
 10
72.6970152169
 20
166.837669707
 11
72.6970152169
 21
168.0624233327
  0
LINE
  5
225
100
AcDbEntity
  8
0
100
AcDbLine
 62
7
  6
BYLAYER
 10
73.5550596477
 20
167.6467493918
 11
73.5550596477
 21
166.510534643
  0
LINE
  5
226
100
AcDbEntity
  8
0
100
AcDbLine
 62
7
  6
BYLAYER
 10
74.5028998782
 20
183.4135892101
 11
74.5028998782
 21
182.1888669465
  0
LINE
  5
227
100
AcDbEntity
  8
0
100
AcDbLine
 62
7
  6
BYLAYER
 10
75.8558030697
 20
166.5321694808
 11
75.8558030697
 21
175.5136960693
  0
LINE
  5
228
100
AcDbEntity
  8
0
100
AcDbLine
 62
7
  6
BYLAYER
 10
76.1759306193
 20
183.6724085766
 11
76.1759306193
 21
182.0394037424
  0
LINE
  5
229
100
AcDbEntity
  8
0
100
AcDbLine
 62
7
  6
BYLAYER
 10
37.9714502907
 20
161.2255088961
 11
38.4724807209
 21
162.6599716314
  0
LINE
  5
22A
100
AcDbEntity
  8
0
100
AcDbLine
 62
7
  6
BYLAYER
 10
41.8701323442
 20
156.3536018399
 11
42.1433867837
 21
156.3017378676
  0
LINE
  5
22B
100
AcDbEntity
  8
0
100
AcDbLine
 62
7
  6
BYLAYER
 10
71.6264499481
 20
168.5810515859
 11
72.3182132916
 21
168.2459314163
  0
LINE
  5
22C
100
AcDbEntity
  8
0
100
AcDbLine
 62
7
  6
BYLAYER
 10
72.6970152169
 20
168.0624233327
 11
75.8558030697
 21
166.5321694808
  0
LINE
  5
22D
100
AcDbEntity
  8
0
100
AcDbLine
 62
7
  6
BYLAYER
 10
75.8558030697
 20
175.5136960693
 11
71.6264499481
 21
177.5625781743
  0
LINE
  5
22E
100
AcDbEntity
  8
0
100
AcDbLine
 62
7
  6
BYLAYER
 10
62.0097705412
 20
180.9917922037
 11
69.7879808887
 21
176.5011419578
  0
LINE
  5
22F
100
AcDbEntity
  8
0
100
AcDbLine
 62
7
  6
BYLAYER
 10
78.8850478455
 20
167.8195839173
 11
78.8850478455
 21
168.2810943279
  0
LINE
  5
230
100
AcDbEntity
  8
0
100
AcDbLine
 62
7
  6
BYLAYER
 10
79.2276498487
 20
182.5431949981
 11
79.2276498487
 21
179.6037862964
  0
LINE
  5
231
100
AcDbEntity
  8
0
100
AcDbLine
 62
7
  6
BYLAYER
 10
79.5921516827
 20
168.6893384818
 11
79.5921516827
 21
168.2278280711
  0
LINE
  5
232
100
AcDbEntity
  8
0
100
AcDbLine
 62
7
  6
BYLAYER
 10
84.0007994829
 20
171.2346572825
 11
84.0007994829
 21
180.2161838709
  0
LINE
  5
233
100
AcDbEntity
  8
0
100
AcDbLine
 62
7
  6
BYLAYER
 10
46.5846421232
 20
159.0632465323
 11
45.9551620792
 21
157.3327761489
  0
LINE
  5
234
100
AcDbEntity
  8
0
100
AcDbLine
 62
7
  6
BYLAYER
 10
74.0546191077
 20
182.447676115
 11
75.2793690781
 21
181.7405823865
  0
LINE
  5
235
100
AcDbEntity
  8
0
100
AcDbLine
 62
7
  6
BYLAYER
 10
76.3946657826
 20
181.9131197939
 11
76.1759306193
 21
182.0394037424
  0
LINE
  5
236
100
AcDbEntity
  8
0
100
AcDbLine
 62
7
  6
BYLAYER
 10
77.4006805898
 20
182.9653148481
 11
76.1759306193
 21
183.6724085766
  0
LINE
  5
237
100
AcDbEntity
  8
0
100
AcDbLine
 62
7
  6
BYLAYER
 10
84.0007994829
 20
180.2161838709
 11
79.0906390015
 21
183.0510022145
  0
LINE
  5
238
100
AcDbEntity
  8
0
100
AcDbLine
 62
7
  6
BYLAYER
 10
76.4404753799
 20
184.5810402807
 11
72.333489018
 21
186.9521563205
  0
LINE
  5
239
100
AcDbEntity
  8
0
100
AcDbLine
 62
7
  6
BYLAYER
 10
74.5028998782
 20
183.4135892101
 11
74.0546191077
 21
182.447676115
  0
LINE
  5
23A
100
AcDbEntity
  8
0
100
AcDbLine
 62
7
  6
BYLAYER
 10
76.9523998192
 20
181.999401753
 11
77.4006805898
 21
182.9653148481
  0
LINE
  5
23B
100
AcDbEntity
  8
0
100
AcDbLine
 62
7
  6
BYLAYER
 10
79.5921516827
 20
168.2278280711
 11
79.8847359774
 21
168.8582610947
  0
LINE
  5
23C
100
AcDbEntity
  8
0
100
AcDbLine
 62
7
  6
BYLAYER
 10
58.6765655601
 20
176.7956219701
 11
57.6419028405
 21
175.4930131563
  0
LINE
  5
23D
100
AcDbEntity
  8
0
100
AcDbLine
 62
7
  6
BYLAYER
 10
62.0097666226
 20
180.9917991261
 11
58.6765655601
 21
176.7956219701
  0
LINE
  5
23E
100
AcDbEntity
  8
0
100
AcDbLine
 62
7
  6
BYLAYER
 10
77.7930926437
 20
167.6506574614
 11
78.8850478455
 21
167.8195839173
  0
LINE
  5
23F
100
AcDbEntity
  8
0
100
AcDbLine
 62
7
  6
BYLAYER
 10
64.4879944036
 20
166.731257382
 11
62.842197264
 21
166.4864937686
  0
LINE
  5
240
100
AcDbEntity
  8
0
100
AcDbLine
 62
7
  6
BYLAYER
 10
69.7879882187
 20
167.5196104167
 11
64.4879944036
 21
166.731257382
  0
LWPOLYLINE
  5
241
100
AcDbEntity
  8
0
100
AcDbPolyline
 62
7
  6
BYLAYER
 90
4
 70
0
 10
58.6765655601
 20
176.7956219701
 10
58.2825439766
 20
176.31612007
 10
57.7764267292
 20
175.7420101377
 10
57.2585095044
 20
175.1933946127
  0
LWPOLYLINE
  5
242
100
AcDbEntity
  8
0
100
AcDbPolyline
 62
7
  6
BYLAYER
 90
4
 70
0
 10
62.3907298083
 20
166.3041035032
 10
63.1220564352
 20
166.4777225841
 10
63.869767411
 20
166.6286212889
 10
64.4879256422
 20
166.7311601934
  0
LINE
  5
243
100
AcDbEntity
  8
0
100
AcDbLine
 62
7
  6
BYLAYER
 10
75.2793690781
 20
181.7405823865
 11
76.9523998192
 21
181.999401753
  0
LINE
  5
244
100
AcDbEntity
  8
0
100
AcDbLine
 62
7
  6
BYLAYER
 10
75.0606339148
 20
181.866866335
 11
76.1759306193
 21
182.0394037424
  0
LINE
  5
245
100
AcDbEntity
  8
0
100
AcDbLine
 62
7
  6
BYLAYER
 10
76.1759306193
 20
183.6724085766
 11
74.5028998782
 21
183.4135892101
  0
LINE
  5
246
100
AcDbEntity
  8
0
100
AcDbLine
 62
7
  6
BYLAYER
 10
57.2583275251
 20
175.1936510334
 11
57.6420308542
 21
175.493083961
  0
LINE
  5
247
100
AcDbEntity
  8
0
100
AcDbLine
 62
7
  6
BYLAYER
 10
62.0097705412
 20
180.9917922037
 11
72.333489018
 21
186.9521563205
  0
LINE
  5
248
100
AcDbEntity
  8
0
100
AcDbLine
 62
7
  6
BYLAYER
 10
288.7390978629
 20
307.7944408179
 11
75.8832100809
 21
184.9027702726
  0
LINE
  5
249
100
AcDbEntity
  8
0
100
AcDbLine
 62
7
  6
BYLAYER
 10
39.1709617418
 20
163.558692714
 11
39.878065579
 21
163.9669368679
  0
LINE
  5
24A
100
AcDbEntity
  8
0
100
AcDbLine
 62
7
  6
BYLAYER
 10
41.1960016729
 20
164.0350237953
 11
45.1985014802
 21
166.3458543427
  0
LINE
  5
24B
100
AcDbEntity
  8
0
100
AcDbLine
 62
7
  6
BYLAYER
 10
46.2310685482
 20
166.422389192
 11
58.7170526505
 21
173.6311324441
  0
LINE
  5
24C
100
AcDbEntity
  8
0
100
AcDbLine
 62
7
  6
BYLAYER
 10
292.9676140193
 20
305.3531611058
 11
80.1117262372
 21
182.4614905606
  0
LINE
  5
24D
100
AcDbEntity
  8
0
100
AcDbLine
 62
7
  6
BYLAYER
 10
69.7879792033
 20
176.5011448771
 11
71.6264499481
 21
177.5625781743
  0
LINE
  5
24E
100
AcDbEntity
  8
0
100
AcDbLine
 62
7
  6
BYLAYER
 10
69.787983239
 20
176.5011510113
 11
62.8419353928
 21
172.4911432644
  0
LINE
  5
24F
100
AcDbEntity
  8
0
100
AcDbLine
 62
7
  6
BYLAYER
 10
49.279542065
 20
161.1387529186
 11
61.76703892
 21
168.3483695538
  0
LINE
  5
250
100
AcDbEntity
  8
0
100
AcDbLine
 62
7
  6
BYLAYER
 10
44.7156706159
 20
157.9842017705
 11
48.6984858111
 21
160.2836674697
  0
LINE
  5
251
100
AcDbEntity
  8
0
100
AcDbLine
 62
7
  6
BYLAYER
 10
75.8558030697
 20
175.5136960693
 11
84.0007994829
 21
180.2161838709
  0
LINE
  5
252
100
AcDbEntity
  8
0
100
AcDbLine
 62
7
  6
BYLAYER
 10
43.2709433866
 20
156.4572738056
 11
43.9780472238
 21
156.8655179595
  0
LINE
  5
253
100
AcDbEntity
  8
0
100
AcDbLine
 62
7
  6
BYLAYER
 10
292.9676140193
 20
300.4704766514
 11
84.0007994829
 21
179.8241501886
  0
LINE
  5
254
100
AcDbEntity
  8
0
100
AcDbLine
 62
7
  6
BYLAYER
 10
69.7879808887
 20
167.5196153694
 11
71.6264499481
 21
168.5810515859
  0
LINE
  5
255
100
AcDbEntity
  8
0
100
AcDbLine
 62
7
  6
BYLAYER
 10
74.6251531086
 20
167.1283497028
 11
73.5550596477
 21
166.510534643
  0
LINE
  5
256
100
AcDbEntity
  8
0
100
AcDbLine
 62
7
  6
BYLAYER
 10
75.8558030697
 20
166.5321694808
 11
84.0007994829
 21
171.2346572825
  0
LINE
  5
257
100
AcDbEntity
  8
0
100
AcDbLine
 62
7
  6
BYLAYER
 10
62.8420607164
 20
166.4864180369
 11
62.3908608923
 21
166.3038176775
  0
LINE
  5
258
100
AcDbEntity
  8
0
100
AcDbLine
 62
7
  6
BYLAYER
 10
292.9676140193
 20
300.4704766514
 11
292.9676140193
 21
305.3531611058
  0
LINE
  5
259
100
AcDbEntity
  8
0
100
AcDbLine
 62
7
  6
BYLAYER
 10
292.9676140193
 20
305.3531611058
 11
288.7390978629
 21
307.7944408179
  0
ARC
  5
25A
100
AcDbEntity
  8
0
100
AcDbCircle
 62
7
  6
BYLAYER
 10
75.6481358091
 20
171.9719228428
 40
5.0164804695
100
AcDbArc
 50
257.3051872158
 51
260.0528173768
  0
ARC
  5
25B
100
AcDbEntity
  8
0
100
AcDbCircle
 62
7
  6
BYLAYER
 10
41.2227474081
 20
160.0920122893
 40
3.4432176206
100
AcDbArc
 50
160.7802890614
 51
180.0398228097
  0
ARC
  5
25C
100
AcDbEntity
  8
0
100
AcDbCircle
 62
7
  6
BYLAYER
 10
76.538130263
 20
183.9972996577
 40
3.3289074123
100
AcDbArc
 50
299.4196930503
 51
299.9990046558
  0
ARC
  5
25D
100
AcDbEntity
  8
0
100
AcDbCircle
 62
7
  6
BYLAYER
 10
74.9973709924
 20
181.2766120314
 40
3.2066115209
100
AcDbArc
 50
119.4311333863
 51
119.9974691063
  0
ARC
  5
25E
100
AcDbEntity
  8
0
100
AcDbCircle
 62
7
  6
BYLAYER
 10
76.457928705
 20
184.1363789317
 40
3.2066115209
100
AcDbArc
 50
299.4311333863
 51
299.9974691063
  0
ARC
  5
25F
100
AcDbEntity
  8
0
100
AcDbCircle
 62
7
  6
BYLAYER
 10
77.9050140303
 20
179.6052791728
 40
1.3226366609
100
AcDbArc
 50
347.0022136959
 51
359.9353295334
  0
ARC
  5
260
100
AcDbEntity
  8
0
100
AcDbCircle
 62
7
  6
BYLAYER
 10
73.5336726185
 20
179.6040224556
 40
1.3060227911
100
AcDbArc
 50
180.0103604028
 51
186.5934550887
  0
ARC
  5
261
100
AcDbEntity
  8
0
100
AcDbCircle
 62
7
  6
BYLAYER
 10
78.0444614265
 20
179.6047226536
 40
1.1831887857
100
AcDbArc
 50
349.3095923921
 51
359.9546570107
  0
ARC
  5
262
100
AcDbEntity
  8
0
100
AcDbCircle
 62
7
  6
BYLAYER
 10
73.4020643684
 20
179.6041207898
 40
1.1744145603
100
AcDbArc
 50
180.0163188199
 51
187.4175066942
  0
SPLINE
  5
263
100
AcDbEntity
  8
0
100
AcDbSpline
 62
7
  6
BYLAYER
 70
0
 71
3
 72
11
 73
7
 74
0
 42
0.0000001
 43
0.0000001
 44
0.0000000001
 40
0.0
 40
0.0
 40
0.0
 40
0.0
 40
0.2722670412
 40
0.5314614792
 40
0.7746704547
 40
1.0
 40
1.0
 40
1.0
 40
1.0
 10
76.801891434
 20
167.0550583818
 30
0.0
 10
76.9541757091
 20
167.0858521094
 30
0.0
 10
77.2488906137
 20
167.159731188
 30
0.0
 10
77.6652906169
 20
167.3106373396
 30
0.0
 10
78.0379329694
 20
167.4960479187
 30
0.0
 10
78.2605517626
 20
167.6461004063
 30
0.0
 10
78.3610430651
 20
167.7263179419
 30
0.0
  0
SPLINE
  5
264
100
AcDbEntity
  8
0
100
AcDbSpline
 62
7
  6
BYLAYER
 70
0
 71
3
 72
13
 73
9
 74
0
 42
0.0000001
 43
0.0000001
 44
0.0000000001
 40
0.0
 40
0.0
 40
0.0
 40
0.0
 40
0.1129073962
 40
0.2270175395
 40
0.3437921003
 40
0.4643212355
 40
0.7200528549
 40
1.0
 40
1.0
 40
1.0
 40
1.0
 10
72.2276498487
 20
182.5431949981
 30
0.0
 10
72.2276498487
 20
182.6163194811
 30
0.0
 10
72.2401630091
 20
182.7636419805
 30
0.0
 10
72.2957917428
 20
182.9801989906
 30
0.0
 10
72.3866564381
 20
183.189846587
 30
0.0
 10
72.5553611667
 20
183.4620975848
 30
0.0
 10
72.8498628919
 20
183.7745735172
 30
0.0
 10
73.1371708189
 20
183.9729413392
 30
0.0
 10
73.2941882034
 20
184.0635948273
 30
0.0
  0
SPLINE
  5
265
100
AcDbEntity
  8
0
100
AcDbSpline
 62
7
  6
BYLAYER
 70
0
 71
3
 72
21
 73
17
 74
0
 42
0.0000001
 43
0.0000001
 44
0.0000000001
 40
0.0
 40
0.0
 40
0.0
 40
0.0
 40
0.0621762268
 40
0.1278643361
 40
0.1964818182
 40
0.2672695512
 40
0.4115526469
 40
0.5531225641
 40
0.620674272
 40
0.6850409696
 40
0.7457448071
 40
0.8025956833
 40
0.8557515938
 40
0.9057500476
 40
0.9534670698
 40
1.0
 40
1.0
 40
1.0
 40
1.0
 10
73.2941882034
 20
184.0635948273
 30
0.0
 10
73.4198151302
 20
184.1361251343
 30
0.0
 10
73.6881056561
 20
184.2684786003
 30
0.0
 10
74.1198423001
 20
184.4248176394
 30
0.0
 10
74.5844537011
 20
184.5424094502
 30
0.0
 10
75.2390423544
 20
184.6452840851
 30
0.0
 10
76.0750653517
 20
184.6664444373
 30
0.0
 10
76.8957889405
 20
184.5481630728
 30
0.0
 10
77.5088922052
 20
184.3680997686
 30
0.0
 10
77.9255142872
 20
184.1971917079
 30
0.0
 10
78.2977840825
 20
183.9910715893
 30
0.0
 10
78.6183931904
 20
183.7524329834
 30
0.0
 10
78.8804522331
 20
183.4840467411
 30
0.0
 10
79.076792226
 20
183.188989604
 30
0.0
 10
79.1995589336
 20
182.8725705316
 30
0.0
 10
79.2276498487
 20
182.6517594125
 30
0.0
 10
79.2276498487
 20
182.5431949981
 30
0.0
  0
SPLINE
  5
266
100
AcDbEntity
  8
0
100
AcDbSpline
 62
7
  6
BYLAYER
 70
0
 71
3
 72
27
 73
23
 74
0
 42
0.0000001
 43
0.0000001
 44
0.0000000001
 40
0.0
 40
0.0
 40
0.0
 40
0.0
 40
0.0668924575
 40
0.1389466001
 40
0.2146792756
 40
0.2922796444
 40
0.3697916185
 40
0.4452648063
 40
0.5169125246
 40
0.5832806195
 40
0.643449349
 40
0.6972885931
 40
0.7221433964
 40
0.745882571
 40
0.7688264848
 40
0.7913609554
 40
0.8139083086
 40
0.8368892768
 40
0.8606866611
 40
0.8856172887
 40
0.9396361921
 40
1.0
 40
1.0
 40
1.0
 40
1.0
 10
73.4217155822
 20
184.0694005078
 30
0.0
 10
73.5825781518
 20
184.1601659115
 30
0.0
 10
73.9334374647
 20
184.3197711231
 30
0.0
 10
74.5032282729
 20
184.4886151545
 30
0.0
 10
75.1185620133
 20
184.5911826206
 30
0.0
 10
75.7564767747
 20
184.6236348982
 30
0.0
 10
76.3933349609
 20
184.5847896792
 30
0.0
 10
77.0054696933
 20
184.4760751266
 30
0.0
 10
77.5702680511
 20
184.3014996034
 30
0.0
 10
78.0671734771
 20
184.0671412993
 30
0.0
 10
78.4781206738
 20
183.7810888902
 30
0.0
 10
78.7434335973
 20
183.4987258815
 30
0.0
 10
78.8923045181
 20
183.2572288079
 30
0.0
 10
78.9707178225
 20
183.0750858316
 30
0.0
 10
79.0178222971
 20
182.8889806418
 30
0.0
 10
79.0329713813
 20
182.7008511864
 30
0.0
 10
79.0158952808
 20
182.5127860297
 30
0.0
 10
78.9668960293
 20
182.3268663219
 30
0.0
 10
78.8866391031
 20
182.1450194319
 30
0.0
 10
78.7352999449
 20
181.904037622
 30
0.0
 10
78.4672911545
 20
181.6226863584
 30
0.0
 10
78.2054576257
 20
181.4426386811
 30
0.0
 10
78.0611117967
 20
181.3593010753
 30
0.0
  0
SPLINE
  5
267
100
AcDbEntity
  8
0
100
AcDbSpline
 62
7
  6
BYLAYER
 70
0
 71
3
 72
27
 73
23
 74
0
 42
0.0000001
 43
0.0000001
 44
0.0000000001
 40
0.0
 40
0.0
 40
0.0
 40
0.0
 40
0.0668924575
 40
0.1389466001
 40
0.2146792756
 40
0.2922796444
 40
0.3697916185
 40
0.4452648063
 40
0.5169125246
 40
0.5832806195
 40
0.643449349
 40
0.6972885931
 40
0.7221433964
 40
0.745882571
 40
0.7688264848
 40
0.7913609554
 40
0.8139083086
 40
0.8368892768
 40
0.8606866611
 40
0.8856172887
 40
0.9396361921
 40
1.0
 40
1.0
 40
1.0
 40
1.0
 10
78.0335841152
 20
181.3435904552
 30
0.0
 10
77.8727215457
 20
181.2528250516
 30
0.0
 10
77.5218622328
 20
181.09321984
 30
0.0
 10
76.9520714245
 20
180.9243758086
 30
0.0
 10
76.3367376842
 20
180.8218083425
 30
0.0
 10
75.6988229227
 20
180.7893560649
 30
0.0
 10
75.0619647365
 20
180.8282012839
 30
0.0
 10
74.4498300041
 20
180.9369158364
 30
0.0
 10
73.8850316463
 20
181.1114913597
 30
0.0
 10
73.3881262203
 20
181.3458496638
 30
0.0
 10
72.9771790236
 20
181.6319020729
 30
0.0
 10
72.7118661001
 20
181.9142650816
 30
0.0
 10
72.5629951793
 20
182.1557621552
 30
0.0
 10
72.484581875
 20
182.3379051315
 30
0.0
 10
72.4374774003
 20
182.5240103213
 30
0.0
 10
72.4223283161
 20
182.7121397767
 30
0.0
 10
72.4394044167
 20
182.9002049334
 30
0.0
 10
72.4884036682
 20
183.0861246412
 30
0.0
 10
72.5686605944
 20
183.2679715311
 30
0.0
 10
72.7199997525
 20
183.5089533411
 30
0.0
 10
72.9880085429
 20
183.7903046046
 30
0.0
 10
73.2498420718
 20
183.970352282
 30
0.0
 10
73.3941879007
 20
184.0536898878
 30
0.0
  0
SPLINE
  5
268
100
AcDbEntity
  8
0
100
AcDbSpline
 62
7
  6
BYLAYER
 70
0
 71
3
 72
21
 73
17
 74
0
 42
0.0000001
 43
0.0000001
 44
0.0000000001
 40
0.0
 40
0.0
 40
0.0
 40
0.0
 40
0.0627245751
 40
0.1293438866
 40
0.1991436032
 40
0.2712569077
 40
0.4183113636
 40
0.5623657938
 40
0.6308642392
 40
0.6958440908
 40
0.7566882456
 40
0.8130380283
 40
0.8648757902
 40
0.9126167748
 40
0.9571839022
 40
1.0
 40
1.0
 40
1.0
 40
1.0
 10
78.1733001308
 20
181.0976713948
 30
0.0
 10
78.0467986156
 20
181.026331704
 30
0.0
 10
77.7762746118
 20
180.8959620623
 30
0.0
 10
77.3409017726
 20
180.7418743361
 30
0.0
 10
76.8714482082
 20
180.6258512944
 30
0.0
 10
76.2093260497
 20
180.5246413455
 30
0.0
 10
75.3644011414
 20
180.5052405592
 30
0.0
 10
74.5357311143
 20
180.6247636066
 30
0.0
 10
73.9180268724
 20
180.8051650365
 30
0.0
 10
73.5004649853
 20
180.9751169338
 30
0.0
 10
73.1296880215
 20
181.1784244477
 30
0.0
 10
72.8133664038
 20
181.4111619217
 30
0.0
 10
72.5581797875
 20
181.6689866061
 30
0.0
 10
72.3699648359
 20
181.9473824237
 30
0.0
 10
72.2540101098
 20
182.2408807676
 30
0.0
 10
72.227650683
 20
182.4440597537
 30
0.0
 10
72.2276498685
 20
182.5431949981
 30
0.0
  0
SPLINE
  5
269
100
AcDbEntity
  8
0
100
AcDbSpline
 62
7
  6
BYLAYER
 70
0
 71
3
 72
13
 73
9
 74
0
 42
0.0000001
 43
0.0000001
 44
0.0000000001
 40
0.0
 40
0.0
 40
0.0
 40
0.0
 40
0.1080958434
 40
0.2182285502
 40
0.3322537662
 40
0.4517073657
 40
0.7105881474
 40
1.0
 40
1.0
 40
1.0
 40
1.0
 10
79.2276498289
 20
182.5431949981
 30
0.0
 10
79.2276503733
 20
182.4769356362
 30
0.0
 10
79.2161332453
 20
182.3428998544
 30
0.0
 10
79.1647825454
 20
182.1449247796
 30
0.0
 10
79.0800063228
 20
181.9512016951
 30
0.0
 10
78.9195976543
 20
181.6944742787
 30
0.0
 10
78.6347542891
 20
181.3947277032
 30
0.0
 10
78.3561673596
 20
181.2030521547
 30
0.0
 10
78.2025338867
 20
181.1143523573
 30
0.0
  0
SPLINE
  5
26A
100
AcDbEntity
  8
0
100
AcDbSpline
 62
7
  6
BYLAYER
 70
0
 71
3
 72
9
 73
5
 74
0
 42
0.0000001
 43
0.0000001
 44
0.0000000001
 40
0.0
 40
0.0
 40
0.0
 40
0.0
 40
0.4875579015
 40
1.0
 40
1.0
 40
1.0
 40
1.0
 10
71.9276625866
 20
180.2569882101
 30
0.0
 10
71.9276625199
 20
180.1358495815
 30
0.0
 10
71.9642499187
 20
179.8862272502
 30
0.0
 10
72.0671414152
 20
179.6567643184
 30
0.0
 10
72.1320235371
 20
179.5472150697
 30
0.0
  0
SPLINE
  5
26B
100
AcDbEntity
  8
0
100
AcDbSpline
 62
7
  6
BYLAYER
 70
0
 71
3
 72
16
 73
12
 74
0
 42
0.0000001
 43
0.0000001
 44
0.0000000001
 40
0.0
 40
0.0
 40
0.0
 40
0.0
 40
0.0956421532
 40
0.1490610874
 40
0.2062156855
 40
0.330593991
 40
0.465431687
 40
0.605560831
 40
0.7450891268
 40
0.8782054435
 40
1.0
 40
1.0
 40
1.0
 40
1.0
 10
72.1320235371
 20
179.5472150697
 30
0.0
 10
72.2429586966
 20
179.3599082583
 30
0.0
 10
72.4730916615
 20
179.1006860406
 30
0.0
 10
72.8474190483
 20
178.8170011855
 30
0.0
 10
73.3096501983
 20
178.5455250609
 30
0.0
 10
73.9846245116
 20
178.2817629634
 30
0.0
 10
74.877763293
 20
178.0951506487
 30
0.0
 10
75.8229886114
 20
178.0408362955
 30
0.0
 10
76.7624358061
 20
178.1222126921
 30
0.0
 10
77.6383916005
 20
178.3340657198
 30
0.0
 10
78.1745872176
 20
178.5670641764
 30
0.0
 10
78.4146668043
 20
178.705673363
 30
0.0
  0
SPLINE
  5
26C
100
AcDbEntity
  8
0
100
AcDbSpline
 62
7
  6
BYLAYER
 70
0
 71
3
 72
9
 73
5
 74
0
 42
0.0000001
 43
0.0000001
 44
0.0000000001
 40
0.0
 40
0.0
 40
0.0
 40
0.0
 40
0.2416664161
 40
1.0
 40
1.0
 40
1.0
 40
1.0
 10
72.6970152169
 20
166.837669707
 30
0.0
 10
72.7636319897
 20
166.8053976527
 30
0.0
 10
73.0423592306
 20
166.6782360671
 30
0.0
 10
73.3321321677
 20
166.5757713273
 30
0.0
 10
73.5550596477
 20
166.510534643
 30
0.0
  0
SPLINE
  5
26D
100
AcDbEntity
  8
0
100
AcDbSpline
 62
7
  6
BYLAYER
 70
0
 71
3
 72
9
 73
5
 74
0
 42
0.0000001
 43
0.0000001
 44
0.0000000001
 40
0.0
 40
0.0
 40
0.0
 40
0.0
 40
0.5226159594
 40
1.0
 40
1.0
 40
1.0
 40
1.0
 10
78.8850478455
 20
167.8195839173
 30
0.0
 10
78.966736749
 20
167.8322212644
 30
0.0
 10
79.1215023686
 20
167.8682734361
 30
0.0
 10
79.2679439208
 20
167.9312590585
 30
0.0
 10
79.333334504
 20
167.9690121039
 30
0.0
  0
SPLINE
  5
26E
100
AcDbEntity
  8
0
100
AcDbSpline
 62
7
  6
BYLAYER
 70
0
 71
3
 72
9
 73
5
 74
0
 42
0.0000001
 43
0.0000001
 44
0.0000000001
 40
0.0
 40
0.0
 40
0.0
 40
0.0
 40
0.2798206107
 40
1.0
 40
1.0
 40
1.0
 40
1.0
 10
79.333334504
 20
167.9690121039
 30
0.0
 10
79.3631383511
 20
167.9862192604
 30
0.0
 10
79.4658974295
 20
168.0530586363
 30
0.0
 10
79.5548647733
 20
168.1474857579
 30
0.0
 10
79.5921516827
 20
168.2278280711
 30
0.0
  0
SPLINE
  5
26F
100
AcDbEntity
  8
0
100
AcDbSpline
 62
7
  6
BYLAYER
 70
0
 71
3
 72
9
 73
5
 74
0
 42
0.0000001
 43
0.0000001
 44
0.0000000001
 40
0.0
 40
0.0
 40
0.0
 40
0.0
 40
0.2761523841
 40
1.0
 40
1.0
 40
1.0
 40
1.0
 10
78.4146668043
 20
178.705673363
 30
0.0
 10
78.5157629736
 20
178.7640409151
 30
0.0
 10
78.8705349918
 20
178.9922548281
 30
0.0
 10
79.1826685958
 20
179.3018220756
 30
0.0
 10
79.3349425274
 20
179.5672277551
 30
0.0
  0
SPLINE
  5
270
100
AcDbEntity
  8
0
100
AcDbSpline
 62
7
  6
BYLAYER
 70
0
 71
3
 72
9
 73
5
 74
0
 42
0.0000001
 43
0.0000001
 44
0.0000000001
 40
0.0
 40
0.0
 40
0.0
 40
0.0
 40
0.511785845
 40
1.0
 40
1.0
 40
1.0
 40
1.0
 10
79.3349425274
 20
179.5672277551
 30
0.0
 10
79.3962715551
 20
179.6741211158
 30
0.0
 10
79.4932835607
 20
179.8975569613
 30
0.0
 10
79.5276370461
 20
180.1394269482
 30
0.0
 10
79.5276371108
 20
180.2569882502
 30
0.0
  0
SPLINE
  5
271
100
AcDbEntity
  8
0
100
AcDbSpline
 62
7
  6
BYLAYER
 70
0
 71
3
 72
11
 73
7
 74
0
 42
0.0000001
 43
0.0000001
 44
0.0000000001
 40
0.0
 40
0.0
 40
0.0
 40
0.0
 40
0.2904718355
 40
0.5530552202
 40
0.7878575992
 40
1.0
 40
1.0
 40
1.0
 40
1.0
 10
56.61112486
 20
172.4161985084
 30
0.0
 10
56.5749473879
 20
172.6985685339
 30
0.0
 10
56.5431875191
 20
173.2422492465
 30
0.0
 10
56.6324443314
 20
174.0139619608
 30
0.0
 10
56.8599042084
 20
174.6777762711
 30
0.0
 10
57.1131974792
 20
175.0447740935
 30
0.0
 10
57.2583280702
 20
175.1936502653
 30
0.0
  0
SPLINE
  5
272
100
AcDbEntity
  8
0
100
AcDbSpline
 62
7
  6
BYLAYER
 70
0
 71
3
 72
11
 73
7
 74
0
 42
0.0000001
 43
0.0000001
 44
0.0000000001
 40
0.0
 40
0.0
 40
0.0
 40
0.0
 40
0.2898046933
 40
0.5490463016
 40
0.7822292876
 40
1.0
 40
1.0
 40
1.0
 40
1.0
 10
60.2420457853
 20
173.4800833712
 30
0.0
 10
60.1081659281
 20
173.5573771942
 30
0.0
 10
59.8419777764
 20
173.6841049854
 30
0.0
 10
59.4327356153
 20
173.7827822035
 30
0.0
 10
59.0488289218
 20
173.7731674106
 30
0.0
 10
58.8176537598
 20
173.6892166922
 30
0.0
 10
58.7170569646
 20
173.631124965
 30
0.0
  0
SPLINE
  5
273
100
AcDbEntity
  8
0
100
AcDbSpline
 62
7
  6
BYLAYER
 70
0
 71
3
 72
18
 73
14
 74
0
 42
0.0000001
 43
0.0000001
 44
0.0000000001
 40
0.0
 40
0.0
 40
0.0
 40
0.0
 40
0.0428493903
 40
0.0874680678
 40
0.1352903116
 40
0.1872417103
 40
0.2437335845
 40
0.3047399231
 40
0.4383751022
 40
0.5826823753
 40
0.7297970112
 40
0.8713486471
 40
1.0
 40
1.0
 40
1.0
 40
1.0
 10
61.7670346059
 20
168.3483770329
 30
0.0
 10
61.8422265943
 20
168.3917982221
 30
0.0
 10
61.9847813177
 20
168.5008839053
 30
0.0
 10
62.1563130035
 20
168.7178047054
 30
0.0
 10
62.2844885127
 20
168.9830801386
 30
0.0
 10
62.3674786731
 20
169.2902329642
 30
0.0
 10
62.40445206
 20
169.6328095898
 30
0.0
 10
62.3913704592
 20
170.1427338277
 30
0.0
 10
62.2529766359
 20
170.8210858869
 30
0.0
 10
61.9287427535
 20
171.6232882568
 30
0.0
 10
61.46699782
 20
172.3743783281
 30
0.0
 10
60.9060650606
 20
173.01248819
 30
0.0
 10
60.467815889
 20
173.3497378898
 30
0.0
 10
60.2420457853
 20
173.4800833712
 30
0.0
  0
SPLINE
  5
274
100
AcDbEntity
  8
0
100
AcDbSpline
 62
7
  6
BYLAYER
 70
0
 71
3
 72
11
 73
7
 74
0
 42
0.0000001
 43
0.0000001
 44
0.0000000001
 40
0.0
 40
0.0
 40
0.0
 40
0.0
 40
0.2121422344
 40
0.4469446294
 40
0.7095279808
 40
1.0
 40
1.0
 40
1.0
 40
1.0
 10
62.3908604009
 20
166.3038187489
 30
0.0
 10
62.1893634059
 20
166.252573369
 30
0.0
 10
61.7448879994
 20
166.2167060743
 30
0.0
 10
61.0562760808
 20
166.3516318949
 30
0.0
 10
60.3433239097
 20
166.6601906733
 30
0.0
 10
59.888362439
 20
166.9595386568
 30
0.0
 10
59.661911551
 20
167.1320556129
 30
0.0
  0
SPLINE
  5
275
100
AcDbEntity
  8
0
100
AcDbSpline
 62
7
  6
BYLAYER
 70
0
 71
3
 72
16
 73
12
 74
0
 42
0.0000001
 43
0.0000001
 44
0.0000000001
 40
0.0
 40
0.0
 40
0.0
 40
0.0
 40
0.0450824384
 40
0.0910358793
 40
0.1881679348
 40
0.2961628616
 40
0.4168823791
 40
0.5500125649
 40
0.6936605739
 40
0.8448560906
 40
1.0
 40
1.0
 40
1.0
 40
1.0
 10
57.6420308542
 20
175.493083961
 30
0.0
 10
57.7272741211
 20
175.5422892402
 30
0.0
 10
57.9083241096
 20
175.627018
 30
0.0
 10
58.3058084654
 20
175.737140971
 30
0.0
 10
58.8625708665
 20
175.7518768039
 30
0.0
 10
59.5599665709
 20
175.5832439625
 30
0.0
 10
60.2774722615
 20
175.2419282351
 30
0.0
 10
60.9907764993
 20
174.7418140814
 30
0.0
 10
61.6750949586
 20
174.1016459887
 30
0.0
 10
62.3054513648
 20
173.3452362227
 30
0.0
 10
62.6726843383
 20
172.7842385122
 30
0.0
 10
62.8420607164
 20
172.4909132384
 30
0.0
  0
SPLINE
  5
276
100
AcDbEntity
  8
0
100
AcDbSpline
 62
7
  6
BYLAYER
 70
0
 71
3
 72
16
 73
12
 74
0
 42
0.0000001
 43
0.0000001
 44
0.0000000001
 40
0.0
 40
0.0
 40
0.0
 40
0.0
 40
0.1551432045
 40
0.3063383366
 40
0.4499863435
 40
0.5831167927
 40
0.7038367604
 40
0.8118320894
 40
0.9089645338
 40
0.9549176779
 40
1.0
 40
1.0
 40
1.0
 40
1.0
 10
62.8420607164
 20
172.4909132384
 30
0.0
 10
63.0114095202
 20
172.1975715813
 30
0.0
 10
63.3136211317
 20
171.5990320817
 30
0.0
 10
63.6535261733
 20
170.6749249999
 30
0.0
 10
63.865773547
 20
169.7621991334
 30
0.0
 10
63.9422409304
 20
168.8943971528
 30
0.0
 10
63.8790854105
 20
168.1023528185
 30
0.0
 10
63.6764332193
 20
167.4140669549
 30
0.0
 10
63.3853055653
 20
166.9392492141
 30
0.0
 10
63.0911900986
 20
166.650078588
 30
0.0
 10
62.9272902712
 20
166.5356476826
 30
0.0
 10
62.8420607164
 20
166.4864180369
 30
0.0
  0
SPLINE
  5
277
100
AcDbEntity
  8
0
100
AcDbSpline
 62
7
  6
BYLAYER
 70
0
 71
3
 72
10
 73
6
 74
0
 42
0.0000001
 43
0.0000001
 44
0.0000000001
 40
0.0
 40
0.0
 40
0.0
 40
0.0
 40
0.5152879869
 40
0.7597637743
 40
1.0
 40
1.0
 40
1.0
 40
1.0
 10
72.1984317772
 20
181.0703086005
 30
0.0
 10
72.1135846457
 20
180.9475719245
 30
0.0
 10
72.0098769191
 20
180.7490193797
 30
0.0
 10
71.9393385733
 20
180.4672029147
 30
0.0
 10
71.9276626249
 20
180.3265520448
 30
0.0
 10
71.9276625866
 20
180.2569882101
 30
0.0
  0
SPLINE
  5
278
100
AcDbEntity
  8
0
100
AcDbSpline
 62
7
  6
BYLAYER
 70
0
 71
3
 72
9
 73
5
 74
0
 42
0.0000001
 43
0.0000001
 44
0.0000000001
 40
0.0
 40
0.0
 40
0.0
 40
0.0
 40
0.4847905203
 40
1.0
 40
1.0
 40
1.0
 40
1.0
 10
79.5276371108
 20
180.2569882502
 30
0.0
 10
79.5276371855
 20
180.3924743785
 30
0.0
 10
79.4813087041
 20
180.6735155387
 30
0.0
 10
79.3532259008
 20
180.9264254659
 30
0.0
 10
79.2732690414
 20
181.0461721927
 30
0.0
  0
SPLINE
  5
279
100
AcDbEntity
  8
0
100
AcDbSpline
 62
7
  6
BYLAYER
 70
0
 71
3
 72
9
 73
5
 74
0
 42
0.0000001
 43
0.0000001
 44
0.0000000001
 40
0.0
 40
0.0
 40
0.0
 40
0.0
 40
0.5001422739
 40
1.0
 40
1.0
 40
1.0
 40
1.0
 10
38.3438645886
 20
158.1669691001
 30
0.0
 10
38.1628220485
 20
158.4517022613
 30
0.0
 10
37.8785175964
 20
159.0743876877
 30
0.0
 10
37.7795354058
 20
159.7523582883
 30
0.0
 10
37.7795306195
 20
160.0895820505
 30
0.0
  0
SPLINE
  5
27A
100
AcDbEntity
  8
0
100
AcDbSpline
 62
7
  6
BYLAYER
 70
0
 71
3
 72
18
 73
14
 74
0
 42
0.0000001
 43
0.0000001
 44
0.0000000001
 40
0.0
 40
0.0
 40
0.0
 40
0.0
 40
0.12865275
 40
0.270203121
 40
0.4173185904
 40
0.561628695
 40
0.6952633863
 40
0.7562697523
 40
0.8127619328
 40
0.86471223
 40
0.9125328579
 40
0.9571508269
 40
1.0
 40
1.0
 40
1.0
 40
1.0
 10
49.4233776837
 20
161.8859182653
 30
0.0
 10
49.4233776837
 20
162.1850778434
 30
0.0
 10
49.3396686429
 20
162.8141076188
 30
0.0
 10
49.0273672825
 20
163.7376883755
 30
0.0
 10
48.5458536527
 20
164.6275102883
 30
0.0
 10
47.9346839817
 20
165.4100336658
 30
0.0
 10
47.33992029
 20
165.9367605198
 30
0.0
 10
46.8406740316
 20
166.2423451231
 30
0.0
 10
46.479015916
 20
166.4021712519
 30
0.0
 10
46.1261546267
 20
166.4959166522
 30
0.0
 10
45.7889892528
 20
166.5207285685
 30
0.0
 10
45.4750080306
 20
166.4747171164
 30
0.0
 10
45.2847934594
 20
166.3956688377
 30
0.0
 10
45.1985035148
 20
166.3458508177
 30
0.0
  0
SPLINE
  5
27B
100
AcDbEntity
  8
0
100
AcDbSpline
 62
7
  6
BYLAYER
 70
0
 71
3
 72
10
 73
6
 74
0
 42
0.0000001
 43
0.0000001
 44
0.0000000001
 40
0.0
 40
0.0
 40
0.0
 40
0.0
 40
0.5214358937
 40
0.7637697434
 40
1.0
 40
1.0
 40
1.0
 40
1.0
 10
38.4724808801
 20
162.6599714778
 30
0.0
 10
38.538934221
 20
162.8502412629
 30
0.0
 10
38.6759408425
 20
163.1197416369
 30
0.0
 10
38.9406342089
 20
163.4039823878
 30
0.0
 10
39.0918952658
 20
163.5130287267
 30
0.0
 10
39.1709671435
 20
163.5586833582
 30
0.0
  0
SPLINE
  5
27C
100
AcDbEntity
  8
0
100
AcDbSpline
 62
7
  6
BYLAYER
 70
0
 71
3
 72
18
 73
14
 74
0
 42
0.0000001
 43
0.0000001
 44
0.0000000001
 40
0.0
 40
0.0
 40
0.0
 40
0.0
 40
0.0428491026
 40
0.0874664174
 40
0.1352878234
 40
0.1872391164
 40
0.2437316665
 40
0.3047384823
 40
0.4383729065
 40
0.5826803159
 40
0.7297957465
 40
0.8713493152
 40
1.0
 40
1.0
 40
1.0
 40
1.0
 10
43.9780408104
 20
156.8655291292
 30
0.0
 10
44.0791285356
 20
156.9238797824
 30
0.0
 10
44.2707362605
 20
157.0705495618
 30
0.0
 10
44.5013235707
 20
157.3621278559
 30
0.0
 10
44.6736381735
 20
157.7187167799
 30
0.0
 10
44.7852047944
 20
158.1316086606
 30
0.0
 10
44.8349005982
 20
158.592125693
 30
0.0
 10
44.8173042295
 20
159.277597843
 30
0.0
 10
44.6312842684
 20
160.1894827927
 30
0.0
 10
44.1954315219
 20
161.2678570127
 30
0.0
 10
43.5747145312
 20
162.277521089
 30
0.0
 10
42.8206750503
 20
163.1353168507
 30
0.0
 10
42.2315490922
 20
163.5886697011
 30
0.0
 10
41.9280564014
 20
163.7638873239
 30
0.0
  0
SPLINE
  5
27D
100
AcDbEntity
  8
0
100
AcDbSpline
 62
7
  6
BYLAYER
 70
0
 71
3
 72
10
 73
6
 74
0
 42
0.0000001
 43
0.0000001
 44
0.0000000001
 40
0.0
 40
0.0
 40
0.0
 40
0.0
 40
0.2362196859
 40
0.4785192199
 40
1.0
 40
1.0
 40
1.0
 40
1.0
 10
43.2709380339
 20
156.4572830775
 30
0.0
 10
43.1918642331
 20
156.4116396762
 30
0.0
 10
43.021816144
 20
156.3351709332
 30
0.0
 10
42.6433118336
 20
156.2480344075
 30
0.0
 10
42.3414123127
 20
156.2641711679
 30
0.0
 10
42.1433862316
 20
156.3017400854
 30
0.0
  0
SPLINE
  5
27E
100
AcDbEntity
  8
0
100
AcDbSpline
 62
7
  6
BYLAYER
 70
0
 71
3
 72
12
 73
8
 74
0
 42
0.0000001
 43
0.0000001
 44
0.0000000001
 40
0.0
 40
0.0
 40
0.0
 40
0.0
 40
0.2895882529
 40
0.5486301482
 40
0.7816366793
 40
0.8918377586
 40
1.0
 40
1.0
 40
1.0
 40
1.0
 10
41.9280564014
 20
163.7638873239
 30
0.0
 10
41.7480849936
 20
163.8677915141
 30
0.0
 10
41.3901641648
 20
164.0380835715
 30
0.0
 10
40.8404114709
 20
164.1709818403
 30
0.0
 10
40.4014384748
 20
164.1593265972
 30
0.0
 10
40.0880232225
 20
164.0725688461
 30
0.0
 10
39.9452913779
 20
164.005735341
 30
0.0
 10
39.8780727444
 20
163.9669244589
 30
0.0
  0
SPLINE
  5
27F
100
AcDbEntity
  8
0
100
AcDbSpline
 62
7
  6
BYLAYER
 70
0
 71
3
 72
11
 73
7
 74
0
 42
0.0000001
 43
0.0000001
 44
0.0000000001
 40
0.0
 40
0.0
 40
0.0
 40
0.0
 40
0.2602177195
 40
0.5216452658
 40
0.7718101664
 40
1.0
 40
1.0
 40
1.0
 40
1.0
 10
45.9551620792
 20
157.3327761489
 30
0.0
 10
45.8393846928
 20
157.0144986433
 30
0.0
 10
45.5536899226
 20
156.3949188759
 30
0.0
 10
44.9965489063
 20
155.5543593161
 30
0.0
 10
44.3416455129
 20
154.8429836925
 30
0.0
 10
43.8398931166
 20
154.4654568787
 30
0.0
 10
43.5826866816
 20
154.3169595606
 30
0.0
  0
SPLINE
  5
280
100
AcDbEntity
  8
0
100
AcDbSpline
 62
7
  6
BYLAYER
 70
0
 71
3
 72
12
 73
8
 74
0
 42
0.0000001
 43
0.0000001
 44
0.0000000001
 40
0.0
 40
0.0
 40
0.0
 40
0.0
 40
0.2895899832
 40
0.5486282257
 40
0.7816332787
 40
0.8918356471
 40
1.0
 40
1.0
 40
1.0
 40
1.0
 10
43.5826866816
 20
154.3169595606
 30
0.0
 10
43.4158856581
 20
154.2206575196
 30
0.0
 10
43.0841602478
 20
154.0628254183
 30
0.0
 10
42.5746424447
 20
153.9396547164
 30
0.0
 10
42.167796947
 20
153.9504453926
 30
0.0
 10
41.8773158373
 20
154.0308542944
 30
0.0
 10
41.7450288229
 20
154.0927983174
 30
0.0
 10
41.682723976
 20
154.1287623675
 30
0.0
  0
SPLINE
  5
281
100
AcDbEntity
  8
0
100
AcDbSpline
 62
7
  6
BYLAYER
 70
0
 71
3
 72
11
 73
7
 74
0
 42
0.0000001
 43
0.0000001
 44
0.0000000001
 40
0.0
 40
0.0
 40
0.0
 40
0.0
 40
0.2177673593
 40
0.4509458816
 40
0.7101989317
 40
1.0
 40
1.0
 40
1.0
 40
1.0
 10
48.6984837765
 20
160.2836709946
 30
0.0
 10
48.8139310536
 20
160.3503225005
 30
0.0
 10
49.0300080053
 20
160.5318890069
 30
0.0
 10
49.2598507612
 20
160.9079111124
 30
0.0
 10
49.3965856826
 20
161.3712531689
 30
0.0
 10
49.4233776837
 20
161.708516889
 30
0.0
 10
49.4233776837
 20
161.8859182653
 30
0.0
  0
SPLINE
  5
282
100
AcDbEntity
  8
0
100
AcDbSpline
 62
7
  6
BYLAYER
 70
0
 71
3
 72
9
 73
5
 74
0
 42
0.0000001
 43
0.0000001
 44
0.0000000001
 40
0.0
 40
0.0
 40
0.0
 40
0.0
 40
0.5157732877
 40
1.0
 40
1.0
 40
1.0
 40
1.0
 10
39.3649191125
 20
155.7722426445
 30
0.0
 10
39.4287464278
 20
155.6395895281
 30
0.0
 10
39.584949628
 20
155.395675601
 30
0.0
 10
39.8093955084
 20
155.2102914231
 30
0.0
 10
39.9290918577
 20
155.1411994388
 30
0.0
  0
SPLINE
  5
283
100
AcDbEntity
  8
0
100
AcDbSpline
 62
7
  6
BYLAYER
 70
0
 71
3
 72
11
 73
7
 74
0
 42
0.0000001
 43
0.0000001
 44
0.0000000001
 40
0.0
 40
0.0
 40
0.0
 40
0.0
 40
0.2617250709
 40
0.5105743989
 40
0.7538429803
 40
1.0
 40
1.0
 40
1.0
 40
1.0
 10
40.1037285217
 20
157.1601146726
 30
0.0
 10
40.1437369215
 20
157.083423355
 30
0.0
 10
40.235384239
 20
156.9402557025
 30
0.0
 10
40.4116198838
 20
156.7613529307
 30
0.0
 10
40.6199544518
 20
156.6301591438
 30
0.0
 10
40.7747582521
 20
156.577832462
 30
0.0
 10
40.8541828778
 20
156.560216858
 30
0.0
  0
SPLINE
  5
284
100
AcDbEntity
  8
0
100
AcDbSpline
 62
7
  6
BYLAYER
 70
0
 71
3
 72
9
 73
5
 74
0
 42
0.0000001
 43
0.0000001
 44
0.0000000001
 40
0.0
 40
0.0
 40
0.0
 40
0.0
 40
0.2493553589
 40
1.0
 40
1.0
 40
1.0
 40
1.0
 10
40.8541828778
 20
156.560216858
 30
0.0
 10
40.9383135573
 20
156.5415584291
 30
0.0
 10
41.2761483933
 20
156.4687230482
 30
0.0
 10
41.6152666759
 20
156.4019762118
 30
0.0
 10
41.8701321224
 20
156.3536013318
 30
0.0
  0
SPLINE
  5
285
100
AcDbEntity
  8
0
100
AcDbSpline
 62
7
  6
BYLAYER
 70
0
 71
3
 72
18
 73
14
 74
0
 42
0.0000001
 43
0.0000001
 44
0.0000000001
 40
0.0
 40
0.0
 40
0.0
 40
0.0
 40
0.1286486047
 40
0.2702008221
 40
0.4173171587
 40
0.5616253593
 40
0.6952608056
 40
0.7562678677
 40
0.8127603701
 40
0.8647114655
 40
0.9125327695
 40
0.9571505018
 40
1.0
 40
1.0
 40
1.0
 40
1.0
 10
41.2209525642
 20
163.35564317
 30
0.0
 10
41.5244405359
 20
163.1804282718
 30
0.0
 10
42.113560586
 20
162.7270828102
 30
0.0
 10
42.8675989119
 20
161.8692943422
 30
0.0
 10
43.4883215394
 20
160.8596316975
 30
0.0
 10
43.9241803468
 20
159.7812510084
 30
0.0
 10
44.1102032169
 20
158.869360225
 30
0.0
 10
44.1278005724
 20
158.1838843443
 30
0.0
 10
44.0781050951
 20
157.7233669399
 30
0.0
 10
43.966538902
 20
157.3104757795
 30
0.0
 10
43.79422539
 20
156.9538855208
 30
0.0
 10
43.5636354976
 20
156.6623066044
 30
0.0
 10
43.3720268663
 20
156.5156341127
 30
0.0
 10
43.2709380339
 20
156.4572830775
 30
0.0
  0
SPLINE
  5
286
100
AcDbEntity
  8
0
100
AcDbSpline
 62
7
  6
BYLAYER
 70
0
 71
3
 72
15
 73
11
 74
0
 42
0.0000001
 43
0.0000001
 44
0.0000000001
 40
0.0
 40
0.0
 40
0.0
 40
0.0
 40
0.1141541343
 40
0.2373152108
 40
0.3669521541
 40
0.4999654353
 40
0.6329916745
 40
0.762647361
 40
0.8858357915
 40
1.0
 40
1.0
 40
1.0
 40
1.0
 10
39.9773611632
 20
161.7332192855
 30
0.0
 10
40.1222096627
 20
161.6495928582
 30
0.0
 10
40.4082987247
 20
161.4490475063
 30
0.0
 10
40.8019394303
 20
161.0807763292
 30
0.0
 10
41.1646980354
 20
160.6454640264
 30
0.0
 10
41.4829285318
 20
160.1594128458
 30
0.0
 10
41.7447857262
 20
159.6407808696
 30
0.0
 10
41.9404569903
 20
159.1088955338
 30
0.0
 10
42.0626004894
 20
158.5837789744
 30
0.0
 10
42.0932436525
 20
158.2356915828
 30
0.0
 10
42.0932444228
 20
158.0684211284
 30
0.0
  0
SPLINE
  5
287
100
AcDbEntity
  8
0
100
AcDbSpline
 62
7
  6
BYLAYER
 70
0
 71
3
 72
14
 73
10
 74
0
 42
0.0000001
 43
0.0000001
 44
0.0000000001
 40
0.0
 40
0.0
 40
0.0
 40
0.0
 40
0.2915833165
 40
0.4208660576
 40
0.5408775909
 40
0.6546090498
 40
0.7661108325
 40
0.8799228407
 40
1.0
 40
1.0
 40
1.0
 40
1.0
 10
42.0932444228
 20
158.0684211284
 30
0.0
 10
42.0932434325
 20
157.8533651429
 30
0.0
 10
42.0583355821
 20
157.5388725965
 30
0.0
 10
41.9130515455
 20
157.1652263687
 30
0.0
 10
41.7674362448
 20
156.9380378855
 30
0.0
 10
41.583115586
 20
156.7588180432
 30
0.0
 10
41.3640896612
 20
156.632724049
 30
0.0
 10
41.1164901134
 20
156.5633718062
 30
0.0
 10
40.9426256113
 20
156.5556558572
 30
0.0
 10
40.8541807201
 20
156.5602161177
 30
0.0
  0
SPLINE
  5
288
100
AcDbEntity
  8
0
100
AcDbSpline
 62
7
  6
BYLAYER
 70
0
 71
3
 72
23
 73
19
 74
0
 42
0.0000001
 43
0.0000001
 44
0.0000000001
 40
0.0
 40
0.0
 40
0.0
 40
0.0
 40
0.0306616704
 40
0.0724799939
 40
0.1280222932
 40
0.1967929889
 40
0.2765455165
 40
0.3638479407
 40
0.5447820318
 40
0.6313147741
 40
0.7119498894
 40
0.7850949923
 40
0.8490496373
 40
0.9017973367
 40
0.9234925869
 40
0.9420487616
 40
0.9714938992
 40
1.0
 40
1.0
 40
1.0
 40
1.0
 10
39.6573141104
 20
157.1266487467
 30
0.0
 10
39.6657771503
 20
157.1403777143
 30
0.0
 10
39.6730342205
 20
157.1800831245
 30
0.0
 10
39.6579426383
 20
157.2463281237
 30
0.0
 10
39.6220456415
 20
157.326428443
 30
0.0
 10
39.5650302058
 20
157.4176361825
 30
0.0
 10
39.4893806198
 20
157.5161352296
 30
0.0
 10
39.3667236515
 20
157.6521768069
 30
0.0
 10
39.2279696474
 20
157.777872704
 30
0.0
 10
39.0816477209
 20
157.8880687686
 30
0.0
 10
38.9761062649
 20
157.9577858757
 30
0.0
 10
38.8764475849
 20
158.0144523613
 30
0.0
 10
38.7856776331
 20
158.0563491954
 30
0.0
 10
38.7160955435
 20
158.0789288837
 30
0.0
 10
38.6674044382
 20
158.0857544264
 30
0.0
 10
38.63089287
 20
158.085338504
 30
0.0
 10
38.5896931449
 20
158.0708417535
 30
0.0
 10
38.5769563106
 20
158.0394355781
 30
0.0
 10
38.5750835785
 20
158.0245589534
 30
0.0
  0
SPLINE
  5
289
100
AcDbEntity
  8
0
100
AcDbSpline
 62
7
  6
BYLAYER
 70
0
 71
3
 72
9
 73
5
 74
0
 42
0.0000001
 43
0.0000001
 44
0.0000000001
 40
0.0
 40
0.0
 40
0.0
 40
0.0
 40
0.5211281932
 40
1.0
 40
1.0
 40
1.0
 40
1.0
 10
39.6572653506
 20
157.126679072
 30
0.0
 10
39.7344687572
 20
157.112009857
 30
0.0
 10
39.8866975074
 20
157.1001689136
 30
0.0
 10
40.036790985
 20
157.1330492255
 30
0.0
 10
40.1037283731
 20
157.1601423276
 30
0.0
  0
SPLINE
  5
28A
100
AcDbEntity
  8
0
100
AcDbSpline
 62
7
  6
BYLAYER
 70
0
 71
3
 72
9
 73
5
 74
0
 42
0.0000001
 43
0.0000001
 44
0.0000000001
 40
0.0
 40
0.0
 40
0.0
 40
0.0
 40
0.2559202889
 40
1.0
 40
1.0
 40
1.0
 40
1.0
 10
38.3501111135
 20
158.1725707803
 30
0.0
 10
38.3827363016
 20
158.1216941917
 30
0.0
 10
38.515653657
 20
157.9264760838
 30
0.0
 10
38.6701049705
 20
157.7455886779
 30
0.0
 10
38.7965744283
 20
157.6235879661
 30
0.0
  0
SPLINE
  5
28B
100
AcDbEntity
  8
0
100
AcDbSpline
 62
7
  6
BYLAYER
 70
0
 71
3
 72
15
 73
11
 74
0
 42
0.0000001
 43
0.0000001
 44
0.0000000001
 40
0.0
 40
0.0
 40
0.0
 40
0.0
 40
0.1258332558
 40
0.2425948413
 40
0.3543966853
 40
0.4664062381
 40
0.5837589323
 40
0.7104397718
 40
0.8489372204
 40
1.0
 40
1.0
 40
1.0
 40
1.0
 10
37.9714473923
 20
161.2254989119
 30
0.0
 10
38.0048958956
 20
161.3212668574
 30
0.0
 10
38.0867550311
 20
161.5007245219
 30
0.0
 10
38.2630668788
 20
161.7291099565
 30
0.0
 10
38.4841894709
 20
161.8975501631
 30
0.0
 10
38.74321431
 20
161.999605484
 30
0.0
 10
39.0311960534
 20
162.0327897251
 30
0.0
 10
39.3398582328
 20
161.9981685835
 30
0.0
 10
39.6618135529
 20
161.8980267376
 30
0.0
 10
39.8718959628
 20
161.7941082692
 30
0.0
 10
39.9773611632
 20
161.7332192855
 30
0.0
  0
SPLINE
  5
28C
100
AcDbEntity
  8
0
100
AcDbSpline
 62
7
  6
BYLAYER
 70
0
 71
3
 72
9
 73
5
 74
0
 42
0.0000001
 43
0.0000001
 44
0.0000000001
 40
0.0
 40
0.0
 40
0.0
 40
0.0
 40
0.4842267123
 40
1.0
 40
1.0
 40
1.0
 40
1.0
 10
41.682723976
 20
154.1287623675
 30
0.0
 10
41.5630276267
 20
154.1978543519
 30
0.0
 10
41.3385817464
 20
154.3832385298
 30
0.0
 10
41.1823785462
 20
154.6271524569
 30
0.0
 10
41.1185512309
 20
154.7598055733
 30
0.0
  0
SPLINE
  5
28D
100
AcDbEntity
  8
0
100
AcDbSpline
 62
7
  6
BYLAYER
 70
0
 71
3
 72
15
 73
11
 74
0
 42
0.0000001
 43
0.0000001
 44
0.0000000001
 40
0.0
 40
0.0
 40
0.0
 40
0.0
 40
0.1143167163
 40
0.2075551789
 40
0.3007877959
 40
0.415094088
 40
0.5538337258
 40
0.7075202896
 40
0.8612335909
 40
1.0
 40
1.0
 40
1.0
 40
1.0
 10
38.7460840834
 20
158.7424279389
 30
0.0
 10
38.7460841848
 20
158.7615282584
 30
0.0
 10
38.7507344308
 20
158.7970221062
 30
0.0
 10
38.7844402819
 20
158.8392943261
 30
0.0
 10
38.8379314606
 20
158.8473012058
 30
0.0
 10
38.8928965599
 20
158.8247231176
 30
0.0
 10
38.9455182889
 20
158.7806064619
 30
0.0
 10
38.989939706
 20
158.7198968587
 30
0.0
 10
39.0202332444
 20
158.6512184006
 30
0.0
 10
39.0289354056
 20
158.6023125997
 30
0.0
 10
39.0289357194
 20
158.5791271651
 30
0.0
  0
SPLINE
  5
28E
100
AcDbEntity
  8
0
100
AcDbSpline
 62
7
  6
BYLAYER
 70
0
 71
3
 72
15
 73
11
 74
0
 42
0.0000001
 43
0.0000001
 44
0.0000000001
 40
0.0
 40
0.0
 40
0.0
 40
0.0
 40
0.1143167163
 40
0.2075551789
 40
0.3007877959
 40
0.415094088
 40
0.5538337258
 40
0.7075202896
 40
0.8612335909
 40
1.0
 40
1.0
 40
1.0
 40
1.0
 10
39.0289357194
 20
158.5791271651
 30
0.0
 10
39.028935618
 20
158.5600268456
 30
0.0
 10
39.0242853721
 20
158.5245329979
 30
0.0
 10
38.9905795209
 20
158.4822607779
 30
0.0
 10
38.9370883422
 20
158.4742538982
 30
0.0
 10
38.882123243
 20
158.4968319865
 30
0.0
 10
38.8295015139
 20
158.5409486422
 30
0.0
 10
38.7850800969
 20
158.6016582454
 30
0.0
 10
38.7547865585
 20
158.6703367035
 30
0.0
 10
38.7460843972
 20
158.7192425043
 30
0.0
 10
38.7460840834
 20
158.7424279389
 30
0.0
  0
SPLINE
  5
28F
100
AcDbEntity
  8
0
100
AcDbSpline
 62
7
  6
BYLAYER
 70
0
 71
3
 72
12
 73
8
 74
0
 42
0.0000001
 43
0.0000001
 44
0.0000000001
 40
0.0
 40
0.0
 40
0.0
 40
0.0
 40
0.1081626761
 40
0.2183652778
 40
0.4513722222
 40
0.7104129395
 40
1.0
 40
1.0
 40
1.0
 40
1.0
 10
39.1709671435
 20
163.5586833582
 30
0.0
 10
39.2381861345
 20
163.5974943533
 30
0.0
 10
39.3809198624
 20
163.6643275167
 30
0.0
 10
39.6943373278
 20
163.7510842876
 30
0.0
 10
40.1333111892
 20
163.7627385725
 30
0.0
 10
40.6830623792
 20
163.6298385105
 30
0.0
 10
41.0409817721
 20
163.4595470047
 30
0.0
 10
41.2209525642
 20
163.35564317
 30
0.0
  0
SPLINE
  5
290
100
AcDbEntity
  8
0
100
AcDbSpline
 62
7
  6
BYLAYER
 70
0
 71
3
 72
11
 73
7
 74
0
 42
0.0000001
 43
0.0000001
 44
0.0000000001
 40
0.0
 40
0.0
 40
0.0
 40
0.0
 40
0.1595150718
 40
0.3854176421
 40
0.6707111177
 40
1.0
 40
1.0
 40
1.0
 40
1.0
 10
38.5750835785
 20
158.0245589534
 30
0.0
 10
38.5719873155
 20
157.999962834
 30
0.0
 10
38.5846496303
 20
157.9391679029
 30
0.0
 10
38.6297503544
 20
157.8453385261
 30
0.0
 10
38.7022742783
 20
157.7360898606
 30
0.0
 10
38.7627217053
 20
157.6620420386
 30
0.0
 10
38.7965205997
 20
157.6236168689
 30
0.0
  0
ENDSEC
  0
SECTION
  2
OBJECTS
  0
DICTIONARY
  5
C
100
AcDbDictionary
280
0
281
1
  3
ACAD_GROUP
350
D
  3
ACAD_MLINESTYLE
350
17
  3
ACAD_LAYOUT
350
1A
  3
ACAD_PLOTSETTINGS
350
19
  3
ACAD_PLOTSTYLENAME
350
E
  0
DICTIONARY
  5
D
102
{ACAD_REACTORS
330
C
102
}
100
AcDbDictionary
280
0
281
1
  0
ACDBDICTIONARYWDFLT
  5
E
102
{ACAD_REACTORS
330
C
102
}
100
AcDbDictionary
281
1
  3
Normal
350
F
100
AcDbDictionaryWithDefault
340
F
  0
DICTIONARY
  5
17
102
{ACAD_REACTORS
330
C
102
}
100
AcDbDictionary
280
0
281
1
  3
Standard
350
18
  0
DICTIONARY
  5
19
102
{ACAD_REACTORS
330
C
102
}
100
AcDbDictionary
281
1
  0
DICTIONARY
  5
1A
102
{ACAD_REACTORS
330
C
102
}
100
AcDbDictionary
281
1
  3
Model
350
291
  3
Layout1
350
292
  0
ACDBPLACEHOLDER
  5
F
102
{ACAD_REACTORS
330
E
102
}
  0
MLINESTYLE
  5
18
102
{ACAD_REACTORS
330
17
102
}
100
AcDbMlineStyle
  2
STANDARD
 70
0
  3

 62
256
 51
90.0
 52
90.0
 71
2
 49
0.5
 62
256
  6
BYLAYER
 49
-0.5
 62
256
  6
BYLAYER
  0
LAYOUT
  5
291
102
{ACAD_REACTORS
330
1A
102
}
100
AcDbPlotSettings
  1

  2
none_device
  4

  6

 40
0.0
 41
0.0
 42
0.0
 43
0.0
 44
210.0
 45
297.0
 46
0.0
 47
0.0
 48
0.0
 49
0.0
140
0.0
141
0.0
142
1.0
143
1.0
 70
1024
 72
1
 73
0
 74
0
  7

 75
0
147
1.0
148
0.0
149
0.0
100
AcDbLayout
  1
Model
 70
0
 71
0
 10
0.0
 20
0.0
 11
210.0
 21
297.0
 12
0.0
 22
0.0
 32
0.0
 14
0.0
 24
0.0
 34
0.0
 15
0.0
 25
0.0
 35
0.0
146
0.0
 13
0.0
 23
0.0
 33
0.0
 16
1.0
 26
0.0
 36
0.0
 17
0.0
 27
1.0
 37
0.0
 76
0
330
210
345
0
346
0
  0
LAYOUT
  5
292
102
{ACAD_REACTORS
330
1A
102
}
100
AcDbPlotSettings
  1

  2
none_device
  4

  6

 40
0.0
 41
0.0
 42
0.0
 43
0.0
 44
210.0
 45
297.0
 46
0.0
 47
0.0
 48
0.0
 49
0.0
140
0.0
141
0.0
142
1.0
143
1.0
 70
0
 72
1
 73
0
 74
0
  7

 75
0
147
1.0
148
0.0
149
0.0
100
AcDbLayout
  1
Layout1
 70
0
 71
1
 10
0.0
 20
0.0
 11
210.0
 21
297.0
 12
0.0
 22
0.0
 32
0.0
 14
0.0
 24
0.0
 34
0.0
 15
0.0
 25
0.0
 35
0.0
146
0.0
 13
0.0
 23
0.0
 33
0.0
 16
1.0
 26
0.0
 36
0.0
 17
0.0
 27
1.0
 37
0.0
 76
0
330
211
345
0
346
0
  0
ENDSEC
  0
EOF
