999
DXF file: C:\Users\sesa63760\Dev\_Creo\CAD\MCADID0004815_3D-CAD\drw0001_7.dxf
999
Pro/ENGINEER 2019471 by Parametric Technology Corporation
  0
SECTION
  2
HEADER
  9
$ACADVER
  1
AC1024
  9
$DWGCODEPAGE
  3
ANSI_1252
  9
$EXTMAX
 10
41.2626262626
 20
58.3571428572
 30
0.0
  9
$EXTMIN
 10
0.0
 20
0.0
 30
0.0
  9
$LIMMIN
 10
0.0
 20
0.0
  9
$LIMMAX
 10
41.2626262626
 20
58.3571428572
  9
$VIEWCTR
 10
20.6313131313
 20
29.1785714286
  9
$VIEWSIZE
 40
58.3571428572
  9
$CLAYER
  8
0
  9
$LTSCALE
 40
3.804021164
  9
$CELTYPE
  6
BYLAYER
  9
$DIMSCALE
 40
1.0
  9
$DIMASZ
 40
0.4912217412
  9
$DIMEXO
 40
1.0
  9
$DIMDLI
 40
2.6282328042
  9
$DIMEXE
 40
1.0
  9
$DIMCEN
 40
0.6224761905
  9
$DIMLFAC
 40
1.0
  9
$DIMBLK
  1
_FILLED
  9
$DIMALT
 70
0
  9
$DIMALTF
 40
0.0393700787
  9
$DIMTXT
 40
0.6877104377
  9
$DIMTOL
 70
1
  9
$DIMLIM
 70
0
  9
$DIMTFAC
 40
1.0
  9
$DIMTP
 40
0.01
  9
$DIMTM
 40
0.01
  9
$DIMGAP
 40
0.625
  9
$DIMDSEP
 70
46
  9
$AUNITS
 70
0
  9
$PDMODE
 70
3
  9
$PDSIZE
 40
0.3125
  9
$HANDSEED
  5
263
  9
$TILEMODE
 70
1
  9
$MEASUREMENT
 70
1
  9
$INSUNITS
 70
4
  0
ENDSEC
  0
SECTION
  2
CLASSES
  0
CLASS
  1
ACDBDICTIONARYWDFLT
  2
AcDbDictionaryWithDefault
  3
AutoCAD 2000
 90
0
 91
1
280
0
281
0
  0
CLASS
  1
ACDBPLACEHOLDER
  2
AcDbPlaceHolder
  3
AutoCAD 2000
 90
0
 91
1
280
0
281
0
  0
CLASS
  1
LAYOUT
  2
AcDbLayout
  3
AutoCAD 2000
 90
0
 91
0
280
0
281
0
  0
ENDSEC
  0
SECTION
  2
TABLES
  0
TABLE
  2
VPORT
  5
8
100
AcDbSymbolTable
 70
2
  0
VPORT
  5
1F4
100
AcDbSymbolTableRecord
100
AcDbViewportTableRecord
  2
*ACTIVE
 70
0
 10
0.0
 20
0.0
 11
1.0
 21
1.0
 12
20.6313131313
 22
29.1785714286
 13
0.0
 23
0.0
 14
1.0
 24
1.0
 15
0.0
 25
0.0
 16
0.0
 26
0.0
 36
1.0
 17
0.0
 27
0.0
 37
0.0
 40
58.3571428572
 41
0.7070707071
 42
50.0
 43
0.0
 44
0.0
 50
0.0
 51
0.0
 71
0
 72
100
 73
1
 74
1
 75
0
 76
0
 77
0
 78
0
  0
ENDTAB
  0
TABLE
  2
LTYPE
  5
5
100
AcDbSymbolTable
 70
6
  0
LTYPE
  5
14
100
AcDbSymbolTableRecord
100
AcDbLinetypeTableRecord
  2
BYBLOCK
 70
0
  3

 72
65
 73
0
 40
0.0
  0
LTYPE
  5
15
100
AcDbSymbolTableRecord
100
AcDbLinetypeTableRecord
  2
BYLAYER
 70
0
  3

 72
65
 73
0
 40
0.0
  0
LTYPE
  5
16
100
AcDbSymbolTableRecord
100
AcDbLinetypeTableRecord
  2
CONTINUOUS
 70
64
  3
Solid line
 72
65
 73
0
 40
0.0
  0
LTYPE
  5
1F5
100
AcDbSymbolTableRecord
100
AcDbLinetypeTableRecord
  2
CENTER
 70
64
  3
____ _ ____ _ ____ _ ____ _ ____ _ ____ _ ____
 72
65
 73
4
 40
0.6
 49
0.375
 74
0
 49
-0.075
 74
0
 49
0.075
 74
0
 49
-0.075
 74
0
  0
LTYPE
  5
1F6
100
AcDbSymbolTableRecord
100
AcDbLinetypeTableRecord
  2
HIDDEN
 70
64
  3
- - - - - - - - - - - - - - - - - - - -
 72
65
 73
2
 40
0.2
 49
0.1
 74
0
 49
-0.1
 74
0
  0
LTYPE
  5
1F7
100
AcDbSymbolTableRecord
100
AcDbLinetypeTableRecord
  2
PHANTOM
 70
64
  3
_____ _ _ _____ _ _ _____ _ _ _____
 72
65
 73
6
 40
0.8
 49
0.45
 74
0
 49
-0.05
 74
0
 49
0.1
 74
0
 49
-0.05
 74
0
 49
0.1
 74
0
 49
-0.05
 74
0
  0
LTYPE
  5
1F8
100
AcDbSymbolTableRecord
100
AcDbLinetypeTableRecord
  2
DOT
 70
64
  3
. . . . . . . . . . . . . . . . . . . .
 72
65
 73
2
 40
0.2
 49
0.1
 74
0
 49
-0.1
 74
0
  0
LTYPE
  5
1F9
100
AcDbSymbolTableRecord
100
AcDbLinetypeTableRecord
  2
DASHED
 70
64
  3
- - - - - - - - - - - - - - - - - - - -
 72
65
 73
2
 40
0.2
 49
0.1
 74
0
 49
-0.1
 74
0
  0
ENDTAB
  0
TABLE
  2
LAYER
  5
2
100
AcDbSymbolTable
 70
36
  0
LAYER
  5
10
100
AcDbSymbolTableRecord
100
AcDbLayerTableRecord
  2
0
 70
0
 62
7
  6
CONTINUOUS
370
-3
390
F
  0
LAYER
  5
1FA
100
AcDbSymbolTableRecord
100
AcDbLayerTableRecord
  2
DEFAULT_1
 70
0
 62
7
  6
CENTER
370
-3
390
F
  0
LAYER
  5
1FB
100
AcDbSymbolTableRecord
100
AcDbLayerTableRecord
  2
DEFAULT_2
 70
0
 62
7
  6
HIDDEN
370
-3
390
F
  0
LAYER
  5
1FC
100
AcDbSymbolTableRecord
100
AcDbLayerTableRecord
  2
DEFAULT_3
 70
0
 62
7
  6
PHANTOM
370
-3
390
F
  0
LAYER
  5
1FD
100
AcDbSymbolTableRecord
100
AcDbLayerTableRecord
  2
00_COMPONENTS
 70
0
 62
7
  6
CONTINUOUS
370
-3
390
F
  0
LAYER
  5
1FE
100
AcDbSymbolTableRecord
100
AcDbLayerTableRecord
  2
01_1_DEFAULT_DATUMS
 70
0
 62
7
  6
CONTINUOUS
370
-3
390
F
  0
LAYER
  5
1FF
100
AcDbSymbolTableRecord
100
AcDbLayerTableRecord
  2
01_PLANES
 70
0
 62
7
  6
CONTINUOUS
370
-3
390
F
  0
LAYER
  5
200
100
AcDbSymbolTableRecord
100
AcDbLayerTableRecord
  2
02_COORD_SYS
 70
0
 62
7
  6
CONTINUOUS
370
-3
390
F
  0
LAYER
  5
201
100
AcDbSymbolTableRecord
100
AcDbLayerTableRecord
  2
03_AXES
 70
0
 62
7
  6
CONTINUOUS
370
-3
390
F
  0
LAYER
  5
202
100
AcDbSymbolTableRecord
100
AcDbLayerTableRecord
  2
04_POINTS
 70
0
 62
7
  6
CONTINUOUS
370
-3
390
F
  0
LAYER
  5
203
100
AcDbSymbolTableRecord
100
AcDbLayerTableRecord
  2
05_CURVES
 70
0
 62
7
  6
CONTINUOUS
370
-3
390
F
  0
LAYER
  5
204
100
AcDbSymbolTableRecord
100
AcDbLayerTableRecord
  2
06_SURFS
 70
0
 62
7
  6
CONTINUOUS
370
-3
390
F
  0
LAYER
  5
205
100
AcDbSymbolTableRecord
100
AcDbLayerTableRecord
  2
07_COSMETICS
 70
0
 62
7
  6
CONTINUOUS
370
-3
390
F
  0
LAYER
  5
206
100
AcDbSymbolTableRecord
100
AcDbLayerTableRecord
  2
10_NOTES
 70
0
 62
7
  6
CONTINUOUS
370
-3
390
F
  0
LAYER
  5
207
100
AcDbSymbolTableRecord
100
AcDbLayerTableRecord
  2
11_NOTES_PUB
 70
0
 62
7
  6
CONTINUOUS
370
-3
390
F
  0
LAYER
  5
208
100
AcDbSymbolTableRecord
100
AcDbLayerTableRecord
  2
13_REF_GTOL
 70
0
 62
7
  6
CONTINUOUS
370
-3
390
F
  0
LAYER
  5
209
100
AcDbSymbolTableRecord
100
AcDbLayerTableRecord
  2
16_MISC
 70
0
 62
7
  6
CONTINUOUS
370
-3
390
F
  0
LAYER
  5
20A
100
AcDbSymbolTableRecord
100
AcDbLayerTableRecord
  2
17_NO_PRINT
 70
0
 62
7
  6
CONTINUOUS
370
-3
390
F
  0
LAYER
  5
20B
100
AcDbSymbolTableRecord
100
AcDbLayerTableRecord
  2
18_DATUM_CAMS_JOINTS
 70
0
 62
7
  6
CONTINUOUS
370
-3
390
F
  0
LAYER
  5
20C
100
AcDbSymbolTableRecord
100
AcDbLayerTableRecord
  2
19_DATUM_FUNCTIONAL
 70
0
 62
7
  6
CONTINUOUS
370
-3
390
F
  0
LAYER
  5
20D
100
AcDbSymbolTableRecord
100
AcDbLayerTableRecord
  2
20_DATUM_KINEMATIC_SCHEME
 70
0
 62
7
  6
CONTINUOUS
370
-3
390
F
  0
ENDTAB
  0
TABLE
  2
STYLE
  5
3
100
AcDbSymbolTable
 70
1
  0
STYLE
  5
11
100
AcDbSymbolTableRecord
100
AcDbTextStyleTableRecord
  2
STANDARD
 70
0
 40
0.0
 41
1.0
 50
0.0
 71
0
 42
0.2
  3
ARIAL.TTF
  4

  0
STYLE
  5
20E
100
AcDbSymbolTableRecord
100
AcDbTextStyleTableRecord
  2
TEXTSTYLE_1
 70
0
 40
0.0
 41
0.8
 50
0.0
 71
0
 42
0.2
  3
gdt
  4

  0
ENDTAB
  0
TABLE
  2
VIEW
  5
6
100
AcDbSymbolTable
 70
0
  0
ENDTAB
  0
TABLE
  2
UCS
  5
7
100
AcDbSymbolTable
 70
0
  0
ENDTAB
  0
TABLE
  2
APPID
  5
9
100
AcDbSymbolTable
 70
1
  0
APPID
  5
20F
100
AcDbSymbolTableRecord
100
AcDbRegAppTableRecord
  2
ACAD
 70
0
  0
ENDTAB
  0
TABLE
  2
BLOCK_RECORD
  5
1
100
AcDbSymbolTable
 70
0
  0
BLOCK_RECORD
  5
210
100
AcDbSymbolTableRecord
100
AcDbBlockTableRecord
  2
*Model_Space
  0
BLOCK_RECORD
  5
211
100
AcDbSymbolTableRecord
100
AcDbBlockTableRecord
  2
*Paper_Space
  0
BLOCK_RECORD
  5
212
100
AcDbSymbolTableRecord
100
AcDbBlockTableRecord
  2
_FILLED
  0
ENDTAB
  0
TABLE
  2
DIMSTYLE
  5
A
100
AcDbSymbolTable
 70
1
100
AcDbDimStyleTable
 71
0
  0
DIMSTYLE
105
213
100
AcDbSymbolTableRecord
100
AcDbDimStyleTableRecord
  2
STANDARD
 70
0
  3

  4

 40
1.0
 41
0.4912217412
 42
1.0
 43
0.38
 44
1.0
 45
0.0
 46
0.0
 47
0.01
 48
0.01
140
0.6877104377
141
0.09
142
0.0
143
25.4
144
1.0
145
0.0
146
1.0
147
0.625
 71
1
 72
0
 73
0
 74
0
 75
0
 76
0
 77
1
 78
8
 79
2
170
0
171
1
172
0
173
0
174
0
175
0
176
0
177
0
178
0
270
2
179
2
271
2
272
2
273
2
274
2
275
0
280
0
281
0
282
0
283
1
284
8
285
0
286
0
287
3
288
0
340
11
278
46
341
212
342
212
343
212
344
212
  0
ENDTAB
  0
ENDSEC
  0
SECTION
  2
BLOCKS
  0
BLOCK
  5
20
100
AcDbEntity
  8
0
100
AcDbBlockBegin
  2
*Model_Space
 70
0
 10
0.0
 20
0.0
 30
0.0
  3
*Model_Space
  1

  0
ENDBLK
  5
21
100
AcDbEntity
  8
0
100
AcDbBlockEnd
  0
BLOCK
  5
1C
100
AcDbEntity
  8
0
100
AcDbBlockBegin
  2
*Paper_Space
 70
0
 10
0.0
 20
0.0
 30
0.0
  3
*Paper_Space
  1

  0
ENDBLK
  5
1D
100
AcDbEntity
  8
0
100
AcDbBlockEnd
  0
BLOCK
  5
214
100
AcDbEntity
  8
0
100
AcDbBlockBegin
  2
_FILLED
 70
64
 10
0.0
 20
0.0
  3
_FILLED
  1

  0
SOLID
  5
215
100
AcDbEntity
  8
0
  6
BYBLOCK
 62
0
100
AcDbTrace
 10
0.0
 20
0.0
 11
-1.0
 21
0.25
 12
-1.0
 22
-0.25
 13
-1.0
 23
-0.25
  0
ENDBLK
  5
216
100
AcDbEntity
  8
0
  6
BYBLOCK
 62
0
100
AcDbBlockEnd
  0
ENDSEC
  0
SECTION
  2
ENTITIES
  0
LINE
  5
217
100
AcDbEntity
  8
0
100
AcDbLine
 62
7
  6
BYLAYER
 10
10.7026012478
 20
4.3214285714
 11
34.5026014938
 21
4.3214285714
  0
LINE
  5
218
100
AcDbEntity
  8
0
100
AcDbLine
 62
7
  6
BYLAYER
 10
34.5026012942
 20
4.6214285714
 11
10.7026012942
 21
4.6214285714
  0
LINE
  5
219
100
AcDbEntity
  8
0
100
AcDbLine
 62
7
  6
BYLAYER
 10
24.8026012942
 20
6.1214285714
 11
20.926208092
 21
6.1214285714
  0
LINE
  5
21A
100
AcDbEntity
  8
0
100
AcDbLine
 62
7
  6
BYLAYER
 10
20.4789944965
 20
6.1214285714
 11
16.4526012942
 21
6.1214285714
  0
LINE
  5
21B
100
AcDbEntity
  8
0
100
AcDbLine
 62
7
  6
BYLAYER
 10
16.4526012942
 20
7.9214285714
 11
24.8026012942
 21
7.9214285714
  0
LINE
  5
21C
100
AcDbEntity
  8
0
100
AcDbLine
 62
7
  6
BYLAYER
 10
5.7026012942
 20
52.1173106417
 11
5.7026012942
 21
9.3214285714
  0
LINE
  5
21D
100
AcDbEntity
  8
0
100
AcDbLine
 62
7
  6
BYLAYER
 10
6.4026012942
 20
8.3861431741
 11
6.4026012939
 21
43.5148152826
  0
LINE
  5
21E
100
AcDbEntity
  8
0
100
AcDbLine
 62
7
  6
BYLAYER
 10
6.4026012938
 20
45.1280418603
 11
6.4026012942
 21
52.3697071025
  0
LINE
  5
21F
100
AcDbEntity
  8
0
100
AcDbLine
 62
7
  6
BYLAYER
 10
10.7026012914
 20
4.3214285714
 11
10.7026012914
 21
4.6214285714
  0
LINE
  5
220
100
AcDbEntity
  8
0
100
AcDbLine
 62
7
  6
BYLAYER
 10
11.3276012942
 20
50.3214285714
 11
11.3276012942
 21
51.8214285714
  0
LINE
  5
221
100
AcDbEntity
  8
0
100
AcDbLine
 62
7
  6
BYLAYER
 10
11.9276012942
 20
51.8214285714
 11
11.9276012942
 21
50.3214285714
  0
LINE
  5
222
100
AcDbEntity
  8
0
100
AcDbLine
 62
7
  6
BYLAYER
 10
12.7026012942
 20
53.8046714517
 11
12.7026012942
 21
54.3214285714
  0
LINE
  5
223
100
AcDbEntity
  8
0
100
AcDbLine
 62
7
  6
BYLAYER
 10
6.3346139725
 20
52.6619017706
 11
6.4026012942
 21
52.3697071025
  0
LINE
  5
224
100
AcDbEntity
  8
0
100
AcDbLine
 62
7
  6
BYLAYER
 10
16.4526012942
 20
6.1214285714
 11
16.4526012942
 21
7.9214285714
  0
LINE
  5
225
100
AcDbEntity
  8
0
100
AcDbLine
 62
7
  6
BYLAYER
 10
16.6026012942
 20
7.9214285714
 11
16.6026012942
 21
6.1214285714
  0
LINE
  5
226
100
AcDbEntity
  8
0
100
AcDbLine
 62
7
  6
BYLAYER
 10
24.8026012942
 20
7.9214285714
 11
24.8026012942
 21
6.1214285714
  0
LINE
  5
227
100
AcDbEntity
  8
0
100
AcDbLine
 62
7
  6
BYLAYER
 10
28.7026012942
 20
53.8046714517
 11
28.7026012942
 21
54.3214285714
  0
LINE
  5
228
100
AcDbEntity
  8
0
100
AcDbLine
 62
7
  6
BYLAYER
 10
29.4776012942
 20
51.8214285714
 11
29.4776012942
 21
50.3214285714
  0
LINE
  5
229
100
AcDbEntity
  8
0
100
AcDbLine
 62
7
  6
BYLAYER
 10
30.0776012942
 20
51.8214285714
 11
30.0776012942
 21
50.3214285714
  0
LINE
  5
22A
100
AcDbEntity
  8
0
100
AcDbLine
 62
7
  6
BYLAYER
 10
35.0705886159
 20
52.6619017706
 11
35.0026012942
 21
52.3697071025
  0
LINE
  5
22B
100
AcDbEntity
  8
0
100
AcDbLine
 62
7
  6
BYLAYER
 10
34.5026015344
 20
4.3214285714
 11
34.5026015344
 21
4.6214285714
  0
LINE
  5
22C
100
AcDbEntity
  8
0
100
AcDbLine
 62
7
  6
BYLAYER
 10
34.7077435676
 20
45.072734348
 11
35.0026023574
 21
45.1280361939
  0
LINE
  5
22D
100
AcDbEntity
  8
0
100
AcDbLine
 62
7
  6
BYLAYER
 10
6.6974584368
 20
45.0727312348
 11
6.402601294
 21
45.1280418604
  0
LINE
  5
22E
100
AcDbEntity
  8
0
100
AcDbLine
 62
7
  6
BYLAYER
 10
35.0026012942
 20
52.3697071025
 11
35.0026012945
 21
45.1280398251
  0
LINE
  5
22F
100
AcDbEntity
  8
0
100
AcDbLine
 62
7
  6
BYLAYER
 10
35.0026012945
 20
43.5148152822
 11
35.0026012942
 21
4.8414394277
  0
LINE
  5
230
100
AcDbEntity
  8
0
100
AcDbLine
 62
7
  6
BYLAYER
 10
35.7026012942
 20
5.521438785
 11
35.7026012942
 21
52.1173106417
  0
LINE
  5
231
100
AcDbEntity
  8
0
100
AcDbLine
 62
7
  6
BYLAYER
 10
6.6276052879
 20
44.3214283801
 11
6.2713473392
 21
44.3214288889
  0
LINE
  5
232
100
AcDbEntity
  8
0
100
AcDbLine
 62
7
  6
BYLAYER
 10
34.7775989692
 20
44.3214287077
 11
35.1338537042
 21
44.3214283523
  0
LINE
  5
233
100
AcDbEntity
  8
0
100
AcDbLine
 62
7
  6
BYLAYER
 10
35.7026012942
 20
5.5214336782
 11
35.6799835244
 21
5.2895426423
  0
LINE
  5
234
100
AcDbEntity
  8
0
100
AcDbLine
 62
7
  6
BYLAYER
 10
6.6974591188
 20
43.5701222728
 11
6.402600057
 21
43.5148218768
  0
LINE
  5
235
100
AcDbEntity
  8
0
100
AcDbLine
 62
7
  6
BYLAYER
 10
34.7077441516
 20
43.5701259079
 11
35.0026012944
 21
43.5148152824
  0
LINE
  5
236
100
AcDbEntity
  8
0
100
AcDbLine
 62
7
  6
BYLAYER
 10
30.0776012942
 20
50.3214285714
 11
11.3276012942
 21
50.3214285714
  0
LINE
  5
237
100
AcDbEntity
  8
0
100
AcDbLine
 62
7
  6
BYLAYER
 10
11.3276012942
 20
51.8214285714
 11
30.0776012942
 21
51.8214285714
  0
LINE
  5
238
100
AcDbEntity
  8
0
100
AcDbLine
 62
7
  6
BYLAYER
 10
12.7026012942
 20
54.3214285714
 11
28.7026012942
 21
54.3214285714
  0
ARC
  5
239
100
AcDbEntity
  8
0
100
AcDbCircle
 62
7
  6
BYLAYER
 10
11.1299075752
 20
-127.1977628278
 40
181.1474033626
100
AcDbArc
 50
82.2897452157
 51
82.4271887238
  0
ARC
  5
23A
100
AcDbEntity
  8
0
100
AcDbCircle
 62
7
  6
BYLAYER
 10
10.7026012942
 20
9.3214285714
 40
5.0
100
AcDbArc
 50
180.0
 51
269.999999734
  0
ARC
  5
23B
100
AcDbEntity
  8
0
100
AcDbCircle
 62
7
  6
BYLAYER
 10
10.9012173857
 20
8.9433681381
 40
4.5329866616
100
AcDbArc
 50
187.0610259119
 51
205.2837218486
  0
ARC
  5
23C
100
AcDbEntity
  8
0
100
AcDbCircle
 62
7
  6
BYLAYER
 10
10.7026012942
 20
44.3214285714
 40
4.375
100
AcDbArc
 50
190.6243314825
 51
169.3756685182
  0
CIRCLE
  5
23D
100
AcDbEntity
  8
0
100
AcDbCircle
 62
7
  6
BYLAYER
 10
10.7026012942
 20
44.3214285714
 40
4.075
  0
CIRCLE
  5
23E
100
AcDbEntity
  8
0
100
AcDbCircle
 62
7
  6
BYLAYER
 10
10.7026012942
 20
44.3214285714
 40
2.125
  0
ARC
  5
23F
100
AcDbEntity
  8
0
100
AcDbCircle
 62
7
  6
BYLAYER
 10
6.2026012942
 20
52.1173106417
 40
0.5
100
AcDbArc
 50
103.3279615896
 51
180.0
  0
ARC
  5
240
100
AcDbEntity
  8
0
100
AcDbCircle
 62
7
  6
BYLAYER
 10
20.700582162
 20
5.9698928417
 40
0.4450404484
100
AcDbArc
 50
19.9072653556
 51
32.4038597577
  0
ARC
  5
241
100
AcDbEntity
  8
0
100
AcDbCircle
 62
7
  6
BYLAYER
 10
20.7025228689
 20
5.970922948
 40
0.4427175536
100
AcDbArc
 50
147.5632244294
 51
160.1256504573
  0
ARC
  5
242
100
AcDbEntity
  8
0
100
AcDbCircle
 62
7
  6
BYLAYER
 10
31.1855427536
 20
-133.982513899
 40
187.9929369403
100
AcDbArc
 50
97.5753023498
 51
97.7077406529
  0
ARC
  5
243
100
AcDbEntity
  8
0
100
AcDbCircle
 62
7
  6
BYLAYER
 10
20.7026012942
 20
-9.0885714286
 40
63.4
100
AcDbArc
 50
76.67203841
 51
88.0383176703
  0
ARC
  5
244
100
AcDbEntity
  8
0
100
AcDbCircle
 62
7
  6
BYLAYER
 10
20.7026012942
 20
-9.0885714286
 40
63.4
100
AcDbArc
 50
91.9616823297
 51
103.32796159
  0
ARC
  5
245
100
AcDbEntity
  8
0
100
AcDbCircle
 62
7
  6
BYLAYER
 10
20.7026012942
 20
-9.0885714286
 40
63.1
100
AcDbArc
 50
76.9015825347
 51
103.0984174653
  0
ARC
  5
246
100
AcDbEntity
  8
0
100
AcDbCircle
 62
7
  6
BYLAYER
 10
30.7026012942
 20
44.3214285714
 40
4.375
100
AcDbArc
 50
10.6243052855
 51
349.3756685132
  0
CIRCLE
  5
247
100
AcDbEntity
  8
0
100
AcDbCircle
 62
7
  6
BYLAYER
 10
30.7026012942
 20
44.3214285714
 40
4.075
  0
CIRCLE
  5
248
100
AcDbEntity
  8
0
100
AcDbCircle
 62
7
  6
BYLAYER
 10
30.7026012942
 20
44.3214285714
 40
2.125
  0
ARC
  5
249
100
AcDbEntity
  8
0
100
AcDbCircle
 62
7
  6
BYLAYER
 10
34.5026012942
 20
5.5214285714
 40
1.2
100
AcDbArc
 50
270.0000047641
 51
348.8354957877
  0
ARC
  5
24A
100
AcDbEntity
  8
0
100
AcDbCircle
 62
7
  6
BYLAYER
 10
35.2026012942
 20
52.1173106417
 40
0.5
100
AcDbArc
 50
0.0
 51
76.6720384104
  0
ARC
  5
24B
100
AcDbEntity
  8
0
100
AcDbCircle
 62
7
  6
BYLAYER
 10
20.7026012942
 20
5.9711284169
 40
0.4426860745
100
AcDbArc
 50
32.4088860772
 51
147.5911139228
  0
ARC
  5
24C
100
AcDbEntity
  8
0
100
AcDbCircle
 62
7
  6
BYLAYER
 10
20.7026012942
 20
5.9213913743
 40
0.3000268449
100
AcDbArc
 50
41.8156095617
 51
138.1843904384
  0
SPLINE
  5
24D
100
AcDbEntity
  8
0
100
AcDbSpline
 62
7
  6
BYLAYER
 70
0
 71
3
 72
14
 73
10
 74
0
 42
0.0000001
 43
0.0000001
 44
0.0000000001
 40
0.0
 40
0.0
 40
0.0
 40
0.0
 40
0.0902796516
 40
0.1894059808
 40
0.300840238
 40
0.4253862458
 40
0.5619475959
 40
0.7066836357
 40
1.0
 40
1.0
 40
1.0
 40
1.0
 10
35.3178636154
 20
52.6038438855
 30
0.0
 10
35.327837706
 20
52.6014809702
 30
0.0
 10
35.348138187
 20
52.5934619282
 30
0.0
 10
35.3756344228
 20
52.5725480031
 30
0.0
 10
35.3993765423
 20
52.5423812405
 30
0.0
 10
35.4183604791
 20
52.5043034597
 30
0.0
 10
35.4312801556
 20
52.4598558947
 30
0.0
 10
35.4404886716
 20
52.3951167754
 30
0.0
 10
35.4381356076
 20
52.3448713103
 30
0.0
 10
35.433284919
 20
52.3119239392
 30
0.0
  0
SPLINE
  5
24E
100
AcDbEntity
  8
0
100
AcDbSpline
 62
7
  6
BYLAYER
 70
0
 71
3
 72
9
 73
5
 74
0
 42
0.0000001
 43
0.0000001
 44
0.0000000001
 40
0.0
 40
0.0
 40
0.0
 40
0.0
 40
0.5000049605
 40
1.0
 40
1.0
 40
1.0
 40
1.0
 10
6.4026012942
 20
45.1280418607
 30
0.0
 10
6.3599559158
 20
44.9982299834
 30
0.0
 10
6.2939783956
 20
44.7317866158
 30
0.0
 10
6.2713581444
 20
44.4580631601
 30
0.0
 10
6.271351294
 20
44.3214285712
 30
0.0
  0
SPLINE
  5
24F
100
AcDbEntity
  8
0
100
AcDbSpline
 62
7
  6
BYLAYER
 70
0
 71
3
 72
9
 73
5
 74
0
 42
0.0000001
 43
0.0000001
 44
0.0000000001
 40
0.0
 40
0.0
 40
0.0
 40
0.0
 40
0.4999925862
 40
1.0
 40
1.0
 40
1.0
 40
1.0
 10
35.1338512944
 20
44.3214285738
 30
0.0
 10
35.133841747
 20
44.4580625043
 30
0.0
 10
35.1112299764
 20
44.7317872047
 30
0.0
 10
35.045240102
 20
44.9982271067
 30
0.0
 10
35.0026012942
 20
45.1280418609
 30
0.0
  0
SPLINE
  5
250
100
AcDbEntity
  8
0
100
AcDbSpline
 62
7
  6
BYLAYER
 70
0
 71
3
 72
9
 73
5
 74
0
 42
0.0000001
 43
0.0000001
 44
0.0000000001
 40
0.0
 40
0.0
 40
0.0
 40
0.0
 40
0.4999922152
 40
1.0
 40
1.0
 40
1.0
 40
1.0
 10
6.271351294
 20
44.3214285712
 30
0.0
 10
6.2713603502
 20
44.1847947059
 30
0.0
 10
6.2939712691
 20
43.911069968
 30
0.0
 10
6.3599602506
 20
43.6446294467
 30
0.0
 10
6.4026012942
 20
43.5148152821
 30
0.0
  0
SPLINE
  5
251
100
AcDbEntity
  8
0
100
AcDbSpline
 62
7
  6
BYLAYER
 70
0
 71
3
 72
9
 73
5
 74
0
 42
0.0000001
 43
0.0000001
 44
0.0000000001
 40
0.0
 40
0.0
 40
0.0
 40
0.0
 40
0.5000077892
 40
1.0
 40
1.0
 40
1.0
 40
1.0
 10
35.0026012942
 20
43.5148152821
 30
0.0
 10
35.0452426692
 20
43.6446293388
 30
0.0
 10
35.1112311154
 20
43.9110700342
 30
0.0
 10
35.1338422008
 20
44.18479471
 30
0.0
 10
35.1338512944
 20
44.3214285738
 30
0.0
  0
SPLINE
  5
252
100
AcDbEntity
  8
0
100
AcDbSpline
 62
7
  6
BYLAYER
 70
0
 71
3
 72
14
 73
10
 74
0
 42
0.0000001
 43
0.0000001
 44
0.0000000001
 40
0.0
 40
0.0
 40
0.0
 40
0.0
 40
0.3291492931
 40
0.4729050409
 40
0.6018691184
 40
0.716210777
 40
0.8182560094
 40
0.9114490242
 40
1.0
 40
1.0
 40
1.0
 40
1.0
 10
5.9719174908
 20
52.3119256443
 30
0.0
 10
5.9329429341
 20
52.3066470245
 30
0.0
 10
5.8773083666
 20
52.2933488615
 30
0.0
 10
5.8116762241
 20
52.2635520783
 30
0.0
 10
5.7724512005
 20
52.2387081867
 30
0.0
 10
5.7415311544
 20
52.2110442572
 30
0.0
 10
5.7192137768
 20
52.1811747282
 30
0.0
 10
5.7056684969
 20
52.1497144403
 30
0.0
 10
5.7026061678
 20
52.127893246
 30
0.0
 10
5.7026012943
 20
52.1173121982
 30
0.0
  0
SPLINE
  5
253
100
AcDbEntity
  8
0
100
AcDbSpline
 62
7
  6
BYLAYER
 70
0
 71
3
 72
18
 73
14
 74
0
 42
0.0000001
 43
0.0000001
 44
0.0000000001
 40
0.0
 40
0.0
 40
0.0
 40
0.0
 40
0.0258803556
 40
0.0599916678
 40
0.102236791
 40
0.1515722064
 40
0.2068931556
 40
0.2671697974
 40
0.399072449
 40
0.5416629703
 40
0.691079456
 40
0.8445781716
 40
1.0
 40
1.0
 40
1.0
 40
1.0
 10
5.7026012942
 20
9.3214285714
 30
0.0
 10
5.7026013442
 20
9.3112971352
 30
0.0
 10
5.7078917315
 20
9.2879697383
 30
0.0
 10
5.7239048973
 20
9.2512807338
 30
0.0
 10
5.7478975678
 20
9.2082325467
 30
0.0
 10
5.7789051989
 20
9.1597881695
 30
0.0
 10
5.8157634327
 20
9.1067597034
 30
0.0
 10
5.8730736386
 20
9.0286302409
 30
0.0
 10
5.953431372
 20
8.925080216
 30
0.0
 10
6.0576149449
 20
8.795906432
 30
0.0
 10
6.1687669042
 20
8.6615080604
 30
0.0
 10
6.2843153378
 20
8.5242382917
 30
0.0
 10
6.3629545232
 20
8.4323628582
 30
0.0
 10
6.4026012942
 20
8.3862104886
 30
0.0
  0
SPLINE
  5
254
100
AcDbEntity
  8
0
100
AcDbSpline
 62
7
  6
BYLAYER
 70
0
 71
3
 72
20
 73
16
 74
0
 42
0.0000001
 43
0.0000001
 44
0.0000000001
 40
0.0
 40
0.0
 40
0.0
 40
0.0
 40
0.0087441523
 40
0.0150975159
 40
0.0232737971
 40
0.0458709591
 40
0.0776814763
 40
0.1192948087
 40
0.1704172305
 40
0.2305103101
 40
0.2990142834
 40
0.4576639237
 40
0.6352248668
 40
0.819555271
 40
1.0
 40
1.0
 40
1.0
 40
1.0
 10
5.8168223253
 20
8.2588073469
 30
0.0
 10
5.8164473678
 20
8.2605313621
 30
0.0
 10
5.8177463979
 20
8.2637664891
 30
0.0
 10
5.821021664
 20
8.2670585892
 30
0.0
 10
5.8270410799
 20
8.2716022813
 30
0.0
 10
5.8383166633
 20
8.2773827748
 30
0.0
 10
5.8563190381
 20
8.2845729858
 30
0.0
 10
5.8802220669
 20
8.2923736888
 30
0.0
 10
5.9098944351
 20
8.3007809084
 30
0.0
 10
5.945064853
 20
8.3096314386
 30
0.0
 10
6.0015887471
 20
8.3224630565
 30
0.0
 10
6.0817353176
 20
8.3381916699
 30
0.0
 10
6.1852661174
 20
8.3559168368
 30
0.0
 10
6.2934972213
 20
8.3721039755
 30
0.0
 10
6.3664681179
 20
8.3817435699
 30
0.0
 10
6.402601683
 20
8.3862100243
 30
0.0
  0
SPLINE
  5
255
100
AcDbEntity
  8
0
100
AcDbSpline
 62
7
  6
BYLAYER
 70
0
 71
3
 72
20
 73
16
 74
0
 42
0.0000001
 43
0.0000001
 44
0.0000000001
 40
0.0
 40
0.0
 40
0.0
 40
0.0
 40
0.0089357077
 40
0.015347163
 40
0.023563314
 40
0.0462044653
 40
0.0780309759
 40
0.1196434851
 40
0.170754233
 40
0.2308280386
 40
0.2993071916
 40
0.4578957736
 40
0.6353855824
 40
0.8196375873
 40
1.0
 40
1.0
 40
1.0
 40
1.0
 10
6.4026014172
 20
6.7699581921
 30
0.0
 10
6.4018873523
 20
6.7711614403
 30
0.0
 10
6.402005106
 20
6.7738972453
 30
0.0
 10
6.4035858985
 20
6.7771916212
 30
0.0
 10
6.4068642661
 20
6.7820653208
 30
0.0
 10
6.4137108282
 20
6.7891501707
 30
0.0
 10
6.4251660449
 20
6.7989154629
 30
0.0
 10
6.440821333
 20
6.810564728
 30
0.0
 10
6.4605808915
 20
6.8240604141
 30
0.0
 10
6.4842865235
 20
6.8392157029
 30
0.0
 10
6.5227402758
 20
6.8625207043
 30
0.0
 10
6.5778948105
 20
6.893704003
 30
0.0
 10
6.6498006186
 20
6.9320264385
 30
0.0
 10
6.7255640917
 20
6.9703172571
 30
0.0
 10
6.7769666582
 20
6.9951698377
 30
0.0
 10
6.8024971125
 20
7.0072439807
 30
0.0
  0
SPLINE
  5
256
100
AcDbEntity
  8
0
100
AcDbSpline
 62
7
  6
BYLAYER
 70
0
 71
3
 72
14
 73
10
 74
0
 42
0.0000001
 43
0.0000001
 44
0.0000000001
 40
0.0
 40
0.0
 40
0.0
 40
0.0
 40
0.0885418174
 40
0.1817340648
 40
0.2837833055
 40
0.3981285055
 40
0.527091899
 40
0.6708451986
 40
1.0
 40
1.0
 40
1.0
 40
1.0
 10
35.7026012942
 20
52.117311745
 30
0.0
 10
35.7025976697
 20
52.1278916858
 30
0.0
 10
35.6995362805
 20
52.1497120068
 30
0.0
 10
35.6859908954
 20
52.181171437
 30
0.0
 10
35.6636731337
 20
52.2110415666
 30
0.0
 10
35.6327531294
 20
52.2387066666
 30
0.0
 10
35.5935285807
 20
52.2635513357
 30
0.0
 10
35.5278963786
 20
52.2933485952
 30
0.0
 10
35.4722613912
 20
52.3066462239
 30
0.0
 10
35.4332862719
 20
52.3119252291
 30
0.0
  0
SPLINE
  5
257
100
AcDbEntity
  8
0
100
AcDbSpline
 62
7
  6
BYLAYER
 70
0
 71
3
 72
19
 73
15
 74
0
 42
0.0000001
 43
0.0000001
 44
0.0000000001
 40
0.0
 40
0.0
 40
0.0
 40
0.0
 40
0.0131726493
 40
0.0302072106
 40
0.0540612887
 40
0.0863655158
 40
0.1280051768
 40
0.1788546902
 40
0.2384698683
 40
0.306351685
 40
0.4634757467
 40
0.6392668752
 40
0.8216380212
 40
1.0
 40
1.0
 40
1.0
 40
1.0
 10
35.0026018351
 20
4.4305576887
 30
0.0
 10
35.0039011252
 20
4.4311532153
 30
0.0
 10
35.0064043207
 20
4.433610309
 30
0.0
 10
35.0079219431
 20
4.4394317678
 30
0.0
 10
35.0078840322
 20
4.4474047521
 30
0.0
 10
35.0061492221
 20
4.45790817
 30
0.0
 10
35.0026227185
 20
4.4709923182
 30
0.0
 10
34.9972959455
 20
4.4866224703
 30
0.0
 10
34.9901792287
 20
4.5046232401
 30
0.0
 10
34.9777292783
 20
4.5328914275
 30
0.0
 10
34.9582855349
 20
4.5718147971
 30
0.0
 10
34.9313244094
 20
4.6208061298
 30
0.0
 10
34.90150058
 20
4.670812317
 30
0.0
 10
34.8805127634
 20
4.7038563094
 30
0.0
 10
34.869914028
 20
4.7200487731
 30
0.0
  0
SPLINE
  5
258
100
AcDbEntity
  8
0
100
AcDbSpline
 62
7
  6
BYLAYER
 70
0
 71
3
 72
18
 73
14
 74
0
 42
0.0000001
 43
0.0000001
 44
0.0000000001
 40
0.0
 40
0.0
 40
0.0
 40
0.0
 40
0.0202759574
 40
0.0424310191
 40
0.0692558646
 40
0.1029365912
 40
0.1448904051
 40
0.1953623282
 40
0.3207851901
 40
0.4749907669
 40
0.6473549092
 40
0.8258525093
 40
1.0
 40
1.0
 40
1.0
 40
1.0
 10
35.213482364
 20
4.5546566353
 30
0.0
 10
35.2155148688
 20
4.5561511452
 30
0.0
 10
35.2192011688
 20
4.5601631985
 30
0.0
 10
35.2220715495
 20
4.5684927316
 30
0.0
 10
35.2221831434
 20
4.5788995446
 30
0.0
 10
35.2194888085
 20
4.5914307788
 30
0.0
 10
35.2138642485
 20
4.6061229482
 30
0.0
 10
35.2015810571
 20
4.6303227689
 30
0.0
 10
35.1786304681
 20
4.6645423404
 30
0.0
 10
35.1428779852
 20
4.7080092371
 30
0.0
 10
35.099819336
 20
4.7538396582
 30
0.0
 10
35.0524542006
 20
4.798864545
 30
0.0
 10
35.0192885012
 20
4.8276174311
 30
0.0
 10
35.0026044315
 20
4.8414432136
 30
0.0
  0
SPLINE
  5
259
100
AcDbEntity
  8
0
100
AcDbSpline
 62
7
  6
BYLAYER
 70
0
 71
3
 72
11
 73
7
 74
0
 42
0.0000001
 43
0.0000001
 44
0.0000000001
 40
0.0
 40
0.0
 40
0.0
 40
0.0
 40
0.1771565823
 40
0.4022483877
 40
0.6777607299
 40
1.0
 40
1.0
 40
1.0
 40
1.0
 10
35.7026012942
 20
5.5214385727
 30
0.0
 10
35.7026013266
 20
5.5071784672
 30
0.0
 10
35.6946475544
 20
5.4749749612
 30
0.0
 10
35.6690681272
 20
5.4266213113
 30
0.0
 10
35.6304267934
 20
5.3726365574
 30
0.0
 10
35.5992151695
 20
5.3359781115
 30
0.0
 10
35.5818991374
 20
5.316665994
 30
0.0
  0
SPLINE
  5
25A
100
AcDbEntity
  8
0
100
AcDbSpline
 62
7
  6
BYLAYER
 70
0
 71
3
 72
14
 73
10
 74
0
 42
0.0000001
 43
0.0000001
 44
0.0000000001
 40
0.0
 40
0.0
 40
0.0
 40
0.0
 40
0.1035069075
 40
0.2157872269
 40
0.4608827178
 40
0.5912328801
 40
0.7252751357
 40
0.8619312077
 40
1.0
 40
1.0
 40
1.0
 40
1.0
 10
35.5818991374
 20
5.316665994
 30
0.0
 10
35.5645872765
 20
5.2973585287
 30
0.0
 10
35.5274332526
 20
5.2580556226
 30
0.0
 10
35.4449214442
 20
5.1772560385
 30
0.0
 10
35.3533841758
 20
5.096170585
 30
0.0
 10
35.2543711153
 20
5.0155972161
 30
0.0
 10
35.1745384366
 20
4.9545507004
 30
0.0
 10
35.0906546836
 20
4.8957336553
 30
0.0
 10
35.0322959165
 20
4.8591814589
 30
0.0
 10
35.0026012942
 20
4.8414394277
 30
0.0
  0
SPLINE
  5
25B
100
AcDbEntity
  8
0
100
AcDbSpline
 62
7
  6
BYLAYER
 70
0
 71
3
 72
13
 73
9
 74
0
 42
0.0000001
 43
0.0000001
 44
0.0000000001
 40
0.0
 40
0.0
 40
0.0
 40
0.0
 40
0.2457911968
 40
0.370193256
 40
0.4952769574
 40
0.6209518585
 40
0.7470757027
 40
1.0
 40
1.0
 40
1.0
 40
1.0
 10
18.5323478528
 20
54.2742725733
 30
0.0
 10
18.7116808016
 20
54.280414942
 30
0.0
 10
18.9824779563
 20
54.2703454993
 30
0.0
 10
19.3423437787
 20
54.2355695856
 30
0.0
 10
19.6140858486
 20
54.2009610433
 30
0.0
 10
19.8861197928
 20
54.1596423769
 30
0.0
 10
20.2494175872
 20
54.0980355623
 30
0.0
 10
20.5213233945
 20
54.0465328858
 30
0.0
 10
20.7026012942
 20
54.0114285714
 30
0.0
  0
SPLINE
  5
25C
100
AcDbEntity
  8
0
100
AcDbSpline
 62
7
  6
BYLAYER
 70
0
 71
3
 72
13
 73
9
 74
0
 42
0.0000001
 43
0.0000001
 44
0.0000000001
 40
0.0
 40
0.0
 40
0.0
 40
0.0
 40
0.2457905761
 40
0.3701925238
 40
0.4952762519
 40
0.6209509844
 40
0.7470749015
 40
1.0
 40
1.0
 40
1.0
 40
1.0
 10
22.8728547356
 20
54.2742725733
 30
0.0
 10
22.6935225285
 20
54.2804149166
 30
0.0
 10
22.4227277747
 20
54.2702882614
 30
0.0
 10
22.0628629032
 20
54.2355268567
 30
0.0
 10
21.7911164025
 20
54.2009579114
 30
0.0
 10
21.5190776302
 20
54.159673336
 30
0.0
 10
21.155780247
 20
54.0980630458
 30
0.0
 10
20.8838794762
 20
54.0465329404
 30
0.0
 10
20.7026012942
 20
54.0114285714
 30
0.0
  0
SPLINE
  5
25D
100
AcDbEntity
  8
0
100
AcDbSpline
 62
7
  6
BYLAYER
 70
0
 71
3
 72
14
 73
10
 74
0
 42
0.0000001
 43
0.0000001
 44
0.0000000001
 40
0.0
 40
0.0
 40
0.0
 40
0.0
 40
0.0924776435
 40
0.1935929183
 40
0.3067070855
 40
0.4323275757
 40
0.5689171905
 40
0.7124788477
 40
1.0
 40
1.0
 40
1.0
 40
1.0
 10
6.0873389731
 20
52.6038438855
 30
0.0
 10
6.0771220176
 20
52.6014234343
 30
0.0
 10
6.0563911397
 20
52.5931383619
 30
0.0
 10
6.0285330667
 20
52.5715737656
 30
0.0
 10
6.0047841492
 20
52.5407208324
 30
0.0
 10
5.9860345513
 20
52.5021788251
 30
0.0
 10
5.9734716075
 20
52.4576422904
 30
0.0
 10
5.9647588908
 20
52.3936366133
 30
0.0
 10
5.9671628045
 20
52.3442204448
 30
0.0
 10
5.9719176699
 20
52.3119239358
 30
0.0
  0
SPLINE
  5
25E
100
AcDbEntity
  8
0
100
AcDbSpline
 62
7
  6
BYLAYER
 70
0
 71
3
 72
9
 73
5
 74
0
 42
0.0000001
 43
0.0000001
 44
0.0000000001
 40
0.0
 40
0.0
 40
0.0
 40
0.0
 40
0.2519547781
 40
1.0
 40
1.0
 40
1.0
 40
1.0
 10
34.8699136222
 20
4.7200478732
 30
0.0
 10
34.8825796485
 20
4.7283385211
 30
0.0
 10
34.9313200262
 20
4.763588709
 30
0.0
 10
34.9739237875
 20
4.8068328081
 30
0.0
 10
35.0026017431
 20
4.8414390557
 30
0.0
  0
SPLINE
  5
25F
100
AcDbEntity
  8
0
100
AcDbSpline
 62
7
  6
BYLAYER
 70
0
 71
3
 72
9
 73
5
 74
0
 42
0.0000001
 43
0.0000001
 44
0.0000000001
 40
0.0
 40
0.0
 40
0.0
 40
0.0
 40
0.5015835731
 40
1.0
 40
1.0
 40
1.0
 40
1.0
 10
34.5026012942
 20
4.6214315287
 30
0.0
 10
34.566859501
 20
4.6214318778
 30
0.0
 10
34.6956013145
 20
4.6348446126
 30
0.0
 10
34.8164862092
 20
4.6850814834
 30
0.0
 10
34.8699116312
 20
4.720050915
 30
0.0
  0
SPLINE
  5
260
100
AcDbEntity
  8
0
100
AcDbSpline
 62
7
  6
BYLAYER
 70
0
 71
3
 72
15
 73
11
 74
0
 42
0.0000001
 43
0.0000001
 44
0.0000000001
 40
0.0
 40
0.0
 40
0.0
 40
0.0
 40
0.1239636702
 40
0.2484395242
 40
0.3732678172
 40
0.4983736506
 40
0.6236486363
 40
0.7490519313
 40
0.8745102899
 40
1.0
 40
1.0
 40
1.0
 40
1.0
 10
6.8024727403
 20
7.0073249082
 30
0.0
 10
6.8876032158
 20
6.8273079142
 30
0.0
 10
7.0863506106
 20
6.479166091
 30
0.0
 10
7.4586346708
 20
6.0064933841
 30
0.0
 10
7.8974555018
 20
5.5920843829
 30
0.0
 10
8.3916367685
 20
5.2435195866
 30
0.0
 10
8.9307396038
 20
4.9676162247
 30
0.0
 10
9.5030636326
 20
4.7680328924
 30
0.0
 10
10.0973962161
 20
4.6481086363
 30
0.0
 10
10.501018507
 20
4.621428795
 30
0.0
 10
10.7026012942
 20
4.6214285496
 30
0.0
  0
ENDSEC
  0
SECTION
  2
OBJECTS
  0
DICTIONARY
  5
C
100
AcDbDictionary
280
0
281
1
  3
ACAD_GROUP
350
D
  3
ACAD_MLINESTYLE
350
17
  3
ACAD_LAYOUT
350
1A
  3
ACAD_PLOTSETTINGS
350
19
  3
ACAD_PLOTSTYLENAME
350
E
  0
DICTIONARY
  5
D
102
{ACAD_REACTORS
330
C
102
}
100
AcDbDictionary
280
0
281
1
  0
ACDBDICTIONARYWDFLT
  5
E
102
{ACAD_REACTORS
330
C
102
}
100
AcDbDictionary
281
1
  3
Normal
350
F
100
AcDbDictionaryWithDefault
340
F
  0
DICTIONARY
  5
17
102
{ACAD_REACTORS
330
C
102
}
100
AcDbDictionary
280
0
281
1
  3
Standard
350
18
  0
DICTIONARY
  5
19
102
{ACAD_REACTORS
330
C
102
}
100
AcDbDictionary
281
1
  0
DICTIONARY
  5
1A
102
{ACAD_REACTORS
330
C
102
}
100
AcDbDictionary
281
1
  3
Model
350
261
  3
Layout1
350
262
  0
ACDBPLACEHOLDER
  5
F
102
{ACAD_REACTORS
330
E
102
}
  0
MLINESTYLE
  5
18
102
{ACAD_REACTORS
330
17
102
}
100
AcDbMlineStyle
  2
STANDARD
 70
0
  3

 62
256
 51
90.0
 52
90.0
 71
2
 49
0.5
 62
256
  6
BYLAYER
 49
-0.5
 62
256
  6
BYLAYER
  0
LAYOUT
  5
261
102
{ACAD_REACTORS
330
1A
102
}
100
AcDbPlotSettings
  1

  2
none_device
  4

  6

 40
0.0
 41
0.0
 42
0.0
 43
0.0
 44
210.0
 45
297.0
 46
0.0
 47
0.0
 48
0.0
 49
0.0
140
0.0
141
0.0
142
1.0
143
1.0
 70
1024
 72
1
 73
0
 74
0
  7

 75
0
147
1.0
148
0.0
149
0.0
100
AcDbLayout
  1
Model
 70
0
 71
0
 10
0.0
 20
0.0
 11
210.0
 21
297.0
 12
0.0
 22
0.0
 32
0.0
 14
0.0
 24
0.0
 34
0.0
 15
0.0
 25
0.0
 35
0.0
146
0.0
 13
0.0
 23
0.0
 33
0.0
 16
1.0
 26
0.0
 36
0.0
 17
0.0
 27
1.0
 37
0.0
 76
0
330
210
345
0
346
0
  0
LAYOUT
  5
262
102
{ACAD_REACTORS
330
1A
102
}
100
AcDbPlotSettings
  1

  2
none_device
  4

  6

 40
0.0
 41
0.0
 42
0.0
 43
0.0
 44
210.0
 45
297.0
 46
0.0
 47
0.0
 48
0.0
 49
0.0
140
0.0
141
0.0
142
1.0
143
1.0
 70
0
 72
1
 73
0
 74
0
  7

 75
0
147
1.0
148
0.0
149
0.0
100
AcDbLayout
  1
Layout1
 70
0
 71
1
 10
0.0
 20
0.0
 11
210.0
 21
297.0
 12
0.0
 22
0.0
 32
0.0
 14
0.0
 24
0.0
 34
0.0
 15
0.0
 25
0.0
 35
0.0
146
0.0
 13
0.0
 23
0.0
 33
0.0
 16
1.0
 26
0.0
 36
0.0
 17
0.0
 27
1.0
 37
0.0
 76
0
330
211
345
0
346
0
  0
ENDSEC
  0
EOF
