999
DXF file: C:\Users\sesa63760\Dev\_Creo\CAD\MCADID0004239_3D-CAD\drw0001_4.dxf
999
Pro/ENGINEER 2019471 by Parametric Technology Corporation
  0
SECTION
  2
HEADER
  9
$ACADVER
  1
AC1024
  9
$DWGCODEPAGE
  3
ANSI_1252
  9
$EXTMAX
 10
327.5718200841
 20
463.2801455475
 30
0.0
  9
$EXTMIN
 10
0.0
 20
0.0
 30
0.0
  9
$LIMMIN
 10
0.0
 20
0.0
  9
$LIMMAX
 10
327.5718200841
 20
463.2801455475
  9
$VIEWCTR
 10
163.7859100421
 20
231.6400727738
  9
$VIEWSIZE
 40
463.2801455475
  9
$CLAYER
  8
0
  9
$LTSCALE
 40
30.1990020801
  9
$CELTYPE
  6
BYLAYER
  9
$DIMSCALE
 40
1.0
  9
$DIMASZ
 40
3.8996645248
  9
$DIMEXO
 40
1.0
  9
$DIMDLI
 40
20.8647650735
  9
$DIMEXE
 40
1.0
  9
$DIMCEN
 40
4.9416548858
  9
$DIMLFAC
 40
1.0
  9
$DIMBLK
  1
_FILLED
  9
$DIMALT
 70
0
  9
$DIMALTF
 40
0.0393700787
  9
$DIMTXT
 40
5.4595303347
  9
$DIMTOL
 70
1
  9
$DIMLIM
 70
0
  9
$DIMTFAC
 40
1.0
  9
$DIMTP
 40
0.01
  9
$DIMTM
 40
0.01
  9
$DIMGAP
 40
0.625
  9
$DIMDSEP
 70
46
  9
$AUNITS
 70
0
  9
$PDMODE
 70
3
  9
$PDSIZE
 40
0.3125
  9
$HANDSEED
  5
3F6
  9
$TILEMODE
 70
1
  9
$MEASUREMENT
 70
1
  9
$INSUNITS
 70
4
  0
ENDSEC
  0
SECTION
  2
CLASSES
  0
CLASS
  1
ACDBDICTIONARYWDFLT
  2
AcDbDictionaryWithDefault
  3
AutoCAD 2000
 90
0
 91
1
280
0
281
0
  0
CLASS
  1
ACDBPLACEHOLDER
  2
AcDbPlaceHolder
  3
AutoCAD 2000
 90
0
 91
1
280
0
281
0
  0
CLASS
  1
LAYOUT
  2
AcDbLayout
  3
AutoCAD 2000
 90
0
 91
0
280
0
281
0
  0
ENDSEC
  0
SECTION
  2
TABLES
  0
TABLE
  2
VPORT
  5
8
100
AcDbSymbolTable
 70
2
  0
VPORT
  5
1F4
100
AcDbSymbolTableRecord
100
AcDbViewportTableRecord
  2
*ACTIVE
 70
0
 10
0.0
 20
0.0
 11
1.0
 21
1.0
 12
163.7859100421
 22
231.6400727738
 13
0.0
 23
0.0
 14
1.0
 24
1.0
 15
0.0
 25
0.0
 16
0.0
 26
0.0
 36
1.0
 17
0.0
 27
0.0
 37
0.0
 40
463.2801455475
 41
0.7070707071
 42
50.0
 43
0.0
 44
0.0
 50
0.0
 51
0.0
 71
0
 72
100
 73
1
 74
1
 75
0
 76
0
 77
0
 78
0
  0
ENDTAB
  0
TABLE
  2
LTYPE
  5
5
100
AcDbSymbolTable
 70
6
  0
LTYPE
  5
14
100
AcDbSymbolTableRecord
100
AcDbLinetypeTableRecord
  2
BYBLOCK
 70
0
  3

 72
65
 73
0
 40
0.0
  0
LTYPE
  5
15
100
AcDbSymbolTableRecord
100
AcDbLinetypeTableRecord
  2
BYLAYER
 70
0
  3

 72
65
 73
0
 40
0.0
  0
LTYPE
  5
16
100
AcDbSymbolTableRecord
100
AcDbLinetypeTableRecord
  2
CONTINUOUS
 70
64
  3
Solid line
 72
65
 73
0
 40
0.0
  0
LTYPE
  5
1F5
100
AcDbSymbolTableRecord
100
AcDbLinetypeTableRecord
  2
CENTER
 70
64
  3
____ _ ____ _ ____ _ ____ _ ____ _ ____ _ ____
 72
65
 73
4
 40
0.6
 49
0.375
 74
0
 49
-0.075
 74
0
 49
0.075
 74
0
 49
-0.075
 74
0
  0
LTYPE
  5
1F6
100
AcDbSymbolTableRecord
100
AcDbLinetypeTableRecord
  2
HIDDEN
 70
64
  3
- - - - - - - - - - - - - - - - - - - -
 72
65
 73
2
 40
0.2
 49
0.1
 74
0
 49
-0.1
 74
0
  0
LTYPE
  5
1F7
100
AcDbSymbolTableRecord
100
AcDbLinetypeTableRecord
  2
PHANTOM
 70
64
  3
_____ _ _ _____ _ _ _____ _ _ _____
 72
65
 73
6
 40
0.8
 49
0.45
 74
0
 49
-0.05
 74
0
 49
0.1
 74
0
 49
-0.05
 74
0
 49
0.1
 74
0
 49
-0.05
 74
0
  0
LTYPE
  5
1F8
100
AcDbSymbolTableRecord
100
AcDbLinetypeTableRecord
  2
DOT
 70
64
  3
. . . . . . . . . . . . . . . . . . . .
 72
65
 73
2
 40
0.2
 49
0.1
 74
0
 49
-0.1
 74
0
  0
LTYPE
  5
1F9
100
AcDbSymbolTableRecord
100
AcDbLinetypeTableRecord
  2
DASHED
 70
64
  3
- - - - - - - - - - - - - - - - - - - -
 72
65
 73
2
 40
0.2
 49
0.1
 74
0
 49
-0.1
 74
0
  0
ENDTAB
  0
TABLE
  2
LAYER
  5
2
100
AcDbSymbolTable
 70
36
  0
LAYER
  5
10
100
AcDbSymbolTableRecord
100
AcDbLayerTableRecord
  2
0
 70
0
 62
7
  6
CONTINUOUS
370
-3
390
F
  0
LAYER
  5
1FA
100
AcDbSymbolTableRecord
100
AcDbLayerTableRecord
  2
DEFAULT_1
 70
0
 62
7
  6
CENTER
370
-3
390
F
  0
LAYER
  5
1FB
100
AcDbSymbolTableRecord
100
AcDbLayerTableRecord
  2
DEFAULT_2
 70
0
 62
7
  6
HIDDEN
370
-3
390
F
  0
LAYER
  5
1FC
100
AcDbSymbolTableRecord
100
AcDbLayerTableRecord
  2
DEFAULT_3
 70
0
 62
7
  6
PHANTOM
370
-3
390
F
  0
LAYER
  5
1FD
100
AcDbSymbolTableRecord
100
AcDbLayerTableRecord
  2
00_COMPONENTS
 70
0
 62
7
  6
CONTINUOUS
370
-3
390
F
  0
LAYER
  5
1FE
100
AcDbSymbolTableRecord
100
AcDbLayerTableRecord
  2
01_1_DEFAULT_DATUMS
 70
0
 62
7
  6
CONTINUOUS
370
-3
390
F
  0
LAYER
  5
1FF
100
AcDbSymbolTableRecord
100
AcDbLayerTableRecord
  2
01_PLANES
 70
0
 62
7
  6
CONTINUOUS
370
-3
390
F
  0
LAYER
  5
200
100
AcDbSymbolTableRecord
100
AcDbLayerTableRecord
  2
02_COORD_SYS
 70
0
 62
7
  6
CONTINUOUS
370
-3
390
F
  0
LAYER
  5
201
100
AcDbSymbolTableRecord
100
AcDbLayerTableRecord
  2
03_AXES
 70
0
 62
7
  6
CONTINUOUS
370
-3
390
F
  0
LAYER
  5
202
100
AcDbSymbolTableRecord
100
AcDbLayerTableRecord
  2
04_POINTS
 70
0
 62
7
  6
CONTINUOUS
370
-3
390
F
  0
LAYER
  5
203
100
AcDbSymbolTableRecord
100
AcDbLayerTableRecord
  2
05_CURVES
 70
0
 62
7
  6
CONTINUOUS
370
-3
390
F
  0
LAYER
  5
204
100
AcDbSymbolTableRecord
100
AcDbLayerTableRecord
  2
06_SURFS
 70
0
 62
7
  6
CONTINUOUS
370
-3
390
F
  0
LAYER
  5
205
100
AcDbSymbolTableRecord
100
AcDbLayerTableRecord
  2
07_COSMETICS
 70
0
 62
7
  6
CONTINUOUS
370
-3
390
F
  0
LAYER
  5
206
100
AcDbSymbolTableRecord
100
AcDbLayerTableRecord
  2
10_NOTES
 70
0
 62
7
  6
CONTINUOUS
370
-3
390
F
  0
LAYER
  5
207
100
AcDbSymbolTableRecord
100
AcDbLayerTableRecord
  2
11_NOTES_PUB
 70
0
 62
7
  6
CONTINUOUS
370
-3
390
F
  0
LAYER
  5
208
100
AcDbSymbolTableRecord
100
AcDbLayerTableRecord
  2
13_REF_GTOL
 70
0
 62
7
  6
CONTINUOUS
370
-3
390
F
  0
LAYER
  5
209
100
AcDbSymbolTableRecord
100
AcDbLayerTableRecord
  2
16_MISC
 70
0
 62
7
  6
CONTINUOUS
370
-3
390
F
  0
LAYER
  5
20A
100
AcDbSymbolTableRecord
100
AcDbLayerTableRecord
  2
17_NO_PRINT
 70
0
 62
7
  6
CONTINUOUS
370
-3
390
F
  0
LAYER
  5
20B
100
AcDbSymbolTableRecord
100
AcDbLayerTableRecord
  2
18_DATUM_CAMS_JOINTS
 70
0
 62
7
  6
CONTINUOUS
370
-3
390
F
  0
LAYER
  5
20C
100
AcDbSymbolTableRecord
100
AcDbLayerTableRecord
  2
19_DATUM_FUNCTIONAL
 70
0
 62
7
  6
CONTINUOUS
370
-3
390
F
  0
LAYER
  5
20D
100
AcDbSymbolTableRecord
100
AcDbLayerTableRecord
  2
20_DATUM_KINEMATIC_SCHEME
 70
0
 62
7
  6
CONTINUOUS
370
-3
390
F
  0
LAYER
  5
20E
100
AcDbSymbolTableRecord
100
AcDbLayerTableRecord
  2
3
 70
0
 62
7
  6
CONTINUOUS
370
-3
390
F
  0
LAYER
  5
20F
100
AcDbSymbolTableRecord
100
AcDbLayerTableRecord
  2
4
 70
0
 62
7
  6
CONTINUOUS
370
-3
390
F
  0
ENDTAB
  0
TABLE
  2
STYLE
  5
3
100
AcDbSymbolTable
 70
1
  0
STYLE
  5
11
100
AcDbSymbolTableRecord
100
AcDbTextStyleTableRecord
  2
STANDARD
 70
0
 40
0.0
 41
1.0
 50
0.0
 71
0
 42
0.2
  3
ARIAL.TTF
  4

  0
STYLE
  5
210
100
AcDbSymbolTableRecord
100
AcDbTextStyleTableRecord
  2
TEXTSTYLE_1
 70
0
 40
0.0
 41
0.8
 50
0.0
 71
0
 42
0.2
  3
gdt
  4

  0
ENDTAB
  0
TABLE
  2
VIEW
  5
6
100
AcDbSymbolTable
 70
0
  0
ENDTAB
  0
TABLE
  2
UCS
  5
7
100
AcDbSymbolTable
 70
0
  0
ENDTAB
  0
TABLE
  2
APPID
  5
9
100
AcDbSymbolTable
 70
1
  0
APPID
  5
211
100
AcDbSymbolTableRecord
100
AcDbRegAppTableRecord
  2
ACAD
 70
0
  0
ENDTAB
  0
TABLE
  2
BLOCK_RECORD
  5
1
100
AcDbSymbolTable
 70
0
  0
BLOCK_RECORD
  5
212
100
AcDbSymbolTableRecord
100
AcDbBlockTableRecord
  2
*Model_Space
  0
BLOCK_RECORD
  5
213
100
AcDbSymbolTableRecord
100
AcDbBlockTableRecord
  2
*Paper_Space
  0
BLOCK_RECORD
  5
214
100
AcDbSymbolTableRecord
100
AcDbBlockTableRecord
  2
_FILLED
  0
ENDTAB
  0
TABLE
  2
DIMSTYLE
  5
A
100
AcDbSymbolTable
 70
1
100
AcDbDimStyleTable
 71
0
  0
DIMSTYLE
105
215
100
AcDbSymbolTableRecord
100
AcDbDimStyleTableRecord
  2
STANDARD
 70
0
  3

  4

 40
1.0
 41
3.8996645248
 42
1.0
 43
0.38
 44
1.0
 45
0.0
 46
0.0
 47
0.01
 48
0.01
140
5.4595303347
141
0.09
142
0.0
143
25.4
144
1.0
145
0.0
146
1.0
147
0.625
 71
1
 72
0
 73
0
 74
0
 75
0
 76
0
 77
1
 78
8
 79
2
170
0
171
1
172
0
173
0
174
0
175
0
176
0
177
0
178
0
270
2
179
2
271
2
272
2
273
2
274
2
275
0
280
0
281
0
282
0
283
1
284
8
285
0
286
0
287
3
288
0
340
11
278
46
341
214
342
214
343
214
344
214
  0
ENDTAB
  0
ENDSEC
  0
SECTION
  2
BLOCKS
  0
BLOCK
  5
20
100
AcDbEntity
  8
0
100
AcDbBlockBegin
  2
*Model_Space
 70
0
 10
0.0
 20
0.0
 30
0.0
  3
*Model_Space
  1

  0
ENDBLK
  5
21
100
AcDbEntity
  8
0
100
AcDbBlockEnd
  0
BLOCK
  5
1C
100
AcDbEntity
  8
0
100
AcDbBlockBegin
  2
*Paper_Space
 70
0
 10
0.0
 20
0.0
 30
0.0
  3
*Paper_Space
  1

  0
ENDBLK
  5
1D
100
AcDbEntity
  8
0
100
AcDbBlockEnd
  0
BLOCK
  5
216
100
AcDbEntity
  8
0
100
AcDbBlockBegin
  2
_FILLED
 70
64
 10
0.0
 20
0.0
  3
_FILLED
  1

  0
SOLID
  5
217
100
AcDbEntity
  8
0
  6
BYBLOCK
 62
0
100
AcDbTrace
 10
0.0
 20
0.0
 11
-1.0
 21
0.25
 12
-1.0
 22
-0.25
 13
-1.0
 23
-0.25
  0
ENDBLK
  5
218
100
AcDbEntity
  8
0
  6
BYBLOCK
 62
0
100
AcDbBlockEnd
  0
ENDSEC
  0
SECTION
  2
ENTITIES
  0
LINE
  5
219
100
AcDbEntity
  8
0
100
AcDbLine
 62
7
  6
BYLAYER
 10
72.8703397786
 20
423.2724461622
 11
72.3703397786
 21
422.7724461622
  0
LINE
  5
21A
100
AcDbEntity
  8
0
100
AcDbLine
 62
7
  6
BYLAYER
 10
92.6203378
 20
427.2724461622
 11
92.1203397786
 21
426.7724483207
  0
LINE
  5
21B
100
AcDbEntity
  8
0
100
AcDbLine
 62
7
  6
BYLAYER
 10
260.56911647
 20
33.1724461622
 11
254.9687431027
 21
33.1724461622
  0
LINE
  5
21C
100
AcDbEntity
  8
0
100
AcDbLine
 62
7
  6
BYLAYER
 10
218.5686414329
 20
33.1724461622
 11
212.9692181457
 21
33.1724461622
  0
LINE
  5
21D
100
AcDbEntity
  8
0
100
AcDbLine
 62
7
  6
BYLAYER
 10
112.9199855815
 20
33.1724461622
 11
107.3196122142
 21
33.1724461622
  0
LINE
  5
21E
100
AcDbEntity
  8
0
100
AcDbLine
 62
7
  6
BYLAYER
 10
70.9195105444
 20
33.1724461622
 11
65.3200872572
 21
33.1724461622
  0
LINE
  5
21F
100
AcDbEntity
  8
0
100
AcDbLine
 62
7
  6
BYLAYER
 10
65.6083346871
 20
33.2723360237
 11
112.6308879741
 21
33.2723360237
  0
LINE
  5
220
100
AcDbEntity
  8
0
100
AcDbLine
 62
7
  6
BYLAYER
 10
213.2574655756
 20
33.2723360237
 11
260.2800188626
 21
33.2723360237
  0
LINE
  5
221
100
AcDbEntity
  8
0
100
AcDbLine
 62
7
  6
BYLAYER
 10
261.569217896
 20
34.1724461622
 11
261.2476914521
 21
34.1724461622
  0
LINE
  5
222
100
AcDbEntity
  8
0
100
AcDbLine
 62
7
  6
BYLAYER
 10
212.2897944897
 20
34.1724461622
 11
211.9692178991
 21
34.1724461622
  0
LINE
  5
223
100
AcDbEntity
  8
0
100
AcDbLine
 62
7
  6
BYLAYER
 10
113.9200870075
 20
34.1724461622
 11
113.5985605636
 21
34.1724461622
  0
LINE
  5
224
100
AcDbEntity
  8
0
100
AcDbLine
 62
7
  6
BYLAYER
 10
64.6406636012
 20
34.1724461622
 11
64.3200870106
 21
34.1724461622
  0
LINE
  5
225
100
AcDbEntity
  8
0
100
AcDbLine
 62
7
  6
BYLAYER
 10
261.7687428561
 20
34.2723360237
 11
261.569217896
 21
34.2723360237
  0
LINE
  5
226
100
AcDbEntity
  8
0
100
AcDbLine
 62
7
  6
BYLAYER
 10
261.2801478798
 20
34.2723360237
 11
212.2573378323
 21
34.2723360237
  0
LINE
  5
227
100
AcDbEntity
  8
0
100
AcDbLine
 62
7
  6
BYLAYER
 10
211.9692178991
 20
34.2723360237
 11
211.7687428561
 21
34.2723360237
  0
LINE
  5
228
100
AcDbEntity
  8
0
100
AcDbLine
 62
7
  6
BYLAYER
 10
114.1196119676
 20
34.2723360237
 11
113.9200870075
 21
34.2723360237
  0
LINE
  5
229
100
AcDbEntity
  8
0
100
AcDbLine
 62
7
  6
BYLAYER
 10
113.6310169913
 20
34.2723360237
 11
64.6082069438
 21
34.2723360237
  0
LINE
  5
22A
100
AcDbEntity
  8
0
100
AcDbLine
 62
7
  6
BYLAYER
 10
64.3200870106
 20
34.2723360237
 11
64.1196119676
 21
34.2723360237
  0
LINE
  5
22B
100
AcDbEntity
  8
0
100
AcDbLine
 62
7
  6
BYLAYER
 10
64.1196119676
 20
35.2723359548
 11
64.3200870106
 21
35.2723359548
  0
LINE
  5
22C
100
AcDbEntity
  8
0
100
AcDbLine
 62
7
  6
BYLAYER
 10
113.9200870075
 20
35.2723359666
 11
114.1196119676
 21
35.2723359666
  0
LINE
  5
22D
100
AcDbEntity
  8
0
100
AcDbLine
 62
7
  6
BYLAYER
 10
211.7687428561
 20
35.2723359548
 11
211.9692178991
 21
35.2723359548
  0
LINE
  5
22E
100
AcDbEntity
  8
0
100
AcDbLine
 62
7
  6
BYLAYER
 10
261.569217896
 20
35.2723359666
 11
261.7687428561
 21
35.2723359666
  0
LINE
  5
22F
100
AcDbEntity
  8
0
100
AcDbLine
 62
7
  6
BYLAYER
 10
64.3200870106
 20
35.7724461622
 11
64.6082069438
 21
35.7724461622
  0
LINE
  5
230
100
AcDbEntity
  8
0
100
AcDbLine
 62
7
  6
BYLAYER
 10
113.6310169913
 20
35.7724461622
 11
113.9200870075
 21
35.7724461622
  0
LINE
  5
231
100
AcDbEntity
  8
0
100
AcDbLine
 62
7
  6
BYLAYER
 10
211.9692178991
 20
35.7724461622
 11
212.2573378323
 21
35.7724461622
  0
LINE
  5
232
100
AcDbEntity
  8
0
100
AcDbLine
 62
7
  6
BYLAYER
 10
261.2801478798
 20
35.7724461622
 11
261.569217896
 21
35.7724461622
  0
LINE
  5
233
100
AcDbEntity
  8
0
100
AcDbLine
 62
7
  6
BYLAYER
 10
261.7687428561
 20
36.2723360237
 11
261.2224338013
 21
36.2723360237
  0
LINE
  5
234
100
AcDbEntity
  8
0
100
AcDbLine
 62
7
  6
BYLAYER
 10
212.3150519109
 20
36.2723360237
 11
211.7687428561
 21
36.2723360237
  0
LINE
  5
235
100
AcDbEntity
  8
0
100
AcDbLine
 62
7
  6
BYLAYER
 10
114.1196119676
 20
36.2723360237
 11
113.5733029127
 21
36.2723360237
  0
LINE
  5
236
100
AcDbEntity
  8
0
100
AcDbLine
 62
7
  6
BYLAYER
 10
64.6659210224
 20
36.2723360237
 11
64.1196119676
 21
36.2723360237
  0
LINE
  5
237
100
AcDbEntity
  8
0
100
AcDbLine
 62
7
  6
BYLAYER
 10
90.8703397786
 20
423.2724461622
 11
90.3703397786
 21
422.7724461622
  0
LINE
  5
238
100
AcDbEntity
  8
0
100
AcDbLine
 62
7
  6
BYLAYER
 10
90.8703397786
 20
418.2724461622
 11
90.3703397786
 21
417.7724461622
  0
LINE
  5
239
100
AcDbEntity
  8
0
100
AcDbLine
 62
7
  6
BYLAYER
 10
64.1196119676
 20
50.7723360237
 11
114.1196119676
 21
50.7723360237
  0
LINE
  5
23A
100
AcDbEntity
  8
0
100
AcDbLine
 62
7
  6
BYLAYER
 10
211.7687428561
 20
50.7723360237
 11
261.7687428561
 21
50.7723360237
  0
LINE
  5
23B
100
AcDbEntity
  8
3
100
AcDbLine
 62
7
  6
BYLAYER
 10
261.7692178991
 20
50.7724589707
 11
255.76823732
 21
50.7724589707
  0
LINE
  5
23C
100
AcDbEntity
  8
3
100
AcDbLine
 62
7
  6
BYLAYER
 10
255.5685787504
 20
50.7724589707
 11
217.9685787504
 21
50.7724589707
  0
LINE
  5
23D
100
AcDbEntity
  8
3
100
AcDbLine
 62
7
  6
BYLAYER
 10
217.7701984781
 20
50.7724589707
 11
211.7692178991
 21
50.7724589707
  0
LINE
  5
23E
100
AcDbEntity
  8
3
100
AcDbLine
 62
7
  6
BYLAYER
 10
114.1200870106
 20
50.7724589707
 11
108.1191064315
 21
50.7724589707
  0
LINE
  5
23F
100
AcDbEntity
  8
3
100
AcDbLine
 62
7
  6
BYLAYER
 10
107.9194478619
 20
50.7724589707
 11
70.3194478619
 21
50.7724589707
  0
LINE
  5
240
100
AcDbEntity
  8
3
100
AcDbLine
 62
7
  6
BYLAYER
 10
70.1210675896
 20
50.7724589707
 11
64.1200870106
 21
50.7724589707
  0
LINE
  5
241
100
AcDbEntity
  8
0
100
AcDbLine
 62
7
  6
BYLAYER
 10
105.6703397786
 20
416.7724461622
 11
105.8703397786
 21
416.9724461622
  0
LINE
  5
242
100
AcDbEntity
  8
4
100
AcDbLine
 62
7
  6
BYLAYER
 10
271.9579635826
 20
78.1206212855
 11
261.7692178991
 21
78.1206212855
  0
LINE
  5
243
100
AcDbEntity
  8
3
100
AcDbLine
 62
7
  6
BYLAYER
 10
124.3088326941
 20
78.1206212855
 11
114.1200870106
 21
78.1206212855
  0
LINE
  5
244
100
AcDbEntity
  8
0
100
AcDbLine
 62
7
  6
BYLAYER
 10
64.1196119676
 20
34.2723360237
 11
64.1196119676
 21
50.7723360237
  0
LINE
  5
245
100
AcDbEntity
  8
3
100
AcDbLine
 62
7
  6
BYLAYER
 10
64.1200870106
 20
399.2724589707
 11
64.1200870106
 21
50.7724589707
  0
LINE
  5
246
100
AcDbEntity
  8
0
100
AcDbLine
 62
7
  6
BYLAYER
 10
64.1203397786
 20
415.7724461622
 11
64.1203397786
 21
399.2724461622
  0
LINE
  5
247
100
AcDbEntity
  8
0
100
AcDbLine
 62
7
  6
BYLAYER
 10
64.3200870106
 20
35.7724461622
 11
64.3200870106
 21
34.1724461622
  0
LINE
  5
248
100
AcDbEntity
  8
0
100
AcDbLine
 62
7
  6
BYLAYER
 10
64.3203397786
 20
415.8724461622
 11
64.3203397786
 21
414.2724461622
  0
LINE
  5
249
100
AcDbEntity
  8
0
100
AcDbLine
 62
7
  6
BYLAYER
 10
64.5043724911
 20
36.2723360237
 11
64.5043724911
 21
50.7723360237
  0
LINE
  5
24A
100
AcDbEntity
  8
3
100
AcDbLine
 62
7
  6
BYLAYER
 10
64.5048475342
 20
50.7724589707
 11
64.5048475342
 21
399.2724589707
  0
LINE
  5
24B
100
AcDbEntity
  8
0
100
AcDbLine
 62
7
  6
BYLAYER
 10
64.5051003022
 20
399.2724461622
 11
64.5051003022
 21
413.7724461622
  0
LINE
  5
24C
100
AcDbEntity
  8
0
100
AcDbLine
 62
7
  6
BYLAYER
 10
64.6082069438
 20
35.8876470073
 11
64.6082069438
 21
34.2723360237
  0
LINE
  5
24D
100
AcDbEntity
  8
0
100
AcDbLine
 62
7
  6
BYLAYER
 10
64.6089347549
 20
415.7724461622
 11
64.6089347549
 21
414.1571351616
  0
LINE
  5
24E
100
AcDbEntity
  8
0
100
AcDbLine
 62
7
  6
BYLAYER
 10
64.6659210224
 20
34.2723360237
 11
64.6659210224
 21
36.2723360237
  0
LINE
  5
24F
100
AcDbEntity
  8
0
100
AcDbLine
 62
7
  6
BYLAYER
 10
64.6666488334
 20
413.7724461622
 11
64.6666488334
 21
415.7724461622
  0
LINE
  5
250
100
AcDbEntity
  8
0
100
AcDbLine
 62
7
  6
BYLAYER
 10
65.7051668978
 20
50.7723360237
 11
65.7051668978
 21
34.2723360237
  0
LINE
  5
251
100
AcDbEntity
  8
3
100
AcDbLine
 62
7
  6
BYLAYER
 10
65.7056419408
 20
399.2724589707
 11
65.7056419408
 21
50.7724589707
  0
LINE
  5
252
100
AcDbEntity
  8
0
100
AcDbLine
 62
7
  6
BYLAYER
 10
65.7058947088
 20
415.7724461622
 11
65.7058947088
 21
399.2724461622
  0
LINE
  5
253
100
AcDbEntity
  8
3
100
AcDbLine
 62
7
  6
BYLAYER
 10
114.1200870106
 20
128.1206212855
 11
124.3088326941
 21
128.1206212855
  0
LINE
  5
254
100
AcDbEntity
  8
4
100
AcDbLine
 62
7
  6
BYLAYER
 10
261.7692178991
 20
128.1206212855
 11
271.9579635826
 21
128.1206212855
  0
LINE
  5
255
100
AcDbEntity
  8
0
100
AcDbLine
 62
7
  6
BYLAYER
 10
67.6282147931
 20
33.2723360237
 11
67.6282147931
 21
50.7723360237
  0
LINE
  5
256
100
AcDbEntity
  8
3
100
AcDbLine
 62
7
  6
BYLAYER
 10
67.6286898361
 20
50.7724589707
 11
67.6286898361
 21
399.2724589707
  0
LINE
  5
257
100
AcDbEntity
  8
0
100
AcDbLine
 62
7
  6
BYLAYER
 10
67.6289426041
 20
399.2724461622
 11
67.6289426041
 21
416.7724461622
  0
LINE
  5
258
100
AcDbEntity
  8
0
100
AcDbLine
 62
7
  6
BYLAYER
 10
67.8835439901
 20
50.7723360237
 11
67.8835439901
 21
33.2723360237
  0
LINE
  5
259
100
AcDbEntity
  8
0
100
AcDbLine
 62
7
  6
BYLAYER
 10
67.8842718011
 20
416.7724461622
 11
67.8842718011
 21
399.2724461622
  0
LINE
  5
25A
100
AcDbEntity
  8
3
100
AcDbLine
 62
7
  6
BYLAYER
 10
67.8849996121
 20
399.2724589707
 11
67.8849996121
 21
50.7724589707
  0
LINE
  5
25B
100
AcDbEntity
  8
0
100
AcDbLine
 62
7
  6
BYLAYER
 10
69.6723983721
 20
34.2723360237
 11
69.6723983721
 21
50.7723360237
  0
LINE
  5
25C
100
AcDbEntity
  8
0
100
AcDbLine
 62
7
  6
BYLAYER
 10
69.6731261831
 20
399.2724461622
 11
69.6731261831
 21
415.7724461622
  0
LINE
  5
25D
100
AcDbEntity
  8
3
100
AcDbLine
 62
7
  6
BYLAYER
 10
69.6738539941
 20
50.7724589707
 11
69.6738539941
 21
399.2724589707
  0
LINE
  5
25E
100
AcDbEntity
  8
0
100
AcDbLine
 62
7
  6
BYLAYER
 10
70.0668255631
 20
50.7723360237
 11
70.0668255631
 21
34.2723360237
  0
LINE
  5
25F
100
AcDbEntity
  8
0
100
AcDbLine
 62
7
  6
BYLAYER
 10
70.0675533741
 20
415.7724461622
 11
70.0675533741
 21
399.2724461622
  0
LINE
  5
260
100
AcDbEntity
  8
3
100
AcDbLine
 62
7
  6
BYLAYER
 10
70.0682811851
 20
399.2724589707
 11
70.0682811851
 21
50.7724589707
  0
LINE
  5
261
100
AcDbEntity
  8
0
100
AcDbLine
 62
7
  6
BYLAYER
 10
70.1196119676
 20
34.2723360237
 11
70.1196119676
 21
50.7723360237
  0
LINE
  5
262
100
AcDbEntity
  8
0
100
AcDbLine
 62
7
  6
BYLAYER
 10
70.1203397786
 20
399.2724461622
 11
70.1203397786
 21
415.7724461622
  0
LINE
  5
263
100
AcDbEntity
  8
3
100
AcDbLine
 62
7
  6
BYLAYER
 10
70.1210675896
 20
50.7724589707
 11
70.1210675896
 21
399.2724589707
  0
LINE
  5
264
100
AcDbEntity
  8
3
100
AcDbLine
 62
7
  6
BYLAYER
 10
70.3194478619
 20
50.7724589707
 11
70.3194478619
 21
399.2724754298
  0
LINE
  5
265
100
AcDbEntity
  8
0
100
AcDbLine
 62
7
  6
BYLAYER
 10
72.3703397786
 20
416.7724461622
 11
72.3703397786
 21
422.7724461622
  0
LINE
  5
266
100
AcDbEntity
  8
0
100
AcDbLine
 62
7
  6
BYLAYER
 10
75.9935797786
 20
424.4724461622
 11
75.9935797786
 21
423.2724461622
  0
LINE
  5
267
100
AcDbEntity
  8
0
100
AcDbLine
 62
7
  6
BYLAYER
 10
79.4185797786
 20
423.2724461622
 11
79.4185797786
 21
424.7724461622
  0
LINE
  5
268
100
AcDbEntity
  8
0
100
AcDbLine
 62
7
  6
BYLAYER
 10
80.8185797786
 20
423.2724461622
 11
80.8185797786
 21
424.7724461622
  0
LINE
  5
269
100
AcDbEntity
  8
0
100
AcDbLine
 62
7
  6
BYLAYER
 10
220.5194706671
 20
423.2724461622
 11
220.0194706671
 21
422.7724461622
  0
LINE
  5
26A
100
AcDbEntity
  8
0
100
AcDbLine
 62
7
  6
BYLAYER
 10
240.2694686885
 20
427.2724461622
 11
239.7694706671
 21
426.7724483207
  0
LINE
  5
26B
100
AcDbEntity
  8
0
100
AcDbLine
 62
7
  6
BYLAYER
 10
84.2435797786
 20
423.2724461622
 11
84.2435797786
 21
424.4724461622
  0
LINE
  5
26C
100
AcDbEntity
  8
0
100
AcDbLine
 62
7
  6
BYLAYER
 10
87.8703397786
 20
416.7724461622
 11
87.8703397786
 21
422.7724461622
  0
LINE
  5
26D
100
AcDbEntity
  8
0
100
AcDbLine
 62
7
  6
BYLAYER
 10
90.3703397786
 20
416.7724461622
 11
90.3703397786
 21
422.7724461622
  0
LINE
  5
26E
100
AcDbEntity
  8
0
100
AcDbLine
 62
7
  6
BYLAYER
 10
92.1203397786
 20
426.7724452248
 11
92.1203397786
 21
419.2724461622
  0
LINE
  5
26F
100
AcDbEntity
  8
0
100
AcDbLine
 62
7
  6
BYLAYER
 10
92.6203397786
 20
418.2724461622
 11
92.6203397786
 21
419.2724461622
  0
LINE
  5
270
100
AcDbEntity
  8
0
100
AcDbLine
 62
7
  6
BYLAYER
 10
238.5194706671
 20
423.2724461622
 11
238.0194706671
 21
422.7724461622
  0
LINE
  5
271
100
AcDbEntity
  8
0
100
AcDbLine
 62
7
  6
BYLAYER
 10
238.5194706671
 20
418.2724461622
 11
238.0194706671
 21
417.7724461622
  0
LINE
  5
272
100
AcDbEntity
  8
0
100
AcDbLine
 62
7
  6
BYLAYER
 10
103.6203397786
 20
418.2724461622
 11
103.6203397786
 21
419.2724461622
  0
LINE
  5
273
100
AcDbEntity
  8
0
100
AcDbLine
 62
7
  6
BYLAYER
 10
104.1203397786
 20
419.2724461622
 11
104.1203397786
 21
426.7724452248
  0
LINE
  5
274
100
AcDbEntity
  8
0
100
AcDbLine
 62
7
  6
BYLAYER
 10
105.8703397786
 20
416.7724461622
 11
105.8703397786
 21
422.7724461622
  0
LINE
  5
275
100
AcDbEntity
  8
3
100
AcDbLine
 62
7
  6
BYLAYER
 10
107.9194478619
 20
399.2724754298
 11
107.9194478619
 21
50.7724589707
  0
LINE
  5
276
100
AcDbEntity
  8
3
100
AcDbLine
 62
7
  6
BYLAYER
 10
108.1191064315
 20
399.2724589707
 11
108.1191064315
 21
50.7724589707
  0
LINE
  5
277
100
AcDbEntity
  8
0
100
AcDbLine
 62
7
  6
BYLAYER
 10
108.1196119676
 20
50.7723360237
 11
108.1196119676
 21
34.2723360237
  0
LINE
  5
278
100
AcDbEntity
  8
0
100
AcDbLine
 62
7
  6
BYLAYER
 10
108.1203397786
 20
415.7724461622
 11
108.1203397786
 21
399.2724461622
  0
LINE
  5
279
100
AcDbEntity
  8
3
100
AcDbLine
 62
7
  6
BYLAYER
 10
108.171892836
 20
50.7724589707
 11
108.171892836
 21
399.2724589707
  0
LINE
  5
27A
100
AcDbEntity
  8
0
100
AcDbLine
 62
7
  6
BYLAYER
 10
108.1723983721
 20
34.2723360237
 11
108.1723983721
 21
50.7723360237
  0
LINE
  5
27B
100
AcDbEntity
  8
0
100
AcDbLine
 62
7
  6
BYLAYER
 10
108.1731261831
 20
399.2724461622
 11
108.1731261831
 21
415.7724461622
  0
LINE
  5
27C
100
AcDbEntity
  8
3
100
AcDbLine
 62
7
  6
BYLAYER
 10
108.566320027
 20
399.2724589707
 11
108.566320027
 21
50.7724589707
  0
LINE
  5
27D
100
AcDbEntity
  8
0
100
AcDbLine
 62
7
  6
BYLAYER
 10
108.5668255631
 20
50.7723360237
 11
108.5668255631
 21
34.2723360237
  0
LINE
  5
27E
100
AcDbEntity
  8
0
100
AcDbLine
 62
7
  6
BYLAYER
 10
108.5675533741
 20
415.7724461622
 11
108.5675533741
 21
399.2724461622
  0
LINE
  5
27F
100
AcDbEntity
  8
3
100
AcDbLine
 62
7
  6
BYLAYER
 10
110.355174409
 20
50.7724589707
 11
110.355174409
 21
399.2724589707
  0
LINE
  5
280
100
AcDbEntity
  8
0
100
AcDbLine
 62
7
  6
BYLAYER
 10
110.3556799451
 20
33.2723360237
 11
110.3556799451
 21
50.7723360237
  0
LINE
  5
281
100
AcDbEntity
  8
0
100
AcDbLine
 62
7
  6
BYLAYER
 10
110.3564077561
 20
399.2724461622
 11
110.3564077561
 21
416.7724461622
  0
LINE
  5
282
100
AcDbEntity
  8
0
100
AcDbLine
 62
7
  6
BYLAYER
 10
110.611009142
 20
50.7723360237
 11
110.611009142
 21
33.2723360237
  0
LINE
  5
283
100
AcDbEntity
  8
3
100
AcDbLine
 62
7
  6
BYLAYER
 10
110.611484185
 20
399.2724589707
 11
110.611484185
 21
50.7724589707
  0
LINE
  5
284
100
AcDbEntity
  8
0
100
AcDbLine
 62
7
  6
BYLAYER
 10
110.6117369531
 20
416.7724461622
 11
110.6117369531
 21
399.2724461622
  0
LINE
  5
285
100
AcDbEntity
  8
0
100
AcDbLine
 62
7
  6
BYLAYER
 10
253.3194706671
 20
416.7724461622
 11
253.5194706671
 21
416.9724461622
  0
LINE
  5
286
100
AcDbEntity
  8
0
100
AcDbLine
 62
7
  6
BYLAYER
 10
112.5340570373
 20
34.2723360237
 11
112.5340570373
 21
50.7723360237
  0
LINE
  5
287
100
AcDbEntity
  8
3
100
AcDbLine
 62
7
  6
BYLAYER
 10
112.5345320803
 20
50.7724589707
 11
112.5345320803
 21
399.2724589707
  0
LINE
  5
288
100
AcDbEntity
  8
0
100
AcDbLine
 62
7
  6
BYLAYER
 10
112.5347848484
 20
399.2724461622
 11
112.5347848484
 21
415.7724461622
  0
LINE
  5
289
100
AcDbEntity
  8
0
100
AcDbLine
 62
7
  6
BYLAYER
 10
113.5733029127
 20
36.2723360237
 11
113.5733029127
 21
34.2723360237
  0
LINE
  5
28A
100
AcDbEntity
  8
0
100
AcDbLine
 62
7
  6
BYLAYER
 10
113.5740307238
 20
415.7724461622
 11
113.5740307238
 21
413.7724461622
  0
LINE
  5
28B
100
AcDbEntity
  8
0
100
AcDbLine
 62
7
  6
BYLAYER
 10
113.6310169913
 20
34.2723360237
 11
113.6310169913
 21
35.8876470243
  0
LINE
  5
28C
100
AcDbEntity
  8
0
100
AcDbLine
 62
7
  6
BYLAYER
 10
113.6317448023
 20
414.1571351786
 11
113.6317448023
 21
415.7724461622
  0
LINE
  5
28D
100
AcDbEntity
  8
0
100
AcDbLine
 62
7
  6
BYLAYER
 10
113.734851444
 20
50.7723360237
 11
113.734851444
 21
36.2723360237
  0
LINE
  5
28E
100
AcDbEntity
  8
3
100
AcDbLine
 62
7
  6
BYLAYER
 10
113.735326487
 20
399.2724589707
 11
113.735326487
 21
50.7724589707
  0
LINE
  5
28F
100
AcDbEntity
  8
0
100
AcDbLine
 62
7
  6
BYLAYER
 10
113.735579255
 20
413.7724461622
 11
113.735579255
 21
399.2724461622
  0
LINE
  5
290
100
AcDbEntity
  8
0
100
AcDbLine
 62
7
  6
BYLAYER
 10
113.9200870075
 20
34.1724461622
 11
113.9200870075
 21
35.7724461622
  0
LINE
  5
291
100
AcDbEntity
  8
0
100
AcDbLine
 62
7
  6
BYLAYER
 10
113.9203397786
 20
414.2724461622
 11
113.9203397786
 21
415.8724461622
  0
LINE
  5
292
100
AcDbEntity
  8
0
100
AcDbLine
 62
7
  6
BYLAYER
 10
114.1196307042
 20
35.2098128403
 11
114.1196119679
 21
36.104667498
  0
LINE
  5
293
100
AcDbEntity
  8
0
100
AcDbLine
 62
7
  6
BYLAYER
 10
114.1196119676
 20
34.2723360237
 11
114.1196119676
 21
50.7723360237
  0
LINE
  5
294
100
AcDbEntity
  8
3
100
AcDbLine
 62
7
  6
BYLAYER
 10
114.1200870106
 20
50.7724589707
 11
114.1200870106
 21
399.2724589707
  0
LINE
  5
295
100
AcDbEntity
  8
0
100
AcDbLine
 62
7
  6
BYLAYER
 10
114.1203397786
 20
399.2724461622
 11
114.1203397786
 21
415.7724461622
  0
LINE
  5
296
100
AcDbEntity
  8
3
100
AcDbLine
 62
7
  6
BYLAYER
 10
117.3088326941
 20
374.4555237463
 11
117.3088326941
 21
324.4555237463
  0
LINE
  5
297
100
AcDbEntity
  8
3
100
AcDbLine
 62
7
  6
BYLAYER
 10
117.3088326941
 20
128.1206212855
 11
117.3088326941
 21
78.1206212855
  0
LINE
  5
298
100
AcDbEntity
  8
3
100
AcDbLine
 62
7
  6
BYLAYER
 10
124.3088326941
 20
78.1206212855
 11
124.3088326941
 21
128.1206212855
  0
LINE
  5
299
100
AcDbEntity
  8
3
100
AcDbLine
 62
7
  6
BYLAYER
 10
124.3088326941
 20
324.4555237463
 11
124.3088326941
 21
374.4555237463
  0
LINE
  5
29A
100
AcDbEntity
  8
0
100
AcDbLine
 62
7
  6
BYLAYER
 10
211.7687428561
 20
34.2723360237
 11
211.7687428561
 21
50.7723360237
  0
LINE
  5
29B
100
AcDbEntity
  8
3
100
AcDbLine
 62
7
  6
BYLAYER
 10
211.7692178991
 20
399.2724589707
 11
211.7692178991
 21
50.7724589707
  0
LINE
  5
29C
100
AcDbEntity
  8
0
100
AcDbLine
 62
7
  6
BYLAYER
 10
211.7694706671
 20
413.7724461622
 11
211.7694706671
 21
399.2724461622
  0
LINE
  5
29D
100
AcDbEntity
  8
0
100
AcDbLine
 62
7
  6
BYLAYER
 10
211.7694706671
 20
415.7724461622
 11
211.7694706671
 21
413.7861789231
  0
LINE
  5
29E
100
AcDbEntity
  8
0
100
AcDbLine
 62
7
  6
BYLAYER
 10
211.9692178991
 20
35.7724461622
 11
211.9692178991
 21
34.1724461622
  0
LINE
  5
29F
100
AcDbEntity
  8
0
100
AcDbLine
 62
7
  6
BYLAYER
 10
211.9694706671
 20
415.8724461622
 11
211.9694706671
 21
414.2724461622
  0
LINE
  5
2A0
100
AcDbEntity
  8
0
100
AcDbLine
 62
7
  6
BYLAYER
 10
212.1535033797
 20
36.2723360237
 11
212.1535033797
 21
50.7723360237
  0
LINE
  5
2A1
100
AcDbEntity
  8
3
100
AcDbLine
 62
7
  6
BYLAYER
 10
212.1539784227
 20
50.7724589707
 11
212.1539784227
 21
399.2724589707
  0
LINE
  5
2A2
100
AcDbEntity
  8
0
100
AcDbLine
 62
7
  6
BYLAYER
 10
212.1542311907
 20
399.2724461622
 11
212.1542311907
 21
413.7724461622
  0
LINE
  5
2A3
100
AcDbEntity
  8
0
100
AcDbLine
 62
7
  6
BYLAYER
 10
212.2573378323
 20
35.8876470073
 11
212.2573378323
 21
34.2723360237
  0
LINE
  5
2A4
100
AcDbEntity
  8
0
100
AcDbLine
 62
7
  6
BYLAYER
 10
212.2580656434
 20
415.7724461622
 11
212.2580656434
 21
414.1571351616
  0
LINE
  5
2A5
100
AcDbEntity
  8
0
100
AcDbLine
 62
7
  6
BYLAYER
 10
212.3150519109
 20
34.2723360237
 11
212.3150519109
 21
36.2723360237
  0
LINE
  5
2A6
100
AcDbEntity
  8
0
100
AcDbLine
 62
7
  6
BYLAYER
 10
212.3157797219
 20
413.7724461622
 11
212.3157797219
 21
415.7724461622
  0
LINE
  5
2A7
100
AcDbEntity
  8
0
100
AcDbLine
 62
7
  6
BYLAYER
 10
213.3542977863
 20
50.7723360237
 11
213.3542977863
 21
34.2723360237
  0
LINE
  5
2A8
100
AcDbEntity
  8
3
100
AcDbLine
 62
7
  6
BYLAYER
 10
213.3547728293
 20
399.2724589707
 11
213.3547728293
 21
50.7724589707
  0
LINE
  5
2A9
100
AcDbEntity
  8
0
100
AcDbLine
 62
7
  6
BYLAYER
 10
213.3550255973
 20
415.7724461622
 11
213.3550255973
 21
399.2724461622
  0
LINE
  5
2AA
100
AcDbEntity
  8
0
100
AcDbLine
 62
7
  6
BYLAYER
 10
215.2773456816
 20
33.2723360237
 11
215.2773456816
 21
50.7723360237
  0
LINE
  5
2AB
100
AcDbEntity
  8
3
100
AcDbLine
 62
7
  6
BYLAYER
 10
215.2778207246
 20
50.7724589707
 11
215.2778207246
 21
399.2724589707
  0
LINE
  5
2AC
100
AcDbEntity
  8
0
100
AcDbLine
 62
7
  6
BYLAYER
 10
215.2780734926
 20
399.2724461622
 11
215.2780734926
 21
416.7724461622
  0
LINE
  5
2AD
100
AcDbEntity
  8
0
100
AcDbLine
 62
7
  6
BYLAYER
 10
215.5326748786
 20
50.7723360237
 11
215.5326748786
 21
33.2723360237
  0
LINE
  5
2AE
100
AcDbEntity
  8
0
100
AcDbLine
 62
7
  6
BYLAYER
 10
215.5334026896
 20
416.7724461622
 11
215.5334026896
 21
399.2724461622
  0
LINE
  5
2AF
100
AcDbEntity
  8
3
100
AcDbLine
 62
7
  6
BYLAYER
 10
215.5341305006
 20
399.2724589707
 11
215.5341305006
 21
50.7724589707
  0
LINE
  5
2B0
100
AcDbEntity
  8
0
100
AcDbLine
 62
7
  6
BYLAYER
 10
217.3215292606
 20
34.2723360237
 11
217.3215292606
 21
50.7723360237
  0
LINE
  5
2B1
100
AcDbEntity
  8
0
100
AcDbLine
 62
7
  6
BYLAYER
 10
217.3222570716
 20
399.2724461622
 11
217.3222570716
 21
415.7724461622
  0
LINE
  5
2B2
100
AcDbEntity
  8
3
100
AcDbLine
 62
7
  6
BYLAYER
 10
217.3229848826
 20
50.7724589707
 11
217.3229848826
 21
399.2724589707
  0
LINE
  5
2B3
100
AcDbEntity
  8
0
100
AcDbLine
 62
7
  6
BYLAYER
 10
217.7159564516
 20
50.7723360237
 11
217.7159564516
 21
34.2723360237
  0
LINE
  5
2B4
100
AcDbEntity
  8
0
100
AcDbLine
 62
7
  6
BYLAYER
 10
217.7166842626
 20
415.7724461622
 11
217.7166842626
 21
399.2724461622
  0
LINE
  5
2B5
100
AcDbEntity
  8
3
100
AcDbLine
 62
7
  6
BYLAYER
 10
217.7174120736
 20
399.2724589707
 11
217.7174120736
 21
50.7724589707
  0
LINE
  5
2B6
100
AcDbEntity
  8
0
100
AcDbLine
 62
7
  6
BYLAYER
 10
217.7687428561
 20
34.2723360237
 11
217.7687428561
 21
50.7723360237
  0
LINE
  5
2B7
100
AcDbEntity
  8
0
100
AcDbLine
 62
7
  6
BYLAYER
 10
217.7694706671
 20
399.2724461622
 11
217.7694706671
 21
415.7724461622
  0
LINE
  5
2B8
100
AcDbEntity
  8
3
100
AcDbLine
 62
7
  6
BYLAYER
 10
217.7701984781
 20
50.7724589707
 11
217.7701984781
 21
399.2724589707
  0
LINE
  5
2B9
100
AcDbEntity
  8
3
100
AcDbLine
 62
7
  6
BYLAYER
 10
217.9685787504
 20
50.7724589707
 11
217.9685787504
 21
399.2724754298
  0
LINE
  5
2BA
100
AcDbEntity
  8
0
100
AcDbLine
 62
7
  6
BYLAYER
 10
220.0194706671
 20
416.7724461622
 11
220.0194706671
 21
422.7724461622
  0
LINE
  5
2BB
100
AcDbEntity
  8
0
100
AcDbLine
 62
7
  6
BYLAYER
 10
223.6427106671
 20
424.4724461622
 11
223.6427106671
 21
423.2724461622
  0
LINE
  5
2BC
100
AcDbEntity
  8
0
100
AcDbLine
 62
7
  6
BYLAYER
 10
230.1472467482
 20
423.2724461622
 11
230.1472467482
 21
424.4724461622
  0
LINE
  5
2BD
100
AcDbEntity
  8
0
100
AcDbLine
 62
7
  6
BYLAYER
 10
230.702203809
 20
423.2724461622
 11
230.702203809
 21
424.7724461622
  0
LINE
  5
2BE
100
AcDbEntity
  8
0
100
AcDbLine
 62
7
  6
BYLAYER
 10
231.1371962419
 20
424.4724461622
 11
231.1371962419
 21
423.2724461622
  0
LINE
  5
2BF
100
AcDbEntity
  8
0
100
AcDbLine
 62
7
  6
BYLAYER
 10
231.8927106671
 20
424.4724461622
 11
231.8927106671
 21
423.2724461622
  0
LINE
  5
2C0
100
AcDbEntity
  8
0
100
AcDbLine
 62
7
  6
BYLAYER
 10
235.5194706671
 20
416.7724461622
 11
235.5194706671
 21
422.7724461622
  0
LINE
  5
2C1
100
AcDbEntity
  8
0
100
AcDbLine
 62
7
  6
BYLAYER
 10
238.0194706671
 20
416.7724461622
 11
238.0194706671
 21
422.7724461622
  0
LINE
  5
2C2
100
AcDbEntity
  8
0
100
AcDbLine
 62
7
  6
BYLAYER
 10
239.7694706671
 20
426.7724452248
 11
239.7694706671
 21
419.2724461622
  0
LINE
  5
2C3
100
AcDbEntity
  8
0
100
AcDbLine
 62
7
  6
BYLAYER
 10
240.2694706671
 20
418.2724461622
 11
240.2694706671
 21
419.2724461622
  0
LINE
  5
2C4
100
AcDbEntity
  8
0
100
AcDbLine
 62
7
  6
BYLAYER
 10
251.2694706671
 20
418.2724461622
 11
251.2694706671
 21
419.2724461622
  0
LINE
  5
2C5
100
AcDbEntity
  8
0
100
AcDbLine
 62
7
  6
BYLAYER
 10
251.7694706671
 20
419.2724461622
 11
251.7694706671
 21
426.7724452248
  0
LINE
  5
2C6
100
AcDbEntity
  8
0
100
AcDbLine
 62
7
  6
BYLAYER
 10
253.5194706671
 20
416.7724461622
 11
253.5194706671
 21
422.7724461622
  0
LINE
  5
2C7
100
AcDbEntity
  8
3
100
AcDbLine
 62
7
  6
BYLAYER
 10
255.5685787504
 20
399.2724754298
 11
255.5685787504
 21
50.7724589707
  0
LINE
  5
2C8
100
AcDbEntity
  8
3
100
AcDbLine
 62
7
  6
BYLAYER
 10
255.76823732
 20
399.2724589707
 11
255.76823732
 21
50.7724589707
  0
LINE
  5
2C9
100
AcDbEntity
  8
0
100
AcDbLine
 62
7
  6
BYLAYER
 10
255.7687428561
 20
50.7723360237
 11
255.7687428561
 21
34.2723360237
  0
LINE
  5
2CA
100
AcDbEntity
  8
0
100
AcDbLine
 62
7
  6
BYLAYER
 10
255.7694706671
 20
415.7724461622
 11
255.7694706671
 21
399.2724461622
  0
LINE
  5
2CB
100
AcDbEntity
  8
3
100
AcDbLine
 62
7
  6
BYLAYER
 10
255.8210237245
 20
50.7724589707
 11
255.8210237245
 21
399.2724589707
  0
LINE
  5
2CC
100
AcDbEntity
  8
0
100
AcDbLine
 62
7
  6
BYLAYER
 10
255.8215292606
 20
34.2723360237
 11
255.8215292606
 21
50.7723360237
  0
LINE
  5
2CD
100
AcDbEntity
  8
0
100
AcDbLine
 62
7
  6
BYLAYER
 10
255.8222570716
 20
399.2724461622
 11
255.8222570716
 21
415.7724461622
  0
LINE
  5
2CE
100
AcDbEntity
  8
3
100
AcDbLine
 62
7
  6
BYLAYER
 10
256.2154509155
 20
399.2724589707
 11
256.2154509155
 21
50.7724589707
  0
LINE
  5
2CF
100
AcDbEntity
  8
0
100
AcDbLine
 62
7
  6
BYLAYER
 10
256.2159564516
 20
50.7723360237
 11
256.2159564516
 21
34.2723360237
  0
LINE
  5
2D0
100
AcDbEntity
  8
0
100
AcDbLine
 62
7
  6
BYLAYER
 10
256.2166842626
 20
415.7724461622
 11
256.2166842626
 21
399.2724461622
  0
LINE
  5
2D1
100
AcDbEntity
  8
3
100
AcDbLine
 62
7
  6
BYLAYER
 10
258.0043052975
 20
50.7724589707
 11
258.0043052975
 21
399.2724589707
  0
LINE
  5
2D2
100
AcDbEntity
  8
0
100
AcDbLine
 62
7
  6
BYLAYER
 10
258.0048108336
 20
33.2723360237
 11
258.0048108336
 21
50.7723360237
  0
LINE
  5
2D3
100
AcDbEntity
  8
0
100
AcDbLine
 62
7
  6
BYLAYER
 10
258.0055386446
 20
399.2724461622
 11
258.0055386446
 21
416.7724461622
  0
LINE
  5
2D4
100
AcDbEntity
  8
0
100
AcDbLine
 62
7
  6
BYLAYER
 10
258.2601400306
 20
50.7723360237
 11
258.2601400306
 21
33.2723360237
  0
LINE
  5
2D5
100
AcDbEntity
  8
3
100
AcDbLine
 62
7
  6
BYLAYER
 10
258.2606150735
 20
399.2724589707
 11
258.2606150735
 21
50.7724589707
  0
LINE
  5
2D6
100
AcDbEntity
  8
0
100
AcDbLine
 62
7
  6
BYLAYER
 10
258.2608678416
 20
416.7724461622
 11
258.2608678416
 21
399.2724461622
  0
LINE
  5
2D7
100
AcDbEntity
  8
0
100
AcDbLine
 62
7
  6
BYLAYER
 10
90.5703397786
 20
416.7724461622
 11
90.3703397786
 21
416.9724461622
  0
LINE
  5
2D8
100
AcDbEntity
  8
0
100
AcDbLine
 62
7
  6
BYLAYER
 10
87.3703397786
 20
423.2724461622
 11
87.8703397786
 21
422.7724461622
  0
LINE
  5
2D9
100
AcDbEntity
  8
0
100
AcDbLine
 62
7
  6
BYLAYER
 10
105.3703397786
 20
418.2724461622
 11
105.8703397786
 21
417.7724461622
  0
LINE
  5
2DA
100
AcDbEntity
  8
0
100
AcDbLine
 62
7
  6
BYLAYER
 10
260.1831879258
 20
34.2723360237
 11
260.1831879258
 21
50.7723360237
  0
LINE
  5
2DB
100
AcDbEntity
  8
3
100
AcDbLine
 62
7
  6
BYLAYER
 10
260.1836629688
 20
50.7724589707
 11
260.1836629688
 21
399.2724589707
  0
LINE
  5
2DC
100
AcDbEntity
  8
0
100
AcDbLine
 62
7
  6
BYLAYER
 10
260.1839157369
 20
399.2724461622
 11
260.1839157369
 21
415.7724461622
  0
LINE
  5
2DD
100
AcDbEntity
  8
0
100
AcDbLine
 62
7
  6
BYLAYER
 10
261.2224338013
 20
36.2723360237
 11
261.2224338013
 21
34.2723360237
  0
LINE
  5
2DE
100
AcDbEntity
  8
0
100
AcDbLine
 62
7
  6
BYLAYER
 10
261.2231616123
 20
415.7724461622
 11
261.2231616123
 21
413.7724461622
  0
LINE
  5
2DF
100
AcDbEntity
  8
0
100
AcDbLine
 62
7
  6
BYLAYER
 10
261.2801478798
 20
34.2723360237
 11
261.2801478798
 21
35.8876470243
  0
LINE
  5
2E0
100
AcDbEntity
  8
0
100
AcDbLine
 62
7
  6
BYLAYER
 10
261.2808756908
 20
414.1571351786
 11
261.2808756908
 21
415.7724461622
  0
LINE
  5
2E1
100
AcDbEntity
  8
0
100
AcDbLine
 62
7
  6
BYLAYER
 10
261.3839823325
 20
50.7723360237
 11
261.3839823325
 21
36.2723360237
  0
LINE
  5
2E2
100
AcDbEntity
  8
3
100
AcDbLine
 62
7
  6
BYLAYER
 10
261.3844573755
 20
399.2724589707
 11
261.3844573755
 21
50.7724589707
  0
LINE
  5
2E3
100
AcDbEntity
  8
0
100
AcDbLine
 62
7
  6
BYLAYER
 10
261.3847101435
 20
413.7724461622
 11
261.3847101435
 21
399.2724461622
  0
LINE
  5
2E4
100
AcDbEntity
  8
0
100
AcDbLine
 62
7
  6
BYLAYER
 10
261.569217896
 20
34.1724461622
 11
261.569217896
 21
35.7724461622
  0
LINE
  5
2E5
100
AcDbEntity
  8
0
100
AcDbLine
 62
7
  6
BYLAYER
 10
261.5694706671
 20
414.2724461622
 11
261.5694706671
 21
415.8724461622
  0
LINE
  5
2E6
100
AcDbEntity
  8
0
100
AcDbLine
 62
7
  6
BYLAYER
 10
261.7687428561
 20
34.2723360237
 11
261.7687428561
 21
50.7723360237
  0
LINE
  5
2E7
100
AcDbEntity
  8
3
100
AcDbLine
 62
7
  6
BYLAYER
 10
261.7692178991
 20
50.7724589707
 11
261.7692178991
 21
399.2724589707
  0
LINE
  5
2E8
100
AcDbEntity
  8
0
100
AcDbLine
 62
7
  6
BYLAYER
 10
261.7694706671
 20
399.2724461622
 11
261.7694706671
 21
415.7724461622
  0
LINE
  5
2E9
100
AcDbEntity
  8
4
100
AcDbLine
 62
7
  6
BYLAYER
 10
264.9579635826
 20
374.4555237463
 11
264.9579635826
 21
324.4555237463
  0
LINE
  5
2EA
100
AcDbEntity
  8
4
100
AcDbLine
 62
7
  6
BYLAYER
 10
264.9579635826
 20
128.1206212855
 11
264.9579635826
 21
78.1206212855
  0
LINE
  5
2EB
100
AcDbEntity
  8
4
100
AcDbLine
 62
7
  6
BYLAYER
 10
271.9579635826
 20
78.1206212855
 11
271.9579635826
 21
128.1206212855
  0
LINE
  5
2EC
100
AcDbEntity
  8
4
100
AcDbLine
 62
7
  6
BYLAYER
 10
271.9579635826
 20
324.4555237463
 11
271.9579635826
 21
374.4555237463
  0
LINE
  5
2ED
100
AcDbEntity
  8
4
100
AcDbLine
 62
7
  6
BYLAYER
 10
271.9579635826
 20
324.4555237463
 11
261.7692178991
 21
324.4555237463
  0
LINE
  5
2EE
100
AcDbEntity
  8
3
100
AcDbLine
 62
7
  6
BYLAYER
 10
124.3088326941
 20
324.4555237463
 11
114.1200870106
 21
324.4555237463
  0
LINE
  5
2EF
100
AcDbEntity
  8
0
100
AcDbLine
 62
7
  6
BYLAYER
 10
105.3703397786
 20
423.2724461622
 11
105.8703397786
 21
422.7724461622
  0
LINE
  5
2F0
100
AcDbEntity
  8
0
100
AcDbLine
 62
7
  6
BYLAYER
 10
103.6203417572
 20
427.2724461622
 11
104.1203397786
 21
426.7724483207
  0
LINE
  5
2F1
100
AcDbEntity
  8
3
100
AcDbLine
 62
7
  6
BYLAYER
 10
114.1200870106
 20
374.4555237463
 11
124.3088326941
 21
374.4555237463
  0
LINE
  5
2F2
100
AcDbEntity
  8
4
100
AcDbLine
 62
7
  6
BYLAYER
 10
261.7692178991
 20
374.4555237463
 11
271.9579635826
 21
374.4555237463
  0
LINE
  5
2F3
100
AcDbEntity
  8
0
100
AcDbLine
 62
7
  6
BYLAYER
 10
261.7694706671
 20
399.2724461622
 11
211.7694706671
 21
399.2724461622
  0
LINE
  5
2F4
100
AcDbEntity
  8
0
100
AcDbLine
 62
7
  6
BYLAYER
 10
114.1203397786
 20
399.2724461622
 11
64.1203397786
 21
399.2724461622
  0
LINE
  5
2F5
100
AcDbEntity
  8
3
100
AcDbLine
 62
7
  6
BYLAYER
 10
64.1200870106
 20
399.2724589707
 11
70.1210675896
 21
399.2724589707
  0
LINE
  5
2F6
100
AcDbEntity
  8
3
100
AcDbLine
 62
7
  6
BYLAYER
 10
108.1191064315
 20
399.2724589707
 11
114.1200870106
 21
399.2724589707
  0
LINE
  5
2F7
100
AcDbEntity
  8
3
100
AcDbLine
 62
7
  6
BYLAYER
 10
211.7692178991
 20
399.2724589707
 11
217.7701984781
 21
399.2724589707
  0
LINE
  5
2F8
100
AcDbEntity
  8
3
100
AcDbLine
 62
7
  6
BYLAYER
 10
255.76823732
 20
399.2724589707
 11
261.7692178991
 21
399.2724589707
  0
LINE
  5
2F9
100
AcDbEntity
  8
3
100
AcDbLine
 62
7
  6
BYLAYER
 10
255.5685787504
 20
399.2724754298
 11
217.9685787504
 21
399.2724754298
  0
LINE
  5
2FA
100
AcDbEntity
  8
3
100
AcDbLine
 62
7
  6
BYLAYER
 10
107.9194478619
 20
399.2724754298
 11
70.3194478619
 21
399.2724754298
  0
LINE
  5
2FB
100
AcDbEntity
  8
0
100
AcDbLine
 62
7
  6
BYLAYER
 10
253.7694706671
 20
412.7724461622
 11
237.769487481
 21
412.7724461622
  0
LINE
  5
2FC
100
AcDbEntity
  8
0
100
AcDbLine
 62
7
  6
BYLAYER
 10
235.7694706671
 20
412.7724461622
 11
219.769487481
 21
412.7724461622
  0
LINE
  5
2FD
100
AcDbEntity
  8
0
100
AcDbLine
 62
7
  6
BYLAYER
 10
106.1203397786
 20
412.7724461622
 11
90.1203565925
 21
412.7724461622
  0
LINE
  5
2FE
100
AcDbEntity
  8
0
100
AcDbLine
 62
7
  6
BYLAYER
 10
88.1203397786
 20
412.7724461622
 11
72.1203565925
 21
412.7724461622
  0
LINE
  5
2FF
100
AcDbEntity
  8
0
100
AcDbLine
 62
7
  6
BYLAYER
 10
72.2255488075
 20
412.7836404132
 11
88.0151141569
 21
412.7836404132
  0
LINE
  5
300
100
AcDbEntity
  8
0
100
AcDbLine
 62
7
  6
BYLAYER
 10
90.2255488075
 20
412.7836404132
 11
106.0151141569
 21
412.7836404132
  0
LINE
  5
301
100
AcDbEntity
  8
0
100
AcDbLine
 62
7
  6
BYLAYER
 10
219.874679696
 20
412.7836404132
 11
235.6642450454
 21
412.7836404132
  0
LINE
  5
302
100
AcDbEntity
  8
0
100
AcDbLine
 62
7
  6
BYLAYER
 10
237.874679696
 20
412.7836404132
 11
253.6642450454
 21
412.7836404132
  0
LINE
  5
303
100
AcDbEntity
  8
0
100
AcDbLine
 62
7
  6
BYLAYER
 10
253.8749653273
 20
413.7611903455
 11
237.6639930425
 21
413.7611903455
  0
LINE
  5
304
100
AcDbEntity
  8
0
100
AcDbLine
 62
7
  6
BYLAYER
 10
106.2258344388
 20
413.7611903455
 11
90.014862154
 21
413.7611903455
  0
LINE
  5
305
100
AcDbEntity
  8
0
100
AcDbLine
 62
7
  6
BYLAYER
 10
235.8747671517
 20
413.7612330793
 11
219.6641912177
 21
413.7612330793
  0
LINE
  5
306
100
AcDbEntity
  8
0
100
AcDbLine
 62
7
  6
BYLAYER
 10
88.2256362632
 20
413.7612330793
 11
72.0150603292
 21
413.7612330793
  0
LINE
  5
307
100
AcDbEntity
  8
0
100
AcDbLine
 62
7
  6
BYLAYER
 10
64.1203397786
 20
413.7724461622
 11
64.6666488334
 21
413.7724461622
  0
LINE
  5
308
100
AcDbEntity
  8
0
100
AcDbLine
 62
7
  6
BYLAYER
 10
113.5740307238
 20
413.7724461622
 11
114.1203397786
 21
413.7724461622
  0
LINE
  5
309
100
AcDbEntity
  8
0
100
AcDbLine
 62
7
  6
BYLAYER
 10
211.7694706671
 20
413.7724461622
 11
212.3157797219
 21
413.7724461622
  0
LINE
  5
30A
100
AcDbEntity
  8
0
100
AcDbLine
 62
7
  6
BYLAYER
 10
261.2231616123
 20
413.7724461622
 11
261.7694706671
 21
413.7724461622
  0
LINE
  5
30B
100
AcDbEntity
  8
0
100
AcDbLine
 62
7
  6
BYLAYER
 10
261.5694706671
 20
414.2724461622
 11
261.2808756908
 21
414.2724461622
  0
LINE
  5
30C
100
AcDbEntity
  8
0
100
AcDbLine
 62
7
  6
BYLAYER
 10
212.2580656434
 20
414.2724461622
 11
211.9694706671
 21
414.2724461622
  0
LINE
  5
30D
100
AcDbEntity
  8
0
100
AcDbLine
 62
7
  6
BYLAYER
 10
113.9203397786
 20
414.2724461622
 11
113.6317448023
 21
414.2724461622
  0
LINE
  5
30E
100
AcDbEntity
  8
0
100
AcDbLine
 62
7
  6
BYLAYER
 10
64.6089347549
 20
414.2724461622
 11
64.3203397786
 21
414.2724461622
  0
LINE
  5
30F
100
AcDbEntity
  8
0
100
AcDbLine
 62
7
  6
BYLAYER
 10
261.7694706671
 20
414.7724462311
 11
261.5694706671
 21
414.7724462311
  0
LINE
  5
310
100
AcDbEntity
  8
0
100
AcDbLine
 62
7
  6
BYLAYER
 10
211.9694706671
 20
414.7724462194
 11
211.7694706671
 21
414.7724462194
  0
LINE
  5
311
100
AcDbEntity
  8
0
100
AcDbLine
 62
7
  6
BYLAYER
 10
114.1203397786
 20
414.7724462311
 11
113.9203397786
 21
414.7724462311
  0
LINE
  5
312
100
AcDbEntity
  8
0
100
AcDbLine
 62
7
  6
BYLAYER
 10
64.3203397786
 20
414.7724462194
 11
64.1203397786
 21
414.7724462194
  0
LINE
  5
313
100
AcDbEntity
  8
0
100
AcDbLine
 62
7
  6
BYLAYER
 10
64.1203397786
 20
415.7724461622
 11
64.3203397786
 21
415.7724461622
  0
LINE
  5
314
100
AcDbEntity
  8
0
100
AcDbLine
 62
7
  6
BYLAYER
 10
64.6089347549
 20
415.7724461622
 11
113.6317448023
 21
415.7724461622
  0
LINE
  5
315
100
AcDbEntity
  8
0
100
AcDbLine
 62
7
  6
BYLAYER
 10
113.9203397786
 20
415.7724461622
 11
114.1203397786
 21
415.7724461622
  0
LINE
  5
316
100
AcDbEntity
  8
0
100
AcDbLine
 62
7
  6
BYLAYER
 10
211.7694706671
 20
415.7724461622
 11
211.9694706671
 21
415.7724461622
  0
LINE
  5
317
100
AcDbEntity
  8
0
100
AcDbLine
 62
7
  6
BYLAYER
 10
212.2580656434
 20
415.7724461622
 11
261.2808756908
 21
415.7724461622
  0
LINE
  5
318
100
AcDbEntity
  8
0
100
AcDbLine
 62
7
  6
BYLAYER
 10
261.5694706671
 20
415.7724461622
 11
261.7694706671
 21
415.7724461622
  0
LINE
  5
319
100
AcDbEntity
  8
0
100
AcDbLine
 62
7
  6
BYLAYER
 10
64.3203397786
 20
415.8724461622
 11
64.6414269689
 21
415.8724461622
  0
LINE
  5
31A
100
AcDbEntity
  8
0
100
AcDbLine
 62
7
  6
BYLAYER
 10
113.5992523583
 20
415.8724461622
 11
113.9203397786
 21
415.8724461622
  0
LINE
  5
31B
100
AcDbEntity
  8
0
100
AcDbLine
 62
7
  6
BYLAYER
 10
211.9694706671
 20
415.8724461622
 11
212.2905578575
 21
415.8724461622
  0
LINE
  5
31C
100
AcDbEntity
  8
0
100
AcDbLine
 62
7
  6
BYLAYER
 10
261.2483832468
 20
415.8724461622
 11
261.5694706671
 21
415.8724461622
  0
LINE
  5
31D
100
AcDbEntity
  8
0
100
AcDbLine
 62
7
  6
BYLAYER
 10
65.6091566696
 20
416.7724461622
 11
112.6315213065
 21
416.7724461622
  0
LINE
  5
31E
100
AcDbEntity
  8
0
100
AcDbLine
 62
7
  6
BYLAYER
 10
213.2582875581
 20
416.7724461622
 11
260.280652195
 21
416.7724461622
  0
LINE
  5
31F
100
AcDbEntity
  8
0
100
AcDbLine
 62
7
  6
BYLAYER
 10
65.3204412046
 20
416.8724461622
 11
70.9203395319
 21
416.8724461622
  0
LINE
  5
320
100
AcDbEntity
  8
0
100
AcDbLine
 62
7
  6
BYLAYER
 10
107.3204412046
 20
416.8724461622
 11
112.9203395319
 21
416.8724461622
  0
LINE
  5
321
100
AcDbEntity
  8
0
100
AcDbLine
 62
7
  6
BYLAYER
 10
212.9695720931
 20
416.8724461622
 11
218.5694704204
 21
416.8724461622
  0
LINE
  5
322
100
AcDbEntity
  8
0
100
AcDbLine
 62
7
  6
BYLAYER
 10
254.9695720931
 20
416.8724461622
 11
260.5694704204
 21
416.8724461622
  0
LINE
  5
323
100
AcDbEntity
  8
0
100
AcDbLine
 62
7
  6
BYLAYER
 10
253.5194706671
 20
416.9724461622
 11
238.0194706671
 21
416.9724461622
  0
LINE
  5
324
100
AcDbEntity
  8
0
100
AcDbLine
 62
7
  6
BYLAYER
 10
105.8703397786
 20
416.9724461622
 11
90.3703397786
 21
416.9724461622
  0
LINE
  5
325
100
AcDbEntity
  8
0
100
AcDbLine
 62
7
  6
BYLAYER
 10
90.3703397786
 20
417.7724461622
 11
105.8703397786
 21
417.7724461622
  0
LINE
  5
326
100
AcDbEntity
  8
0
100
AcDbLine
 62
7
  6
BYLAYER
 10
238.0194706671
 20
417.7724461622
 11
253.5194706671
 21
417.7724461622
  0
LINE
  5
327
100
AcDbEntity
  8
0
100
AcDbLine
 62
7
  6
BYLAYER
 10
235.5194706671
 20
418.2724461622
 11
220.0194706671
 21
418.2724461622
  0
LINE
  5
328
100
AcDbEntity
  8
0
100
AcDbLine
 62
7
  6
BYLAYER
 10
87.8703397786
 20
418.2724461622
 11
72.3703397786
 21
418.2724461622
  0
LINE
  5
329
100
AcDbEntity
  8
0
100
AcDbLine
 62
7
  6
BYLAYER
 10
90.3703397786
 20
418.2724461622
 11
105.8703397786
 21
418.2724461622
  0
LINE
  5
32A
100
AcDbEntity
  8
0
100
AcDbLine
 62
7
  6
BYLAYER
 10
238.0194706671
 20
418.2724461622
 11
253.5194706671
 21
418.2724461622
  0
LINE
  5
32B
100
AcDbEntity
  8
0
100
AcDbLine
 62
7
  6
BYLAYER
 10
251.7694706671
 20
419.2724461622
 11
239.7694706671
 21
419.2724461622
  0
LINE
  5
32C
100
AcDbEntity
  8
0
100
AcDbLine
 62
7
  6
BYLAYER
 10
104.1203397786
 20
419.2724461622
 11
92.1203397786
 21
419.2724461622
  0
LINE
  5
32D
100
AcDbEntity
  8
0
100
AcDbLine
 62
7
  6
BYLAYER
 10
253.5194663843
 20
421.2724461622
 11
251.7694706671
 21
421.2724461622
  0
LINE
  5
32E
100
AcDbEntity
  8
0
100
AcDbLine
 62
7
  6
BYLAYER
 10
239.7694706671
 20
421.2724461622
 11
238.0194749499
 21
421.2724461622
  0
LINE
  5
32F
100
AcDbEntity
  8
0
100
AcDbLine
 62
7
  6
BYLAYER
 10
235.5194663843
 20
421.2724461622
 11
220.0194749499
 21
421.2724461622
  0
LINE
  5
330
100
AcDbEntity
  8
0
100
AcDbLine
 62
7
  6
BYLAYER
 10
105.8703354958
 20
421.2724461622
 11
104.1203397786
 21
421.2724461622
  0
LINE
  5
331
100
AcDbEntity
  8
0
100
AcDbLine
 62
7
  6
BYLAYER
 10
92.1203397786
 20
421.2724461622
 11
90.3703440614
 21
421.2724461622
  0
LINE
  5
332
100
AcDbEntity
  8
0
100
AcDbLine
 62
7
  6
BYLAYER
 10
87.8703354958
 20
421.2724461622
 11
72.3703440614
 21
421.2724461622
  0
LINE
  5
333
100
AcDbEntity
  8
0
100
AcDbLine
 62
7
  6
BYLAYER
 10
72.3703397786
 20
422.7724461622
 11
87.8703397786
 21
422.7724461622
  0
LINE
  5
334
100
AcDbEntity
  8
0
100
AcDbLine
 62
7
  6
BYLAYER
 10
90.3703397786
 20
422.7724461622
 11
92.1203397786
 21
422.7724461622
  0
LINE
  5
335
100
AcDbEntity
  8
0
100
AcDbLine
 62
7
  6
BYLAYER
 10
104.1203397786
 20
422.7724461622
 11
105.8703397786
 21
422.7724461622
  0
LINE
  5
336
100
AcDbEntity
  8
0
100
AcDbLine
 62
7
  6
BYLAYER
 10
220.0194706671
 20
422.7724461622
 11
235.5194706671
 21
422.7724461622
  0
LINE
  5
337
100
AcDbEntity
  8
0
100
AcDbLine
 62
7
  6
BYLAYER
 10
238.0194706671
 20
422.7724461622
 11
239.7694706671
 21
422.7724461622
  0
LINE
  5
338
100
AcDbEntity
  8
0
100
AcDbLine
 62
7
  6
BYLAYER
 10
251.7694706671
 20
422.7724461622
 11
253.5194706671
 21
422.7724461622
  0
LINE
  5
339
100
AcDbEntity
  8
0
100
AcDbLine
 62
7
  6
BYLAYER
 10
72.8703437814
 20
423.2724461622
 11
87.3703357758
 21
423.2724461622
  0
LINE
  5
33A
100
AcDbEntity
  8
0
100
AcDbLine
 62
7
  6
BYLAYER
 10
90.8703437814
 20
423.2724461622
 11
92.1203397786
 21
423.2724461622
  0
LINE
  5
33B
100
AcDbEntity
  8
0
100
AcDbLine
 62
7
  6
BYLAYER
 10
104.1203397786
 20
423.2724461622
 11
105.3703357758
 21
423.2724461622
  0
LINE
  5
33C
100
AcDbEntity
  8
0
100
AcDbLine
 62
7
  6
BYLAYER
 10
220.5194746699
 20
423.2724461622
 11
235.0194666643
 21
423.2724461622
  0
LINE
  5
33D
100
AcDbEntity
  8
0
100
AcDbLine
 62
7
  6
BYLAYER
 10
238.5194746699
 20
423.2724461622
 11
239.7694706671
 21
423.2724461622
  0
LINE
  5
33E
100
AcDbEntity
  8
0
100
AcDbLine
 62
7
  6
BYLAYER
 10
251.7694706671
 20
423.2724461622
 11
253.0194666643
 21
423.2724461622
  0
LINE
  5
33F
100
AcDbEntity
  8
0
100
AcDbLine
 62
7
  6
BYLAYER
 10
75.9935797786
 20
424.4724461622
 11
79.4185797786
 21
424.4724461622
  0
LINE
  5
340
100
AcDbEntity
  8
0
100
AcDbLine
 62
7
  6
BYLAYER
 10
80.8185797786
 20
424.4724461622
 11
84.2435797786
 21
424.4724461622
  0
LINE
  5
341
100
AcDbEntity
  8
0
100
AcDbLine
 62
7
  6
BYLAYER
 10
223.6427106671
 20
424.4724461622
 11
230.1472467482
 21
424.4724461622
  0
LINE
  5
342
100
AcDbEntity
  8
0
100
AcDbLine
 62
7
  6
BYLAYER
 10
231.1371962419
 20
424.4724461622
 11
231.8927106671
 21
424.4724461622
  0
LINE
  5
343
100
AcDbEntity
  8
0
100
AcDbLine
 62
7
  6
BYLAYER
 10
76.2935913045
 20
424.7724461622
 11
83.9435490139
 21
424.7724461622
  0
LINE
  5
344
100
AcDbEntity
  8
0
100
AcDbLine
 62
7
  6
BYLAYER
 10
223.9426887758
 20
424.7724461622
 11
231.592771035
 21
424.7724461622
  0
LINE
  5
345
100
AcDbEntity
  8
0
100
AcDbLine
 62
7
  6
BYLAYER
 10
238.2194706671
 20
416.7724461622
 11
238.0194706671
 21
416.9724461622
  0
LINE
  5
346
100
AcDbEntity
  8
0
100
AcDbLine
 62
7
  6
BYLAYER
 10
235.0194706671
 20
423.2724461622
 11
235.5194706671
 21
422.7724461622
  0
LINE
  5
347
100
AcDbEntity
  8
0
100
AcDbLine
 62
7
  6
BYLAYER
 10
253.0194706671
 20
418.2724461622
 11
253.5194706671
 21
417.7724461622
  0
LINE
  5
348
100
AcDbEntity
  8
0
100
AcDbLine
 62
7
  6
BYLAYER
 10
92.1203397786
 20
426.7724452248
 11
104.1203397786
 21
426.7724452248
  0
LINE
  5
349
100
AcDbEntity
  8
0
100
AcDbLine
 62
7
  6
BYLAYER
 10
239.7694706671
 20
426.7724452248
 11
251.7694706671
 21
426.7724452248
  0
LINE
  5
34A
100
AcDbEntity
  8
0
100
AcDbLine
 62
7
  6
BYLAYER
 10
92.6203392143
 20
427.2724461622
 11
103.6203344773
 21
427.2724461622
  0
LINE
  5
34B
100
AcDbEntity
  8
0
100
AcDbLine
 62
7
  6
BYLAYER
 10
240.2694701028
 20
427.2724461622
 11
251.2694653658
 21
427.2724461622
  0
LINE
  5
34C
100
AcDbEntity
  8
0
100
AcDbLine
 62
7
  6
BYLAYER
 10
253.0194706671
 20
423.2724461622
 11
253.5194706671
 21
422.7724461622
  0
LINE
  5
34D
100
AcDbEntity
  8
0
100
AcDbLine
 62
7
  6
BYLAYER
 10
251.2694726457
 20
427.2724461622
 11
251.7694706671
 21
426.7724483207
  0
ARC
  5
34E
100
AcDbEntity
  8
0
100
AcDbCircle
 62
7
  6
BYLAYER
 10
107.3196119676
 20
34.1724461622
 40
1.0
100
AcDbArc
 50
247.6323509958
 51
270.0
  0
ARC
  5
34F
100
AcDbEntity
  8
0
100
AcDbCircle
 62
7
  6
BYLAYER
 10
70.9196119705
 20
34.1724461622
 40
1.0
100
AcDbArc
 50
270.0
 51
292.3676490042
  0
ARC
  5
350
100
AcDbEntity
  8
0
100
AcDbCircle
 62
7
  6
BYLAYER
 10
108.3200870075
 20
34.1724461622
 40
1.0
100
AcDbArc
 50
247.6323509958
 51
270.0
  0
ARC
  5
351
100
AcDbEntity
  8
0
100
AcDbCircle
 62
7
  6
BYLAYER
 10
112.9200870075
 20
34.1724461622
 40
1.0
100
AcDbArc
 50
270.0
 51
360.0
  0
ARC
  5
352
100
AcDbEntity
  8
0
100
AcDbCircle
 62
7
  6
BYLAYER
 10
65.3200870106
 20
34.1724461622
 40
1.0
100
AcDbArc
 50
180.0
 51
270.0
  0
ARC
  5
353
100
AcDbEntity
  8
0
100
AcDbCircle
 62
7
  6
BYLAYER
 10
69.9200870106
 20
34.1724461622
 40
1.0
100
AcDbArc
 50
270.0
 51
292.3676490042
  0
ARC
  5
354
100
AcDbEntity
  8
0
100
AcDbCircle
 62
7
  6
BYLAYER
 10
65.6082069438
 20
34.2723360237
 40
1.0
100
AcDbArc
 50
180.0
 51
270.0
  0
ARC
  5
355
100
AcDbEntity
  8
0
100
AcDbCircle
 62
7
  6
BYLAYER
 10
112.6310169913
 20
34.2723360237
 40
1.0
100
AcDbArc
 50
270.0
 51
360.0
  0
ARC
  5
356
100
AcDbEntity
  8
0
100
AcDbCircle
 62
7
  6
BYLAYER
 10
113.1196119676
 20
34.2723360237
 40
1.0
100
AcDbArc
 50
290.1402792355
 51
360.0
  0
ARC
  5
357
100
AcDbEntity
  8
0
100
AcDbCircle
 62
7
  6
BYLAYER
 10
69.1196119676
 20
34.2723360237
 40
1.0
100
AcDbArc
 50
270.0
 51
360.0
  0
ARC
  5
358
100
AcDbEntity
  8
0
100
AcDbCircle
 62
7
  6
BYLAYER
 10
65.1196119676
 20
34.2723360237
 40
1.0
100
AcDbArc
 50
180.0
 51
249.9315512354
  0
ARC
  5
359
100
AcDbEntity
  8
0
100
AcDbCircle
 62
7
  6
BYLAYER
 10
109.1196119676
 20
34.2723360237
 40
1.0
100
AcDbArc
 50
180.0
 51
270.0
  0
ARC
  5
35A
100
AcDbEntity
  8
0
100
AcDbCircle
 62
7
  6
BYLAYER
 10
65.6274527306
 20
34.1836604557
 40
0.911324432
100
AcDbArc
 50
268.9031685192
 51
269.9995120839
  0
ARC
  5
35B
100
AcDbEntity
  8
0
100
AcDbCircle
 62
7
  6
BYLAYER
 10
112.6117712778
 20
34.1828041928
 40
0.9104681691
100
AcDbArc
 50
270.0004837626
 51
271.0800850327
  0
ARC
  5
35C
100
AcDbEntity
  8
0
100
AcDbCircle
 62
7
  6
BYLAYER
 10
113.6196119676
 20
36.2723360237
 40
0.5
100
AcDbArc
 50
271.1642031186
 51
360.0
  0
ARC
  5
35D
100
AcDbEntity
  8
0
100
AcDbCircle
 62
7
  6
BYLAYER
 10
64.6196119676
 20
36.2723360237
 40
0.5
100
AcDbArc
 50
180.0
 51
268.8357968818
  0
ARC
  5
35E
100
AcDbEntity
  8
0
100
AcDbCircle
 62
7
  6
BYLAYER
 10
113.9818580973
 20
35.8646517217
 40
0.3511956119
100
AcDbArc
 50
168.8863826958
 51
177.982295268
  0
ARC
  5
35F
100
AcDbEntity
  8
0
100
AcDbCircle
 62
7
  6
BYLAYER
 10
70.9203397786
 20
415.8724461622
 40
1.0
100
AcDbArc
 50
67.6076884451
 51
90.0
  0
ARC
  5
360
100
AcDbEntity
  8
0
100
AcDbCircle
 62
7
  6
BYLAYER
 10
69.9203397786
 20
415.8724461622
 40
1.0
100
AcDbArc
 50
67.6076884451
 51
90.0
  0
ARC
  5
361
100
AcDbEntity
  8
0
100
AcDbCircle
 62
7
  6
BYLAYER
 10
65.3203397786
 20
415.8724461622
 40
1.0
100
AcDbArc
 50
90.0
 51
180.0
  0
ARC
  5
362
100
AcDbEntity
  8
0
100
AcDbCircle
 62
7
  6
BYLAYER
 10
65.6089347549
 20
415.7724461622
 40
1.0
100
AcDbArc
 50
90.0
 51
180.0
  0
ARC
  5
363
100
AcDbEntity
  8
0
100
AcDbCircle
 62
7
  6
BYLAYER
 10
65.1203397786
 20
415.7724461622
 40
1.0
100
AcDbArc
 50
110.1126910722
 51
180.0
  0
ARC
  5
364
100
AcDbEntity
  8
0
100
AcDbCircle
 62
7
  6
BYLAYER
 10
69.1203397786
 20
415.7724461622
 40
1.0
100
AcDbArc
 50
0.0
 51
90.0
  0
ARC
  5
365
100
AcDbEntity
  8
0
100
AcDbCircle
 62
7
  6
BYLAYER
 10
65.6281804683
 20
415.8619779933
 40
0.910468169
100
AcDbArc
 50
90.0004837623
 51
91.0800850325
  0
ARC
  5
366
100
AcDbEntity
  8
0
100
AcDbCircle
 62
7
  6
BYLAYER
 10
64.6203397786
 20
413.7724461622
 40
0.5
100
AcDbArc
 50
91.1642031186
 51
180.0
  0
ARC
  5
367
100
AcDbEntity
  8
0
100
AcDbCircle
 62
7
  6
BYLAYER
 10
72.120357441
 20
413.272446345
 40
0.4999999534
100
AcDbArc
 50
102.1571786862
 51
282.1569797606
  0
ARC
  5
368
100
AcDbEntity
  8
0
100
AcDbCircle
 62
7
  6
BYLAYER
 10
88.1203221161
 20
413.272446345
 40
0.4999999534
100
AcDbArc
 50
257.8430202394
 51
77.8428213138
  0
ARC
  5
369
100
AcDbEntity
  8
0
100
AcDbCircle
 62
7
  6
BYLAYER
 10
64.2580936485
 20
414.1801304643
 40
0.3511956123
100
AcDbArc
 50
348.8863826994
 51
357.9822949634
  0
ARC
  5
36A
100
AcDbEntity
  8
0
100
AcDbCircle
 62
7
  6
BYLAYER
 10
83.9435797786
 20
424.4724461622
 40
0.3
100
AcDbArc
 50
0.0
 51
90.0
  0
ARC
  5
36B
100
AcDbEntity
  8
0
100
AcDbCircle
 62
7
  6
BYLAYER
 10
76.2935797786
 20
424.4724461622
 40
0.3
100
AcDbArc
 50
90.0
 51
180.0
  0
ARC
  5
36C
100
AcDbEntity
  8
0
100
AcDbCircle
 62
7
  6
BYLAYER
 10
107.3203397786
 20
415.8724461622
 40
1.0
100
AcDbArc
 50
90.0
 51
112.3923115549
  0
ARC
  5
36D
100
AcDbEntity
  8
0
100
AcDbCircle
 62
7
  6
BYLAYER
 10
112.9203397786
 20
415.8724461622
 40
1.0
100
AcDbArc
 50
0.0
 51
90.0
  0
ARC
  5
36E
100
AcDbEntity
  8
0
100
AcDbCircle
 62
7
  6
BYLAYER
 10
108.3203397786
 20
415.8724461622
 40
1.0
100
AcDbArc
 50
90.0
 51
112.3923115548
  0
ARC
  5
36F
100
AcDbEntity
  8
0
100
AcDbCircle
 62
7
  6
BYLAYER
 10
112.6317448023
 20
415.7724461622
 40
1.0
100
AcDbArc
 50
0.0
 51
90.0
  0
ARC
  5
370
100
AcDbEntity
  8
0
100
AcDbCircle
 62
7
  6
BYLAYER
 10
113.1203397786
 20
415.7724461622
 40
1.0
100
AcDbArc
 50
0.0
 51
69.8873089278
  0
ARC
  5
371
100
AcDbEntity
  8
0
100
AcDbCircle
 62
7
  6
BYLAYER
 10
109.1203397786
 20
415.7724461622
 40
1.0
100
AcDbArc
 50
90.0
 51
180.0
  0
ARC
  5
372
100
AcDbEntity
  8
0
100
AcDbCircle
 62
7
  6
BYLAYER
 10
112.6124990155
 20
415.8611217296
 40
0.9113244326
100
AcDbArc
 50
88.9031685195
 51
89.9995120835
  0
ARC
  5
373
100
AcDbEntity
  8
0
100
AcDbCircle
 62
7
  6
BYLAYER
 10
113.6203397786
 20
413.7724461622
 40
0.5
100
AcDbArc
 50
0.0
 51
88.8357968818
  0
ARC
  5
374
100
AcDbEntity
  8
0
100
AcDbCircle
 62
7
  6
BYLAYER
 10
90.1203574405
 20
413.2724463452
 40
0.4999999532
100
AcDbArc
 50
102.1804098124
 51
282.180210997
  0
ARC
  5
375
100
AcDbEntity
  8
0
100
AcDbCircle
 62
7
  6
BYLAYER
 10
106.1203221167
 20
413.2724463452
 40
0.4999999532
100
AcDbArc
 50
257.819789003
 51
77.8195901876
  0
ARC
  5
376
100
AcDbEntity
  8
0
100
AcDbCircle
 62
7
  6
BYLAYER
 10
218.568742859
 20
34.1724461622
 40
1.0
100
AcDbArc
 50
270.0
 51
292.3676490041
  0
ARC
  5
377
100
AcDbEntity
  8
0
100
AcDbCircle
 62
7
  6
BYLAYER
 10
212.9692178991
 20
34.1724461622
 40
1.0
100
AcDbArc
 50
180.0
 51
270.0
  0
ARC
  5
378
100
AcDbEntity
  8
0
100
AcDbCircle
 62
7
  6
BYLAYER
 10
217.5692178991
 20
34.1724461622
 40
1.0
100
AcDbArc
 50
270.0
 51
292.3676490042
  0
ARC
  5
379
100
AcDbEntity
  8
0
100
AcDbCircle
 62
7
  6
BYLAYER
 10
213.2573378324
 20
34.2723360237
 40
1.0
100
AcDbArc
 50
180.0
 51
270.0
  0
ARC
  5
37A
100
AcDbEntity
  8
0
100
AcDbCircle
 62
7
  6
BYLAYER
 10
216.7687428561
 20
34.2723360237
 40
1.0
100
AcDbArc
 50
270.0
 51
360.0
  0
ARC
  5
37B
100
AcDbEntity
  8
0
100
AcDbCircle
 62
7
  6
BYLAYER
 10
212.7687428561
 20
34.2723360237
 40
1.0
100
AcDbArc
 50
180.0
 51
249.9315512353
  0
ARC
  5
37C
100
AcDbEntity
  8
0
100
AcDbCircle
 62
7
  6
BYLAYER
 10
213.2765836191
 20
34.1836604558
 40
0.9113244321
100
AcDbArc
 50
268.9031685192
 51
269.9995120838
  0
ARC
  5
37D
100
AcDbEntity
  8
0
100
AcDbCircle
 62
7
  6
BYLAYER
 10
212.2687428561
 20
36.2723360237
 40
0.5
100
AcDbArc
 50
180.0
 51
268.8357968818
  0
ARC
  5
37E
100
AcDbEntity
  8
0
100
AcDbCircle
 62
7
  6
BYLAYER
 10
254.9687428561
 20
34.1724461622
 40
1.0
100
AcDbArc
 50
247.6323509959
 51
270.0
  0
ARC
  5
37F
100
AcDbEntity
  8
0
100
AcDbCircle
 62
7
  6
BYLAYER
 10
255.969217896
 20
34.1724461622
 40
1.0
100
AcDbArc
 50
247.6323509958
 51
270.0
  0
ARC
  5
380
100
AcDbEntity
  8
0
100
AcDbCircle
 62
7
  6
BYLAYER
 10
260.569217896
 20
34.1724461622
 40
1.0
100
AcDbArc
 50
270.0
 51
360.0
  0
ARC
  5
381
100
AcDbEntity
  8
0
100
AcDbCircle
 62
7
  6
BYLAYER
 10
260.2801478798
 20
34.2723360237
 40
1.0
100
AcDbArc
 50
270.0
 51
360.0
  0
ARC
  5
382
100
AcDbEntity
  8
0
100
AcDbCircle
 62
7
  6
BYLAYER
 10
260.7687428561
 20
34.2723360237
 40
1.0
100
AcDbArc
 50
290.1402792355
 51
360.0
  0
ARC
  5
383
100
AcDbEntity
  8
0
100
AcDbCircle
 62
7
  6
BYLAYER
 10
256.7687428561
 20
34.2723360237
 40
1.0
100
AcDbArc
 50
180.0
 51
270.0
  0
ARC
  5
384
100
AcDbEntity
  8
0
100
AcDbCircle
 62
7
  6
BYLAYER
 10
260.2609021663
 20
34.1828041929
 40
0.9104681692
100
AcDbArc
 50
270.0004837626
 51
271.0800850326
  0
ARC
  5
385
100
AcDbEntity
  8
0
100
AcDbCircle
 62
7
  6
BYLAYER
 10
261.2687428561
 20
36.2723360237
 40
0.5
100
AcDbArc
 50
271.1642031186
 51
360.0
  0
ARC
  5
386
100
AcDbEntity
  8
0
100
AcDbCircle
 62
7
  6
BYLAYER
 10
261.6309889858
 20
35.8646517217
 40
0.351195612
100
AcDbArc
 50
168.8863826963
 51
177.9822952305
  0
ARC
  5
387
100
AcDbEntity
  8
0
100
AcDbCircle
 62
7
  6
BYLAYER
 10
218.5694706671
 20
415.8724461622
 40
1.0
100
AcDbArc
 50
67.6076884452
 51
90.0
  0
ARC
  5
388
100
AcDbEntity
  8
0
100
AcDbCircle
 62
7
  6
BYLAYER
 10
217.5694706671
 20
415.8724461622
 40
1.0
100
AcDbArc
 50
67.6076884451
 51
90.0
  0
ARC
  5
389
100
AcDbEntity
  8
0
100
AcDbCircle
 62
7
  6
BYLAYER
 10
212.9694706671
 20
415.8724461622
 40
1.0
100
AcDbArc
 50
90.0
 51
180.0
  0
ARC
  5
38A
100
AcDbEntity
  8
0
100
AcDbCircle
 62
7
  6
BYLAYER
 10
213.2580656434
 20
415.7724461622
 40
1.0
100
AcDbArc
 50
90.0
 51
180.0
  0
ARC
  5
38B
100
AcDbEntity
  8
0
100
AcDbCircle
 62
7
  6
BYLAYER
 10
212.7694706671
 20
415.7724461622
 40
1.0
100
AcDbArc
 50
110.1126910722
 51
180.0
  0
ARC
  5
38C
100
AcDbEntity
  8
0
100
AcDbCircle
 62
7
  6
BYLAYER
 10
216.7694706671
 20
415.7724461622
 40
1.0
100
AcDbArc
 50
0.0
 51
90.0
  0
ARC
  5
38D
100
AcDbEntity
  8
0
100
AcDbCircle
 62
7
  6
BYLAYER
 10
213.2773113569
 20
415.8619779926
 40
0.9104681697
100
AcDbArc
 50
90.0004837629
 51
91.0800850323
  0
ARC
  5
38E
100
AcDbEntity
  8
0
100
AcDbCircle
 62
7
  6
BYLAYER
 10
212.2694706671
 20
413.7724461622
 40
0.5
100
AcDbArc
 50
91.1642031186
 51
180.0
  0
ARC
  5
38F
100
AcDbEntity
  8
0
100
AcDbCircle
 62
7
  6
BYLAYER
 10
219.7694883295
 20
413.272446345
 40
0.4999999534
100
AcDbArc
 50
102.1571786862
 51
282.1569797606
  0
ARC
  5
390
100
AcDbEntity
  8
0
100
AcDbCircle
 62
7
  6
BYLAYER
 10
235.7694530047
 20
413.272446345
 40
0.4999999534
100
AcDbArc
 50
257.8430202394
 51
77.8428213138
  0
ARC
  5
391
100
AcDbEntity
  8
0
100
AcDbCircle
 62
7
  6
BYLAYER
 10
211.907224537
 20
414.1801304643
 40
0.3511956123
100
AcDbArc
 50
348.8863826991
 51
357.9822949899
  0
ARC
  5
392
100
AcDbEntity
  8
0
100
AcDbCircle
 62
7
  6
BYLAYER
 10
231.5927106671
 20
424.4724461622
 40
0.3
100
AcDbArc
 50
0.0
 51
90.0
  0
ARC
  5
393
100
AcDbEntity
  8
0
100
AcDbCircle
 62
7
  6
BYLAYER
 10
223.9427106671
 20
424.4724461622
 40
0.3
100
AcDbArc
 50
90.0
 51
180.0
  0
ARC
  5
394
100
AcDbEntity
  8
0
100
AcDbCircle
 62
7
  6
BYLAYER
 10
254.9694706671
 20
415.8724461622
 40
1.0
100
AcDbArc
 50
90.0
 51
112.3923115548
  0
ARC
  5
395
100
AcDbEntity
  8
0
100
AcDbCircle
 62
7
  6
BYLAYER
 10
260.5694706671
 20
415.8724461622
 40
1.0
100
AcDbArc
 50
0.0
 51
90.0
  0
ARC
  5
396
100
AcDbEntity
  8
0
100
AcDbCircle
 62
7
  6
BYLAYER
 10
255.9694706671
 20
415.8724461622
 40
1.0
100
AcDbArc
 50
90.0
 51
112.3923115548
  0
ARC
  5
397
100
AcDbEntity
  8
0
100
AcDbCircle
 62
7
  6
BYLAYER
 10
260.2808756908
 20
415.7724461622
 40
1.0
100
AcDbArc
 50
0.0
 51
90.0
  0
ARC
  5
398
100
AcDbEntity
  8
0
100
AcDbCircle
 62
7
  6
BYLAYER
 10
260.7694706671
 20
415.7724461622
 40
1.0
100
AcDbArc
 50
0.0
 51
69.8873089278
  0
ARC
  5
399
100
AcDbEntity
  8
0
100
AcDbCircle
 62
7
  6
BYLAYER
 10
256.7694706671
 20
415.7724461622
 40
1.0
100
AcDbArc
 50
90.0
 51
180.0
  0
ARC
  5
39A
100
AcDbEntity
  8
0
100
AcDbCircle
 62
7
  6
BYLAYER
 10
260.261629904
 20
415.8611217296
 40
0.9113244326
100
AcDbArc
 50
88.9031685195
 51
89.9995120835
  0
ARC
  5
39B
100
AcDbEntity
  8
0
100
AcDbCircle
 62
7
  6
BYLAYER
 10
261.2694706671
 20
413.7724461622
 40
0.5
100
AcDbArc
 50
0.0
 51
88.8357968818
  0
ARC
  5
39C
100
AcDbEntity
  8
0
100
AcDbCircle
 62
7
  6
BYLAYER
 10
237.769488329
 20
413.2724463452
 40
0.4999999532
100
AcDbArc
 50
102.1804098124
 51
282.180210997
  0
ARC
  5
39D
100
AcDbEntity
  8
0
100
AcDbCircle
 62
7
  6
BYLAYER
 10
253.7694530052
 20
413.2724463452
 40
0.4999999532
100
AcDbArc
 50
257.819789003
 51
77.8195901876
  0
SPLINE
  5
39E
100
AcDbEntity
  8
0
100
AcDbSpline
 62
7
  6
BYLAYER
 70
0
 71
3
 72
11
 73
7
 74
0
 42
0.0000001
 43
0.0000001
 44
0.0000000001
 40
0.0
 40
0.0
 40
0.0
 40
0.0
 40
0.288432907
 40
0.5554725908
 40
0.7902209526
 40
1.0
 40
1.0
 40
1.0
 40
1.0
 10
230.1472467482
 20
424.4724461622
 30
0.0
 10
230.1472467482
 20
424.5113878284
 30
0.0
 10
230.1368492647
 20
424.5868781976
 30
0.0
 10
230.091265274
 20
424.6852771511
 30
0.0
 10
230.0208161932
 20
424.7546427028
 30
0.0
 10
229.9600590706
 20
424.7724471276
 30
0.0
 10
229.9317365546
 20
424.7724461622
 30
0.0
  0
SPLINE
  5
39F
100
AcDbEntity
  8
0
100
AcDbSpline
 62
7
  6
BYLAYER
 70
0
 71
3
 72
11
 73
7
 74
0
 42
0.0000001
 43
0.0000001
 44
0.0000000001
 40
0.0
 40
0.0
 40
0.0
 40
0.0
 40
0.2883671583
 40
0.5553852791
 40
0.7902445524
 40
1.0
 40
1.0
 40
1.0
 40
1.0
 10
231.1371962419
 20
424.4724461622
 30
0.0
 10
231.1371962419
 20
424.5113668683
 30
0.0
 10
231.1267565818
 20
424.5868251924
 30
0.0
 10
231.0810842702
 20
424.6851409751
 30
0.0
 10
231.0107237243
 20
424.7545181138
 30
0.0
 10
230.9499965887
 20
424.7724471272
 30
0.0
 10
230.9216860482
 20
424.7724461622
 30
0.0
  0
SPLINE
  5
3A0
100
AcDbEntity
  8
0
100
AcDbSpline
 62
7
  6
BYLAYER
 70
0
 71
3
 72
8
 73
4
 74
0
 42
0.0000001
 43
0.0000001
 44
0.0000000001
 40
0.0
 40
0.0
 40
0.0
 40
0.0
 40
1.0
 40
1.0
 40
1.0
 40
1.0
 10
261.2863793873
 20
35.9323464957
 30
0.0
 10
261.295676239
 20
35.9798792948
 30
0.0
 10
261.3148272517
 20
36.0263538332
 30
0.0
 10
261.3414814518
 20
36.0667933196
 30
0.0
  0
SPLINE
  5
3A1
100
AcDbEntity
  8
0
100
AcDbSpline
 62
7
  6
BYLAYER
 70
0
 71
3
 72
9
 73
5
 74
0
 42
0.0000001
 43
0.0000001
 44
0.0000000001
 40
0.0
 40
0.0
 40
0.0
 40
0.0
 40
0.2423551149
 40
1.0
 40
1.0
 40
1.0
 40
1.0
 10
261.2801518912
 20
35.8876485255
 30
0.0
 10
261.2801609098
 20
35.9191341951
 30
0.0
 10
261.2749559096
 20
36.0490354752
 30
0.0
 10
261.2499667578
 20
36.1778353704
 30
0.0
 10
261.2224337743
 20
36.2723359197
 30
0.0
  0
SPLINE
  5
3A2
100
AcDbEntity
  8
0
100
AcDbSpline
 62
7
  6
BYLAYER
 70
0
 71
3
 72
11
 73
7
 74
0
 42
0.0000001
 43
0.0000001
 44
0.0000000001
 40
0.0
 40
0.0
 40
0.0
 40
0.0
 40
0.2455000837
 40
0.4935877931
 40
0.7454492783
 40
1.0
 40
1.0
 40
1.0
 40
1.0
 10
213.2591389088
 20
33.2725030036
 30
0.0
 10
213.1352870139
 20
33.274873229
 30
0.0
 10
212.884434565
 20
33.3310996926
 30
0.0
 10
212.5712593212
 20
33.5561678209
 30
0.0
 10
212.3632860786
 20
33.8857616688
 30
0.0
 10
212.3150519109
 20
34.1438946746
 30
0.0
 10
212.3150519109
 20
34.2723360237
 30
0.0
  0
SPLINE
  5
3A3
100
AcDbEntity
  8
0
100
AcDbSpline
 62
7
  6
BYLAYER
 70
0
 71
3
 72
11
 73
7
 74
0
 42
0.0000001
 43
0.0000001
 44
0.0000000001
 40
0.0
 40
0.0
 40
0.0
 40
0.0
 40
0.2370154222
 40
0.4817461593
 40
0.7371748139
 40
1.0
 40
1.0
 40
1.0
 40
1.0
 10
216.4271020696
 20
33.2723360237
 30
0.0
 10
216.5439883523
 20
33.2723360237
 30
0.0
 10
216.7845298019
 20
33.326604759
 30
0.0
 10
217.0813183569
 20
33.553251778
 30
0.0
 10
217.2766019373
 20
33.8847541315
 30
0.0
 10
217.3215292606
 20
34.1427214243
 30
0.0
 10
217.3215292606
 20
34.2723360237
 30
0.0
  0
SPLINE
  5
3A4
100
AcDbEntity
  8
0
100
AcDbSpline
 62
7
  6
BYLAYER
 70
0
 71
3
 72
11
 73
7
 74
0
 42
0.0000001
 43
0.0000001
 44
0.0000000001
 40
0.0
 40
0.0
 40
0.0
 40
0.0
 40
0.2429770416
 40
0.4900484521
 40
0.7429376142
 40
1.0
 40
1.0
 40
1.0
 40
1.0
 10
216.7687419792
 20
33.2723360237
 30
0.0
 10
216.8918344483
 20
33.2723431719
 30
0.0
 10
217.1430001415
 20
33.3250914106
 30
0.0
 10
217.4576971342
 20
33.5490155234
 30
0.0
 10
217.6672947132
 20
33.8811171691
 30
0.0
 10
217.715974474
 20
34.1421079017
 30
0.0
 10
217.7159752933
 20
34.2723360237
 30
0.0
  0
SPLINE
  5
3A5
100
AcDbEntity
  8
0
100
AcDbSpline
 62
7
  6
BYLAYER
 70
0
 71
3
 72
11
 73
7
 74
0
 42
0.0000001
 43
0.0000001
 44
0.0000000001
 40
0.0
 40
0.0
 40
0.0
 40
0.0
 40
0.2570642536
 40
0.5099515937
 40
0.7570212812
 40
1.0
 40
1.0
 40
1.0
 40
1.0
 10
255.8215103307
 20
34.2723360237
 30
0.0
 10
255.821511162
 20
34.1421069404
 30
0.0
 10
255.8701911251
 20
33.8811160355
 30
0.0
 10
256.0797889371
 20
33.5490156998
 30
0.0
 10
256.394484555
 20
33.3250915839
 30
0.0
 10
256.6456503891
 20
33.2723430837
 30
0.0
 10
256.7687437221
 20
33.2723360237
 30
0.0
  0
SPLINE
  5
3A6
100
AcDbEntity
  8
0
100
AcDbSpline
 62
7
  6
BYLAYER
 70
0
 71
3
 72
11
 73
7
 74
0
 42
0.0000001
 43
0.0000001
 44
0.0000000001
 40
0.0
 40
0.0
 40
0.0
 40
0.0
 40
0.2627344212
 40
0.5180975916
 40
0.762900959
 40
1.0
 40
1.0
 40
1.0
 40
1.0
 10
256.2159564516
 20
34.2723360237
 30
0.0
 10
256.2159564516
 20
34.1427662562
 30
0.0
 10
256.2608525535
 20
33.8848782324
 30
0.0
 10
256.4560532533
 20
33.5533830953
 30
0.0
 10
256.7528355971
 20
33.3266451441
 30
0.0
 10
256.993456186
 20
33.2723360237
 30
0.0
 10
257.1103836426
 20
33.2723360237
 30
0.0
  0
SPLINE
  5
3A7
100
AcDbEntity
  8
0
100
AcDbSpline
 62
7
  6
BYLAYER
 70
0
 71
3
 72
11
 73
7
 74
0
 42
0.0000001
 43
0.0000001
 44
0.0000000001
 40
0.0
 40
0.0
 40
0.0
 40
0.0
 40
0.2544641196
 40
0.5062554122
 40
0.7544085347
 40
1.0
 40
1.0
 40
1.0
 40
1.0
 10
261.2224338013
 20
34.2723360237
 30
0.0
 10
261.2224338013
 20
34.1439149712
 30
0.0
 10
261.1742162205
 20
33.8858147502
 30
0.0
 10
260.9662538567
 20
33.5561889072
 30
0.0
 10
260.6529833571
 20
33.3310409331
 30
0.0
 10
260.4019856863
 20
33.2748331183
 30
0.0
 10
260.2780644217
 20
33.2724977917
 30
0.0
  0
SPLINE
  5
3A8
100
AcDbEntity
  8
0
100
AcDbSpline
 62
7
  6
BYLAYER
 70
0
 71
3
 72
9
 73
5
 74
0
 42
0.0000001
 43
0.0000001
 44
0.0000000001
 40
0.0
 40
0.0
 40
0.0
 40
0.0
 40
0.2703934266
 40
1.0
 40
1.0
 40
1.0
 40
1.0
 10
261.2224338013
 20
36.2723360237
 30
0.0
 10
261.2355981177
 20
36.2553986928
 30
0.0
 10
261.2822969974
 20
36.1913204929
 30
0.0
 10
261.3213015047
 20
36.1210449573
 30
0.0
 10
261.3414814518
 20
36.0667933197
 30
0.0
  0
SPLINE
  5
3A9
100
AcDbEntity
  8
0
100
AcDbSpline
 62
7
  6
BYLAYER
 70
0
 71
3
 72
11
 73
7
 74
0
 42
0.0000001
 43
0.0000001
 44
0.0000000001
 40
0.0
 40
0.0
 40
0.0
 40
0.0
 40
0.2454646712
 40
0.49351694
 40
0.7453862235
 40
1.0
 40
1.0
 40
1.0
 40
1.0
 10
259.2216639782
 20
33.2723360237
 30
0.0
 10
259.3469192951
 20
33.2723360237
 30
0.0
 10
259.6016693378
 20
33.3250731387
 30
0.0
 10
259.9211458769
 20
33.5491452454
 30
0.0
 10
260.1338155034
 20
33.8812659396
 30
0.0
 10
260.1831879258
 20
34.1424121161
 30
0.0
 10
260.1831879258
 20
34.2723360237
 30
0.0
  0
SPLINE
  5
3AA
100
AcDbEntity
  8
0
100
AcDbSpline
 62
7
  6
BYLAYER
 70
0
 71
3
 72
9
 73
5
 74
0
 42
0.0000001
 43
0.0000001
 44
0.0000000001
 40
0.0
 40
0.0
 40
0.0
 40
0.0
 40
0.2799425407
 40
1.0
 40
1.0
 40
1.0
 40
1.0
 10
261.3414813383
 20
36.066793114
 30
0.0
 10
261.3465074797
 20
36.0518610881
 30
0.0
 10
261.361972806
 20
35.9980030734
 30
0.0
 10
261.365085092
 20
35.9385750041
 30
0.0
 10
261.3536511235
 20
35.8996964587
 30
0.0
  0
SPLINE
  5
3AB
100
AcDbEntity
  8
0
100
AcDbSpline
 62
7
  6
BYLAYER
 70
0
 71
3
 72
8
 73
4
 74
0
 42
0.0000001
 43
0.0000001
 44
0.0000000001
 40
0.0
 40
0.0
 40
0.0
 40
0.0
 40
1.0
 40
1.0
 40
1.0
 40
1.0
 10
261.3536511235
 20
35.8996964587
 30
0.0
 10
261.3486570195
 20
35.882715172
 30
0.0
 10
261.340971065
 20
35.8662809643
 30
0.0
 10
261.3309416191
 20
35.8516961988
 30
0.0
  0
SPLINE
  5
3AC
100
AcDbEntity
  8
0
100
AcDbSpline
 62
7
  6
BYLAYER
 70
0
 71
3
 72
9
 73
5
 74
0
 42
0.0000001
 43
0.0000001
 44
0.0000000001
 40
0.0
 40
0.0
 40
0.0
 40
0.0
 40
0.2411465755
 40
1.0
 40
1.0
 40
1.0
 40
1.0
 10
261.3309416191
 20
35.8516961988
 30
0.0
 10
261.3277843096
 20
35.8471048565
 30
0.0
 10
261.3137282364
 20
35.8287370337
 30
0.0
 10
261.2956676903
 20
35.8135081604
 30
0.0
 10
261.2807547662
 20
35.8042846106
 30
0.0
  0
SPLINE
  5
3AD
100
AcDbEntity
  8
0
100
AcDbSpline
 62
7
  6
BYLAYER
 70
0
 71
3
 72
8
 73
4
 74
0
 42
0.0000001
 43
0.0000001
 44
0.0000000001
 40
0.0
 40
0.0
 40
0.0
 40
0.0
 40
1.0
 40
1.0
 40
1.0
 40
1.0
 10
261.3839823325
 20
36.2723360237
 30
0.0
 10
261.3839823325
 20
36.2023724395
 30
0.0
 10
261.3693139082
 20
36.1309825516
 30
0.0
 10
261.3414814518
 20
36.0667933197
 30
0.0
  0
SPLINE
  5
3AE
100
AcDbEntity
  8
0
100
AcDbSpline
 62
7
  6
BYLAYER
 70
0
 71
3
 72
9
 73
5
 74
0
 42
0.0000001
 43
0.0000001
 44
0.0000000001
 40
0.0
 40
0.0
 40
0.0
 40
0.0
 40
0.2581441243
 40
1.0
 40
1.0
 40
1.0
 40
1.0
 10
212.3150519486
 20
36.2723358779
 30
0.0
 10
212.3056723414
 20
36.2401425555
 30
0.0
 10
212.2732909725
 20
36.1143555916
 30
0.0
 10
212.2573073561
 20
35.9840261848
 30
0.0
 10
212.2573338193
 20
35.887662101
 30
0.0
  0
SPLINE
  5
3AF
100
AcDbEntity
  8
0
100
AcDbSpline
 62
7
  6
BYLAYER
 70
0
 71
3
 72
11
 73
7
 74
0
 42
0.0000001
 43
0.0000001
 44
0.0000000001
 40
0.0
 40
0.0
 40
0.0
 40
0.0
 40
0.2545253123
 40
0.5063269197
 40
0.7544493833
 40
1.0
 40
1.0
 40
1.0
 40
1.0
 10
213.3542977863
 20
34.2723360237
 30
0.0
 10
213.3542977863
 20
34.1424572824
 30
0.0
 10
213.4036351779
 20
33.8813931663
 30
0.0
 10
213.616215701
 20
33.5492756697
 30
0.0
 10
213.9356905113
 20
33.325111501
 30
0.0
 10
214.1905225849
 20
33.2723360237
 30
0.0
 10
214.3158217339
 20
33.2723360237
 30
0.0
  0
SPLINE
  5
3B0
100
AcDbEntity
  8
0
100
AcDbSpline
 62
7
  6
BYLAYER
 70
0
 71
3
 72
9
 73
5
 74
0
 42
0.0000001
 43
0.0000001
 44
0.0000000001
 40
0.0
 40
0.0
 40
0.0
 40
0.0
 40
0.2541768028
 40
1.0
 40
1.0
 40
1.0
 40
1.0
 10
212.1960042603
 20
36.0667933196
 30
0.0
 10
212.2048812954
 20
36.0533251705
 30
0.0
 10
212.2363742433
 20
35.9981690953
 30
0.0
 10
212.2538473066
 20
35.934892083
 30
0.0
 10
212.2569435292
 20
35.8876622532
 30
0.0
  0
SPLINE
  5
3B1
100
AcDbEntity
  8
0
100
AcDbSpline
 62
7
  6
BYLAYER
 70
0
 71
3
 72
9
 73
5
 74
0
 42
0.0000001
 43
0.0000001
 44
0.0000000001
 40
0.0
 40
0.0
 40
0.0
 40
0.0
 40
0.27038548
 40
1.0
 40
1.0
 40
1.0
 40
1.0
 10
212.3150519109
 20
36.2723360237
 30
0.0
 10
212.3018879623
 20
36.2553991733
 30
0.0
 10
212.2551847612
 20
36.1913239385
 30
0.0
 10
212.2161844585
 20
36.1210456094
 30
0.0
 10
212.1960042604
 20
36.0667933197
 30
0.0
  0
SPLINE
  5
3B2
100
AcDbEntity
  8
0
100
AcDbSpline
 62
7
  6
BYLAYER
 70
0
 71
3
 72
8
 73
4
 74
0
 42
0.0000001
 43
0.0000001
 44
0.0000000001
 40
0.0
 40
0.0
 40
0.0
 40
0.0
 40
1.0
 40
1.0
 40
1.0
 40
1.0
 10
212.1960042604
 20
36.0667933197
 30
0.0
 10
212.168171804
 20
36.1309825516
 30
0.0
 10
212.1535033797
 20
36.2023724395
 30
0.0
 10
212.1535033797
 20
36.2723360237
 30
0.0
  0
SPLINE
  5
3B3
100
AcDbEntity
  8
0
100
AcDbSpline
 62
7
  6
BYLAYER
 70
0
 71
3
 72
9
 73
5
 74
0
 42
0.0000001
 43
0.0000001
 44
0.0000000001
 40
0.0
 40
0.0
 40
0.0
 40
0.0
 40
0.5149641487
 40
1.0
 40
1.0
 40
1.0
 40
1.0
 10
212.2572867981
 20
35.8039421876
 30
0.0
 10
212.2393902893
 20
35.8149233011
 30
0.0
 10
212.2080440137
 20
35.8427575856
 30
0.0
 10
212.1896125418
 20
35.8802519593
 30
0.0
 10
212.183978671
 20
35.8992091264
 30
0.0
  0
SPLINE
  5
3B4
100
AcDbEntity
  8
0
100
AcDbSpline
 62
7
  6
BYLAYER
 70
0
 71
3
 72
9
 73
5
 74
0
 42
0.0000001
 43
0.0000001
 44
0.0000000001
 40
0.0
 40
0.0
 40
0.0
 40
0.0
 40
0.2268944865
 40
1.0
 40
1.0
 40
1.0
 40
1.0
 10
212.183978671
 20
35.8992091264
 30
0.0
 10
212.1803232955
 20
35.9115089405
 30
0.0
 10
212.1701506652
 20
35.9675669772
 30
0.0
 10
212.182056708
 20
36.0253563425
 30
0.0
 10
212.1960043797
 20
36.0667931033
 30
0.0
  0
SPLINE
  5
3B5
100
AcDbEntity
  8
0
100
AcDbSpline
 62
7
  6
BYLAYER
 70
0
 71
3
 72
8
 73
4
 74
0
 42
0.0000001
 43
0.0000001
 44
0.0000000001
 40
0.0
 40
0.0
 40
0.0
 40
0.0
 40
1.0
 40
1.0
 40
1.0
 40
1.0
 10
113.6372484987
 20
35.9323464957
 30
0.0
 10
113.6465453505
 20
35.9798792948
 30
0.0
 10
113.6656963632
 20
36.0263538332
 30
0.0
 10
113.6923505633
 20
36.0667933196
 30
0.0
  0
SPLINE
  5
3B6
100
AcDbEntity
  8
0
100
AcDbSpline
 62
7
  6
BYLAYER
 70
0
 71
3
 72
9
 73
5
 74
0
 42
0.0000001
 43
0.0000001
 44
0.0000000001
 40
0.0
 40
0.0
 40
0.0
 40
0.0
 40
0.2423551149
 40
1.0
 40
1.0
 40
1.0
 40
1.0
 10
113.6310210027
 20
35.8876485244
 30
0.0
 10
113.6310300213
 20
35.919134194
 30
0.0
 10
113.6258250212
 20
36.0490354746
 30
0.0
 10
113.6008358694
 20
36.1778353701
 30
0.0
 10
113.5733028858
 20
36.2723359197
 30
0.0
  0
SPLINE
  5
3B7
100
AcDbEntity
  8
0
100
AcDbSpline
 62
7
  6
BYLAYER
 70
0
 71
3
 72
11
 73
7
 74
0
 42
0.0000001
 43
0.0000001
 44
0.0000000001
 40
0.0
 40
0.0
 40
0.0
 40
0.0
 40
0.2455000837
 40
0.4935877931
 40
0.7454492783
 40
1.0
 40
1.0
 40
1.0
 40
1.0
 10
65.6100080203
 20
33.2725030036
 30
0.0
 10
65.4861561254
 20
33.274873229
 30
0.0
 10
65.2353036765
 20
33.3310996926
 30
0.0
 10
64.9221284327
 20
33.5561678209
 30
0.0
 10
64.7141551901
 20
33.8857616688
 30
0.0
 10
64.6659210224
 20
34.1438946746
 30
0.0
 10
64.6659210224
 20
34.2723360237
 30
0.0
  0
SPLINE
  5
3B8
100
AcDbEntity
  8
0
100
AcDbSpline
 62
7
  6
BYLAYER
 70
0
 71
3
 72
11
 73
7
 74
0
 42
0.0000001
 43
0.0000001
 44
0.0000000001
 40
0.0
 40
0.0
 40
0.0
 40
0.0
 40
0.2370154222
 40
0.4817461593
 40
0.7371748139
 40
1.0
 40
1.0
 40
1.0
 40
1.0
 10
68.7779711811
 20
33.2723360237
 30
0.0
 10
68.8948574638
 20
33.2723360237
 30
0.0
 10
69.1353989134
 20
33.326604759
 30
0.0
 10
69.4321874684
 20
33.553251778
 30
0.0
 10
69.6274710488
 20
33.8847541315
 30
0.0
 10
69.6723983721
 20
34.1427214243
 30
0.0
 10
69.6723983721
 20
34.2723360237
 30
0.0
  0
SPLINE
  5
3B9
100
AcDbEntity
  8
0
100
AcDbSpline
 62
7
  6
BYLAYER
 70
0
 71
3
 72
11
 73
7
 74
0
 42
0.0000001
 43
0.0000001
 44
0.0000000001
 40
0.0
 40
0.0
 40
0.0
 40
0.0
 40
0.2429770416
 40
0.4900484521
 40
0.7429376142
 40
1.0
 40
1.0
 40
1.0
 40
1.0
 10
69.1196110907
 20
33.2723360237
 30
0.0
 10
69.2427035598
 20
33.2723431719
 30
0.0
 10
69.493869253
 20
33.3250914106
 30
0.0
 10
69.8085662457
 20
33.5490155234
 30
0.0
 10
70.0181638247
 20
33.8811171691
 30
0.0
 10
70.0668435855
 20
34.1421079017
 30
0.0
 10
70.0668444048
 20
34.2723360237
 30
0.0
  0
SPLINE
  5
3BA
100
AcDbEntity
  8
0
100
AcDbSpline
 62
7
  6
BYLAYER
 70
0
 71
3
 72
11
 73
7
 74
0
 42
0.0000001
 43
0.0000001
 44
0.0000000001
 40
0.0
 40
0.0
 40
0.0
 40
0.0
 40
0.2570642536
 40
0.5099515937
 40
0.7570212812
 40
1.0
 40
1.0
 40
1.0
 40
1.0
 10
108.1723794422
 20
34.2723360237
 30
0.0
 10
108.1723802735
 20
34.1421069404
 30
0.0
 10
108.2210602365
 20
33.8811160355
 30
0.0
 10
108.4306580486
 20
33.5490156998
 30
0.0
 10
108.7453536665
 20
33.3250915839
 30
0.0
 10
108.9965195006
 20
33.2723430837
 30
0.0
 10
109.1196128336
 20
33.2723360237
 30
0.0
  0
SPLINE
  5
3BB
100
AcDbEntity
  8
0
100
AcDbSpline
 62
7
  6
BYLAYER
 70
0
 71
3
 72
11
 73
7
 74
0
 42
0.0000001
 43
0.0000001
 44
0.0000000001
 40
0.0
 40
0.0
 40
0.0
 40
0.0
 40
0.2627344212
 40
0.5180975916
 40
0.762900959
 40
1.0
 40
1.0
 40
1.0
 40
1.0
 10
108.5668255631
 20
34.2723360237
 30
0.0
 10
108.5668255631
 20
34.1427662562
 30
0.0
 10
108.611721665
 20
33.8848782324
 30
0.0
 10
108.8069223648
 20
33.5533830953
 30
0.0
 10
109.1037047086
 20
33.3266451441
 30
0.0
 10
109.3443252975
 20
33.2723360237
 30
0.0
 10
109.4612527541
 20
33.2723360237
 30
0.0
  0
SPLINE
  5
3BC
100
AcDbEntity
  8
0
100
AcDbSpline
 62
7
  6
BYLAYER
 70
0
 71
3
 72
11
 73
7
 74
0
 42
0.0000001
 43
0.0000001
 44
0.0000000001
 40
0.0
 40
0.0
 40
0.0
 40
0.0
 40
0.2544641196
 40
0.5062554122
 40
0.7544085347
 40
1.0
 40
1.0
 40
1.0
 40
1.0
 10
113.5733029127
 20
34.2723360237
 30
0.0
 10
113.5733029127
 20
34.1439149712
 30
0.0
 10
113.525085332
 20
33.8858147502
 30
0.0
 10
113.3171229682
 20
33.5561889072
 30
0.0
 10
113.0038524686
 20
33.3310409331
 30
0.0
 10
112.7528547978
 20
33.2748331183
 30
0.0
 10
112.6289335332
 20
33.2724977917
 30
0.0
  0
SPLINE
  5
3BD
100
AcDbEntity
  8
0
100
AcDbSpline
 62
7
  6
BYLAYER
 70
0
 71
3
 72
9
 73
5
 74
0
 42
0.0000001
 43
0.0000001
 44
0.0000000001
 40
0.0
 40
0.0
 40
0.0
 40
0.0
 40
0.2703934266
 40
1.0
 40
1.0
 40
1.0
 40
1.0
 10
113.5733029127
 20
36.2723360237
 30
0.0
 10
113.5864672292
 20
36.2553986928
 30
0.0
 10
113.6331661089
 20
36.1913204929
 30
0.0
 10
113.6721706161
 20
36.1210449573
 30
0.0
 10
113.6923505633
 20
36.0667933197
 30
0.0
  0
SPLINE
  5
3BE
100
AcDbEntity
  8
0
100
AcDbSpline
 62
7
  6
BYLAYER
 70
0
 71
3
 72
11
 73
7
 74
0
 42
0.0000001
 43
0.0000001
 44
0.0000000001
 40
0.0
 40
0.0
 40
0.0
 40
0.0
 40
0.2454646712
 40
0.49351694
 40
0.7453862235
 40
1.0
 40
1.0
 40
1.0
 40
1.0
 10
111.5725330897
 20
33.2723360237
 30
0.0
 10
111.6977884066
 20
33.2723360237
 30
0.0
 10
111.9525384493
 20
33.3250731387
 30
0.0
 10
112.2720149883
 20
33.5491452454
 30
0.0
 10
112.4846846149
 20
33.8812659396
 30
0.0
 10
112.5340570373
 20
34.1424121161
 30
0.0
 10
112.5340570373
 20
34.2723360237
 30
0.0
  0
SPLINE
  5
3BF
100
AcDbEntity
  8
0
100
AcDbSpline
 62
7
  6
BYLAYER
 70
0
 71
3
 72
9
 73
5
 74
0
 42
0.0000001
 43
0.0000001
 44
0.0000000001
 40
0.0
 40
0.0
 40
0.0
 40
0.0
 40
0.2799425407
 40
1.0
 40
1.0
 40
1.0
 40
1.0
 10
113.6923504498
 20
36.066793114
 30
0.0
 10
113.6973765911
 20
36.0518610881
 30
0.0
 10
113.7128419174
 20
35.9980030734
 30
0.0
 10
113.7159542035
 20
35.9385750041
 30
0.0
 10
113.704520235
 20
35.8996964587
 30
0.0
  0
SPLINE
  5
3C0
100
AcDbEntity
  8
0
100
AcDbSpline
 62
7
  6
BYLAYER
 70
0
 71
3
 72
8
 73
4
 74
0
 42
0.0000001
 43
0.0000001
 44
0.0000000001
 40
0.0
 40
0.0
 40
0.0
 40
0.0
 40
1.0
 40
1.0
 40
1.0
 40
1.0
 10
113.704520235
 20
35.8996964587
 30
0.0
 10
113.699526131
 20
35.882715172
 30
0.0
 10
113.6918401765
 20
35.8662809643
 30
0.0
 10
113.6818107306
 20
35.8516961988
 30
0.0
  0
SPLINE
  5
3C1
100
AcDbEntity
  8
0
100
AcDbSpline
 62
7
  6
BYLAYER
 70
0
 71
3
 72
9
 73
5
 74
0
 42
0.0000001
 43
0.0000001
 44
0.0000000001
 40
0.0
 40
0.0
 40
0.0
 40
0.0
 40
0.2411465755
 40
1.0
 40
1.0
 40
1.0
 40
1.0
 10
113.6818107306
 20
35.8516961988
 30
0.0
 10
113.6786534211
 20
35.8471048565
 30
0.0
 10
113.6645973479
 20
35.8287370337
 30
0.0
 10
113.6465368018
 20
35.8135081604
 30
0.0
 10
113.6316238777
 20
35.8042846106
 30
0.0
  0
SPLINE
  5
3C2
100
AcDbEntity
  8
0
100
AcDbSpline
 62
7
  6
BYLAYER
 70
0
 71
3
 72
8
 73
4
 74
0
 42
0.0000001
 43
0.0000001
 44
0.0000000001
 40
0.0
 40
0.0
 40
0.0
 40
0.0
 40
1.0
 40
1.0
 40
1.0
 40
1.0
 10
113.734851444
 20
36.2723360237
 30
0.0
 10
113.734851444
 20
36.2023724395
 30
0.0
 10
113.7201830196
 20
36.1309825516
 30
0.0
 10
113.6923505633
 20
36.0667933197
 30
0.0
  0
SPLINE
  5
3C3
100
AcDbEntity
  8
0
100
AcDbSpline
 62
7
  6
BYLAYER
 70
0
 71
3
 72
9
 73
5
 74
0
 42
0.0000001
 43
0.0000001
 44
0.0000000001
 40
0.0
 40
0.0
 40
0.0
 40
0.0
 40
0.2581441243
 40
1.0
 40
1.0
 40
1.0
 40
1.0
 10
64.6659210601
 20
36.2723358779
 30
0.0
 10
64.6565414529
 20
36.2401425554
 30
0.0
 10
64.6241600839
 20
36.1143555915
 30
0.0
 10
64.6081764676
 20
35.9840261845
 30
0.0
 10
64.6082029308
 20
35.8876621007
 30
0.0
  0
SPLINE
  5
3C4
100
AcDbEntity
  8
0
100
AcDbSpline
 62
7
  6
BYLAYER
 70
0
 71
3
 72
11
 73
7
 74
0
 42
0.0000001
 43
0.0000001
 44
0.0000000001
 40
0.0
 40
0.0
 40
0.0
 40
0.0
 40
0.2545253123
 40
0.5063269197
 40
0.7544493833
 40
1.0
 40
1.0
 40
1.0
 40
1.0
 10
65.7051668978
 20
34.2723360237
 30
0.0
 10
65.7051668978
 20
34.1424572824
 30
0.0
 10
65.7545042894
 20
33.8813931663
 30
0.0
 10
65.9670848125
 20
33.5492756697
 30
0.0
 10
66.2865596228
 20
33.325111501
 30
0.0
 10
66.5413916964
 20
33.2723360237
 30
0.0
 10
66.6666908454
 20
33.2723360237
 30
0.0
  0
SPLINE
  5
3C5
100
AcDbEntity
  8
0
100
AcDbSpline
 62
7
  6
BYLAYER
 70
0
 71
3
 72
9
 73
5
 74
0
 42
0.0000001
 43
0.0000001
 44
0.0000000001
 40
0.0
 40
0.0
 40
0.0
 40
0.0
 40
0.2541768028
 40
1.0
 40
1.0
 40
1.0
 40
1.0
 10
64.5468733718
 20
36.0667933196
 30
0.0
 10
64.5557504069
 20
36.0533251705
 30
0.0
 10
64.5872433548
 20
35.9981690952
 30
0.0
 10
64.6047164182
 20
35.9348920828
 30
0.0
 10
64.6078126407
 20
35.8876622529
 30
0.0
  0
SPLINE
  5
3C6
100
AcDbEntity
  8
0
100
AcDbSpline
 62
7
  6
BYLAYER
 70
0
 71
3
 72
9
 73
5
 74
0
 42
0.0000001
 43
0.0000001
 44
0.0000000001
 40
0.0
 40
0.0
 40
0.0
 40
0.0
 40
0.27038548
 40
1.0
 40
1.0
 40
1.0
 40
1.0
 10
64.6659210224
 20
36.2723360237
 30
0.0
 10
64.6527570738
 20
36.2553991733
 30
0.0
 10
64.6060538727
 20
36.1913239385
 30
0.0
 10
64.56705357
 20
36.1210456094
 30
0.0
 10
64.5468733718
 20
36.0667933197
 30
0.0
  0
SPLINE
  5
3C7
100
AcDbEntity
  8
0
100
AcDbSpline
 62
7
  6
BYLAYER
 70
0
 71
3
 72
8
 73
4
 74
0
 42
0.0000001
 43
0.0000001
 44
0.0000000001
 40
0.0
 40
0.0
 40
0.0
 40
0.0
 40
1.0
 40
1.0
 40
1.0
 40
1.0
 10
64.5468733718
 20
36.0667933197
 30
0.0
 10
64.5190409155
 20
36.1309825516
 30
0.0
 10
64.5043724911
 20
36.2023724395
 30
0.0
 10
64.5043724911
 20
36.2723360237
 30
0.0
  0
SPLINE
  5
3C8
100
AcDbEntity
  8
0
100
AcDbSpline
 62
7
  6
BYLAYER
 70
0
 71
3
 72
9
 73
5
 74
0
 42
0.0000001
 43
0.0000001
 44
0.0000000001
 40
0.0
 40
0.0
 40
0.0
 40
0.0
 40
0.5149641487
 40
1.0
 40
1.0
 40
1.0
 40
1.0
 10
64.6081559096
 20
35.8039421876
 30
0.0
 10
64.5902594008
 20
35.8149233011
 30
0.0
 10
64.5589131252
 20
35.8427575856
 30
0.0
 10
64.5404816533
 20
35.8802519593
 30
0.0
 10
64.5348477825
 20
35.8992091264
 30
0.0
  0
SPLINE
  5
3C9
100
AcDbEntity
  8
0
100
AcDbSpline
 62
7
  6
BYLAYER
 70
0
 71
3
 72
9
 73
5
 74
0
 42
0.0000001
 43
0.0000001
 44
0.0000000001
 40
0.0
 40
0.0
 40
0.0
 40
0.0
 40
0.2268944865
 40
1.0
 40
1.0
 40
1.0
 40
1.0
 10
64.5348477825
 20
35.8992091264
 30
0.0
 10
64.531192407
 20
35.9115089405
 30
0.0
 10
64.5210197767
 20
35.9675669772
 30
0.0
 10
64.5329258195
 20
36.0253563425
 30
0.0
 10
64.5468734912
 20
36.0667931033
 30
0.0
  0
SPLINE
  5
3CA
100
AcDbEntity
  8
0
100
AcDbSpline
 62
7
  6
BYLAYER
 70
0
 71
3
 72
8
 73
4
 74
0
 42
0.0000001
 43
0.0000001
 44
0.0000000001
 40
0.0
 40
0.0
 40
0.0
 40
0.0
 40
1.0
 40
1.0
 40
1.0
 40
1.0
 10
64.6027032474
 20
414.1124356902
 30
0.0
 10
64.5934063957
 20
414.0649028912
 30
0.0
 10
64.5742553829
 20
414.0184283528
 30
0.0
 10
64.5476011828
 20
413.9779888664
 30
0.0
  0
SPLINE
  5
3CB
100
AcDbEntity
  8
0
100
AcDbSpline
 62
7
  6
BYLAYER
 70
0
 71
3
 72
9
 73
5
 74
0
 42
0.0000001
 43
0.0000001
 44
0.0000000001
 40
0.0
 40
0.0
 40
0.0
 40
0.0
 40
0.2581441241
 40
1.0
 40
1.0
 40
1.0
 40
1.0
 10
113.574030686
 20
413.772446308
 30
0.0
 10
113.583410293
 20
413.8046396297
 30
0.0
 10
113.6157916613
 20
413.9304265905
 30
0.0
 10
113.6317752778
 20
414.0607559942
 30
0.0
 10
113.6317488153
 20
414.1571200757
 30
0.0
  0
SPLINE
  5
3CC
100
AcDbEntity
  8
0
100
AcDbSpline
 62
7
  6
BYLAYER
 70
0
 71
3
 72
9
 73
5
 74
0
 42
0.0000001
 43
0.0000001
 44
0.0000000001
 40
0.0
 40
0.0
 40
0.0
 40
0.0
 40
0.2541768024
 40
1.0
 40
1.0
 40
1.0
 40
1.0
 10
113.6930783743
 20
413.9779888663
 30
0.0
 10
113.6842013397
 20
413.9914570148
 30
0.0
 10
113.6527083932
 20
414.0466130873
 30
0.0
 10
113.6352353297
 20
414.109890096
 30
0.0
 10
113.6321391061
 20
414.1571199236
 30
0.0
  0
SPLINE
  5
3CD
100
AcDbEntity
  8
0
100
AcDbSpline
 62
7
  6
BYLAYER
 70
0
 71
3
 72
9
 73
5
 74
0
 42
0.0000001
 43
0.0000001
 44
0.0000000001
 40
0.0
 40
0.0
 40
0.0
 40
0.0
 40
0.27038548
 40
1.0
 40
1.0
 40
1.0
 40
1.0
 10
113.5740307238
 20
413.7724461622
 30
0.0
 10
113.5871946724
 20
413.7893830126
 30
0.0
 10
113.6338978735
 20
413.8534582474
 30
0.0
 10
113.6728981762
 20
413.9237365765
 30
0.0
 10
113.6930783743
 20
413.9779888662
 30
0.0
  0
SPLINE
  5
3CE
100
AcDbEntity
  8
0
100
AcDbSpline
 62
7
  6
BYLAYER
 70
0
 71
3
 72
9
 73
5
 74
0
 42
0.0000001
 43
0.0000001
 44
0.0000000001
 40
0.0
 40
0.0
 40
0.0
 40
0.0
 40
0.5149641487
 40
1.0
 40
1.0
 40
1.0
 40
1.0
 10
113.6317958366
 20
414.2408399984
 30
0.0
 10
113.6496923453
 20
414.2298588848
 30
0.0
 10
113.681038621
 20
414.2020246004
 30
0.0
 10
113.6994700929
 20
414.1645302267
 30
0.0
 10
113.7051039637
 20
414.1455730596
 30
0.0
  0
SPLINE
  5
3CF
100
AcDbEntity
  8
0
100
AcDbSpline
 62
7
  6
BYLAYER
 70
0
 71
3
 72
9
 73
5
 74
0
 42
0.0000001
 43
0.0000001
 44
0.0000000001
 40
0.0
 40
0.0
 40
0.0
 40
0.0
 40
0.2268944865
 40
1.0
 40
1.0
 40
1.0
 40
1.0
 10
113.7051039637
 20
414.1455730596
 30
0.0
 10
113.7087593392
 20
414.1332732454
 30
0.0
 10
113.7189319694
 20
414.0772152087
 30
0.0
 10
113.7070259267
 20
414.0194258435
 30
0.0
 10
113.6930782549
 20
413.9779890827
 30
0.0
  0
SPLINE
  5
3D0
100
AcDbEntity
  8
0
100
AcDbSpline
 62
7
  6
BYLAYER
 70
0
 71
3
 72
8
 73
4
 74
0
 42
0.0000001
 43
0.0000001
 44
0.0000000001
 40
0.0
 40
0.0
 40
0.0
 40
0.0
 40
1.0
 40
1.0
 40
1.0
 40
1.0
 10
113.6930783743
 20
413.9779888662
 30
0.0
 10
113.7209108307
 20
413.9137996344
 30
0.0
 10
113.735579255
 20
413.8424097464
 30
0.0
 10
113.735579255
 20
413.7724461622
 30
0.0
  0
SPLINE
  5
3D1
100
AcDbEntity
  8
0
100
AcDbSpline
 62
7
  6
BYLAYER
 70
0
 71
3
 72
9
 73
5
 74
0
 42
0.0000001
 43
0.0000001
 44
0.0000000001
 40
0.0
 40
0.0
 40
0.0
 40
0.0
 40
0.242355115
 40
1.0
 40
1.0
 40
1.0
 40
1.0
 10
64.6089307434
 20
414.1571336597
 30
0.0
 10
64.6089217249
 20
414.1256479902
 30
0.0
 10
64.6141267251
 20
413.9957467103
 30
0.0
 10
64.6391158769
 20
413.8669468154
 30
0.0
 10
64.6666488604
 20
413.7724462663
 30
0.0
  0
SPLINE
  5
3D2
100
AcDbEntity
  8
0
100
AcDbSpline
 62
7
  6
BYLAYER
 70
0
 71
3
 72
11
 73
7
 74
0
 42
0.0000001
 43
0.0000001
 44
0.0000000001
 40
0.0
 40
0.0
 40
0.0
 40
0.0
 40
0.2545253123
 40
0.5063269197
 40
0.7544493833
 40
1.0
 40
1.0
 40
1.0
 40
1.0
 10
112.5347848484
 20
415.7724461622
 30
0.0
 10
112.5347848484
 20
415.9023249036
 30
0.0
 10
112.4854474567
 20
416.1633890197
 30
0.0
 10
112.2728669337
 20
416.4955065163
 30
0.0
 10
111.9533921233
 20
416.7196706849
 30
0.0
 10
111.6985600497
 20
416.7724461622
 30
0.0
 10
111.5732609007
 20
416.7724461622
 30
0.0
  0
SPLINE
  5
3D3
100
AcDbEntity
  8
0
100
AcDbSpline
 62
7
  6
BYLAYER
 70
0
 71
3
 72
9
 73
5
 74
0
 42
0.0000001
 43
0.0000001
 44
0.0000000001
 40
0.0
 40
0.0
 40
0.0
 40
0.0
 40
0.2799425408
 40
1.0
 40
1.0
 40
1.0
 40
1.0
 10
64.5476012963
 20
413.9779890719
 30
0.0
 10
64.542575155
 20
413.9929210979
 30
0.0
 10
64.5271098287
 20
414.0467791126
 30
0.0
 10
64.5239975426
 20
414.1062071818
 30
0.0
 10
64.5354315112
 20
414.1450857272
 30
0.0
  0
SPLINE
  5
3D4
100
AcDbEntity
  8
0
100
AcDbSpline
 62
7
  6
BYLAYER
 70
0
 71
3
 72
8
 73
4
 74
0
 42
0.0000001
 43
0.0000001
 44
0.0000000001
 40
0.0
 40
0.0
 40
0.0
 40
0.0
 40
1.0
 40
1.0
 40
1.0
 40
1.0
 10
64.5354315112
 20
414.1450857272
 30
0.0
 10
64.5404256151
 20
414.1620670139
 30
0.0
 10
64.5481115697
 20
414.1785012216
 30
0.0
 10
64.5581410156
 20
414.1930859872
 30
0.0
  0
SPLINE
  5
3D5
100
AcDbEntity
  8
0
100
AcDbSpline
 62
7
  6
BYLAYER
 70
0
 71
3
 72
9
 73
5
 74
0
 42
0.0000001
 43
0.0000001
 44
0.0000000001
 40
0.0
 40
0.0
 40
0.0
 40
0.0
 40
0.2411465755
 40
1.0
 40
1.0
 40
1.0
 40
1.0
 10
64.5581410156
 20
414.1930859872
 30
0.0
 10
64.561298325
 20
414.1976773294
 30
0.0
 10
64.5753543982
 20
414.2160451523
 30
0.0
 10
64.5934149443
 20
414.2312740256
 30
0.0
 10
64.6083278685
 20
414.2404975753
 30
0.0
  0
SPLINE
  5
3D6
100
AcDbEntity
  8
0
100
AcDbSpline
 62
7
  6
BYLAYER
 70
0
 71
3
 72
11
 73
7
 74
0
 42
0.0000001
 43
0.0000001
 44
0.0000000001
 40
0.0
 40
0.0
 40
0.0
 40
0.0
 40
0.2454646712
 40
0.49351694
 40
0.7453862235
 40
1.0
 40
1.0
 40
1.0
 40
1.0
 10
66.6674186565
 20
416.7724461622
 30
0.0
 10
66.5421633396
 20
416.7724461622
 30
0.0
 10
66.2874132968
 20
416.7197090473
 30
0.0
 10
65.9679367578
 20
416.4956369406
 30
0.0
 10
65.7552671312
 20
416.1635162464
 30
0.0
 10
65.7058947088
 20
415.9023700698
 30
0.0
 10
65.7058947088
 20
415.7724461622
 30
0.0
  0
SPLINE
  5
3D7
100
AcDbEntity
  8
0
100
AcDbSpline
 62
7
  6
BYLAYER
 70
0
 71
3
 72
9
 73
5
 74
0
 42
0.0000001
 43
0.0000001
 44
0.0000000001
 40
0.0
 40
0.0
 40
0.0
 40
0.0
 40
0.2703934266
 40
1.0
 40
1.0
 40
1.0
 40
1.0
 10
64.6666488334
 20
413.7724461622
 30
0.0
 10
64.653484517
 20
413.7893834932
 30
0.0
 10
64.6067856372
 20
413.853461693
 30
0.0
 10
64.56778113
 20
413.9237372286
 30
0.0
 10
64.5476011829
 20
413.9779888662
 30
0.0
  0
SPLINE
  5
3D8
100
AcDbEntity
  8
0
100
AcDbSpline
 62
7
  6
BYLAYER
 70
0
 71
3
 72
11
 73
7
 74
0
 42
0.0000001
 43
0.0000001
 44
0.0000000001
 40
0.0
 40
0.0
 40
0.0
 40
0.0
 40
0.2544641196
 40
0.5062554122
 40
0.7544085347
 40
1.0
 40
1.0
 40
1.0
 40
1.0
 10
64.6666488334
 20
415.7724461622
 30
0.0
 10
64.6666488334
 20
415.9008672148
 30
0.0
 10
64.7148664142
 20
416.1589674358
 30
0.0
 10
64.9228287779
 20
416.4885932788
 30
0.0
 10
65.2360992775
 20
416.7137412528
 30
0.0
 10
65.4870969483
 20
416.7699490676
 30
0.0
 10
65.611018213
 20
416.7722843943
 30
0.0
  0
SPLINE
  5
3D9
100
AcDbEntity
  8
0
100
AcDbSpline
 62
7
  6
BYLAYER
 70
0
 71
3
 72
11
 73
7
 74
0
 42
0.0000001
 43
0.0000001
 44
0.0000000001
 40
0.0
 40
0.0
 40
0.0
 40
0.0
 40
0.2627344212
 40
0.5180975916
 40
0.762900959
 40
1.0
 40
1.0
 40
1.0
 40
1.0
 10
69.6731261831
 20
415.7724461622
 30
0.0
 10
69.6731261831
 20
415.9020159298
 30
0.0
 10
69.6282300812
 20
416.1599039535
 30
0.0
 10
69.4330293813
 20
416.4913990906
 30
0.0
 10
69.1362470376
 20
416.7181370419
 30
0.0
 10
68.8956264487
 20
416.7724461622
 30
0.0
 10
68.7786989921
 20
416.7724461622
 30
0.0
  0
SPLINE
  5
3DA
100
AcDbEntity
  8
0
100
AcDbSpline
 62
7
  6
BYLAYER
 70
0
 71
3
 72
11
 73
7
 74
0
 42
0.0000001
 43
0.0000001
 44
0.0000000001
 40
0.0
 40
0.0
 40
0.0
 40
0.0
 40
0.2570642536
 40
0.5099515937
 40
0.7570212812
 40
1.0
 40
1.0
 40
1.0
 40
1.0
 10
70.0675723039
 20
415.7724461622
 30
0.0
 10
70.0675714726
 20
415.9026752456
 30
0.0
 10
70.0188915096
 20
416.1636661505
 30
0.0
 10
69.8092936975
 20
416.4957664862
 30
0.0
 10
69.4945980796
 20
416.719690602
 30
0.0
 10
69.2434322456
 20
416.7724391023
 30
0.0
 10
69.1203389126
 20
416.7724461622
 30
0.0
  0
SPLINE
  5
3DB
100
AcDbEntity
  8
0
100
AcDbSpline
 62
7
  6
BYLAYER
 70
0
 71
3
 72
11
 73
7
 74
0
 42
0.0000001
 43
0.0000001
 44
0.0000000001
 40
0.0
 40
0.0
 40
0.0
 40
0.0
 40
0.2429770416
 40
0.4900484521
 40
0.7429376142
 40
1.0
 40
1.0
 40
1.0
 40
1.0
 10
109.1203406554
 20
416.7724461622
 30
0.0
 10
108.9972481863
 20
416.772439014
 30
0.0
 10
108.7460824931
 20
416.7196907753
 30
0.0
 10
108.4313855005
 20
416.4957666626
 30
0.0
 10
108.2217879215
 20
416.1636650169
 30
0.0
 10
108.1731081606
 20
415.9026742843
 30
0.0
 10
108.1731073414
 20
415.7724461622
 30
0.0
  0
SPLINE
  5
3DC
100
AcDbEntity
  8
0
100
AcDbSpline
 62
7
  6
BYLAYER
 70
0
 71
3
 72
11
 73
7
 74
0
 42
0.0000001
 43
0.0000001
 44
0.0000000001
 40
0.0
 40
0.0
 40
0.0
 40
0.0
 40
0.2370154222
 40
0.4817461593
 40
0.7371748139
 40
1.0
 40
1.0
 40
1.0
 40
1.0
 10
109.4619805651
 20
416.7724461622
 30
0.0
 10
109.3450942824
 20
416.7724461622
 30
0.0
 10
109.1045528327
 20
416.718177427
 30
0.0
 10
108.8077642777
 20
416.491530408
 30
0.0
 10
108.6124806974
 20
416.1600280545
 30
0.0
 10
108.5675533741
 20
415.9020607617
 30
0.0
 10
108.5675533741
 20
415.7724461622
 30
0.0
  0
SPLINE
  5
3DD
100
AcDbEntity
  8
0
100
AcDbSpline
 62
7
  6
BYLAYER
 70
0
 71
3
 72
11
 73
7
 74
0
 42
0.0000001
 43
0.0000001
 44
0.0000000001
 40
0.0
 40
0.0
 40
0.0
 40
0.0
 40
0.2455000837
 40
0.4935877931
 40
0.7454492783
 40
1.0
 40
1.0
 40
1.0
 40
1.0
 10
112.6299437258
 20
416.7722791823
 30
0.0
 10
112.7537956208
 20
416.7699089569
 30
0.0
 10
113.0046480697
 20
416.7136824933
 30
0.0
 10
113.3178233135
 20
416.4886143651
 30
0.0
 10
113.525796556
 20
416.1590205172
 30
0.0
 10
113.5740307238
 20
415.9008875114
 30
0.0
 10
113.5740307238
 20
415.7724461622
 30
0.0
  0
SPLINE
  5
3DE
100
AcDbEntity
  8
0
100
AcDbSpline
 62
7
  6
BYLAYER
 70
0
 71
3
 72
8
 73
4
 74
0
 42
0.0000001
 43
0.0000001
 44
0.0000000001
 40
0.0
 40
0.0
 40
0.0
 40
0.0
 40
1.0
 40
1.0
 40
1.0
 40
1.0
 10
64.5051003022
 20
413.7724461622
 30
0.0
 10
64.5051003022
 20
413.8424097464
 30
0.0
 10
64.5197687265
 20
413.9137996344
 30
0.0
 10
64.5476011829
 20
413.9779888662
 30
0.0
  0
SPLINE
  5
3DF
100
AcDbEntity
  8
0
100
AcDbSpline
 62
7
  6
BYLAYER
 70
0
 71
3
 72
8
 73
4
 74
0
 42
0.0000001
 43
0.0000001
 44
0.0000000001
 40
0.0
 40
0.0
 40
0.0
 40
0.0
 40
1.0
 40
1.0
 40
1.0
 40
1.0
 10
212.2518341359
 20
414.1124356902
 30
0.0
 10
212.2425372842
 20
414.0649028912
 30
0.0
 10
212.2233862714
 20
414.0184283528
 30
0.0
 10
212.1967320713
 20
413.9779888664
 30
0.0
  0
SPLINE
  5
3E0
100
AcDbEntity
  8
0
100
AcDbSpline
 62
7
  6
BYLAYER
 70
0
 71
3
 72
9
 73
5
 74
0
 42
0.0000001
 43
0.0000001
 44
0.0000000001
 40
0.0
 40
0.0
 40
0.0
 40
0.0
 40
0.2581441241
 40
1.0
 40
1.0
 40
1.0
 40
1.0
 10
261.2231615745
 20
413.772446308
 30
0.0
 10
261.2325411816
 20
413.8046396298
 30
0.0
 10
261.2649225499
 20
413.930426591
 30
0.0
 10
261.2809061664
 20
414.060755995
 30
0.0
 10
261.2808797039
 20
414.1571200767
 30
0.0
  0
SPLINE
  5
3E1
100
AcDbEntity
  8
0
100
AcDbSpline
 62
7
  6
BYLAYER
 70
0
 71
3
 72
9
 73
5
 74
0
 42
0.0000001
 43
0.0000001
 44
0.0000000001
 40
0.0
 40
0.0
 40
0.0
 40
0.0
 40
0.2541768025
 40
1.0
 40
1.0
 40
1.0
 40
1.0
 10
261.3422092628
 20
413.9779888663
 30
0.0
 10
261.3333322281
 20
413.9914570148
 30
0.0
 10
261.3018392815
 20
414.0466130876
 30
0.0
 10
261.2843662181
 20
414.1098900968
 30
0.0
 10
261.2812699945
 20
414.1571199246
 30
0.0
  0
SPLINE
  5
3E2
100
AcDbEntity
  8
0
100
AcDbSpline
 62
7
  6
BYLAYER
 70
0
 71
3
 72
9
 73
5
 74
0
 42
0.0000001
 43
0.0000001
 44
0.0000000001
 40
0.0
 40
0.0
 40
0.0
 40
0.0
 40
0.27038548
 40
1.0
 40
1.0
 40
1.0
 40
1.0
 10
261.2231616123
 20
413.7724461622
 30
0.0
 10
261.2363255609
 20
413.7893830126
 30
0.0
 10
261.283028762
 20
413.8534582474
 30
0.0
 10
261.3220290647
 20
413.9237365765
 30
0.0
 10
261.3422092628
 20
413.9779888662
 30
0.0
  0
SPLINE
  5
3E3
100
AcDbEntity
  8
0
100
AcDbSpline
 62
7
  6
BYLAYER
 70
0
 71
3
 72
9
 73
5
 74
0
 42
0.0000001
 43
0.0000001
 44
0.0000000001
 40
0.0
 40
0.0
 40
0.0
 40
0.0
 40
0.5149641487
 40
1.0
 40
1.0
 40
1.0
 40
1.0
 10
261.2809267251
 20
414.2408399984
 30
0.0
 10
261.2988232339
 20
414.2298588848
 30
0.0
 10
261.3301695095
 20
414.2020246004
 30
0.0
 10
261.3486009814
 20
414.1645302267
 30
0.0
 10
261.3542348522
 20
414.1455730596
 30
0.0
  0
SPLINE
  5
3E4
100
AcDbEntity
  8
0
100
AcDbSpline
 62
7
  6
BYLAYER
 70
0
 71
3
 72
9
 73
5
 74
0
 42
0.0000001
 43
0.0000001
 44
0.0000000001
 40
0.0
 40
0.0
 40
0.0
 40
0.0
 40
0.2268944865
 40
1.0
 40
1.0
 40
1.0
 40
1.0
 10
261.3542348522
 20
414.1455730596
 30
0.0
 10
261.3578902277
 20
414.1332732454
 30
0.0
 10
261.368062858
 20
414.0772152087
 30
0.0
 10
261.3561568152
 20
414.0194258435
 30
0.0
 10
261.3422091434
 20
413.9779890827
 30
0.0
  0
SPLINE
  5
3E5
100
AcDbEntity
  8
0
100
AcDbSpline
 62
7
  6
BYLAYER
 70
0
 71
3
 72
8
 73
4
 74
0
 42
0.0000001
 43
0.0000001
 44
0.0000000001
 40
0.0
 40
0.0
 40
0.0
 40
0.0
 40
1.0
 40
1.0
 40
1.0
 40
1.0
 10
261.3422092628
 20
413.9779888662
 30
0.0
 10
261.3700417192
 20
413.9137996344
 30
0.0
 10
261.3847101435
 20
413.8424097464
 30
0.0
 10
261.3847101435
 20
413.7724461622
 30
0.0
  0
SPLINE
  5
3E6
100
AcDbEntity
  8
0
100
AcDbSpline
 62
7
  6
BYLAYER
 70
0
 71
3
 72
9
 73
5
 74
0
 42
0.0000001
 43
0.0000001
 44
0.0000000001
 40
0.0
 40
0.0
 40
0.0
 40
0.0
 40
0.242355115
 40
1.0
 40
1.0
 40
1.0
 40
1.0
 10
212.258061632
 20
414.1571336599
 30
0.0
 10
212.2580526134
 20
414.1256479904
 30
0.0
 10
212.2632576136
 20
413.9957467104
 30
0.0
 10
212.2882467654
 20
413.8669468155
 30
0.0
 10
212.3157797489
 20
413.7724462663
 30
0.0
  0
SPLINE
  5
3E7
100
AcDbEntity
  8
0
100
AcDbSpline
 62
7
  6
BYLAYER
 70
0
 71
3
 72
11
 73
7
 74
0
 42
0.0000001
 43
0.0000001
 44
0.0000000001
 40
0.0
 40
0.0
 40
0.0
 40
0.0
 40
0.2545253123
 40
0.5063269197
 40
0.7544493833
 40
1.0
 40
1.0
 40
1.0
 40
1.0
 10
260.1839157369
 20
415.7724461622
 30
0.0
 10
260.1839157369
 20
415.9023249036
 30
0.0
 10
260.1345783452
 20
416.1633890197
 30
0.0
 10
259.9219978222
 20
416.4955065163
 30
0.0
 10
259.6025230118
 20
416.7196706849
 30
0.0
 10
259.3476909383
 20
416.7724461622
 30
0.0
 10
259.2223917892
 20
416.7724461622
 30
0.0
  0
SPLINE
  5
3E8
100
AcDbEntity
  8
0
100
AcDbSpline
 62
7
  6
BYLAYER
 70
0
 71
3
 72
11
 73
7
 74
0
 42
0.0000001
 43
0.0000001
 44
0.0000000001
 40
0.0
 40
0.0
 40
0.0
 40
0.0
 40
0.2454646712
 40
0.49351694
 40
0.7453862235
 40
1.0
 40
1.0
 40
1.0
 40
1.0
 10
214.316549545
 20
416.7724461622
 30
0.0
 10
214.1912942281
 20
416.7724461622
 30
0.0
 10
213.9365441854
 20
416.7197090473
 30
0.0
 10
213.6170676463
 20
416.4956369406
 30
0.0
 10
213.4043980197
 20
416.1635162464
 30
0.0
 10
213.3550255973
 20
415.9023700698
 30
0.0
 10
213.3550255973
 20
415.7724461622
 30
0.0
  0
SPLINE
  5
3E9
100
AcDbEntity
  8
0
100
AcDbSpline
 62
7
  6
BYLAYER
 70
0
 71
3
 72
9
 73
5
 74
0
 42
0.0000001
 43
0.0000001
 44
0.0000000001
 40
0.0
 40
0.0
 40
0.0
 40
0.0
 40
0.2703934266
 40
1.0
 40
1.0
 40
1.0
 40
1.0
 10
212.3157797219
 20
413.7724461622
 30
0.0
 10
212.3026154055
 20
413.7893834932
 30
0.0
 10
212.2559165257
 20
413.853461693
 30
0.0
 10
212.2169120185
 20
413.9237372286
 30
0.0
 10
212.1967320714
 20
413.9779888662
 30
0.0
  0
SPLINE
  5
3EA
100
AcDbEntity
  8
0
100
AcDbSpline
 62
7
  6
BYLAYER
 70
0
 71
3
 72
11
 73
7
 74
0
 42
0.0000001
 43
0.0000001
 44
0.0000000001
 40
0.0
 40
0.0
 40
0.0
 40
0.0
 40
0.2544641196
 40
0.5062554122
 40
0.7544085347
 40
1.0
 40
1.0
 40
1.0
 40
1.0
 10
212.3157797219
 20
415.7724461622
 30
0.0
 10
212.3157797219
 20
415.9008672148
 30
0.0
 10
212.3639973027
 20
416.1589674358
 30
0.0
 10
212.5719596664
 20
416.4885932788
 30
0.0
 10
212.885230166
 20
416.7137412528
 30
0.0
 10
213.1362278368
 20
416.7699490676
 30
0.0
 10
213.2601491015
 20
416.7722843943
 30
0.0
  0
SPLINE
  5
3EB
100
AcDbEntity
  8
0
100
AcDbSpline
 62
7
  6
BYLAYER
 70
0
 71
3
 72
11
 73
7
 74
0
 42
0.0000001
 43
0.0000001
 44
0.0000000001
 40
0.0
 40
0.0
 40
0.0
 40
0.0
 40
0.2627344212
 40
0.5180975916
 40
0.762900959
 40
1.0
 40
1.0
 40
1.0
 40
1.0
 10
217.3222570716
 20
415.7724461622
 30
0.0
 10
217.3222570716
 20
415.9020159298
 30
0.0
 10
217.2773609697
 20
416.1599039535
 30
0.0
 10
217.0821602698
 20
416.4913990906
 30
0.0
 10
216.7853779261
 20
416.7181370419
 30
0.0
 10
216.5447573372
 20
416.7724461622
 30
0.0
 10
216.4278298806
 20
416.7724461622
 30
0.0
  0
SPLINE
  5
3EC
100
AcDbEntity
  8
0
100
AcDbSpline
 62
7
  6
BYLAYER
 70
0
 71
3
 72
11
 73
7
 74
0
 42
0.0000001
 43
0.0000001
 44
0.0000000001
 40
0.0
 40
0.0
 40
0.0
 40
0.0
 40
0.2570642536
 40
0.5099515937
 40
0.7570212812
 40
1.0
 40
1.0
 40
1.0
 40
1.0
 10
217.7167031925
 20
415.7724461622
 30
0.0
 10
217.7167023611
 20
415.9026752456
 30
0.0
 10
217.6680223981
 20
416.1636661505
 30
0.0
 10
217.4584245861
 20
416.4957664862
 30
0.0
 10
217.1437289681
 20
416.719690602
 30
0.0
 10
216.8925631341
 20
416.7724391023
 30
0.0
 10
216.7694698011
 20
416.7724461622
 30
0.0
  0
SPLINE
  5
3ED
100
AcDbEntity
  8
0
100
AcDbSpline
 62
7
  6
BYLAYER
 70
0
 71
3
 72
11
 73
7
 74
0
 42
0.0000001
 43
0.0000001
 44
0.0000000001
 40
0.0
 40
0.0
 40
0.0
 40
0.0
 40
0.2429770416
 40
0.4900484521
 40
0.7429376142
 40
1.0
 40
1.0
 40
1.0
 40
1.0
 10
256.7694715439
 20
416.7724461622
 30
0.0
 10
256.6463790749
 20
416.772439014
 30
0.0
 10
256.3952133817
 20
416.7196907753
 30
0.0
 10
256.080516389
 20
416.4957666626
 30
0.0
 10
255.87091881
 20
416.1636650169
 30
0.0
 10
255.8222390492
 20
415.9026742843
 30
0.0
 10
255.8222382299
 20
415.7724461622
 30
0.0
  0
SPLINE
  5
3EE
100
AcDbEntity
  8
0
100
AcDbSpline
 62
7
  6
BYLAYER
 70
0
 71
3
 72
11
 73
7
 74
0
 42
0.0000001
 43
0.0000001
 44
0.0000000001
 40
0.0
 40
0.0
 40
0.0
 40
0.0
 40
0.2370154222
 40
0.4817461593
 40
0.7371748139
 40
1.0
 40
1.0
 40
1.0
 40
1.0
 10
257.1111114536
 20
416.7724461622
 30
0.0
 10
256.9942251709
 20
416.7724461622
 30
0.0
 10
256.7536837212
 20
416.718177427
 30
0.0
 10
256.4568951662
 20
416.491530408
 30
0.0
 10
256.2616115859
 20
416.1600280545
 30
0.0
 10
256.2166842626
 20
415.9020607617
 30
0.0
 10
256.2166842626
 20
415.7724461622
 30
0.0
  0
SPLINE
  5
3EF
100
AcDbEntity
  8
0
100
AcDbSpline
 62
7
  6
BYLAYER
 70
0
 71
3
 72
11
 73
7
 74
0
 42
0.0000001
 43
0.0000001
 44
0.0000000001
 40
0.0
 40
0.0
 40
0.0
 40
0.0
 40
0.2455000837
 40
0.4935877931
 40
0.7454492783
 40
1.0
 40
1.0
 40
1.0
 40
1.0
 10
260.2790746144
 20
416.7722791823
 30
0.0
 10
260.4029265093
 20
416.7699089569
 30
0.0
 10
260.6537789582
 20
416.7136824933
 30
0.0
 10
260.966954202
 20
416.4886143651
 30
0.0
 10
261.1749274445
 20
416.1590205172
 30
0.0
 10
261.2231616123
 20
415.9008875114
 30
0.0
 10
261.2231616123
 20
415.7724461622
 30
0.0
  0
SPLINE
  5
3F0
100
AcDbEntity
  8
0
100
AcDbSpline
 62
7
  6
BYLAYER
 70
0
 71
3
 72
9
 73
5
 74
0
 42
0.0000001
 43
0.0000001
 44
0.0000000001
 40
0.0
 40
0.0
 40
0.0
 40
0.0
 40
0.2799425408
 40
1.0
 40
1.0
 40
1.0
 40
1.0
 10
212.1967321848
 20
413.9779890719
 30
0.0
 10
212.1917060435
 20
413.9929210979
 30
0.0
 10
212.1762407172
 20
414.0467791126
 30
0.0
 10
212.1731284311
 20
414.1062071818
 30
0.0
 10
212.1845623997
 20
414.1450857272
 30
0.0
  0
SPLINE
  5
3F1
100
AcDbEntity
  8
0
100
AcDbSpline
 62
7
  6
BYLAYER
 70
0
 71
3
 72
8
 73
4
 74
0
 42
0.0000001
 43
0.0000001
 44
0.0000000001
 40
0.0
 40
0.0
 40
0.0
 40
0.0
 40
1.0
 40
1.0
 40
1.0
 40
1.0
 10
212.1845623997
 20
414.1450857272
 30
0.0
 10
212.1895565037
 20
414.1620670139
 30
0.0
 10
212.1972424582
 20
414.1785012216
 30
0.0
 10
212.2072719041
 20
414.1930859872
 30
0.0
  0
SPLINE
  5
3F2
100
AcDbEntity
  8
0
100
AcDbSpline
 62
7
  6
BYLAYER
 70
0
 71
3
 72
9
 73
5
 74
0
 42
0.0000001
 43
0.0000001
 44
0.0000000001
 40
0.0
 40
0.0
 40
0.0
 40
0.0
 40
0.2411465755
 40
1.0
 40
1.0
 40
1.0
 40
1.0
 10
212.2072719041
 20
414.1930859872
 30
0.0
 10
212.2104292135
 20
414.1976773294
 30
0.0
 10
212.2244852868
 20
414.2160451523
 30
0.0
 10
212.2425458329
 20
414.2312740256
 30
0.0
 10
212.257458757
 20
414.2404975753
 30
0.0
  0
SPLINE
  5
3F3
100
AcDbEntity
  8
0
100
AcDbSpline
 62
7
  6
BYLAYER
 70
0
 71
3
 72
8
 73
4
 74
0
 42
0.0000001
 43
0.0000001
 44
0.0000000001
 40
0.0
 40
0.0
 40
0.0
 40
0.0
 40
1.0
 40
1.0
 40
1.0
 40
1.0
 10
212.1542311907
 20
413.7724461622
 30
0.0
 10
212.1542311907
 20
413.8424097464
 30
0.0
 10
212.168899615
 20
413.9137996344
 30
0.0
 10
212.1967320714
 20
413.9779888662
 30
0.0
  0
ENDSEC
  0
SECTION
  2
OBJECTS
  0
DICTIONARY
  5
C
100
AcDbDictionary
280
0
281
1
  3
ACAD_GROUP
350
D
  3
ACAD_MLINESTYLE
350
17
  3
ACAD_LAYOUT
350
1A
  3
ACAD_PLOTSETTINGS
350
19
  3
ACAD_PLOTSTYLENAME
350
E
  0
DICTIONARY
  5
D
102
{ACAD_REACTORS
330
C
102
}
100
AcDbDictionary
280
0
281
1
  0
ACDBDICTIONARYWDFLT
  5
E
102
{ACAD_REACTORS
330
C
102
}
100
AcDbDictionary
281
1
  3
Normal
350
F
100
AcDbDictionaryWithDefault
340
F
  0
DICTIONARY
  5
17
102
{ACAD_REACTORS
330
C
102
}
100
AcDbDictionary
280
0
281
1
  3
Standard
350
18
  0
DICTIONARY
  5
19
102
{ACAD_REACTORS
330
C
102
}
100
AcDbDictionary
281
1
  0
DICTIONARY
  5
1A
102
{ACAD_REACTORS
330
C
102
}
100
AcDbDictionary
281
1
  3
Model
350
3F4
  3
Layout1
350
3F5
  0
ACDBPLACEHOLDER
  5
F
102
{ACAD_REACTORS
330
E
102
}
  0
MLINESTYLE
  5
18
102
{ACAD_REACTORS
330
17
102
}
100
AcDbMlineStyle
  2
STANDARD
 70
0
  3

 62
256
 51
90.0
 52
90.0
 71
2
 49
0.5
 62
256
  6
BYLAYER
 49
-0.5
 62
256
  6
BYLAYER
  0
LAYOUT
  5
3F4
102
{ACAD_REACTORS
330
1A
102
}
100
AcDbPlotSettings
  1

  2
none_device
  4

  6

 40
0.0
 41
0.0
 42
0.0
 43
0.0
 44
210.0
 45
297.0
 46
0.0
 47
0.0
 48
0.0
 49
0.0
140
0.0
141
0.0
142
1.0
143
1.0
 70
1024
 72
1
 73
0
 74
0
  7

 75
0
147
1.0
148
0.0
149
0.0
100
AcDbLayout
  1
Model
 70
0
 71
0
 10
0.0
 20
0.0
 11
210.0
 21
297.0
 12
0.0
 22
0.0
 32
0.0
 14
0.0
 24
0.0
 34
0.0
 15
0.0
 25
0.0
 35
0.0
146
0.0
 13
0.0
 23
0.0
 33
0.0
 16
1.0
 26
0.0
 36
0.0
 17
0.0
 27
1.0
 37
0.0
 76
0
330
212
345
0
346
0
  0
LAYOUT
  5
3F5
102
{ACAD_REACTORS
330
1A
102
}
100
AcDbPlotSettings
  1

  2
none_device
  4

  6

 40
0.0
 41
0.0
 42
0.0
 43
0.0
 44
210.0
 45
297.0
 46
0.0
 47
0.0
 48
0.0
 49
0.0
140
0.0
141
0.0
142
1.0
143
1.0
 70
0
 72
1
 73
0
 74
0
  7

 75
0
147
1.0
148
0.0
149
0.0
100
AcDbLayout
  1
Layout1
 70
0
 71
1
 10
0.0
 20
0.0
 11
210.0
 21
297.0
 12
0.0
 22
0.0
 32
0.0
 14
0.0
 24
0.0
 34
0.0
 15
0.0
 25
0.0
 35
0.0
146
0.0
 13
0.0
 23
0.0
 33
0.0
 16
1.0
 26
0.0
 36
0.0
 17
0.0
 27
1.0
 37
0.0
 76
0
330
213
345
0
346
0
  0
ENDSEC
  0
EOF
