999
DXF file: C:\Users\sesa63760\Dev\_Creo\CAD\MCADPE0010542_3D-CAD\drw0001_1.dxf
999
Pro/ENGINEER 2019471 by Parametric Technology Corporation
  0
SECTION
  2
HEADER
  9
$ACADVER
  1
AC1024
  9
$DWGCODEPAGE
  3
ANSI_1252
  9
$EXTMAX
 10
61.0985773843
 20
86.4108451577
 30
0.0
  9
$EXTMIN
 10
0.0
 20
0.0
 30
0.0
  9
$LIMMIN
 10
0.0
 20
0.0
  9
$LIMMAX
 10
61.0985773843
 20
86.4108451577
  9
$VIEWCTR
 10
30.5492886921
 20
43.2054225789
  9
$VIEWSIZE
 40
86.4108451577
  9
$CLAYER
  8
0
  9
$LTSCALE
 40
5.6327069436
  9
$CELTYPE
  6
BYLAYER
  9
$DIMSCALE
 40
1.0
  9
$DIMASZ
 40
0.7273640165
  9
$DIMEXO
 40
1.0
  9
$DIMDLI
 40
3.8916884338
  9
$DIMEXE
 40
1.0
  9
$DIMCEN
 40
0.9217156817
  9
$DIMLFAC
 40
1.0
  9
$DIMBLK
  1
_FILLED
  9
$DIMALT
 70
0
  9
$DIMALTF
 40
0.0393700787
  9
$DIMTXT
 40
1.0183096231
  9
$DIMTOL
 70
1
  9
$DIMLIM
 70
0
  9
$DIMTFAC
 40
1.0
  9
$DIMTP
 40
0.01
  9
$DIMTM
 40
0.01
  9
$DIMGAP
 40
0.625
  9
$DIMDSEP
 70
46
  9
$AUNITS
 70
0
  9
$PDMODE
 70
3
  9
$PDSIZE
 40
0.3125
  9
$HANDSEED
  5
356
  9
$TILEMODE
 70
1
  9
$MEASUREMENT
 70
1
  9
$INSUNITS
 70
4
  0
ENDSEC
  0
SECTION
  2
CLASSES
  0
CLASS
  1
ACDBDICTIONARYWDFLT
  2
AcDbDictionaryWithDefault
  3
AutoCAD 2000
 90
0
 91
1
280
0
281
0
  0
CLASS
  1
ACDBPLACEHOLDER
  2
AcDbPlaceHolder
  3
AutoCAD 2000
 90
0
 91
1
280
0
281
0
  0
CLASS
  1
LAYOUT
  2
AcDbLayout
  3
AutoCAD 2000
 90
0
 91
0
280
0
281
0
  0
ENDSEC
  0
SECTION
  2
TABLES
  0
TABLE
  2
VPORT
  5
8
100
AcDbSymbolTable
 70
2
  0
VPORT
  5
1F4
100
AcDbSymbolTableRecord
100
AcDbViewportTableRecord
  2
*ACTIVE
 70
0
 10
0.0
 20
0.0
 11
1.0
 21
1.0
 12
30.5492886921
 22
43.2054225789
 13
0.0
 23
0.0
 14
1.0
 24
1.0
 15
0.0
 25
0.0
 16
0.0
 26
0.0
 36
1.0
 17
0.0
 27
0.0
 37
0.0
 40
86.4108451577
 41
0.7070707071
 42
50.0
 43
0.0
 44
0.0
 50
0.0
 51
0.0
 71
0
 72
100
 73
1
 74
1
 75
0
 76
0
 77
0
 78
0
  0
ENDTAB
  0
TABLE
  2
LTYPE
  5
5
100
AcDbSymbolTable
 70
6
  0
LTYPE
  5
14
100
AcDbSymbolTableRecord
100
AcDbLinetypeTableRecord
  2
BYBLOCK
 70
0
  3

 72
65
 73
0
 40
0.0
  0
LTYPE
  5
15
100
AcDbSymbolTableRecord
100
AcDbLinetypeTableRecord
  2
BYLAYER
 70
0
  3

 72
65
 73
0
 40
0.0
  0
LTYPE
  5
16
100
AcDbSymbolTableRecord
100
AcDbLinetypeTableRecord
  2
CONTINUOUS
 70
64
  3
Solid line
 72
65
 73
0
 40
0.0
  0
LTYPE
  5
1F5
100
AcDbSymbolTableRecord
100
AcDbLinetypeTableRecord
  2
CENTER
 70
64
  3
____ _ ____ _ ____ _ ____ _ ____ _ ____ _ ____
 72
65
 73
4
 40
0.6
 49
0.375
 74
0
 49
-0.075
 74
0
 49
0.075
 74
0
 49
-0.075
 74
0
  0
LTYPE
  5
1F6
100
AcDbSymbolTableRecord
100
AcDbLinetypeTableRecord
  2
HIDDEN
 70
64
  3
- - - - - - - - - - - - - - - - - - - -
 72
65
 73
2
 40
0.2
 49
0.1
 74
0
 49
-0.1
 74
0
  0
LTYPE
  5
1F7
100
AcDbSymbolTableRecord
100
AcDbLinetypeTableRecord
  2
PHANTOM
 70
64
  3
_____ _ _ _____ _ _ _____ _ _ _____
 72
65
 73
6
 40
0.8
 49
0.45
 74
0
 49
-0.05
 74
0
 49
0.1
 74
0
 49
-0.05
 74
0
 49
0.1
 74
0
 49
-0.05
 74
0
  0
LTYPE
  5
1F8
100
AcDbSymbolTableRecord
100
AcDbLinetypeTableRecord
  2
DOT
 70
64
  3
. . . . . . . . . . . . . . . . . . . .
 72
65
 73
2
 40
0.2
 49
0.1
 74
0
 49
-0.1
 74
0
  0
LTYPE
  5
1F9
100
AcDbSymbolTableRecord
100
AcDbLinetypeTableRecord
  2
DASHED
 70
64
  3
- - - - - - - - - - - - - - - - - - - -
 72
65
 73
2
 40
0.2
 49
0.1
 74
0
 49
-0.1
 74
0
  0
ENDTAB
  0
TABLE
  2
LAYER
  5
2
100
AcDbSymbolTable
 70
36
  0
LAYER
  5
10
100
AcDbSymbolTableRecord
100
AcDbLayerTableRecord
  2
0
 70
0
 62
7
  6
CONTINUOUS
370
-3
390
F
  0
LAYER
  5
1FA
100
AcDbSymbolTableRecord
100
AcDbLayerTableRecord
  2
DEFAULT_1
 70
0
 62
7
  6
CENTER
370
-3
390
F
  0
LAYER
  5
1FB
100
AcDbSymbolTableRecord
100
AcDbLayerTableRecord
  2
DEFAULT_2
 70
0
 62
7
  6
HIDDEN
370
-3
390
F
  0
LAYER
  5
1FC
100
AcDbSymbolTableRecord
100
AcDbLayerTableRecord
  2
DEFAULT_3
 70
0
 62
7
  6
PHANTOM
370
-3
390
F
  0
LAYER
  5
1FD
100
AcDbSymbolTableRecord
100
AcDbLayerTableRecord
  2
00_COMPONENTS
 70
0
 62
7
  6
CONTINUOUS
370
-3
390
F
  0
LAYER
  5
1FE
100
AcDbSymbolTableRecord
100
AcDbLayerTableRecord
  2
01_1_DEFAULT_DATUMS
 70
0
 62
7
  6
CONTINUOUS
370
-3
390
F
  0
LAYER
  5
1FF
100
AcDbSymbolTableRecord
100
AcDbLayerTableRecord
  2
01_PLANES
 70
0
 62
7
  6
CONTINUOUS
370
-3
390
F
  0
LAYER
  5
200
100
AcDbSymbolTableRecord
100
AcDbLayerTableRecord
  2
02_COORD_SYS
 70
0
 62
7
  6
CONTINUOUS
370
-3
390
F
  0
LAYER
  5
201
100
AcDbSymbolTableRecord
100
AcDbLayerTableRecord
  2
03_AXES
 70
0
 62
7
  6
CONTINUOUS
370
-3
390
F
  0
LAYER
  5
202
100
AcDbSymbolTableRecord
100
AcDbLayerTableRecord
  2
04_POINTS
 70
0
 62
7
  6
CONTINUOUS
370
-3
390
F
  0
LAYER
  5
203
100
AcDbSymbolTableRecord
100
AcDbLayerTableRecord
  2
05_CURVES
 70
0
 62
7
  6
CONTINUOUS
370
-3
390
F
  0
LAYER
  5
204
100
AcDbSymbolTableRecord
100
AcDbLayerTableRecord
  2
06_SURFS
 70
0
 62
7
  6
CONTINUOUS
370
-3
390
F
  0
LAYER
  5
205
100
AcDbSymbolTableRecord
100
AcDbLayerTableRecord
  2
07_COSMETICS
 70
0
 62
7
  6
CONTINUOUS
370
-3
390
F
  0
LAYER
  5
206
100
AcDbSymbolTableRecord
100
AcDbLayerTableRecord
  2
10_NOTES
 70
0
 62
7
  6
CONTINUOUS
370
-3
390
F
  0
LAYER
  5
207
100
AcDbSymbolTableRecord
100
AcDbLayerTableRecord
  2
11_NOTES_PUB
 70
0
 62
7
  6
CONTINUOUS
370
-3
390
F
  0
LAYER
  5
208
100
AcDbSymbolTableRecord
100
AcDbLayerTableRecord
  2
13_REF_GTOL
 70
0
 62
7
  6
CONTINUOUS
370
-3
390
F
  0
LAYER
  5
209
100
AcDbSymbolTableRecord
100
AcDbLayerTableRecord
  2
16_MISC
 70
0
 62
7
  6
CONTINUOUS
370
-3
390
F
  0
LAYER
  5
20A
100
AcDbSymbolTableRecord
100
AcDbLayerTableRecord
  2
17_NO_PRINT
 70
0
 62
7
  6
CONTINUOUS
370
-3
390
F
  0
LAYER
  5
20B
100
AcDbSymbolTableRecord
100
AcDbLayerTableRecord
  2
18_DATUM_CAMS_JOINTS
 70
0
 62
7
  6
CONTINUOUS
370
-3
390
F
  0
LAYER
  5
20C
100
AcDbSymbolTableRecord
100
AcDbLayerTableRecord
  2
19_DATUM_FUNCTIONAL
 70
0
 62
7
  6
CONTINUOUS
370
-3
390
F
  0
LAYER
  5
20D
100
AcDbSymbolTableRecord
100
AcDbLayerTableRecord
  2
20_DATUM_KINEMATIC_SCHEME
 70
0
 62
7
  6
CONTINUOUS
370
-3
390
F
  0
LAYER
  5
20E
100
AcDbSymbolTableRecord
100
AcDbLayerTableRecord
  2
INTFCLR_662
 70
0
 62
7
  6
CONTINUOUS
370
-3
390
F
  0
LAYER
  5
20F
100
AcDbSymbolTableRecord
100
AcDbLayerTableRecord
  2
NONE
 70
0
 62
7
  6
CONTINUOUS
370
-3
390
F
  0
ENDTAB
  0
TABLE
  2
STYLE
  5
3
100
AcDbSymbolTable
 70
1
  0
STYLE
  5
11
100
AcDbSymbolTableRecord
100
AcDbTextStyleTableRecord
  2
STANDARD
 70
0
 40
0.0
 41
1.0
 50
0.0
 71
0
 42
0.2
  3
ARIAL.TTF
  4

  0
STYLE
  5
210
100
AcDbSymbolTableRecord
100
AcDbTextStyleTableRecord
  2
TEXTSTYLE_1
 70
0
 40
0.0
 41
0.8
 50
0.0
 71
0
 42
0.2
  3
gdt
  4

  0
ENDTAB
  0
TABLE
  2
VIEW
  5
6
100
AcDbSymbolTable
 70
0
  0
ENDTAB
  0
TABLE
  2
UCS
  5
7
100
AcDbSymbolTable
 70
0
  0
ENDTAB
  0
TABLE
  2
APPID
  5
9
100
AcDbSymbolTable
 70
1
  0
APPID
  5
211
100
AcDbSymbolTableRecord
100
AcDbRegAppTableRecord
  2
ACAD
 70
0
  0
ENDTAB
  0
TABLE
  2
BLOCK_RECORD
  5
1
100
AcDbSymbolTable
 70
0
  0
BLOCK_RECORD
  5
212
100
AcDbSymbolTableRecord
100
AcDbBlockTableRecord
  2
*Model_Space
  0
BLOCK_RECORD
  5
213
100
AcDbSymbolTableRecord
100
AcDbBlockTableRecord
  2
*Paper_Space
  0
BLOCK_RECORD
  5
214
100
AcDbSymbolTableRecord
100
AcDbBlockTableRecord
  2
_FILLED
  0
ENDTAB
  0
TABLE
  2
DIMSTYLE
  5
A
100
AcDbSymbolTable
 70
1
100
AcDbDimStyleTable
 71
0
  0
DIMSTYLE
105
215
100
AcDbSymbolTableRecord
100
AcDbDimStyleTableRecord
  2
STANDARD
 70
0
  3

  4

 40
1.0
 41
0.7273640165
 42
1.0
 43
0.38
 44
1.0
 45
0.0
 46
0.0
 47
0.01
 48
0.01
140
1.0183096231
141
0.09
142
0.0
143
25.4
144
1.0
145
0.0
146
1.0
147
0.625
 71
1
 72
0
 73
0
 74
0
 75
0
 76
0
 77
1
 78
8
 79
2
170
0
171
1
172
0
173
0
174
0
175
0
176
0
177
0
178
0
270
2
179
2
271
2
272
2
273
2
274
2
275
0
280
0
281
0
282
0
283
1
284
8
285
0
286
0
287
3
288
0
340
11
278
46
341
214
342
214
343
214
344
214
  0
ENDTAB
  0
ENDSEC
  0
SECTION
  2
BLOCKS
  0
BLOCK
  5
20
100
AcDbEntity
  8
0
100
AcDbBlockBegin
  2
*Model_Space
 70
0
 10
0.0
 20
0.0
 30
0.0
  3
*Model_Space
  1

  0
ENDBLK
  5
21
100
AcDbEntity
  8
0
100
AcDbBlockEnd
  0
BLOCK
  5
1C
100
AcDbEntity
  8
0
100
AcDbBlockBegin
  2
*Paper_Space
 70
0
 10
0.0
 20
0.0
 30
0.0
  3
*Paper_Space
  1

  0
ENDBLK
  5
1D
100
AcDbEntity
  8
0
100
AcDbBlockEnd
  0
BLOCK
  5
216
100
AcDbEntity
  8
0
100
AcDbBlockBegin
  2
_FILLED
 70
64
 10
0.0
 20
0.0
  3
_FILLED
  1

  0
SOLID
  5
217
100
AcDbEntity
  8
0
  6
BYBLOCK
 62
0
100
AcDbTrace
 10
0.0
 20
0.0
 11
-1.0
 21
0.25
 12
-1.0
 22
-0.25
 13
-1.0
 23
-0.25
  0
ENDBLK
  5
218
100
AcDbEntity
  8
0
  6
BYBLOCK
 62
0
100
AcDbBlockEnd
  0
ENDSEC
  0
SECTION
  2
ENTITIES
  0
LINE
  5
219
100
AcDbEntity
  8
0
100
AcDbLine
 62
7
  6
BYLAYER
 10
8.3412334282
 20
68.6076496578
 11
8.2854091695
 21
68.5261087087
  0
LINE
  5
21A
100
AcDbEntity
  8
0
100
AcDbLine
 62
7
  6
BYLAYER
 10
8.341209
 20
68.6076919284
 11
12.7252527907
 21
71.1388056824
  0
LINE
  5
21B
100
AcDbEntity
  8
0
100
AcDbLine
 62
7
  6
BYLAYER
 10
8.4912083284
 20
68.5928346447
 11
12.8752521192
 21
71.1239483987
  0
LINE
  5
21C
100
AcDbEntity
  8
0
100
AcDbLine
 62
7
  6
BYLAYER
 10
8.8374207078
 20
64.6973053227
 11
7.0881379324
 21
63.68736247
  0
LINE
  5
21D
100
AcDbEntity
  8
0
100
AcDbLine
 62
7
  6
BYLAYER
 10
8.2854091695
 20
68.5261087087
 11
8.1942514342
 21
68.1576966605
  0
LINE
  5
21E
100
AcDbEntity
  8
0
100
AcDbLine
 62
7
  6
BYLAYER
 10
9.3117009216
 20
66.6140987187
 11
8.400107571
 21
62.9299135818
  0
LINE
  5
21F
100
AcDbEntity
  8
0
100
AcDbLine
 62
7
  6
BYLAYER
 10
16.4674310969
 20
64.5594015169
 11
19.8615295155
 21
66.5189734555
  0
LINE
  5
220
100
AcDbEntity
  8
0
100
AcDbLine
 62
7
  6
BYLAYER
 10
7.0881379324
 20
59.6048503843
 11
7.0881379324
 21
63.68736247
  0
LINE
  5
221
100
AcDbEntity
  8
0
100
AcDbLine
 62
7
  6
BYLAYER
 10
23.0435232787
 20
64.6818900602
 11
19.64942486
 21
62.7223181216
  0
LINE
  5
222
100
AcDbEntity
  8
0
100
AcDbLine
 62
7
  6
BYLAYER
 10
22.5132160085
 20
61.5180097654
 11
25.1295002062
 21
63.0285131347
  0
LINE
  5
223
100
AcDbEntity
  8
0
100
AcDbLine
 62
7
  6
BYLAYER
 10
8.4725682245
 20
51.6506206149
 11
8.7886329078
 21
51.8330995557
  0
LINE
  5
224
100
AcDbEntity
  8
0
100
AcDbLine
 62
7
  6
BYLAYER
 10
15.0892716418
 20
66.3905825773
 11
15.0892716418
 21
69.8457125489
  0
LINE
  5
225
100
AcDbEntity
  8
0
100
AcDbLine
 62
7
  6
BYLAYER
 10
7.8953241233
 20
48.2055609895
 11
9.8752148675
 21
49.3486446203
  0
LINE
  5
226
100
AcDbEntity
  8
0
100
AcDbLine
 62
7
  6
BYLAYER
 10
8.0454157029
 20
47.6638861626
 11
10.0253064471
 21
48.8069697935
  0
LINE
  5
227
100
AcDbEntity
  8
0
100
AcDbLine
 62
7
  6
BYLAYER
 10
42.9685339536
 20
23.6211675204
 11
42.3524239563
 21
23.7862450807
  0
LINE
  5
228
100
AcDbEntity
  8
0
100
AcDbLine
 62
7
  6
BYLAYER
 10
50.2218311664
 20
15.514357556
 11
43.93140919
 21
19.1460522175
  0
LINE
  5
229
100
AcDbEntity
  8
0
100
AcDbLine
 62
7
  6
BYLAYER
 10
7.2985601088
 20
47.7736444291
 11
17.3168712264
 21
34.6083367731
  0
LINE
  5
22A
100
AcDbEntity
  8
0
100
AcDbLine
 62
7
  6
BYLAYER
 10
17.4591108952
 20
35.293119081
 11
8.0454157029
 21
47.6638861626
  0
LINE
  5
22B
100
AcDbEntity
  8
0
100
AcDbLine
 62
7
  6
BYLAYER
 10
17.1384160595
 20
68.6626652318
 11
17.1384160595
 21
67.4318552271
  0
LINE
  5
22C
100
AcDbEntity
  8
0
100
AcDbLine
 62
7
  6
BYLAYER
 10
18.1190496447
 20
39.2741032809
 11
18.1190496447
 21
37.7170896773
  0
LINE
  5
22D
100
AcDbEntity
  8
0
100
AcDbLine
 62
7
  6
BYLAYER
 10
18.7554483973
 20
37.6002827344
 11
18.7554483973
 21
38.580085635
  0
LINE
  5
22E
100
AcDbEntity
  8
0
100
AcDbLine
 62
7
  6
BYLAYER
 10
32.9077071828
 20
58.537864835
 11
30.2914229851
 21
57.0273614657
  0
LINE
  5
22F
100
AcDbEntity
  8
0
100
AcDbLine
 62
7
  6
BYLAYER
 10
46.8984154582
 20
18.657842728
 11
43.9571973134
 21
20.3559174001
  0
LINE
  5
230
100
AcDbEntity
  8
0
100
AcDbLine
 62
7
  6
BYLAYER
 10
18.3810977753
 20
37.1714591552
 11
18.4583978528
 21
37.1029141457
  0
LINE
  5
231
100
AcDbEntity
  8
0
100
AcDbLine
 62
7
  6
BYLAYER
 10
19.3715583947
 20
37.0539538432
 11
18.7554483973
 21
37.6002827344
  0
LINE
  5
232
100
AcDbEntity
  8
0
100
AcDbLine
 62
7
  6
BYLAYER
 10
10.0253064471
 20
48.8069697935
 11
18.1190496447
 21
38.1707839099
  0
LINE
  5
233
100
AcDbEntity
  8
0
100
AcDbLine
 62
7
  6
BYLAYER
 10
19.8615295155
 20
66.5189734555
 11
19.8615295155
 21
62.8447760705
  0
LINE
  5
234
100
AcDbEntity
  8
0
100
AcDbLine
 62
7
  6
BYLAYER
 10
31.0645342895
 20
55.5604136573
 11
35.4485780803
 21
58.0915274113
  0
LINE
  5
235
100
AcDbEntity
  8
0
100
AcDbLine
 62
7
  6
BYLAYER
 10
40.9702890398
 20
31.211188537
 11
41.1702861985
 21
31.1913821958
  0
LINE
  5
236
100
AcDbEntity
  8
0
100
AcDbLine
 62
7
  6
BYLAYER
 10
50.2218311664
 20
19.0253179497
 11
48.4540568535
 21
20.045919836
  0
LINE
  5
237
100
AcDbEntity
  8
0
100
AcDbLine
 62
7
  6
BYLAYER
 10
41.7214599931
 20
25.3209526196
 11
18.7554483973
 21
38.580085635
  0
LINE
  5
238
100
AcDbEntity
  8
0
100
AcDbLine
 62
7
  6
BYLAYER
 10
40.7999366579
 20
26.5878345045
 11
18.4726045073
 21
39.4782341122
  0
LINE
  5
239
100
AcDbEntity
  8
0
100
AcDbLine
 62
7
  6
BYLAYER
 10
35.8674672407
 20
56.5207515652
 11
34.3825491826
 21
55.6634388421
  0
LINE
  5
23A
100
AcDbEntity
  8
0
100
AcDbLine
 62
7
  6
BYLAYER
 10
32.9683415081
 20
54.8469505343
 11
31.48342345
 21
53.9896378112
  0
LINE
  5
23B
100
AcDbEntity
  8
0
100
AcDbLine
 62
7
  6
BYLAYER
 10
40.7301973668
 20
28.9142458175
 11
35.0064437394
 21
32.2187817565
  0
LINE
  5
23C
100
AcDbEntity
  8
0
100
AcDbLine
 62
7
  6
BYLAYER
 10
33.7447987906
 20
32.9471763289
 11
20.4524952515
 21
40.621317743
  0
LINE
  5
23D
100
AcDbEntity
  8
0
100
AcDbLine
 62
7
  6
BYLAYER
 10
54.6058749571
 20
21.5564317037
 11
52.8381006442
 21
22.57703359
  0
LINE
  5
23E
100
AcDbEntity
  8
0
100
AcDbLine
 62
7
  6
BYLAYER
 10
25.1295002062
 20
63.0285131347
 11
25.1295002062
 21
60.0075315512
  0
LINE
  5
23F
100
AcDbEntity
  8
0
100
AcDbLine
 62
7
  6
BYLAYER
 10
35.8674672407
 20
52.9506726102
 11
35.5139153221
 21
52.7465505332
  0
LINE
  5
240
100
AcDbEntity
  8
0
100
AcDbLine
 62
7
  6
BYLAYER
 10
31.8369753686
 20
50.6236809331
 11
31.48342345
 21
50.4195588562
  0
LINE
  5
241
100
AcDbEntity
  8
0
100
AcDbLine
 62
7
  6
BYLAYER
 10
31.8135048962
 20
35.2869963221
 11
33.1376666754
 21
34.5225084574
  0
LINE
  5
242
100
AcDbEntity
  8
0
100
AcDbLine
 62
7
  6
BYLAYER
 10
35.6125507134
 20
33.0936658166
 11
36.9367124926
 21
32.329177952
  0
LINE
  5
243
100
AcDbEntity
  8
0
100
AcDbLine
 62
7
  6
BYLAYER
 10
41.4631077407
 20
31.0223254242
 11
41.1702861985
 21
31.1913821958
  0
LINE
  5
244
100
AcDbEntity
  8
0
100
AcDbLine
 62
7
  6
BYLAYER
 10
50.1253897827
 20
26.1845681779
 11
48.4540568535
 21
27.149490865
  0
LINE
  5
245
100
AcDbEntity
  8
0
100
AcDbLine
 62
7
  6
BYLAYER
 10
42.9790686431
 20
30.3104052727
 11
46.8984154582
 21
28.047620525
  0
LINE
  5
246
100
AcDbEntity
  8
0
100
AcDbLine
 62
7
  6
BYLAYER
 10
17.1384160595
 20
68.6626652318
 11
17.3459150364
 21
68.0294572438
  0
LINE
  5
247
100
AcDbEntity
  8
0
100
AcDbLine
 62
7
  6
BYLAYER
 10
41.9432342023
 20
54.3419207784
 11
37.5591904116
 21
51.8108070244
  0
LINE
  5
248
100
AcDbEntity
  8
0
100
AcDbLine
 62
7
  6
BYLAYER
 10
37.293058975
 20
51.1201464684
 11
36.6806557893
 21
50.7665774348
  0
LINE
  5
249
100
AcDbEntity
  8
0
100
AcDbLine
 62
7
  6
BYLAYER
 10
35.2664481149
 20
49.9500891271
 11
34.1350819753
 21
49.2968984809
  0
LINE
  5
24A
100
AcDbEntity
  8
0
100
AcDbLine
 62
7
  6
BYLAYER
 10
37.0995449497
 20
50.5247371365
 11
35.6853372753
 21
49.7082488287
  0
LINE
  5
24B
100
AcDbEntity
  8
0
100
AcDbLine
 62
7
  6
BYLAYER
 10
39.0040444734
 20
51.5481760706
 11
42.398142892
 21
53.5077480092
  0
LINE
  5
24C
100
AcDbEntity
  8
0
100
AcDbLine
 62
7
  6
BYLAYER
 10
41.5471846484
 20
52.9930440698
 11
41.900736567
 21
53.1971661467
  0
LINE
  5
24D
100
AcDbEntity
  8
0
100
AcDbLine
 62
7
  6
BYLAYER
 10
45.5776765205
 20
55.3200357469
 11
45.9312284392
 21
55.5241578238
  0
LINE
  5
24E
100
AcDbEntity
  8
0
100
AcDbLine
 62
7
  6
BYLAYER
 10
20.2024963707
 20
40.6460798825
 11
18.2226056265
 21
39.5029962517
  0
LINE
  5
24F
100
AcDbEntity
  8
0
100
AcDbLine
 62
7
  6
BYLAYER
 10
35.9082235421
 20
49.5795682937
 11
37.1403012511
 21
50.2909044446
  0
LINE
  5
250
100
AcDbEntity
  8
0
100
AcDbLine
 62
7
  6
BYLAYER
 10
18.4726045073
 20
39.4782341122
 11
20.4524952515
 21
40.621317743
  0
LINE
  5
251
100
AcDbEntity
  8
0
100
AcDbLine
 62
7
  6
BYLAYER
 10
35.195746563
 20
48.6845373491
 11
36.3271127026
 21
49.3377279953
  0
LINE
  5
252
100
AcDbEntity
  8
0
100
AcDbLine
 62
7
  6
BYLAYER
 10
49.3633006235
 20
44.1137304724
 11
49.4134579601
 21
44.1277150678
  0
LINE
  5
253
100
AcDbEntity
  8
0
100
AcDbLine
 62
7
  6
BYLAYER
 10
49.6307221377
 20
27.5316113573
 11
40.3193858425
 21
32.9073922574
  0
LINE
  5
254
100
AcDbEntity
  8
0
100
AcDbLine
 62
7
  6
BYLAYER
 10
8.8251496058
 20
51.8250388522
 11
30.7495023976
 21
39.1672942225
  0
LINE
  5
255
100
AcDbEntity
  8
0
100
AcDbLine
 62
7
  6
BYLAYER
 10
38.0007149912
 20
34.9808993886
 11
49.6307221377
 21
28.2664635327
  0
LINE
  5
256
100
AcDbEntity
  8
0
100
AcDbLine
 62
7
  6
BYLAYER
 10
19.6039947306
 20
38.090188264
 11
18.7554483973
 21
37.6002827344
  0
LINE
  5
257
100
AcDbEntity
  8
0
100
AcDbLine
 62
7
  6
BYLAYER
 10
45.6000774301
 20
52.2306891189
 11
45.2465255115
 21
52.026567042
  0
LINE
  5
258
100
AcDbEntity
  8
0
100
AcDbLine
 62
7
  6
BYLAYER
 10
41.569585558
 20
49.9036974418
 11
41.2160336393
 21
49.6995753649
  0
LINE
  5
259
100
AcDbEntity
  8
0
100
AcDbLine
 62
7
  6
BYLAYER
 10
20.385193757
 20
37.6391729992
 11
19.3715583947
 21
37.0539538432
  0
LINE
  5
25A
100
AcDbEntity
  8
0
100
AcDbLine
 62
7
  6
BYLAYER
 10
45.5801366552
 20
51.6706646138
 11
44.6783863092
 21
51.1500419166
  0
LINE
  5
25B
100
AcDbEntity
  8
0
100
AcDbLine
 62
7
  6
BYLAYER
 10
43.4985397909
 20
50.4688612777
 11
43.1126093026
 21
50.2460455364
  0
LINE
  5
25C
100
AcDbEntity
  8
0
100
AcDbLine
 62
7
  6
BYLAYER
 10
18.5588796739
 20
35.9280670913
 11
17.4591108952
 21
35.293119081
  0
LINE
  5
25D
100
AcDbEntity
  8
0
100
AcDbLine
 62
7
  6
BYLAYER
 10
48.3518230398
 20
44.074783612
 11
49.3633006235
 21
44.1137304724
  0
LINE
  5
25E
100
AcDbEntity
  8
0
100
AcDbLine
 62
7
  6
BYLAYER
 10
8.3002233379
 20
67.8209728675
 11
9.3117009216
 21
66.6140987187
  0
LINE
  5
25F
100
AcDbEntity
  8
0
100
AcDbLine
 62
7
  6
BYLAYER
 10
31.0655121501
 20
38.682011824
 11
31.4974626003
 21
35.7724979249
  0
LINE
  5
260
100
AcDbEntity
  8
0
100
AcDbLine
 62
7
  6
BYLAYER
 10
31.48342345
 20
50.4195588562
 11
31.48342345
 21
53.9896378112
  0
LINE
  5
261
100
AcDbEntity
  8
0
100
AcDbLine
 62
7
  6
BYLAYER
 10
32.9683415081
 20
54.8469505343
 11
32.9683415081
 21
49.9705011648
  0
LINE
  5
262
100
AcDbEntity
  8
0
100
AcDbLine
 62
7
  6
BYLAYER
 10
44.5649533652
 20
49.8073754431
 11
44.9185052838
 21
50.0114975201
  0
LINE
  5
263
100
AcDbEntity
  8
0
100
AcDbLine
 62
7
  6
BYLAYER
 10
48.7592090581
 20
52.2289156418
 11
48.9489971559
 21
52.3384891971
  0
LINE
  5
264
100
AcDbEntity
  8
0
100
AcDbLine
 62
7
  6
BYLAYER
 10
18.4361265926
 20
34.3581180817
 11
22.2521695917
 21
36.5612983832
  0
LINE
  5
265
100
AcDbEntity
  8
0
100
AcDbLine
 62
7
  6
BYLAYER
 10
17.9863788549
 20
35.1373964906
 11
17.8800659222
 21
35.0849590498
  0
LINE
  5
266
100
AcDbEntity
  8
0
100
AcDbLine
 62
7
  6
BYLAYER
 10
33.9636600221
 20
57.2342146882
 11
33.9636600221
 21
49.3958667528
  0
LINE
  5
267
100
AcDbEntity
  8
0
100
AcDbLine
 62
7
  6
BYLAYER
 10
34.3825491826
 20
55.6634388421
 11
34.3825491826
 21
49.4397728868
  0
LINE
  5
268
100
AcDbEntity
  8
0
100
AcDbLine
 62
7
  6
BYLAYER
 10
35.5139153221
 20
52.7465505332
 11
35.5139153221
 21
49.8072171006
  0
LINE
  5
269
100
AcDbEntity
  8
0
100
AcDbLine
 62
7
  6
BYLAYER
 10
35.8674672407
 20
52.9506726102
 11
35.8674672407
 21
56.5207515652
  0
LINE
  5
26A
100
AcDbEntity
  8
0
100
AcDbLine
 62
7
  6
BYLAYER
 10
37.5591904116
 20
51.8108070244
 11
37.1403012511
 21
50.723711775
  0
LINE
  5
26B
100
AcDbEntity
  8
0
100
AcDbLine
 62
7
  6
BYLAYER
 10
48.9489971559
 20
50.2972331543
 11
48.7592090581
 21
50.187659599
  0
LINE
  5
26C
100
AcDbEntity
  8
0
100
AcDbLine
 62
7
  6
BYLAYER
 10
44.9185052838
 20
47.9702414772
 11
44.5649533652
 21
47.7661194003
  0
LINE
  5
26D
100
AcDbEntity
  8
0
100
AcDbLine
 62
7
  6
BYLAYER
 10
17.9347158761
 20
34.1991489375
 11
18.4357341231
 21
34.3587960764
  0
LINE
  5
26E
100
AcDbEntity
  8
0
100
AcDbLine
 62
7
  6
BYLAYER
 10
31.48342345
 20
53.9896378112
 11
31.0645342895
 21
55.5604136573
  0
LINE
  5
26F
100
AcDbEntity
  8
0
100
AcDbLine
 62
7
  6
BYLAYER
 10
32.5494523477
 20
56.4177263804
 11
32.9683415081
 21
54.8469505343
  0
LINE
  5
270
100
AcDbEntity
  8
0
100
AcDbLine
 62
7
  6
BYLAYER
 10
36.3271127026
 20
49.3377279953
 11
36.3271127026
 21
48.0313575808
  0
LINE
  5
271
100
AcDbEntity
  8
0
100
AcDbLine
 62
7
  6
BYLAYER
 10
36.6806557893
 20
50.7665774348
 11
36.6806557893
 21
50.2828928105
  0
LINE
  5
272
100
AcDbEntity
  8
0
100
AcDbLine
 62
7
  6
BYLAYER
 10
37.1403012511
 20
50.723711775
 11
37.1403012511
 21
47.15363282
  0
LINE
  5
273
100
AcDbEntity
  8
0
100
AcDbLine
 62
7
  6
BYLAYER
 10
53.5563594236
 20
47.6372314861
 11
49.1723156329
 21
45.1061177321
  0
LINE
  5
274
100
AcDbEntity
  8
0
100
AcDbLine
 62
7
  6
BYLAYER
 10
8.400107571
 20
62.9299135818
 11
7.0881379324
 21
63.68736247
  0
LINE
  5
275
100
AcDbEntity
  8
0
100
AcDbLine
 62
7
  6
BYLAYER
 10
49.2634163904
 20
39.3380049552
 11
50.5753860289
 21
38.580556067
  0
LINE
  5
276
100
AcDbEntity
  8
0
100
AcDbLine
 62
7
  6
BYLAYER
 10
37.1403012511
 20
47.15363282
 11
31.48342345
 21
50.4195588562
  0
LINE
  5
277
100
AcDbEntity
  8
0
100
AcDbLine
 62
7
  6
BYLAYER
 10
37.1403012511
 20
47.5618735745
 11
35.195746563
 21
48.6845373491
  0
LINE
  5
278
100
AcDbEntity
  8
0
100
AcDbLine
 62
7
  6
BYLAYER
 10
34.1350819753
 20
49.2968984809
 11
31.8369753686
 21
50.6236809331
  0
LINE
  5
279
100
AcDbEntity
  8
0
100
AcDbLine
 62
7
  6
BYLAYER
 10
34.3825491826
 20
55.6634388421
 11
33.9636600221
 21
57.2342146882
  0
LINE
  5
27A
100
AcDbEntity
  8
0
100
AcDbLine
 62
7
  6
BYLAYER
 10
39.9778780697
 20
32.590643005
 11
41.1414444307
 21
26.904583757
  0
LINE
  5
27B
100
AcDbEntity
  8
0
100
AcDbLine
 62
7
  6
BYLAYER
 10
41.9946662113
 20
25.5743520216
 11
40.8970799803
 21
30.9379827938
  0
LINE
  5
27C
100
AcDbEntity
  8
0
100
AcDbLine
 62
7
  6
BYLAYER
 10
37.2527222451
 20
32.449571974
 11
37.6846726953
 21
34.8603237392
  0
LINE
  5
27D
100
AcDbEntity
  8
0
100
AcDbLine
 62
7
  6
BYLAYER
 10
39.3425475334
 20
34.2062095349
 11
39.2326129893
 21
33.5926556049
  0
LINE
  5
27E
100
AcDbEntity
  8
0
100
AcDbLine
 62
7
  6
BYLAYER
 10
37.6846726953
 20
34.8603237392
 11
37.7734042051
 21
35.0033591665
  0
LINE
  5
27F
100
AcDbEntity
  8
0
100
AcDbLine
 62
7
  6
BYLAYER
 10
49.3781147919
 20
44.8017607723
 11
53.7621585826
 21
47.3328745263
  0
LINE
  5
280
100
AcDbEntity
  8
0
100
AcDbLine
 62
7
  6
BYLAYER
 10
53.8533163179
 20
46.8592049734
 11
49.4692725271
 21
44.3280912194
  0
LINE
  5
281
100
AcDbEntity
  8
0
100
AcDbLine
 62
7
  6
BYLAYER
 10
49.4134726966
 20
44.1276894452
 11
53.7975164873
 21
46.6588031992
  0
LINE
  5
282
100
AcDbEntity
  8
0
100
AcDbLine
 62
7
  6
BYLAYER
 10
36.3271127026
 20
49.3377279953
 11
35.9082235421
 21
49.5795682937
  0
LINE
  5
283
100
AcDbEntity
  8
0
100
AcDbLine
 62
7
  6
BYLAYER
 10
35.6853372753
 20
49.7082488287
 11
35.2664481149
 21
49.9500891271
  0
LINE
  5
284
100
AcDbEntity
  8
0
100
AcDbLine
 62
7
  6
BYLAYER
 10
36.6806557893
 20
50.7665774348
 11
37.0995449497
 21
50.5247371365
  0
LINE
  5
285
100
AcDbEntity
  8
0
100
AcDbLine
 62
7
  6
BYLAYER
 10
53.6474601811
 20
41.8691187092
 11
54.9594298197
 21
41.111669821
  0
LINE
  5
286
100
AcDbEntity
  8
0
100
AcDbLine
 62
7
  6
BYLAYER
 10
35.4485780803
 20
58.0915274113
 11
35.8674672407
 21
56.5207515652
  0
LINE
  5
287
100
AcDbEntity
  8
0
100
AcDbLine
 62
7
  6
BYLAYER
 10
41.7363139589
 20
30.6225228925
 11
42.9685339536
 21
24.600970421
  0
LINE
  5
288
100
AcDbEntity
  8
0
100
AcDbLine
 62
7
  6
BYLAYER
 10
43.5964092887
 20
24.0473115547
 11
42.6327469426
 21
30.0199412944
  0
LINE
  5
289
100
AcDbEntity
  8
0
100
AcDbLine
 62
7
  6
BYLAYER
 10
42.398142892
 20
53.5077480092
 11
42.398142892
 21
53.2566034545
  0
LINE
  5
28A
100
AcDbEntity
  8
0
100
AcDbLine
 62
7
  6
BYLAYER
 10
42.9685339536
 20
23.6211675204
 11
42.9685339536
 21
24.600970421
  0
LINE
  5
28B
100
AcDbEntity
  8
0
100
AcDbLine
 62
7
  6
BYLAYER
 10
37.1640232126
 20
32.3067182888
 11
37.2527222451
 21
32.449571974
  0
LINE
  5
28C
100
AcDbEntity
  8
0
100
AcDbLine
 62
7
  6
BYLAYER
 10
39.2326129893
 20
33.5926556049
 11
39.1439139568
 21
33.4498019196
  0
LINE
  5
28D
100
AcDbEntity
  8
0
100
AcDbLine
 62
7
  6
BYLAYER
 10
37.6847052387
 20
34.8605053665
 11
37.9166019232
 21
34.9943901805
  0
LINE
  5
28E
100
AcDbEntity
  8
0
100
AcDbLine
 62
7
  6
BYLAYER
 10
36.1251311009
 20
32.7977340868
 11
35.2501047771
 21
32.2925404188
  0
LINE
  5
28F
100
AcDbEntity
  8
0
100
AcDbLine
 62
7
  6
BYLAYER
 10
39.2326129893
 20
33.5926556049
 11
37.2527222451
 21
32.449571974
  0
LINE
  5
290
100
AcDbEntity
  8
0
100
AcDbLine
 62
7
  6
BYLAYER
 10
53.6474601811
 20
41.8691187092
 11
49.2634163904
 21
39.3380049552
  0
LINE
  5
291
100
AcDbEntity
  8
0
100
AcDbLine
 62
7
  6
BYLAYER
 10
35.5139153221
 20
52.7465505332
 11
37.4819427789
 21
51.6103350559
  0
LINE
  5
292
100
AcDbEntity
  8
0
100
AcDbLine
 62
7
  6
BYLAYER
 10
49.1723156329
 20
45.1061177321
 11
44.5649533652
 21
47.7661194003
  0
LINE
  5
293
100
AcDbEntity
  8
0
100
AcDbLine
 62
7
  6
BYLAYER
 10
41.2160336393
 20
49.6995753649
 11
37.5591904116
 21
51.8108070244
  0
LINE
  5
294
100
AcDbEntity
  8
0
100
AcDbLine
 62
7
  6
BYLAYER
 10
31.0645342895
 20
55.5604136573
 11
8.4912083284
 21
68.5928346447
  0
LINE
  5
295
100
AcDbEntity
  8
0
100
AcDbLine
 62
7
  6
BYLAYER
 10
37.700502536
 20
51.8923931305
 11
35.8674672407
 21
52.9506726102
  0
LINE
  5
296
100
AcDbEntity
  8
0
100
AcDbLine
 62
7
  6
BYLAYER
 10
46.4286980594
 20
47.057526921
 11
46.0751431969
 21
47.2616472983
  0
LINE
  5
297
100
AcDbEntity
  8
0
100
AcDbLine
 62
7
  6
BYLAYER
 10
12.224774218
 20
66.8047248169
 11
11.8712193554
 21
67.0088451942
  0
LINE
  5
298
100
AcDbEntity
  8
0
100
AcDbLine
 62
7
  6
BYLAYER
 10
41.5391594855
 20
50.0845598474
 11
39.0040444734
 21
51.5481760706
  0
LINE
  5
299
100
AcDbEntity
  8
0
100
AcDbLine
 62
7
  6
BYLAYER
 10
19.64942486
 20
62.7223181216
 11
16.4674310969
 21
64.5594015169
  0
LINE
  5
29A
100
AcDbEntity
  8
0
100
AcDbLine
 62
7
  6
BYLAYER
 10
30.2914229851
 20
57.0273614657
 11
22.5132160085
 21
61.5180097654
  0
LINE
  5
29B
100
AcDbEntity
  8
0
100
AcDbLine
 62
7
  6
BYLAYER
 10
43.6036424508
 20
23.9609784077
 11
43.6036424508
 21
20.9682889859
  0
LINE
  5
29C
100
AcDbEntity
  8
0
100
AcDbLine
 62
7
  6
BYLAYER
 10
44.5649533652
 20
47.7661194003
 11
44.5649533652
 21
49.8073754431
  0
LINE
  5
29D
100
AcDbEntity
  8
0
100
AcDbLine
 62
7
  6
BYLAYER
 10
44.9185052838
 20
50.0114975201
 11
44.9185052838
 21
47.9702414772
  0
LINE
  5
29E
100
AcDbEntity
  8
0
100
AcDbLine
 62
7
  6
BYLAYER
 10
40.8874423085
 20
31.0280775308
 11
40.9702890398
 21
31.211188537
  0
LINE
  5
29F
100
AcDbEntity
  8
0
100
AcDbLine
 62
7
  6
BYLAYER
 10
39.1439478613
 20
33.4497433248
 11
37.1640571171
 21
32.3066596939
  0
LINE
  5
2A0
100
AcDbEntity
  8
0
100
AcDbLine
 62
7
  6
BYLAYER
 10
40.8093501628
 20
33.3593698001
 11
40.0693869617
 21
32.9321543969
  0
LINE
  5
2A1
100
AcDbEntity
  8
0
100
AcDbLine
 62
7
  6
BYLAYER
 10
40.3193858425
 20
32.9073922574
 11
40.9557955924
 21
33.2748214046
  0
LINE
  5
2A2
100
AcDbEntity
  8
0
100
AcDbLine
 62
7
  6
BYLAYER
 10
54.9594298197
 20
41.111669821
 11
50.5753860289
 21
38.580556067
  0
LINE
  5
2A3
100
AcDbEntity
  8
0
100
AcDbLine
 62
7
  6
BYLAYER
 10
25.1295002062
 20
63.0285131347
 11
32.9077071828
 21
58.537864835
  0
LINE
  5
2A4
100
AcDbEntity
  8
0
100
AcDbLine
 62
7
  6
BYLAYER
 10
19.8615295155
 20
66.5189734555
 11
23.0435232787
 21
64.6818900602
  0
LINE
  5
2A5
100
AcDbEntity
  8
0
100
AcDbLine
 62
7
  6
BYLAYER
 10
42.398142892
 20
53.5077480092
 11
45.5801366552
 21
51.6706646138
  0
LINE
  5
2A6
100
AcDbEntity
  8
0
100
AcDbLine
 62
7
  6
BYLAYER
 10
45.2465255115
 20
52.026567042
 11
48.3843109805
 21
50.2150067398
  0
LINE
  5
2A7
100
AcDbEntity
  8
0
100
AcDbLine
 62
7
  6
BYLAYER
 10
53.5563594236
 20
47.6372314861
 11
51.342339901
 21
48.9154673359
  0
LINE
  5
2A8
100
AcDbEntity
  8
0
100
AcDbLine
 62
7
  6
BYLAYER
 10
49.2931954833
 20
50.098514653
 11
48.9489971559
 21
50.2972331543
  0
LINE
  5
2A9
100
AcDbEntity
  8
0
100
AcDbLine
 62
7
  6
BYLAYER
 10
45.6000774301
 20
52.2306891189
 11
41.9432342023
 21
54.3419207784
  0
LINE
  5
2AA
100
AcDbEntity
  8
0
100
AcDbLine
 62
7
  6
BYLAYER
 10
35.4485780803
 20
58.0915274113
 11
17.1384160595
 21
68.6626652318
  0
LINE
  5
2AB
100
AcDbEntity
  8
0
100
AcDbLine
 62
7
  6
BYLAYER
 10
15.0892716418
 20
69.8457125489
 11
12.8752521192
 21
71.1239483987
  0
LINE
  5
2AC
100
AcDbEntity
  8
0
100
AcDbLine
 62
7
  6
BYLAYER
 10
47.2519703208
 20
18.8619735593
 11
47.2519703208
 21
27.4352489391
  0
LINE
  5
2AD
100
AcDbEntity
  8
0
100
AcDbLine
 62
7
  6
BYLAYER
 10
48.1005019909
 20
20.6582914218
 11
48.1005019909
 21
26.9453600337
  0
LINE
  5
2AE
100
AcDbEntity
  8
0
100
AcDbLine
 62
7
  6
BYLAYER
 10
48.3843109805
 20
53.2236661433
 11
48.3843109805
 21
50.2150067398
  0
LINE
  5
2AF
100
AcDbEntity
  8
0
100
AcDbLine
 62
7
  6
BYLAYER
 10
40.8970799803
 20
30.9379827938
 11
41.2531354086
 21
31.1435502642
  0
LINE
  5
2B0
100
AcDbEntity
  8
0
100
AcDbLine
 62
7
  6
BYLAYER
 10
42.6327469426
 20
30.0199412944
 11
43.0574591312
 21
30.2651475271
  0
LINE
  5
2B1
100
AcDbEntity
  8
0
100
AcDbLine
 62
7
  6
BYLAYER
 10
54.9594298197
 20
37.0291577353
 11
50.5753860289
 21
34.4980439813
  0
LINE
  5
2B2
100
AcDbEntity
  8
0
100
AcDbLine
 62
7
  6
BYLAYER
 10
49.2634163904
 20
39.3380049552
 11
48.3518230398
 21
44.074783612
  0
LINE
  5
2B3
100
AcDbEntity
  8
0
100
AcDbLine
 62
7
  6
BYLAYER
 10
48.7592090581
 20
50.187659599
 11
48.7592090581
 21
52.2289156418
  0
LINE
  5
2B4
100
AcDbEntity
  8
0
100
AcDbLine
 62
7
  6
BYLAYER
 10
48.9489971559
 20
50.2972331543
 11
48.9489971559
 21
52.3384891971
  0
LINE
  5
2B5
100
AcDbEntity
  8
0
100
AcDbLine
 62
7
  6
BYLAYER
 10
49.2931954833
 20
46.6433846814
 11
49.2931954833
 21
50.098514653
  0
LINE
  5
2B6
100
AcDbEntity
  8
0
100
AcDbLine
 62
7
  6
BYLAYER
 10
50.5753860289
 20
15.7184883873
 11
50.5753860289
 21
18.4129463639
  0
LINE
  5
2B7
100
AcDbEntity
  8
0
100
AcDbLine
 62
7
  6
BYLAYER
 10
50.5753860289
 20
34.4980439813
 11
50.5753860289
 21
38.580556067
  0
LINE
  5
2B8
100
AcDbEntity
  8
0
100
AcDbLine
 62
7
  6
BYLAYER
 10
41.1534945752
 20
26.7919600448
 11
40.7999366579
 21
26.5878345045
  0
LINE
  5
2B9
100
AcDbEntity
  8
0
100
AcDbLine
 62
7
  6
BYLAYER
 10
49.4692725271
 20
44.3280912194
 11
49.3781147919
 21
44.8017607723
  0
LINE
  5
2BA
100
AcDbEntity
  8
0
100
AcDbLine
 62
7
  6
BYLAYER
 10
51.342339901
 20
48.9154673359
 11
51.342339901
 21
47.6846573312
  0
LINE
  5
2BB
100
AcDbEntity
  8
0
100
AcDbLine
 62
7
  6
BYLAYER
 10
52.4845457817
 20
23.1894051758
 11
52.4845457817
 21
27.3775211996
  0
LINE
  5
2BC
100
AcDbEntity
  8
0
100
AcDbLine
 62
7
  6
BYLAYER
 10
42.6874919488
 20
25.97435276
 11
41.9946662113
 21
25.5743520216
  0
LINE
  5
2BD
100
AcDbEntity
  8
0
100
AcDbLine
 62
7
  6
BYLAYER
 10
41.9214590977
 20
25.301142908
 11
42.7297575196
 21
25.7678114338
  0
LINE
  5
2BE
100
AcDbEntity
  8
0
100
AcDbLine
 62
7
  6
BYLAYER
 10
51.342339901
 20
48.9154673359
 11
51.5498388778
 21
48.2822593479
  0
LINE
  5
2BF
100
AcDbEntity
  8
0
100
AcDbLine
 62
7
  6
BYLAYER
 10
52.8328676491
 20
46.1018662573
 11
53.6474601811
 21
41.8691187092
  0
LINE
  5
2C0
100
AcDbEntity
  8
0
100
AcDbLine
 62
7
  6
BYLAYER
 10
54.9594298197
 20
18.2496021414
 11
54.9594298197
 21
20.9440601179
  0
LINE
  5
2C1
100
AcDbEntity
  8
0
100
AcDbLine
 62
7
  6
BYLAYER
 10
54.9594298197
 20
37.0291577353
 11
54.9594298197
 21
41.111669821
  0
LINE
  5
2C2
100
AcDbEntity
  8
0
100
AcDbLine
 62
7
  6
BYLAYER
 10
42.3524239563
 20
23.7862450807
 11
42.9685339536
 21
24.1419542302
  0
LINE
  5
2C3
100
AcDbEntity
  8
0
100
AcDbLine
 62
7
  6
BYLAYER
 10
48.1005019909
 20
26.9453600337
 11
48.4540599083
 21
27.149485574
  0
LINE
  5
2C4
100
AcDbEntity
  8
0
100
AcDbLine
 62
7
  6
BYLAYER
 10
49.9489242633
 20
27.7153243435
 11
49.6307221377
 21
27.5316113573
  0
LINE
  5
2C5
100
AcDbEntity
  8
0
100
AcDbLine
 62
7
  6
BYLAYER
 10
47.2519703208
 20
26.1578381025
 11
43.5964092887
 21
24.0473115547
  0
LINE
  5
2C6
100
AcDbEntity
  8
0
100
AcDbLine
 62
7
  6
BYLAYER
 10
43.6036424508
 20
23.9609784077
 11
47.2519703208
 21
26.0673289123
  0
LINE
  5
2C7
100
AcDbEntity
  8
0
100
AcDbLine
 62
7
  6
BYLAYER
 10
54.8541608917
 20
29.0155672256
 11
50.4701171009
 21
26.4844534716
  0
LINE
  5
2C8
100
AcDbEntity
  8
0
100
AcDbLine
 62
7
  6
BYLAYER
 10
50.3753886635
 20
26.1598060384
 11
54.7594324542
 21
28.6909197924
  0
LINE
  5
2C9
100
AcDbEntity
  8
0
100
AcDbLine
 62
7
  6
BYLAYER
 10
53.7621585826
 20
47.3328745263
 11
53.8533163179
 21
46.8592049734
  0
LINE
  5
2CA
100
AcDbEntity
  8
0
100
AcDbLine
 62
7
  6
BYLAYER
 10
47.2519703208
 20
23.0746394905
 11
43.6036424508
 21
20.9682889859
  0
LINE
  5
2CB
100
AcDbEntity
  8
0
100
AcDbLine
 62
7
  6
BYLAYER
 10
43.9571973134
 20
20.3559174001
 11
47.2519703208
 21
22.258144128
  0
LINE
  5
2CC
100
AcDbEntity
  8
0
100
AcDbLine
 62
7
  6
BYLAYER
 10
52.4845457817
 20
23.1894051758
 11
48.1005019909
 21
20.6582914218
  0
LINE
  5
2CD
100
AcDbEntity
  8
0
100
AcDbLine
 62
7
  6
BYLAYER
 10
48.4540568535
 20
20.045919836
 11
52.8381006442
 21
22.57703359
  0
LINE
  5
2CE
100
AcDbEntity
  8
0
100
AcDbLine
 62
7
  6
BYLAYER
 10
47.2519733755
 20
18.8619682683
 11
46.8984154582
 21
18.657842728
  0
LINE
  5
2CF
100
AcDbEntity
  8
0
100
AcDbLine
 62
7
  6
BYLAYER
 10
54.6058749571
 20
21.5564317037
 11
50.2218311664
 21
19.0253179497
  0
LINE
  5
2D0
100
AcDbEntity
  8
0
100
AcDbLine
 62
7
  6
BYLAYER
 10
50.5753860289
 20
18.4129463639
 11
54.9594298197
 21
20.9440601179
  0
LINE
  5
2D1
100
AcDbEntity
  8
0
100
AcDbLine
 62
7
  6
BYLAYER
 10
54.9594298197
 20
18.2496021414
 11
50.5753860289
 21
15.7184883873
  0
LINE
  5
2D2
100
AcDbEntity
  8
0
100
AcDbLine
 62
7
  6
BYLAYER
 10
50.4718300471
 20
15.4895954165
 11
54.8558738379
 21
18.0207091705
  0
ARC
  5
2D3
100
AcDbEntity
  8
0
100
AcDbCircle
 62
7
  6
BYLAYER
 10
28.0444368962
 20
61.3588217582
 40
1.2854528993
100
AcDbArc
 50
229.6187790768
 51
233.1673472319
  0
ARC
  5
2D4
100
AcDbEntity
  8
0
100
AcDbCircle
 62
7
  6
BYLAYER
 10
24.544272902
 20
59.3380131965
 40
1.2854528993
100
AcDbArc
 50
229.6187790768
 51
233.1673472319
  0
ARC
  5
2D5
100
AcDbEntity
  8
0
100
AcDbCircle
 62
7
  6
BYLAYER
 10
32.1635916013
 20
57.7340619536
 40
0.358789759
100
AcDbArc
 50
120.086678163
 51
133.6644829578
  0
SPLINE
  5
2D6
100
AcDbEntity
  8
0
100
AcDbSpline
 62
7
  6
BYLAYER
 70
0
 71
3
 72
14
 73
10
 74
0
 42
0.0000001
 43
0.0000001
 44
0.0000000001
 40
0.0
 40
0.0
 40
0.0
 40
0.0
 40
0.1080309441
 40
0.2181205812
 40
0.3320941919
 40
0.451470333
 40
0.5774220744
 40
0.7107590442
 40
1.0
 40
1.0
 40
1.0
 40
1.0
 10
51.550005863
 20
48.2822593479
 30
0.0
 10
51.5500059444
 20
48.2254746936
 30
0.0
 10
51.5401499954
 20
48.1105891436
 30
0.0
 10
51.4960623688
 20
47.9409221454
 30
0.0
 10
51.4234624925
 20
47.7748677594
 30
0.0
 10
51.3230897164
 20
47.6141796964
 30
0.0
 10
51.1961005924
 20
47.4602264087
 30
0.0
 10
50.9874096611
 20
47.2605663977
 30
0.0
 10
50.8030048195
 20
47.133554108
 30
0.0
 10
50.6713387465
 20
47.0575371191
 30
0.0
  0
SPLINE
  5
2D7
100
AcDbEntity
  8
0
100
AcDbSpline
 62
7
  6
BYLAYER
 70
0
 71
3
 72
9
 73
5
 74
0
 42
0.0000001
 43
0.0000001
 44
0.0000000001
 40
0.0
 40
0.0
 40
0.0
 40
0.0
 40
0.2305180524
 40
1.0
 40
1.0
 40
1.0
 40
1.0
 10
46.5259988906
 20
54.0443739854
 30
0.0
 10
46.5172232937
 20
54.0244739031
 30
0.0
 10
46.4848622962
 20
53.9356204414
 30
0.0
 10
46.4741131179
 20
53.8399316098
 30
0.0
 10
46.4741131179
 20
53.767331838
 30
0.0
  0
SPLINE
  5
2D8
100
AcDbEntity
  8
0
100
AcDbSpline
 62
7
  6
BYLAYER
 70
0
 71
3
 72
17
 73
13
 74
0
 42
0.0000001
 43
0.0000001
 44
0.0000000001
 40
0.0
 40
0.0
 40
0.0
 40
0.0
 40
0.042857965
 40
0.0874854797
 40
0.1353180708
 40
0.1872814984
 40
0.3045423159
 40
0.4382097446
 40
0.5825520305
 40
0.7297107839
 40
0.8713099826
 40
1.0
 40
1.0
 40
1.0
 40
1.0
 10
46.3276821329
 20
54.02098023
 30
0.0
 10
46.3523289029
 20
54.0352231695
 30
0.0
 10
46.4066774503
 20
54.0578002347
 30
0.0
 10
46.4963782244
 20
54.070956554
 30
0.0
 10
46.5927128651
 20
54.0638577387
 30
0.0
 10
46.7326878849
 20
54.0266376542
 30
0.0
 10
46.9116245984
 20
53.9287946587
 30
0.0
 10
47.1093201921
 20
53.7537165842
 30
0.0
 10
47.284075136
 20
53.5300386064
 30
0.0
 10
47.4216143931
 20
53.2758292464
 30
0.0
 10
47.5108660344
 20
53.0119342389
 30
0.0
 10
47.5347806496
 20
52.8322039831
 30
0.0
 10
47.5347806496
 20
52.746728252
 30
0.0
  0
SPLINE
  5
2D9
100
AcDbEntity
  8
0
100
AcDbSpline
 62
7
  6
BYLAYER
 70
0
 71
3
 72
22
 73
18
 74
0
 42
0.0000001
 43
0.0000001
 44
0.0000000001
 40
0.0
 40
0.0
 40
0.0
 40
0.0
 40
0.0428185125
 40
0.0874060711
 40
0.1351933744
 40
0.1871103805
 40
0.243562676
 40
0.3045257195
 40
0.3696318251
 40
0.4382464299
 40
0.5095538295
 40
0.5825970252
 40
0.7296198605
 40
0.8016147261
 40
0.8712268695
 40
0.9376267815
 40
1.0
 40
1.0
 40
1.0
 40
1.0
 10
45.931235714
 20
55.5241452235
 30
0.0
 10
45.9928740626
 20
55.5597178913
 30
0.0
 10
46.1287213621
 20
55.6162171015
 30
0.0
 10
46.3529963957
 20
55.6490340246
 30
0.0
 10
46.5938267921
 20
55.6313597164
 30
0.0
 10
46.8458656199
 20
55.5643651942
 30
0.0
 10
47.1041711917
 20
55.4502136522
 30
0.0
 10
47.3636126779
 20
55.2915183259
 30
0.0
 10
47.6188773778
 20
55.0916423465
 30
0.0
 10
47.8647287605
 20
54.854910115
 30
0.0
 10
48.0959587179
 20
54.586237384
 30
0.0
 10
48.3786521309
 20
54.1924931513
 30
0.0
 10
48.6110269159
 20
53.7630744142
 30
0.0
 10
48.783106605
 20
53.3147720354
 30
0.0
 10
48.8771535665
 20
52.9815059532
 30
0.0
 10
48.9348895014
 20
52.6563239418
 30
0.0
 10
48.9489971559
 20
52.4421568993
 30
0.0
 10
48.9489971559
 20
52.3384891971
 30
0.0
  0
SPLINE
  5
2DA
100
AcDbEntity
  8
0
100
AcDbSpline
 62
7
  6
BYLAYER
 70
0
 71
3
 72
13
 73
9
 74
0
 42
0.0000001
 43
0.0000001
 44
0.0000000001
 40
0.0
 40
0.0
 40
0.0
 40
0.0
 40
0.1080972215
 40
0.2182388296
 40
0.3322530161
 40
0.4516783954
 40
0.7106514167
 40
1.0
 40
1.0
 40
1.0
 40
1.0
 10
45.5776851046
 20
55.3200207668
 30
0.0
 10
45.5366919059
 20
55.2963632389
 30
0.0
 10
45.4578792874
 20
55.2413695163
 30
0.0
 10
45.3537876815
 20
55.1388624937
 30
0.0
 10
45.2641925152
 20
55.0172764865
 30
0.0
 10
45.1626527608
 20
54.8263337408
 30
0.0
 10
45.0790090888
 20
54.5430600428
 30
0.0
 10
45.0598966116
 20
54.3022609593
 30
0.0
 10
45.0598966116
 20
54.1755708928
 30
0.0
  0
SPLINE
  5
2DB
100
AcDbEntity
  8
0
100
AcDbSpline
 62
7
  6
BYLAYER
 70
0
 71
3
 72
11
 73
7
 74
0
 42
0.0000001
 43
0.0000001
 44
0.0000000001
 40
0.0
 40
0.0
 40
0.0
 40
0.0
 40
0.2177460211
 40
0.4508843679
 40
0.7104607696
 40
1.0
 40
1.0
 40
1.0
 40
1.0
 10
42.7290837503
 20
30.3351431837
 30
0.0
 10
42.7455734587
 20
30.3446634606
 30
0.0
 10
42.7834487109
 20
30.3584571839
 30
0.0
 10
42.846414416
 20
30.36003888
 30
0.0
 10
42.9134865044
 20
30.3438043846
 30
0.0
 10
42.9571420111
 20
30.3230643332
 30
0.0
 10
42.9790686431
 20
30.3104052727
 30
0.0
  0
SPLINE
  5
2DC
100
AcDbEntity
  8
0
100
AcDbSpline
 62
7
  6
BYLAYER
 70
0
 71
3
 72
9
 73
5
 74
0
 42
0.0000001
 43
0.0000001
 44
0.0000000001
 40
0.0
 40
0.0
 40
0.0
 40
0.0
 40
0.2305180524
 40
1.0
 40
1.0
 40
1.0
 40
1.0
 10
42.4955070185
 20
51.7173823084
 30
0.0
 10
42.4867314216
 20
51.697482226
 30
0.0
 10
42.4543704241
 20
51.6086287644
 30
0.0
 10
42.4436212458
 20
51.5129399327
 30
0.0
 10
42.4436212458
 20
51.4403401609
 30
0.0
  0
SPLINE
  5
2DD
100
AcDbEntity
  8
0
100
AcDbSpline
 62
7
  6
BYLAYER
 70
0
 71
3
 72
17
 73
13
 74
0
 42
0.0000001
 43
0.0000001
 44
0.0000000001
 40
0.0
 40
0.0
 40
0.0
 40
0.0
 40
0.042857965
 40
0.0874854797
 40
0.1353180708
 40
0.1872814984
 40
0.3045423159
 40
0.4382097446
 40
0.5825520305
 40
0.7297107839
 40
0.8713099826
 40
1.0
 40
1.0
 40
1.0
 40
1.0
 10
42.2971902608
 20
51.693988553
 30
0.0
 10
42.3218370307
 20
51.7082314925
 30
0.0
 10
42.3761855782
 20
51.7308085577
 30
0.0
 10
42.4658863523
 20
51.7439648769
 30
0.0
 10
42.562220993
 20
51.7368660617
 30
0.0
 10
42.7021960128
 20
51.6996459771
 30
0.0
 10
42.8811327263
 20
51.6018029816
 30
0.0
 10
43.07882832
 20
51.4267249071
 30
0.0
 10
43.2535832639
 20
51.2030469293
 30
0.0
 10
43.391122521
 20
50.9488375694
 30
0.0
 10
43.4803741622
 20
50.6849425619
 30
0.0
 10
43.5042887775
 20
50.505212306
 30
0.0
 10
43.5042887775
 20
50.4197365749
 30
0.0
  0
SPLINE
  5
2DE
100
AcDbEntity
  8
0
100
AcDbSpline
 62
7
  6
BYLAYER
 70
0
 71
3
 72
11
 73
7
 74
0
 42
0.0000001
 43
0.0000001
 44
0.0000000001
 40
0.0
 40
0.0
 40
0.0
 40
0.0
 40
0.217745073
 40
0.4508830113
 40
0.7104597664
 40
1.0
 40
1.0
 40
1.0
 40
1.0
 10
18.2226196148
 20
39.5029720234
 30
0.0
 10
18.2061295425
 20
39.4934515247
 30
0.0
 10
18.1752454103
 20
39.4675468538
 30
0.0
 10
18.1423922049
 20
39.413806245
 30
0.0
 10
18.1229156394
 20
39.3476008468
 30
0.0
 10
18.1190496447
 20
39.299422596
 30
0.0
 10
18.1190496447
 20
39.2741032809
 30
0.0
  0
SPLINE
  5
2DF
100
AcDbEntity
  8
0
100
AcDbSpline
 62
7
  6
BYLAYER
 70
0
 71
3
 72
11
 73
7
 74
0
 42
0.0000001
 43
0.0000001
 44
0.0000000001
 40
0.0
 40
0.0
 40
0.0
 40
0.0
 40
0.217745073
 40
0.4508830113
 40
0.7104597664
 40
1.0
 40
1.0
 40
1.0
 40
1.0
 10
40.0694009501
 20
32.9321301687
 30
0.0
 10
40.0529108777
 20
32.9226096699
 30
0.0
 10
40.0220267455
 20
32.896704999
 30
0.0
 10
39.9891735401
 20
32.8429643902
 30
0.0
 10
39.9696969746
 20
32.776758992
 30
0.0
 10
39.9658309799
 20
32.7285807412
 30
0.0
 10
39.9658309799
 20
32.7032614261
 30
0.0
  0
SPLINE
  5
2E0
100
AcDbEntity
  8
0
100
AcDbSpline
 62
7
  6
BYLAYER
 70
0
 71
3
 72
11
 73
7
 74
0
 42
0.0000001
 43
0.0000001
 44
0.0000000001
 40
0.0
 40
0.0
 40
0.0
 40
0.0
 40
0.2176602199
 40
0.4508418476
 40
0.7105724176
 40
1.0
 40
1.0
 40
1.0
 40
1.0
 10
37.7733753512
 20
35.0034091373
 30
0.0
 10
37.7883633187
 20
35.0120655277
 30
0.0
 10
37.8228164088
 20
35.0245664933
 30
0.0
 10
37.8800788999
 20
35.0260475054
 30
0.0
 10
37.9410756569
 20
35.0112496957
 30
0.0
 10
37.9807832728
 20
34.9924067112
 30
0.0
 10
38.0007149912
 20
34.9808993886
 30
0.0
  0
SPLINE
  5
2E1
100
AcDbEntity
  8
0
100
AcDbSpline
 62
7
  6
BYLAYER
 70
0
 71
3
 72
11
 73
7
 74
0
 42
0.0000001
 43
0.0000001
 44
0.0000000001
 40
0.0
 40
0.0
 40
0.0
 40
0.0
 40
0.2177644873
 40
0.4508929006
 40
0.7104084754
 40
1.0
 40
1.0
 40
1.0
 40
1.0
 10
8.5751613223
 20
51.8497825577
 30
0.0
 10
8.5916557788
 20
51.8592980924
 30
0.0
 10
8.6295314552
 20
51.8730902993
 30
0.0
 10
8.6924925368
 20
51.8746691678
 30
0.0
 10
8.7595666766
 20
51.8584482176
 30
0.0
 10
8.8032188671
 20
51.8377002837
 30
0.0
 10
8.8251496058
 20
51.8250388522
 30
0.0
  0
SPLINE
  5
2E2
100
AcDbEntity
  8
0
100
AcDbSpline
 62
7
  6
BYLAYER
 70
0
 71
3
 72
11
 73
7
 74
0
 42
0.0000001
 43
0.0000001
 44
0.0000000001
 40
0.0
 40
0.0
 40
0.0
 40
0.0
 40
0.2895401978
 40
0.5491171512
 40
0.782255066
 40
1.0
 40
1.0
 40
1.0
 40
1.0
 10
54.9594298197
 20
18.2496021414
 30
0.0
 10
54.9594298197
 20
18.2242828298
 30
0.0
 10
54.9555637948
 20
18.1761045705
 30
0.0
 10
54.9360872602
 20
18.1098991494
 30
0.0
 10
54.9032340274
 20
18.0561585559
 30
0.0
 10
54.8723499165
 20
18.0302538827
 30
0.0
 10
54.8558598499
 20
18.020733399
 30
0.0
  0
SPLINE
  5
2E3
100
AcDbEntity
  8
0
100
AcDbSpline
 62
7
  6
BYLAYER
 70
0
 71
3
 72
13
 73
9
 74
0
 42
0.0000001
 43
0.0000001
 44
0.0000000001
 40
0.0
 40
0.0
 40
0.0
 40
0.0
 40
0.1141759018
 40
0.2375697245
 40
0.4999990825
 40
0.762428944
 40
0.8858232992
 40
1.0
 40
1.0
 40
1.0
 40
1.0
 10
54.6058749571
 20
21.5564317037
 30
0.0
 10
54.6300612511
 20
21.5424680562
 30
0.0
 10
54.6778603857
 20
21.5089280906
 30
0.0
 10
54.7674073024
 20
21.4251976925
 30
0.0
 10
54.8619071151
 20
21.2960045818
 30
0.0
 10
54.9265423793
 20
21.1495689644
 30
0.0
 10
54.9542824462
 20
21.0301536072
 30
0.0
 10
54.9594298197
 20
20.9719880821
 30
0.0
 10
54.9594298197
 20
20.9440601179
 30
0.0
  0
SPLINE
  5
2E4
100
AcDbEntity
  8
0
100
AcDbSpline
 62
7
  6
BYLAYER
 70
0
 71
3
 72
13
 73
9
 74
0
 42
0.0000001
 43
0.0000001
 44
0.0000000001
 40
0.0
 40
0.0
 40
0.0
 40
0.0
 40
0.1141767831
 40
0.2375713001
 40
0.500001251
 40
0.7624305195
 40
0.8858241805
 40
1.0
 40
1.0
 40
1.0
 40
1.0
 10
52.4845457817
 20
23.1894051758
 30
0.0
 10
52.4845457817
 20
23.1614771915
 30
0.0
 10
52.4896931875
 20
23.103311609
 30
0.0
 10
52.5174332574
 20
22.98389617
 30
0.0
 10
52.5820685906
 20
22.837460531
 30
0.0
 10
52.6765684191
 20
22.7082674908
 30
0.0
 10
52.7661152665
 20
22.6245371363
 30
0.0
 10
52.8139143676
 20
22.5909972274
 30
0.0
 10
52.8381006442
 20
22.57703359
 30
0.0
  0
SPLINE
  5
2E5
100
AcDbEntity
  8
0
100
AcDbSpline
 62
7
  6
BYLAYER
 70
0
 71
3
 72
11
 73
7
 74
0
 42
0.0000001
 43
0.0000001
 44
0.0000000001
 40
0.0
 40
0.0
 40
0.0
 40
0.0
 40
0.3003780646
 40
0.5649748422
 40
0.7938631303
 40
1.0
 40
1.0
 40
1.0
 40
1.0
 10
54.8541608917
 20
29.0155672256
 30
0.0
 10
54.8604103293
 20
28.9802743268
 30
0.0
 10
54.8666032633
 20
28.9126528522
 30
0.0
 10
54.854533075
 20
28.8177362043
 30
0.0
 10
54.8199658716
 20
28.7400018024
 30
0.0
 10
54.7807075763
 20
28.7032636093
 30
0.0
 10
54.7594193659
 20
28.6909422684
 30
0.0
  0
SPLINE
  5
2E6
100
AcDbEntity
  8
0
100
AcDbSpline
 62
7
  6
BYLAYER
 70
0
 71
3
 72
9
 73
5
 74
0
 42
0.0000001
 43
0.0000001
 44
0.0000000001
 40
0.0
 40
0.0
 40
0.0
 40
0.0
 40
0.4877283076
 40
1.0
 40
1.0
 40
1.0
 40
1.0
 10
54.4853424317
 20
33.0162283344
 30
0.0
 10
54.4853424317
 20
32.362435124
 30
0.0
 10
54.5518646952
 20
31.02142194
 30
0.0
 10
54.7344283183
 20
29.6917415966
 30
0.0
 10
54.8541608917
 20
29.0155672256
 30
0.0
  0
SPLINE
  5
2E7
100
AcDbEntity
  8
0
100
AcDbSpline
 62
7
  6
BYLAYER
 70
0
 71
3
 72
9
 73
5
 74
0
 42
0.0000001
 43
0.0000001
 44
0.0000000001
 40
0.0
 40
0.0
 40
0.0
 40
0.0
 40
0.4824698376
 40
1.0
 40
1.0
 40
1.0
 40
1.0
 10
54.9594298197
 20
37.0291577353
 30
0.0
 10
54.79651941
 20
36.3987160299
 30
0.0
 10
54.5567401485
 20
35.065704663
 30
0.0
 10
54.4853424317
 20
33.7146965653
 30
0.0
 10
54.4853424317
 20
33.0162283344
 30
0.0
  0
SPLINE
  5
2E8
100
AcDbEntity
  8
0
100
AcDbSpline
 62
7
  6
BYLAYER
 70
0
 71
3
 72
22
 73
18
 74
0
 42
0.0000001
 43
0.0000001
 44
0.0000000001
 40
0.0
 40
0.0
 40
0.0
 40
0.0
 40
0.0428185125
 40
0.0874060711
 40
0.1351933744
 40
0.1871103805
 40
0.243562676
 40
0.3045257195
 40
0.3696318251
 40
0.4382464299
 40
0.5095538295
 40
0.5825970252
 40
0.7296198605
 40
0.8016147261
 40
0.8712268695
 40
0.9376267815
 40
1.0
 40
1.0
 40
1.0
 40
1.0
 10
41.9007438419
 20
53.1971535464
 30
0.0
 10
41.9623821905
 20
53.2327262143
 30
0.0
 10
42.09822949
 20
53.2892254244
 30
0.0
 10
42.3225045236
 20
53.3220423475
 30
0.0
 10
42.56333492
 20
53.3043680393
 30
0.0
 10
42.8153737478
 20
53.2373735171
 30
0.0
 10
43.0736793195
 20
53.1232219751
 30
0.0
 10
43.3331208058
 20
52.9645266489
 30
0.0
 10
43.5883855057
 20
52.7646506694
 30
0.0
 10
43.8342368884
 20
52.527918438
 30
0.0
 10
44.0654668458
 20
52.2592457069
 30
0.0
 10
44.3481602588
 20
51.8655014742
 30
0.0
 10
44.5805350437
 20
51.4360827371
 30
0.0
 10
44.7526147329
 20
50.9877803583
 30
0.0
 10
44.8466616944
 20
50.6545142761
 30
0.0
 10
44.9043976293
 20
50.3293322647
 30
0.0
 10
44.9185052838
 20
50.1151652222
 30
0.0
 10
44.9185052838
 20
50.0114975201
 30
0.0
  0
SPLINE
  5
2E9
100
AcDbEntity
  8
0
100
AcDbSpline
 62
7
  6
BYLAYER
 70
0
 71
3
 72
11
 73
7
 74
0
 42
0.0000001
 43
0.0000001
 44
0.0000000001
 40
0.0
 40
0.0
 40
0.0
 40
0.0
 40
0.3012740864
 40
0.5662206528
 40
0.7947968706
 40
1.0
 40
1.0
 40
1.0
 40
1.0
 10
53.8533163179
 20
46.8592049734
 30
0.0
 10
53.8575001133
 20
46.8374653319
 30
0.0
 10
53.8619417822
 20
46.7957876091
 30
0.0
 10
53.8552681366
 20
46.7371649036
 30
0.0
 10
53.8345738809
 20
46.6891001534
 30
0.0
 10
53.8105793051
 20
46.6663357445
 30
0.0
 10
53.7975127645
 20
46.6588097303
 30
0.0
  0
SPLINE
  5
2EA
100
AcDbEntity
  8
0
100
AcDbSpline
 62
7
  6
BYLAYER
 70
0
 71
3
 72
11
 73
7
 74
0
 42
0.0000001
 43
0.0000001
 44
0.0000000001
 40
0.0
 40
0.0
 40
0.0
 40
0.0
 40
0.2312878062
 40
0.4867907903
 40
0.7493018584
 40
1.0
 40
1.0
 40
1.0
 40
1.0
 10
53.5563594236
 20
47.6372314861
 30
0.0
 10
53.5815175807
 20
47.6227067459
 30
0.0
 10
53.6299319057
 20
47.5841546116
 30
0.0
 10
53.6899331337
 20
47.5109534126
 30
0.0
 10
53.7364540771
 20
47.4257425783
 30
0.0
 10
53.7562079239
 20
47.36379506
 30
0.0
 10
53.7621585826
 20
47.3328745263
 30
0.0
  0
SPLINE
  5
2EB
100
AcDbEntity
  8
0
100
AcDbSpline
 62
7
  6
BYLAYER
 70
0
 71
3
 72
11
 73
7
 74
0
 42
0.0000001
 43
0.0000001
 44
0.0000000001
 40
0.0
 40
0.0
 40
0.0
 40
0.0
 40
0.2441725816
 40
0.500525714
 40
0.756631698
 40
1.0
 40
1.0
 40
1.0
 40
1.0
 10
26.6614956004
 20
61.3254203732
 30
0.0
 10
26.6784501937
 20
61.2364868078
 30
0.0
 10
26.7313337207
 20
61.057394807
 30
0.0
 10
26.8536933165
 20
60.8037382924
 30
0.0
 10
27.0135057994
 20
60.5721991168
 30
0.0
 10
27.142876226
 20
60.4380704434
 30
0.0
 10
27.2116301832
 20
60.3796271222
 30
0.0
  0
SPLINE
  5
2EC
100
AcDbEntity
  8
0
100
AcDbSpline
 62
7
  6
BYLAYER
 70
0
 71
3
 72
13
 73
9
 74
0
 42
0.0000001
 43
0.0000001
 44
0.0000000001
 40
0.0
 40
0.0
 40
0.0
 40
0.0
 40
0.1080963653
 40
0.2182388237
 40
0.332253658
 40
0.451681317
 40
0.7106595391
 40
1.0
 40
1.0
 40
1.0
 40
1.0
 10
41.5471921249
 20
52.9930311244
 30
0.0
 10
41.5061993082
 20
52.9693737285
 30
0.0
 10
41.4273918851
 20
52.9143727459
 30
0.0
 10
41.3232964451
 20
52.8118704274
 30
0.0
 10
41.2336978346
 20
52.690284311
 30
0.0
 10
41.132160183
 20
52.499336493
 30
0.0
 10
41.0485173671
 20
52.216063373
 30
0.0
 10
41.0294047395
 20
51.9752656672
 30
0.0
 10
41.0294047395
 20
51.8485792157
 30
0.0
  0
SPLINE
  5
2ED
100
AcDbEntity
  8
0
100
AcDbSpline
 62
7
  6
BYLAYER
 70
0
 71
3
 72
15
 73
11
 74
0
 42
0.0000001
 43
0.0000001
 44
0.0000000001
 40
0.0
 40
0.0
 40
0.0
 40
0.0
 40
0.1214627404
 40
0.2542144676
 40
0.3933531621
 40
0.5332437431
 40
0.6680826992
 40
0.7927614672
 40
0.9037020746
 40
1.0
 40
1.0
 40
1.0
 40
1.0
 10
46.4741131179
 20
53.767331838
 30
0.0
 10
46.4741131179
 20
53.6950199548
 30
0.0
 10
46.4912795123
 20
53.5435089819
 30
0.0
 10
46.5571736704
 20
53.3178738738
 30
0.0
 10
46.6606973233
 20
53.0946731035
 30
0.0
 10
46.7955334528
 20
52.8874416219
 30
0.0
 10
46.9536259426
 20
52.7085807039
 30
0.0
 10
47.1257600338
 20
52.568740066
 30
0.0
 10
47.301968201
 20
52.4761331143
 30
0.0
 10
47.4246240127
 20
52.4484856523
 30
0.0
 10
47.4819197267
 20
52.4464971734
 30
0.0
  0
SPLINE
  5
2EE
100
AcDbEntity
  8
0
100
AcDbSpline
 62
7
  6
BYLAYER
 70
0
 71
3
 72
11
 73
7
 74
0
 42
0.0000001
 43
0.0000001
 44
0.0000000001
 40
0.0
 40
0.0
 40
0.0
 40
0.0
 40
0.2177460211
 40
0.4508843679
 40
0.7104607696
 40
1.0
 40
1.0
 40
1.0
 40
1.0
 10
48.2040719607
 20
27.1742287761
 30
0.0
 10
48.2205616691
 20
27.183749053
 30
0.0
 10
48.2584369213
 20
27.1975427763
 30
0.0
 10
48.3214026265
 20
27.1991244723
 30
0.0
 10
48.3884747148
 20
27.1828899769
 30
0.0
 10
48.4321302215
 20
27.1621499255
 30
0.0
 10
48.4540568535
 20
27.149490865
 30
0.0
  0
SPLINE
  5
2EF
100
AcDbEntity
  8
0
100
AcDbSpline
 62
7
  6
BYLAYER
 70
0
 71
3
 72
14
 73
10
 74
0
 42
0.0000001
 43
0.0000001
 44
0.0000000001
 40
0.0
 40
0.0
 40
0.0
 40
0.0
 40
0.2892494338
 40
0.4225733849
 40
0.5485206453
 40
0.6678948276
 40
0.7818666694
 40
0.8919552416
 40
1.0
 40
1.0
 40
1.0
 40
1.0
 10
46.0751431969
 20
47.2616472983
 30
0.0
 10
45.9434708359
 20
47.3376666515
 30
0.0
 10
45.7590554864
 20
47.4646678127
 30
0.0
 10
45.5503773289
 20
47.6643396648
 30
0.0
 10
45.4233850373
 20
47.8182811578
 30
0.0
 10
45.3230200935
 20
47.978970871
 30
0.0
 10
45.2503868593
 20
48.1450105494
 30
0.0
 10
45.2063100478
 20
48.3146923277
 30
0.0
 10
45.1964767616
 20
48.4295870332
 30
0.0
 10
45.1964767609
 20
48.4863797599
 30
0.0
  0
SPLINE
  5
2F0
100
AcDbEntity
  8
0
100
AcDbSpline
 62
7
  6
BYLAYER
 70
0
 71
3
 72
15
 73
11
 74
0
 42
0.0000001
 43
0.0000001
 44
0.0000000001
 40
0.0
 40
0.0
 40
0.0
 40
0.0
 40
0.1141464977
 40
0.2373352781
 40
0.3669759338
 40
0.4999994786
 40
0.633023096
 40
0.7626639634
 40
0.8858530776
 40
1.0
 40
1.0
 40
1.0
 40
1.0
 10
50.6713387465
 20
47.0575371191
 30
0.0
 10
50.5261283216
 20
46.9737003416
 30
0.0
 10
50.2085578292
 20
46.8258407241
 30
0.0
 10
49.6914519534
 20
46.668638185
 30
0.0
 10
49.1315761126
 20
46.5719322729
 30
0.0
 10
48.5500219804
 20
46.5392640176
 30
0.0
 10
47.9684673834
 20
46.5719295127
 30
0.0
 10
47.4085901691
 20
46.6686327665
 30
0.0
 10
46.8914820671
 20
46.8258328474
 30
0.0
 10
46.5739096292
 20
46.9736908788
 30
0.0
 10
46.4286980594
 20
47.057526921
 30
0.0
  0
SPLINE
  5
2F1
100
AcDbEntity
  8
0
100
AcDbSpline
 62
7
  6
BYLAYER
 70
0
 71
3
 72
15
 73
11
 74
0
 42
0.0000001
 43
0.0000001
 44
0.0000000001
 40
0.0
 40
0.0
 40
0.0
 40
0.0
 40
0.1214627404
 40
0.2542144676
 40
0.3933531621
 40
0.5332437431
 40
0.6680826992
 40
0.7927614672
 40
0.9037020746
 40
1.0
 40
1.0
 40
1.0
 40
1.0
 10
42.4436212458
 20
51.4403401609
 30
0.0
 10
42.4436212458
 20
51.3680282778
 30
0.0
 10
42.4607876402
 20
51.2165173048
 30
0.0
 10
42.5266817983
 20
50.9908821967
 30
0.0
 10
42.6302054512
 20
50.7676814264
 30
0.0
 10
42.7650415807
 20
50.5604499448
 30
0.0
 10
42.9231340705
 20
50.3815890268
 30
0.0
 10
43.0952681617
 20
50.2417483889
 30
0.0
 10
43.2714763289
 20
50.1491414372
 30
0.0
 10
43.3941321406
 20
50.1214939752
 30
0.0
 10
43.4514278546
 20
50.1195054963
 30
0.0
  0
SPLINE
  5
2F2
100
AcDbEntity
  8
0
100
AcDbSpline
 62
7
  6
BYLAYER
 70
0
 71
3
 72
12
 73
8
 74
0
 42
0.0000001
 43
0.0000001
 44
0.0000000001
 40
0.0
 40
0.0
 40
0.0
 40
0.0
 40
0.293797805
 40
0.5644351738
 40
0.6873488725
 40
0.8008985769
 40
1.0
 40
1.0
 40
1.0
 40
1.0
 10
17.3168712264
 20
34.6083367731
 30
0.0
 10
17.3588033827
 20
34.5454980697
 30
0.0
 10
17.4497441448
 20
34.431315443
 30
0.0
 10
17.5848017689
 20
34.3151237655
 30
0.0
 10
17.6978918743
 20
34.2493299122
 30
0.0
 10
17.801586034
 20
34.2068421771
 30
0.0
 10
17.8837446703
 20
34.1943640989
 30
0.0
 10
17.9347158761
 20
34.1991489375
 30
0.0
  0
SPLINE
  5
2F3
100
AcDbEntity
  8
0
100
AcDbSpline
 62
7
  6
BYLAYER
 70
0
 71
3
 72
11
 73
7
 74
0
 42
0.0000001
 43
0.0000001
 44
0.0000000001
 40
0.0
 40
0.0
 40
0.0
 40
0.0
 40
0.227706998
 40
0.4766502999
 40
0.7377193983
 40
1.0
 40
1.0
 40
1.0
 40
1.0
 10
7.1351830059
 20
48.2121269698
 30
0.0
 10
7.1351830059
 20
48.1760635577
 30
0.0
 10
7.1437583437
 20
48.1004972549
 30
0.0
 10
7.1765149374
 20
47.9878837942
 30
0.0
 10
7.2281196553
 20
47.8765254198
 30
0.0
 10
7.2734053497
 20
47.8067009132
 30
0.0
 10
7.2985601088
 20
47.7736444291
 30
0.0
  0
SPLINE
  5
2F4
100
AcDbEntity
  8
0
100
AcDbSpline
 62
7
  6
BYLAYER
 70
0
 71
3
 72
9
 73
5
 74
0
 42
0.0000001
 43
0.0000001
 44
0.0000000001
 40
0.0
 40
0.0
 40
0.0
 40
0.0
 40
0.2345114755
 40
1.0
 40
1.0
 40
1.0
 40
1.0
 10
7.1513842762
 20
48.3249408076
 30
0.0
 10
7.1486463408
 20
48.316440733
 30
0.0
 10
7.1386793474
 20
48.27964578
 30
0.0
 10
7.1351830059
 20
48.2412766157
 30
0.0
 10
7.1351830059
 20
48.2121269698
 30
0.0
  0
SPLINE
  5
2F5
100
AcDbEntity
  8
0
100
AcDbSpline
 62
7
  6
BYLAYER
 70
0
 71
3
 72
14
 73
10
 74
0
 42
0.0000001
 43
0.0000001
 44
0.0000000001
 40
0.0
 40
0.0
 40
0.0
 40
0.0
 40
0.1406346448
 40
0.277430267
 40
0.4099250235
 40
0.5378281779
 40
0.6608995655
 40
0.7789872612
 40
1.0
 40
1.0
 40
1.0
 40
1.0
 10
7.0881379324
 20
59.6048503843
 30
0.0
 10
7.2149682802
 20
59.0850524114
 30
0.0
 10
7.4389745012
 20
58.0530103912
 30
0.0
 10
7.6864803622
 20
56.512418493
 30
0.0
 10
7.8395490614
 20
55.0081290551
 30
0.0
 10
7.8972419113
 20
53.5494142541
 30
0.0
 10
7.8592490996
 20
52.1444949462
 30
0.0
 10
7.685081494
 20
50.3940863981
 30
0.0
 10
7.4091836537
 20
49.125293473
 30
0.0
 10
7.1513842762
 20
48.3249408076
 30
0.0
  0
SPLINE
  5
2F6
100
AcDbEntity
  8
0
100
AcDbSpline
 62
7
  6
BYLAYER
 70
0
 71
3
 72
11
 73
7
 74
0
 42
0.0000001
 43
0.0000001
 44
0.0000000001
 40
0.0
 40
0.0
 40
0.0
 40
0.0
 40
0.2280798806
 40
0.4783194952
 40
0.7398836308
 40
1.0
 40
1.0
 40
1.0
 40
1.0
 10
8.1879176756
 20
68.1019440978
 30
0.0
 10
8.1879176756
 20
68.0785365495
 30
0.0
 10
8.1939408759
 20
68.0293982214
 30
0.0
 10
8.2166197705
 20
67.9565939132
 30
0.0
 10
8.2520830073
 20
67.8854079201
 30
0.0
 10
8.2830758987
 20
67.8414328376
 30
0.0
 10
8.3002233379
 20
67.8209728675
 30
0.0
  0
SPLINE
  5
2F7
100
AcDbEntity
  8
0
100
AcDbSpline
 62
7
  6
BYLAYER
 70
0
 71
3
 72
9
 73
5
 74
0
 42
0.0000001
 43
0.0000001
 44
0.0000000001
 40
0.0
 40
0.0
 40
0.0
 40
0.0
 40
0.2375790697
 40
1.0
 40
1.0
 40
1.0
 40
1.0
 10
8.1942514342
 20
68.1576966605
 30
0.0
 10
8.1931826067
 20
68.1533770168
 30
0.0
 10
8.1893261042
 20
68.1350371928
 30
0.0
 10
8.1879176756
 20
68.1162244206
 30
0.0
 10
8.1879176756
 20
68.1019440978
 30
0.0
  0
SPLINE
  5
2F8
100
AcDbEntity
  8
0
100
AcDbSpline
 62
7
  6
BYLAYER
 70
0
 71
3
 72
13
 73
9
 74
0
 42
0.0000001
 43
0.0000001
 44
0.0000000001
 40
0.0
 40
0.0
 40
0.0
 40
0.0
 40
0.3070389654
 40
0.5822430058
 40
0.7026423802
 40
0.8106901399
 40
0.9083780174
 40
1.0
 40
1.0
 40
1.0
 40
1.0
 10
41.4795578748
 20
50.2278516995
 30
0.0
 10
41.5085895619
 20
50.1736107675
 30
0.0
 10
41.5530288676
 20
50.0646786562
 30
0.0
 10
41.5745023056
 20
49.923425801
 30
0.0
 10
41.5641192668
 20
49.8224915559
 30
0.0
 10
41.5440606521
 20
49.7596888249
 30
0.0
 10
41.5117517316
 20
49.7087071198
 30
0.0
 10
41.4819152377
 20
49.684020151
 30
0.0
 10
41.4660195227
 20
49.674835575
 30
0.0
  0
SPLINE
  5
2F9
100
AcDbEntity
  8
0
100
AcDbSpline
 62
7
  6
BYLAYER
 70
0
 71
3
 72
11
 73
7
 74
0
 42
0.0000001
 43
0.0000001
 44
0.0000000001
 40
0.0
 40
0.0
 40
0.0
 40
0.0
 40
0.2287705942
 40
0.474770169
 40
0.7336539224
 40
1.0
 40
1.0
 40
1.0
 40
1.0
 10
41.0294047395
 20
51.8485792157
 30
0.0
 10
41.0294047395
 20
51.7191489038
 30
0.0
 10
41.0514133783
 20
51.4503178464
 30
0.0
 10
41.1396243338
 20
51.0437226004
 30
0.0
 10
41.2818241097
 20
50.6302547597
 30
0.0
 10
41.4084486138
 20
50.360707657
 30
0.0
 10
41.4795578748
 20
50.2278516995
 30
0.0
  0
SPLINE
  5
2FA
100
AcDbEntity
  8
0
100
AcDbSpline
 62
7
  6
BYLAYER
 70
0
 71
3
 72
11
 73
7
 74
0
 42
0.0000001
 43
0.0000001
 44
0.0000000001
 40
0.0
 40
0.0
 40
0.0
 40
0.0
 40
0.2893415205
 40
0.5491102186
 40
0.7823103133
 40
1.0
 40
1.0
 40
1.0
 40
1.0
 10
50.1253897827
 20
26.1845681779
 30
0.0
 10
50.1473010744
 20
26.1719179739
 30
0.0
 10
50.1909657451
 20
26.1512097204
 30
0.0
 10
50.2580320267
 20
26.1349200076
 30
0.0
 10
50.321009394
 20
26.1365340674
 30
0.0
 10
50.3589007072
 20
26.1502930475
 30
0.0
 10
50.3753755869
 20
26.1598284952
 30
0.0
  0
SPLINE
  5
2FB
100
AcDbEntity
  8
0
100
AcDbSpline
 62
7
  6
BYLAYER
 70
0
 71
3
 72
11
 73
7
 74
0
 42
0.0000001
 43
0.0000001
 44
0.0000000001
 40
0.0
 40
0.0
 40
0.0
 40
0.0
 40
0.2895391946
 40
0.5491157945
 40
0.7822541179
 40
1.0
 40
1.0
 40
1.0
 40
1.0
 10
50.2218311664
 20
15.514357556
 30
0.0
 10
50.2437577953
 20
15.5016984973
 30
0.0
 10
50.2874133244
 20
15.4809584679
 30
0.0
 10
50.3544854171
 20
15.4647239342
 30
0.0
 10
50.4174511227
 20
15.4663056616
 30
0.0
 10
50.4553263663
 20
15.4800993654
 30
0.0
 10
50.4718160588
 20
15.4896196448
 30
0.0
  0
SPLINE
  5
2FC
100
AcDbEntity
  8
0
100
AcDbSpline
 62
7
  6
BYLAYER
 70
0
 71
3
 72
9
 73
5
 74
0
 42
0.0000001
 43
0.0000001
 44
0.0000000001
 40
0.0
 40
0.0
 40
0.0
 40
0.0
 40
0.5226804876
 40
1.0
 40
1.0
 40
1.0
 40
1.0
 10
43.7892664748
 20
19.2723548788
 30
0.0
 10
43.8100637435
 20
19.2463884952
 30
0.0
 10
43.8537030995
 20
19.1996415232
 30
0.0
 10
43.9050982397
 20
19.1612425081
 30
0.0
 10
43.93140919
 20
19.1460522175
 30
0.0
  0
SPLINE
  5
2FD
100
AcDbEntity
  8
0
100
AcDbSpline
 62
7
  6
BYLAYER
 70
0
 71
3
 72
15
 73
11
 74
0
 42
0.0000001
 43
0.0000001
 44
0.0000000001
 40
0.0
 40
0.0
 40
0.0
 40
0.0
 40
0.1048664637
 40
0.219379055
 40
0.3416423349
 40
0.469617846
 40
0.6012631127
 40
0.7346402869
 40
0.8680250319
 40
1.0
 40
1.0
 40
1.0
 40
1.0
 10
42.3524239563
 20
23.7862450807
 30
0.0
 10
42.336811512
 20
23.6179204376
 30
0.0
 10
42.3280448671
 20
23.2634206217
 30
0.0
 10
42.371369458
 20
22.7136472469
 30
0.0
 10
42.4700889993
 20
22.133246892
 30
0.0
 10
42.6237103364
 20
21.5364065538
 30
0.0
 10
42.8317088724
 20
20.9372325282
 30
0.0
 10
43.0935855228
 20
20.3498722125
 30
0.0
 10
43.4087879412
 20
19.7886163121
 30
0.0
 10
43.6562704948
 20
19.4384067143
 30
0.0
 10
43.7892664748
 20
19.2723548788
 30
0.0
  0
SPLINE
  5
2FE
100
AcDbEntity
  8
0
100
AcDbSpline
 62
7
  6
BYLAYER
 70
0
 71
3
 72
11
 73
7
 74
0
 42
0.0000001
 43
0.0000001
 44
0.0000000001
 40
0.0
 40
0.0
 40
0.0
 40
0.0
 40
0.2309823257
 40
0.4860552181
 40
0.7485153121
 40
1.0
 40
1.0
 40
1.0
 40
1.0
 10
41.4631077407
 20
31.0223254242
 30
0.0
 10
41.4962017685
 20
31.0032190106
 30
0.0
 10
41.5599541878
 20
30.9526490455
 30
0.0
 10
41.6392671794
 20
30.8566475037
 30
0.0
 10
41.7012143414
 20
30.744738061
 30
0.0
 10
41.7279728996
 20
30.6632835737
 30
0.0
 10
41.7363139589
 20
30.6225228925
 30
0.0
  0
SPLINE
  5
2FF
100
AcDbEntity
  8
0
100
AcDbSpline
 62
7
  6
BYLAYER
 70
0
 71
3
 72
11
 73
7
 74
0
 42
0.0000001
 43
0.0000001
 44
0.0000000001
 40
0.0
 40
0.0
 40
0.0
 40
0.0
 40
0.2893012172
 40
0.5491009446
 40
0.782316607
 40
1.0
 40
1.0
 40
1.0
 40
1.0
 10
41.7214599931
 20
25.3209526196
 30
0.0
 10
41.7389865471
 20
25.3108338879
 30
0.0
 10
41.7739192162
 20
25.2942722054
 30
0.0
 10
41.8275711316
 20
25.2812329454
 30
0.0
 10
41.8779552433
 20
25.2825278488
 30
0.0
 10
41.9082709614
 20
25.2935296506
 30
0.0
 10
41.9214499804
 20
25.3011585929
 30
0.0
  0
SPLINE
  5
300
100
AcDbEntity
  8
0
100
AcDbSpline
 62
7
  6
BYLAYER
 70
0
 71
3
 72
13
 73
9
 74
0
 42
0.0000001
 43
0.0000001
 44
0.0000000001
 40
0.0
 40
0.0
 40
0.0
 40
0.0
 40
0.146640969
 40
0.2880787662
 40
0.4884423501
 40
0.6731608068
 40
0.8427492782
 40
1.0
 40
1.0
 40
1.0
 40
1.0
 10
18.7163974789
 20
36.498016176
 30
0.0
 10
18.7053657328
 20
36.4209352566
 30
0.0
 10
18.6783669494
 20
36.2701920999
 30
0.0
 10
18.6132658644
 20
36.0189130423
 30
0.0
 10
18.5154150833
 20
35.7560400694
 30
0.0
 10
18.3714448386
 20
35.497542517
 30
0.0
 10
18.197614427
 20
35.2865982921
 30
0.0
 10
18.0585836778
 20
35.1793343141
 30
0.0
 10
17.986270352
 20
35.1375844242
 30
0.0
  0
SPLINE
  5
301
100
AcDbEntity
  8
0
100
AcDbSpline
 62
7
  6
BYLAYER
 70
0
 71
3
 72
9
 73
5
 74
0
 42
0.0000001
 43
0.0000001
 44
0.0000000001
 40
0.0
 40
0.0
 40
0.0
 40
0.0
 40
0.2576368227
 40
1.0
 40
1.0
 40
1.0
 40
1.0
 10
18.7204459835
 20
36.5572836236
 30
0.0
 10
18.7204459835
 20
36.5521795753
 30
0.0
 10
18.7201242519
 20
36.5323710445
 30
0.0
 10
18.7184810952
 20
36.5125748012
 30
0.0
 10
18.7163974789
 20
36.498016176
 30
0.0
  0
SPLINE
  5
302
100
AcDbEntity
  8
0
100
AcDbSpline
 62
7
  6
BYLAYER
 70
0
 71
3
 72
11
 73
7
 74
0
 42
0.0000001
 43
0.0000001
 44
0.0000000001
 40
0.0
 40
0.0
 40
0.0
 40
0.0
 40
0.2514833065
 40
0.5139429465
 40
0.7690163588
 40
1.0
 40
1.0
 40
1.0
 40
1.0
 10
18.4583978528
 20
37.1029141457
 30
0.0
 10
18.4973094961
 20
37.068409666
 30
0.0
 10
18.5687627393
 20
36.9885341641
 30
0.0
 10
18.6511918704
 20
36.851531412
 30
0.0
 10
18.7055468664
 20
36.7056714269
 30
0.0
 10
18.7204459835
 20
36.6050508048
 30
0.0
 10
18.7204459835
 20
36.5572836236
 30
0.0
  0
SPLINE
  5
303
100
AcDbEntity
  8
0
100
AcDbSpline
 62
7
  6
BYLAYER
 70
0
 71
3
 72
11
 73
7
 74
0
 42
0.0000001
 43
0.0000001
 44
0.0000000001
 40
0.0
 40
0.0
 40
0.0
 40
0.0
 40
0.2309836412
 40
0.4860570535
 40
0.7485166935
 40
1.0
 40
1.0
 40
1.0
 40
1.0
 10
18.1190496447
 20
37.7170896773
 30
0.0
 10
18.1190496447
 20
37.6693224962
 30
0.0
 10
18.1339487617
 20
37.568701874
 30
0.0
 10
18.1883037577
 20
37.4228418889
 30
0.0
 10
18.2707328889
 20
37.2858391369
 30
0.0
 10
18.3421861321
 20
37.205963635
 30
0.0
 10
18.3810977753
 20
37.1714591552
 30
0.0
  0
SPLINE
  5
304
100
AcDbEntity
  8
0
100
AcDbSpline
 62
7
  6
BYLAYER
 70
0
 71
3
 72
11
 73
7
 74
0
 42
0.0000001
 43
0.0000001
 44
0.0000000001
 40
0.0
 40
0.0
 40
0.0
 40
0.0
 40
0.2895401978
 40
0.5491171512
 40
0.782255066
 40
1.0
 40
1.0
 40
1.0
 40
1.0
 10
41.1534915205
 20
26.7919653359
 30
0.0
 10
41.1534915205
 20
26.7666460243
 30
0.0
 10
41.1496254956
 20
26.718467765
 30
0.0
 10
41.130148961
 20
26.6522623439
 30
0.0
 10
41.0972957282
 20
26.5985217504
 30
0.0
 10
41.0664116173
 20
26.5726170772
 30
0.0
 10
41.0499215507
 20
26.5630965935
 30
0.0
  0
SPLINE
  5
305
100
AcDbEntity
  8
0
100
AcDbSpline
 62
7
  6
BYLAYER
 70
0
 71
3
 72
9
 73
5
 74
0
 42
0.0000001
 43
0.0000001
 44
0.0000000001
 40
0.0
 40
0.0
 40
0.0
 40
0.0
 40
0.2604032204
 40
1.0
 40
1.0
 40
1.0
 40
1.0
 10
41.1414444307
 20
26.904583757
 30
0.0
 10
41.1434172038
 20
26.8949433057
 30
0.0
 10
41.150160607
 20
26.8577631903
 30
0.0
 10
41.1534915205
 20
26.8199135414
 30
0.0
 10
41.1534915205
 20
26.7919653359
 30
0.0
  0
SPLINE
  5
306
100
AcDbEntity
  8
0
100
AcDbSpline
 62
7
  6
BYLAYER
 70
0
 71
3
 72
9
 73
5
 74
0
 42
0.0000001
 43
0.0000001
 44
0.0000000001
 40
0.0
 40
0.0
 40
0.0
 40
0.0
 40
0.2394581259
 40
1.0
 40
1.0
 40
1.0
 40
1.0
 10
39.9658309799
 20
32.7032614261
 30
0.0
 10
39.9658309799
 20
32.6942121975
 30
0.0
 10
39.9669200145
 20
32.6564240739
 30
0.0
 10
39.9721160203
 20
32.6188007068
 30
0.0
 10
39.9778780697
 20
32.590643005
 30
0.0
  0
SPLINE
  5
307
100
AcDbEntity
  8
0
100
AcDbSpline
 62
7
  6
BYLAYER
 70
0
 71
3
 72
11
 73
7
 74
0
 42
0.0000001
 43
0.0000001
 44
0.0000000001
 40
0.0
 40
0.0
 40
0.0
 40
0.0
 40
0.2895401978
 40
0.5491171512
 40
0.782255066
 40
1.0
 40
1.0
 40
1.0
 40
1.0
 10
49.948921514
 20
27.7153291055
 30
0.0
 10
49.948921514
 20
27.692541725
 30
0.0
 10
49.9454420916
 20
27.6491812917
 30
0.0
 10
49.9279132104
 20
27.5895964127
 30
0.0
 10
49.898345301
 20
27.5412298785
 30
0.0
 10
49.8705496011
 20
27.5179156727
 30
0.0
 10
49.8557085412
 20
27.5093472373
 30
0.0
  0
SPLINE
  5
308
100
AcDbEntity
  8
0
100
AcDbSpline
 62
7
  6
BYLAYER
 70
0
 71
3
 72
11
 73
7
 74
0
 42
0.0000001
 43
0.0000001
 44
0.0000000001
 40
0.0
 40
0.0
 40
0.0
 40
0.0
 40
0.2372523758
 40
0.4999990758
 40
0.7627462798
 40
1.0
 40
1.0
 40
1.0
 40
1.0
 10
49.6307221377
 20
28.2664635327
 30
0.0
 10
49.6758997324
 20
28.2403808263
 30
0.0
 10
49.7613943419
 20
28.1684367165
 30
0.0
 10
49.8611400969
 20
28.0320727884
 30
0.0
 10
49.9293626265
 20
27.8775084864
 30
0.0
 10
49.948921514
 20
27.7674956989
 30
0.0
 10
49.948921514
 20
27.7153291055
 30
0.0
  0
SPLINE
  5
309
100
AcDbEntity
  8
0
100
AcDbSpline
 62
7
  6
BYLAYER
 70
0
 71
3
 72
11
 73
7
 74
0
 42
0.0000001
 43
0.0000001
 44
0.0000000001
 40
0.0
 40
0.0
 40
0.0
 40
0.0
 40
0.2894284425
 40
0.5491607096
 40
0.7823449036
 40
1.0
 40
1.0
 40
1.0
 40
1.0
 10
36.9367124926
 20
32.329177952
 30
0.0
 10
36.9566442671
 20
32.3176705969
 30
0.0
 10
36.9963520958
 20
32.2988274601
 30
0.0
 10
37.0573491751
 20
32.2840299756
 30
0.0
 10
37.1146117647
 20
32.2855095465
 30
0.0
 10
37.1490643381
 20
32.298012337
 30
0.0
 10
37.1640512796
 20
32.3066696838
 30
0.0
  0
SPLINE
  5
30A
100
AcDbEntity
  8
0
100
AcDbSpline
 62
7
  6
BYLAYER
 70
0
 71
3
 72
19
 73
15
 74
0
 42
0.0000001
 43
0.0000001
 44
0.0000000001
 40
0.0
 40
0.0
 40
0.0
 40
0.0
 40
0.062391684
 40
0.1288324836
 40
0.2703533745
 40
0.4174431196
 40
0.5617172598
 40
0.6953244085
 40
0.7563177584
 40
0.812797985
 40
0.8647366222
 40
0.9125504304
 40
0.9571578829
 40
1.0
 40
1.0
 40
1.0
 40
1.0
 10
33.1376666754
 20
34.5225084574
 30
0.0
 10
33.1376666754
 20
34.4499539428
 30
0.0
 10
33.1475519911
 20
34.3000329228
 30
0.0
 10
33.2026076304
 20
33.9900202359
 30
0.0
 10
33.3357675575
 20
33.5964536513
 30
0.0
 10
33.5764153747
 20
33.1517463295
 30
0.0
 10
33.8820391415
 20
32.76045265
 30
0.0
 10
34.179398567
 20
32.4971037319
 30
0.0
 10
34.4290138497
 20
32.344305498
 30
0.0
 10
34.6098413836
 20
32.2643961399
 30
0.0
 10
34.7862718245
 20
32.2175382507
 30
0.0
 10
34.9548541516
 20
32.2050918105
 30
0.0
 10
35.1118376452
 20
32.2281423334
 30
0.0
 10
35.2069581984
 20
32.2676313142
 30
0.0
 10
35.2501007376
 20
32.2925473755
 30
0.0
  0
SPLINE
  5
30B
100
AcDbEntity
  8
0
100
AcDbSpline
 62
7
  6
BYLAYER
 70
0
 71
3
 72
11
 73
7
 74
0
 42
0.0000001
 43
0.0000001
 44
0.0000000001
 40
0.0
 40
0.0
 40
0.0
 40
0.0
 40
0.2477336367
 40
0.5103943303
 40
0.7675094138
 40
1.0
 40
1.0
 40
1.0
 40
1.0
 10
31.4974626003
 20
35.7724979249
 30
0.0
 10
31.5046839608
 20
35.7238565848
 30
0.0
 10
31.5326566008
 20
35.6254222171
 30
0.0
 10
31.60329271
 20
35.4894105258
 30
0.0
 10
31.696922219
 20
35.3719248985
 30
0.0
 10
31.7735386714
 20
35.3100703107
 30
0.0
 10
31.8135048962
 20
35.2869963221
 30
0.0
  0
SPLINE
  5
30C
100
AcDbEntity
  8
0
100
AcDbSpline
 62
7
  6
BYLAYER
 70
0
 71
3
 72
11
 73
7
 74
0
 42
0.0000001
 43
0.0000001
 44
0.0000000001
 40
0.0
 40
0.0
 40
0.0
 40
0.0
 40
0.2324788255
 40
0.4895786944
 40
0.7522383954
 40
1.0
 40
1.0
 40
1.0
 40
1.0
 10
30.7495023976
 20
39.1672942225
 30
0.0
 10
30.7894518344
 20
39.1442299262
 30
0.0
 10
30.8660382035
 20
39.0824067409
 30
0.0
 10
30.9596471575
 20
38.9649814395
 30
0.0
 10
31.030271623
 20
38.8290301189
 30
0.0
 10
31.0582926428
 20
38.7306406811
 30
0.0
 10
31.0655121501
 20
38.682011824
 30
0.0
  0
SPLINE
  5
30D
100
AcDbEntity
  8
0
100
AcDbSpline
 62
7
  6
BYLAYER
 70
0
 71
3
 72
11
 73
7
 74
0
 42
0.0000001
 43
0.0000001
 44
0.0000000001
 40
0.0
 40
0.0
 40
0.0
 40
0.0
 40
0.2896413964
 40
0.5491107671
 40
0.7822355978
 40
1.0
 40
1.0
 40
1.0
 40
1.0
 10
23.7405719596
 20
58.1558047867
 30
0.0
 10
23.7405719596
 20
58.10261471
 30
0.0
 10
23.7324870483
 20
58.0014345941
 30
0.0
 10
23.6915356049
 20
57.8624163668
 30
0.0
 10
23.622553051
 20
57.7495833058
 30
0.0
 10
23.5577197872
 20
57.6951548682
 30
0.0
 10
23.5230949793
 20
57.6751457942
 30
0.0
  0
SPLINE
  5
30E
100
AcDbEntity
  8
0
100
AcDbSpline
 62
7
  6
BYLAYER
 70
0
 71
3
 72
11
 73
7
 74
0
 42
0.0000001
 43
0.0000001
 44
0.0000000001
 40
0.0
 40
0.0
 40
0.0
 40
0.0
 40
0.2896413964
 40
0.5491107671
 40
0.7822355978
 40
1.0
 40
1.0
 40
1.0
 40
1.0
 10
29.7510046234
 20
54.6857583732
 30
0.0
 10
29.7510046234
 20
54.6325682966
 30
0.0
 10
29.742919712
 20
54.5313881807
 30
0.0
 10
29.7019682686
 20
54.3923699534
 30
0.0
 10
29.6329857147
 20
54.2795368924
 30
0.0
 10
29.5681524509
 20
54.2251084548
 30
0.0
 10
29.5335276431
 20
54.2050993808
 30
0.0
  0
SPLINE
  5
30F
100
AcDbEntity
  8
0
100
AcDbSpline
 62
7
  6
BYLAYER
 70
0
 71
3
 72
11
 73
7
 74
0
 42
0.0000001
 43
0.0000001
 44
0.0000000001
 40
0.0
 40
0.0
 40
0.0
 40
0.0
 40
0.2896413964
 40
0.5491107671
 40
0.7822355978
 40
1.0
 40
1.0
 40
1.0
 40
1.0
 10
43.5042887775
 20
50.4197365749
 30
0.0
 10
43.5042887775
 20
50.369079359
 30
0.0
 10
43.4965888619
 20
50.2727173439
 30
0.0
 10
43.4575874873
 20
50.1403190322
 30
0.0
 10
43.3918898169
 20
50.0328589741
 30
0.0
 10
43.3301438514
 20
49.9810223668
 30
0.0
 10
43.2971678438
 20
49.9619661059
 30
0.0
  0
SPLINE
  5
310
100
AcDbEntity
  8
0
100
AcDbSpline
 62
7
  6
BYLAYER
 70
0
 71
3
 72
11
 73
7
 74
0
 42
0.0000001
 43
0.0000001
 44
0.0000000001
 40
0.0
 40
0.0
 40
0.0
 40
0.0
 40
0.2895401978
 40
0.5491171512
 40
0.782255066
 40
1.0
 40
1.0
 40
1.0
 40
1.0
 10
47.2519703208
 20
18.8619735593
 30
0.0
 10
47.2519703208
 20
18.8366542477
 30
0.0
 10
47.2481042958
 20
18.7884759885
 30
0.0
 10
47.2286277612
 20
18.7222705674
 30
0.0
 10
47.1957745285
 20
18.6685299738
 30
0.0
 10
47.1648904176
 20
18.6426253007
 30
0.0
 10
47.1484003509
 20
18.6331048169
 30
0.0
  0
SPLINE
  5
311
100
AcDbEntity
  8
0
100
AcDbSpline
 62
7
  6
BYLAYER
 70
0
 71
3
 72
13
 73
9
 74
0
 42
0.0000001
 43
0.0000001
 44
0.0000000001
 40
0.0
 40
0.0
 40
0.0
 40
0.0
 40
0.1141759018
 40
0.2375697245
 40
0.4999990825
 40
0.762428944
 40
0.8858232992
 40
1.0
 40
1.0
 40
1.0
 40
1.0
 10
46.8984154582
 20
28.047620525
 30
0.0
 10
46.9226017522
 20
28.0336568775
 30
0.0
 10
46.9704008868
 20
28.0001169119
 30
0.0
 10
47.0599478035
 20
27.9163865138
 30
0.0
 10
47.1544476162
 20
27.7871934031
 30
0.0
 10
47.2190828804
 20
27.6407577857
 30
0.0
 10
47.2468229473
 20
27.5213424285
 30
0.0
 10
47.2519703208
 20
27.4631769034
 30
0.0
 10
47.2519703208
 20
27.4352489391
 30
0.0
  0
SPLINE
  5
312
100
AcDbEntity
  8
0
100
AcDbSpline
 62
7
  6
BYLAYER
 70
0
 71
3
 72
18
 73
14
 74
0
 42
0.0000001
 43
0.0000001
 44
0.0000000001
 40
0.0
 40
0.0
 40
0.0
 40
0.0
 40
0.0428466426
 40
0.0874623676
 40
0.1352823221
 40
0.1872320218
 40
0.2437228455
 40
0.304726044
 40
0.43835816
 40
0.5826623131
 40
0.7297821897
 40
0.8713439803
 40
1.0
 40
1.0
 40
1.0
 40
1.0
 10
25.9732825113
 20
61.5145779253
 30
0.0
 10
25.9991616198
 20
61.5295330118
 30
0.0
 10
26.0562272997
 20
61.5532384881
 30
0.0
 10
26.1504145185
 20
61.5670547313
 30
0.0
 10
26.2515601654
 20
61.5595923905
 30
0.0
 10
26.3574195448
 20
61.5314864581
 30
0.0
 10
26.4659087391
 20
61.4835293016
 30
0.0
 10
26.6156895852
 20
61.3918788632
 30
0.0
 10
26.7941038601
 20
61.2338556783
 30
0.0
 10
26.9774664608
 20
60.9991162347
 30
0.0
 10
27.1219188739
 20
60.732162344
 30
0.0
 10
27.2156237085
 20
60.4550814222
 30
0.0
 10
27.2407359538
 20
60.266362866
 30
0.0
 10
27.2407359538
 20
60.1766133483
 30
0.0
  0
SPLINE
  5
313
100
AcDbEntity
  8
0
100
AcDbSpline
 62
7
  6
BYLAYER
 70
0
 71
3
 72
18
 73
14
 74
0
 42
0.0000001
 43
0.0000001
 44
0.0000000001
 40
0.0
 40
0.0
 40
0.0
 40
0.0
 40
0.0428466426
 40
0.0874623676
 40
0.1352823221
 40
0.1872320218
 40
0.2437228455
 40
0.304726044
 40
0.43835816
 40
0.5826623131
 40
0.7297821897
 40
0.8713439803
 40
1.0
 40
1.0
 40
1.0
 40
1.0
 10
22.4731185171
 20
59.4937693636
 30
0.0
 10
22.4989976255
 20
59.5087244501
 30
0.0
 10
22.5560633055
 20
59.5324299265
 30
0.0
 10
22.6502505243
 20
59.5462461696
 30
0.0
 10
22.7513961712
 20
59.5387838289
 30
0.0
 10
22.8572555506
 20
59.5106778965
 30
0.0
 10
22.9657447449
 20
59.4627207399
 30
0.0
 10
23.115525591
 20
59.3710703016
 30
0.0
 10
23.2939398659
 20
59.2130471166
 30
0.0
 10
23.4773024666
 20
58.978307673
 30
0.0
 10
23.6217548797
 20
58.7113537823
 30
0.0
 10
23.7154597143
 20
58.4342728605
 30
0.0
 10
23.7405719596
 20
58.2455543043
 30
0.0
 10
23.7405719596
 20
58.1558047867
 30
0.0
  0
SPLINE
  5
314
100
AcDbEntity
  8
0
100
AcDbSpline
 62
7
  6
BYLAYER
 70
0
 71
3
 72
9
 73
5
 74
0
 42
0.0000001
 43
0.0000001
 44
0.0000000001
 40
0.0
 40
0.0
 40
0.0
 40
0.0
 40
0.4942336689
 40
1.0
 40
1.0
 40
1.0
 40
1.0
 10
31.9837268625
 20
58.044511252
 30
0.0
 10
32.0029498723
 20
58.0556144546
 30
0.0
 10
32.0440804848
 20
58.0744137247
 30
0.0
 10
32.0879739745
 20
58.0851689376
 30
0.0
 10
32.1104184481
 20
58.0886786114
 30
0.0
  0
SPLINE
  5
315
100
AcDbEntity
  8
0
100
AcDbSpline
 62
7
  6
BYLAYER
 70
0
 71
3
 72
14
 73
10
 74
0
 42
0.0000001
 43
0.0000001
 44
0.0000000001
 40
0.0
 40
0.0
 40
0.0
 40
0.0
 40
0.2892494338
 40
0.4225733849
 40
0.5485206453
 40
0.6678948276
 40
0.7818666694
 40
0.8919552416
 40
1.0
 40
1.0
 40
1.0
 40
1.0
 10
11.8712193554
 20
67.0088451942
 30
0.0
 10
11.7395469945
 20
67.0848645475
 30
0.0
 10
11.5551316449
 20
67.2118657086
 30
0.0
 10
11.3464534875
 20
67.4115375607
 30
0.0
 10
11.2194611958
 20
67.5654790537
 30
0.0
 10
11.1190962521
 20
67.7261687669
 30
0.0
 10
11.0464630179
 20
67.8922084453
 30
0.0
 10
11.0023862063
 20
68.0618902236
 30
0.0
 10
10.9925529201
 20
68.1767849292
 30
0.0
 10
10.9925529194
 20
68.2335776558
 30
0.0
  0
SPLINE
  5
316
100
AcDbEntity
  8
0
100
AcDbSpline
 62
7
  6
BYLAYER
 70
0
 71
3
 72
15
 73
11
 74
0
 42
0.0000001
 43
0.0000001
 44
0.0000000001
 40
0.0
 40
0.0
 40
0.0
 40
0.0
 40
0.1141464977
 40
0.2373352781
 40
0.3669759338
 40
0.4999994786
 40
0.633023096
 40
0.7626639634
 40
0.8858530776
 40
1.0
 40
1.0
 40
1.0
 40
1.0
 10
16.4674149051
 20
66.804735015
 30
0.0
 10
16.3222044801
 20
66.7208982375
 30
0.0
 10
16.0046339877
 20
66.5730386201
 30
0.0
 10
15.4875281119
 20
66.4158360809
 30
0.0
 10
14.9276522711
 20
66.3191301688
 30
0.0
 10
14.346098139
 20
66.2864619135
 30
0.0
 10
13.7645435419
 20
66.3191274086
 30
0.0
 10
13.2046663277
 20
66.4158306624
 30
0.0
 10
12.6875582256
 20
66.5730307434
 30
0.0
 10
12.3699857877
 20
66.7208887747
 30
0.0
 10
12.224774218
 20
66.8047248169
 30
0.0
  0
SPLINE
  5
317
100
AcDbEntity
  8
0
100
AcDbSpline
 62
7
  6
BYLAYER
 70
0
 71
3
 72
18
 73
14
 74
0
 42
0.0000001
 43
0.0000001
 44
0.0000000001
 40
0.0
 40
0.0
 40
0.0
 40
0.0
 40
0.0428466426
 40
0.0874623676
 40
0.1352823221
 40
0.1872320218
 40
0.2437228455
 40
0.304726044
 40
0.43835816
 40
0.5826623131
 40
0.7297821897
 40
0.8713439803
 40
1.0
 40
1.0
 40
1.0
 40
1.0
 10
28.4835511809
 20
56.0237229502
 30
0.0
 10
28.5094302893
 20
56.0386780367
 30
0.0
 10
28.5664959692
 20
56.062383513
 30
0.0
 10
28.660683188
 20
56.0761997562
 30
0.0
 10
28.761828835
 20
56.0687374155
 30
0.0
 10
28.8676882143
 20
56.040631483
 30
0.0
 10
28.9761774086
 20
55.9926743265
 30
0.0
 10
29.1259582547
 20
55.9010238882
 30
0.0
 10
29.3043725297
 20
55.7430007032
 30
0.0
 10
29.4877351303
 20
55.5082612596
 30
0.0
 10
29.6321875434
 20
55.2413073689
 30
0.0
 10
29.7258923781
 20
54.9642264471
 30
0.0
 10
29.7510046234
 20
54.7755078909
 30
0.0
 10
29.7510046234
 20
54.6857583732
 30
0.0
  0
SPLINE
  5
318
100
AcDbEntity
  8
0
100
AcDbSpline
 62
7
  6
BYLAYER
 70
0
 71
3
 72
14
 73
10
 74
0
 42
0.0000001
 43
0.0000001
 44
0.0000000001
 40
0.0
 40
0.0
 40
0.0
 40
0.0
 40
0.1080309441
 40
0.2181205812
 40
0.3320941919
 40
0.451470333
 40
0.5774220744
 40
0.7107590442
 40
1.0
 40
1.0
 40
1.0
 40
1.0
 10
17.3460820215
 20
68.0294572438
 30
0.0
 10
17.346082103
 20
67.9726725895
 30
0.0
 10
17.3362261539
 20
67.8577870395
 30
0.0
 10
17.2921385273
 20
67.6881200413
 30
0.0
 10
17.219538651
 20
67.5220656553
 30
0.0
 10
17.1191658749
 20
67.3613775923
 30
0.0
 10
16.9921767509
 20
67.2074243046
 30
0.0
 10
16.7834858196
 20
67.0077642936
 30
0.0
 10
16.5990809781
 20
66.8807520039
 30
0.0
 10
16.4674149051
 20
66.804735015
 30
0.0
  0
SPLINE
  5
319
100
AcDbEntity
  8
0
100
AcDbSpline
 62
7
  6
BYLAYER
 70
0
 71
3
 72
11
 73
7
 74
0
 42
0.0000001
 43
0.0000001
 44
0.0000000001
 40
0.0
 40
0.0
 40
0.0
 40
0.0
 40
0.2176698358
 40
0.4508343587
 40
0.7105035008
 40
1.0
 40
1.0
 40
1.0
 40
1.0
 10
12.7252564094
 20
71.1387994536
 30
0.0
 10
12.7351464045
 20
71.1445101342
 30
0.0
 10
12.7578755951
 20
71.1527653947
 30
0.0
 10
12.7956540817
 20
71.1537327828
 30
0.0
 10
12.8359010265
 20
71.1439819366
 30
0.0
 10
12.8620981535
 20
71.1315426725
 30
0.0
 10
12.8752521192
 20
71.1239483987
 30
0.0
  0
SPLINE
  5
31A
100
AcDbEntity
  8
0
100
AcDbSpline
 62
7
  6
BYLAYER
 70
0
 71
3
 72
11
 73
7
 74
0
 42
0.0000001
 43
0.0000001
 44
0.0000000001
 40
0.0
 40
0.0
 40
0.0
 40
0.0
 40
0.2896413964
 40
0.5491107671
 40
0.7822355978
 40
1.0
 40
1.0
 40
1.0
 40
1.0
 10
27.2407359538
 20
60.1766133483
 30
0.0
 10
27.2407359538
 20
60.1234232716
 30
0.0
 10
27.2326510425
 20
60.0222431558
 30
0.0
 10
27.1916995991
 20
59.8832249285
 30
0.0
 10
27.1227170452
 20
59.7703918675
 30
0.0
 10
27.0578837814
 20
59.7159634299
 30
0.0
 10
27.0232589735
 20
59.6959543559
 30
0.0
  0
SPLINE
  5
31B
100
AcDbEntity
  8
0
100
AcDbSpline
 62
7
  6
BYLAYER
 70
0
 71
3
 72
11
 73
7
 74
0
 42
0.0000001
 43
0.0000001
 44
0.0000000001
 40
0.0
 40
0.0
 40
0.0
 40
0.0
 40
0.2442277087
 40
0.5004864869
 40
0.7565444772
 40
1.0
 40
1.0
 40
1.0
 40
1.0
 10
29.1721233969
 20
55.8327467771
 30
0.0
 10
29.1891236209
 20
55.7442033876
 30
0.0
 10
29.2418992895
 20
55.5659554612
 30
0.0
 10
29.3637301754
 20
55.3134539028
 30
0.0
 10
29.5226620316
 20
55.0828400353
 30
0.0
 10
29.6512495895
 20
54.9490799715
 30
0.0
 10
29.7196121491
 20
54.8907346387
 30
0.0
  0
SPLINE
  5
31C
100
AcDbEntity
  8
0
100
AcDbSpline
 62
7
  6
BYLAYER
 70
0
 71
3
 72
11
 73
7
 74
0
 42
0.0000001
 43
0.0000001
 44
0.0000000001
 40
0.0
 40
0.0
 40
0.0
 40
0.0
 40
0.2441725816
 40
0.500525714
 40
0.756631698
 40
1.0
 40
1.0
 40
1.0
 40
1.0
 10
23.1613316062
 20
59.3046118115
 30
0.0
 10
23.1782861995
 20
59.2156782461
 30
0.0
 10
23.2311697265
 20
59.0365862454
 30
0.0
 10
23.3535293223
 20
58.7829297307
 30
0.0
 10
23.5133418052
 20
58.5513905552
 30
0.0
 10
23.6427122318
 20
58.4172618818
 30
0.0
 10
23.711466189
 20
58.3588185605
 30
0.0
  0
SPLINE
  5
31D
100
AcDbEntity
  8
0
100
AcDbSpline
 62
7
  6
BYLAYER
 70
0
 71
3
 72
11
 73
7
 74
0
 42
0.0000001
 43
0.0000001
 44
0.0000000001
 40
0.0
 40
0.0
 40
0.0
 40
0.0
 40
0.2896413964
 40
0.5491107671
 40
0.7822355978
 40
1.0
 40
1.0
 40
1.0
 40
1.0
 10
47.5347806496
 20
52.746728252
 30
0.0
 10
47.5347806496
 20
52.6960710361
 30
0.0
 10
47.527080734
 20
52.599709021
 30
0.0
 10
47.4880793594
 20
52.4673107093
 30
0.0
 10
47.422381689
 20
52.3598506512
 30
0.0
 10
47.3606357235
 20
52.3080140439
 30
0.0
 10
47.327659716
 20
52.288957783
 30
0.0
  0
SPLINE
  5
31E
100
AcDbEntity
  8
0
100
AcDbSpline
 62
7
  6
BYLAYER
 70
0
 71
3
 72
11
 73
7
 74
0
 42
0.0000001
 43
0.0000001
 44
0.0000000001
 40
0.0
 40
0.0
 40
0.0
 40
0.0
 40
0.2287705942
 40
0.474770169
 40
0.7336539224
 40
1.0
 40
1.0
 40
1.0
 40
1.0
 10
45.0598966116
 20
54.1755708928
 30
0.0
 10
45.0598966116
 20
54.0461405809
 30
0.0
 10
45.0819052504
 20
53.7773095235
 30
0.0
 10
45.170116206
 20
53.3707142775
 30
0.0
 10
45.3123159818
 20
52.9572464368
 30
0.0
 10
45.4389404859
 20
52.6876993341
 30
0.0
 10
45.510049747
 20
52.5548433765
 30
0.0
  0
SPLINE
  5
31F
100
AcDbEntity
  8
0
100
AcDbSpline
 62
7
  6
BYLAYER
 70
0
 71
3
 72
13
 73
9
 74
0
 42
0.0000001
 43
0.0000001
 44
0.0000000001
 40
0.0
 40
0.0
 40
0.0
 40
0.0
 40
0.3070389654
 40
0.5822430058
 40
0.7026423802
 40
0.8106901399
 40
0.9083780174
 40
1.0
 40
1.0
 40
1.0
 40
1.0
 10
45.510049747
 20
52.5548433765
 30
0.0
 10
45.5390814341
 20
52.5006024446
 30
0.0
 10
45.5835207397
 20
52.3916703332
 30
0.0
 10
45.6049941777
 20
52.2504174781
 30
0.0
 10
45.5946111389
 20
52.149483233
 30
0.0
 10
45.5745525243
 20
52.0866805019
 30
0.0
 10
45.5422436037
 20
52.0356987969
 30
0.0
 10
45.5124071098
 20
52.011011828
 30
0.0
 10
45.4965113948
 20
52.0018272521
 30
0.0
  0
SPLINE
  5
320
100
AcDbEntity
  8
0
100
AcDbSpline
 62
7
  6
BYLAYER
 70
0
 71
3
 72
11
 73
7
 74
0
 42
0.0000001
 43
0.0000001
 44
0.0000000001
 40
0.0
 40
0.0
 40
0.0
 40
0.0
 40
0.2895391946
 40
0.5491157945
 40
0.7822541179
 40
1.0
 40
1.0
 40
1.0
 40
1.0
 10
40.3193858425
 20
32.9073922574
 30
0.0
 10
40.2974592136
 20
32.9200513161
 30
0.0
 10
40.2538036845
 20
32.9407913456
 30
0.0
 10
40.1867315917
 20
32.9570258793
 30
0.0
 10
40.1237658861
 20
32.9554441518
 30
0.0
 10
40.0858906426
 20
32.9416504481
 30
0.0
 10
40.0694009501
 20
32.9321301687
 30
0.0
  0
SPLINE
  5
321
100
AcDbEntity
  8
0
100
AcDbSpline
 62
7
  6
BYLAYER
 70
0
 71
3
 72
17
 73
13
 74
0
 42
0.0000001
 43
0.0000001
 44
0.0000000001
 40
0.0
 40
0.0
 40
0.0
 40
0.0
 40
0.042857965
 40
0.0874854797
 40
0.1353180708
 40
0.1872814984
 40
0.3045423159
 40
0.4382097446
 40
0.5825520305
 40
0.7297107839
 40
0.8713099826
 40
1.0
 40
1.0
 40
1.0
 40
1.0
 10
47.327659716
 20
52.288957783
 30
0.0
 10
47.303012946
 20
52.2747148435
 30
0.0
 10
47.2486643986
 20
52.2521377783
 30
0.0
 10
47.1589636245
 20
52.238981459
 30
0.0
 10
47.0626289838
 20
52.2460802742
 30
0.0
 10
46.922653964
 20
52.2833003588
 30
0.0
 10
46.7437172504
 20
52.3811433543
 30
0.0
 10
46.5460216568
 20
52.5562214288
 30
0.0
 10
46.3712667129
 20
52.7798994066
 30
0.0
 10
46.2337274558
 20
53.0341087666
 30
0.0
 10
46.1444758145
 20
53.2980037741
 30
0.0
 10
46.1205611993
 20
53.4777340299
 30
0.0
 10
46.1205611993
 20
53.563209761
 30
0.0
  0
SPLINE
  5
322
100
AcDbEntity
  8
0
100
AcDbSpline
 62
7
  6
BYLAYER
 70
0
 71
3
 72
11
 73
7
 74
0
 42
0.0000001
 43
0.0000001
 44
0.0000000001
 40
0.0
 40
0.0
 40
0.0
 40
0.0
 40
0.217745073
 40
0.4508830113
 40
0.7104597664
 40
1.0
 40
1.0
 40
1.0
 40
1.0
 10
50.4718160588
 20
15.4896196448
 30
0.0
 10
50.4883061311
 20
15.4991401435
 30
0.0
 10
50.5191902634
 20
15.5250448144
 30
0.0
 10
50.5520434687
 20
15.5787854233
 30
0.0
 10
50.5715200342
 20
15.6449908214
 30
0.0
 10
50.5753860289
 20
15.6931690722
 30
0.0
 10
50.5753860289
 20
15.7184883873
 30
0.0
  0
SPLINE
  5
323
100
AcDbEntity
  8
0
100
AcDbSpline
 62
7
  6
BYLAYER
 70
0
 71
3
 72
11
 73
7
 74
0
 42
0.0000001
 43
0.0000001
 44
0.0000000001
 40
0.0
 40
0.0
 40
0.0
 40
0.0
 40
0.2177460211
 40
0.4508843679
 40
0.7104607696
 40
1.0
 40
1.0
 40
1.0
 40
1.0
 10
49.8557085412
 20
27.5093472373
 30
0.0
 10
49.8408678036
 20
27.5007789881
 30
0.0
 10
49.8067800767
 20
27.4883646372
 30
0.0
 10
49.750110942
 20
27.4869411107
 30
0.0
 10
49.6897460625
 20
27.5015521566
 30
0.0
 10
49.6504561065
 20
27.5202182028
 30
0.0
 10
49.6307221377
 20
27.5316113573
 30
0.0
  0
SPLINE
  5
324
100
AcDbEntity
  8
0
100
AcDbSpline
 62
7
  6
BYLAYER
 70
0
 71
3
 72
11
 73
7
 74
0
 42
0.0000001
 43
0.0000001
 44
0.0000000001
 40
0.0
 40
0.0
 40
0.0
 40
0.0
 40
0.2043552083
 40
0.4327429847
 40
0.6982229103
 40
1.0
 40
1.0
 40
1.0
 40
1.0
 10
41.9214499804
 20
25.3011585929
 30
0.0
 10
41.9391362085
 20
25.3113966246
 30
0.0
 10
41.9716462454
 20
25.3424135665
 30
0.0
 10
41.9992028436
 20
25.4080740767
 30
0.0
 10
42.0073926858
 20
25.4880325042
 30
0.0
 10
42.0007163182
 20
25.5447866546
 30
0.0
 10
41.9946662113
 20
25.5743520216
 30
0.0
  0
SPLINE
  5
325
100
AcDbEntity
  8
0
100
AcDbSpline
 62
7
  6
BYLAYER
 70
0
 71
3
 72
11
 73
7
 74
0
 42
0.0000001
 43
0.0000001
 44
0.0000000001
 40
0.0
 40
0.0
 40
0.0
 40
0.0
 40
0.217708523
 40
0.4508608828
 40
0.7105142184
 40
1.0
 40
1.0
 40
1.0
 40
1.0
 10
41.4660195227
 20
49.674835575
 30
0.0
 10
41.4495359714
 20
49.6653113461
 30
0.0
 10
41.411657193
 20
49.6515315848
 30
0.0
 10
41.3486889419
 20
49.6499348351
 30
0.0
 10
41.2816166542
 20
49.6661882399
 30
0.0
 10
41.237956136
 20
49.6869186919
 30
0.0
 10
41.2160336393
 20
49.6995753649
 30
0.0
  0
SPLINE
  5
326
100
AcDbEntity
  8
0
100
AcDbSpline
 62
7
  6
BYLAYER
 70
0
 71
3
 72
11
 73
7
 74
0
 42
0.0000001
 43
0.0000001
 44
0.0000000001
 40
0.0
 40
0.0
 40
0.0
 40
0.0
 40
0.217708523
 40
0.4508608828
 40
0.7105142184
 40
1.0
 40
1.0
 40
1.0
 40
1.0
 10
45.4965113948
 20
52.0018272521
 30
0.0
 10
45.4800278436
 20
51.9923030232
 30
0.0
 10
45.4421490651
 20
51.9785232619
 30
0.0
 10
45.3791808141
 20
51.9769265122
 30
0.0
 10
45.3121085263
 20
51.993179917
 30
0.0
 10
45.2684480082
 20
52.0139103689
 30
0.0
 10
45.2465255115
 20
52.026567042
 30
0.0
  0
SPLINE
  5
327
100
AcDbEntity
  8
0
100
AcDbSpline
 62
7
  6
BYLAYER
 70
0
 71
3
 72
11
 73
7
 74
0
 42
0.0000001
 43
0.0000001
 44
0.0000000001
 40
0.0
 40
0.0
 40
0.0
 40
0.0
 40
0.2851053285
 40
0.5431396961
 40
0.7781127628
 40
1.0
 40
1.0
 40
1.0
 40
1.0
 10
8.4725682245
 20
51.6506206149
 30
0.0
 10
8.4740445568
 20
51.6726931036
 30
0.0
 10
8.4801945583
 20
51.7146508875
 30
0.0
 10
8.5007896571
 20
51.771929261
 30
0.0
 10
8.5321957894
 20
51.8184529891
 30
0.0
 10
8.5602483504
 20
51.8411793702
 30
0.0
 10
8.5751613223
 20
51.8497825577
 30
0.0
  0
SPLINE
  5
328
100
AcDbEntity
  8
0
100
AcDbSpline
 62
7
  6
BYLAYER
 70
0
 71
3
 72
9
 73
5
 74
0
 42
0.0000001
 43
0.0000001
 44
0.0000000001
 40
0.0
 40
0.0
 40
0.0
 40
0.0
 40
0.4858022272
 40
1.0
 40
1.0
 40
1.0
 40
1.0
 10
7.8953241233
 20
48.2055609895
 30
0.0
 10
8.0503167766
 20
48.7503718721
 30
0.0
 10
8.3017434645
 20
49.8917536894
 30
0.0
 10
8.4325572071
 20
51.0524201342
 30
0.0
 10
8.4725682245
 20
51.6506206149
 30
0.0
  0
SPLINE
  5
329
100
AcDbEntity
  8
0
100
AcDbSpline
 62
7
  6
BYLAYER
 70
0
 71
3
 72
9
 73
5
 74
0
 42
0.0000001
 43
0.0000001
 44
0.0000000001
 40
0.0
 40
0.0
 40
0.0
 40
0.0
 40
0.2645808227
 40
1.0
 40
1.0
 40
1.0
 40
1.0
 10
7.8820386
 20
48.1023687033
 30
0.0
 10
7.8820386
 20
48.1115604941
 30
0.0
 10
7.8830528821
 20
48.1462789116
 30
0.0
 10
7.8883330721
 20
48.1809869166
 30
0.0
 10
7.8953241233
 20
48.2055609895
 30
0.0
  0
SPLINE
  5
32A
100
AcDbEntity
  8
0
100
AcDbSpline
 62
7
  6
BYLAYER
 70
0
 71
3
 72
11
 73
7
 74
0
 42
0.0000001
 43
0.0000001
 44
0.0000000001
 40
0.0
 40
0.0
 40
0.0
 40
0.0
 40
0.2622806017
 40
0.5233497001
 40
0.772293002
 40
1.0
 40
1.0
 40
1.0
 40
1.0
 10
8.0454157029
 20
47.6638861626
 30
0.0
 10
8.0202609437
 20
47.6969426468
 30
0.0
 10
7.9749752493
 20
47.7667671533
 30
0.0
 10
7.9233705314
 20
47.8781255277
 30
0.0
 10
7.8906139378
 20
47.9907389884
 30
0.0
 10
7.8820386
 20
48.0663052913
 30
0.0
 10
7.8820386
 20
48.1023687033
 30
0.0
  0
SPLINE
  5
32B
100
AcDbEntity
  8
0
100
AcDbSpline
 62
7
  6
BYLAYER
 70
0
 71
3
 72
13
 73
9
 74
0
 42
0.0000001
 43
0.0000001
 44
0.0000000001
 40
0.0
 40
0.0
 40
0.0
 40
0.0
 40
0.0942618837
 40
0.195019807
 40
0.3048377442
 40
0.4250850954
 40
0.6962758856
 40
1.0
 40
1.0
 40
1.0
 40
1.0
 10
17.8800659222
 20
35.0849590498
 30
0.0
 10
17.8655707684
 20
35.0789065851
 30
0.0
 10
17.8336696017
 20
35.0706528994
 30
0.0
 10
17.7824407369
 20
35.0705072852
 30
0.0
 10
17.7281968605
 20
35.0821979299
 30
0.0
 10
17.6505872113
 20
35.1139994676
 30
0.0
 10
17.5548263187
 20
35.181643163
 30
0.0
 10
17.4897607267
 20
35.2528413877
 30
0.0
 10
17.4591108952
 20
35.293119081
 30
0.0
  0
SPLINE
  5
32C
100
AcDbEntity
  8
0
100
AcDbSpline
 62
7
  6
BYLAYER
 70
0
 71
3
 72
11
 73
7
 74
0
 42
0.0000001
 43
0.0000001
 44
0.0000000001
 40
0.0
 40
0.0
 40
0.0
 40
0.0
 40
0.2896413964
 40
0.5491107671
 40
0.7822355978
 40
1.0
 40
1.0
 40
1.0
 40
1.0
 10
22.2556415368
 20
59.0131103712
 30
0.0
 10
22.2556415368
 20
59.0663004479
 30
0.0
 10
22.2637264481
 20
59.1674805637
 30
0.0
 10
22.3046778915
 20
59.306498791
 30
0.0
 10
22.3736604454
 20
59.419331852
 30
0.0
 10
22.4384937092
 20
59.4737602896
 30
0.0
 10
22.4731185171
 20
59.4937693636
 30
0.0
  0
SPLINE
  5
32D
100
AcDbEntity
  8
0
100
AcDbSpline
 62
7
  6
BYLAYER
 70
0
 71
3
 72
11
 73
7
 74
0
 42
0.0000001
 43
0.0000001
 44
0.0000000001
 40
0.0
 40
0.0
 40
0.0
 40
0.0
 40
0.2896413964
 40
0.5491107671
 40
0.7822355978
 40
1.0
 40
1.0
 40
1.0
 40
1.0
 10
28.2660742006
 20
55.5430639577
 30
0.0
 10
28.2660742006
 20
55.5962540344
 30
0.0
 10
28.2741591119
 20
55.6974341503
 30
0.0
 10
28.3151105553
 20
55.8364523776
 30
0.0
 10
28.3840931092
 20
55.9492854386
 30
0.0
 10
28.448926373
 20
56.0037138762
 30
0.0
 10
28.4835511809
 20
56.0237229502
 30
0.0
  0
SPLINE
  5
32E
100
AcDbEntity
  8
0
100
AcDbSpline
 62
7
  6
BYLAYER
 70
0
 71
3
 72
11
 73
7
 74
0
 42
0.0000001
 43
0.0000001
 44
0.0000000001
 40
0.0
 40
0.0
 40
0.0
 40
0.0
 40
0.2052031294
 40
0.4337793472
 40
0.6987259136
 40
1.0
 40
1.0
 40
1.0
 40
1.0
 10
49.4134689738
 20
44.1276959763
 30
0.0
 10
49.4265355144
 20
44.1352219905
 30
0.0
 10
49.4505300902
 20
44.1579863994
 30
0.0
 10
49.4712243458
 20
44.2060511496
 30
0.0
 10
49.4778979915
 20
44.2646738551
 30
0.0
 10
49.4734563225
 20
44.3063515779
 30
0.0
 10
49.4692725271
 20
44.3280912194
 30
0.0
  0
SPLINE
  5
32F
100
AcDbEntity
  8
0
100
AcDbSpline
 62
7
  6
BYLAYER
 70
0
 71
3
 72
11
 73
7
 74
0
 42
0.0000001
 43
0.0000001
 44
0.0000000001
 40
0.0
 40
0.0
 40
0.0
 40
0.0
 40
0.2896413964
 40
0.5491107671
 40
0.7822355978
 40
1.0
 40
1.0
 40
1.0
 40
1.0
 10
42.0900693272
 20
51.2362180839
 30
0.0
 10
42.0900693272
 20
51.2868752998
 30
0.0
 10
42.0977692427
 20
51.383237315
 30
0.0
 10
42.1367706174
 20
51.5156356267
 30
0.0
 10
42.2024682878
 20
51.6230956847
 30
0.0
 10
42.2642142533
 20
51.674932292
 30
0.0
 10
42.2971902608
 20
51.693988553
 30
0.0
  0
SPLINE
  5
330
100
AcDbEntity
  8
0
100
AcDbSpline
 62
7
  6
BYLAYER
 70
0
 71
3
 72
13
 73
9
 74
0
 42
0.0000001
 43
0.0000001
 44
0.0000000001
 40
0.0
 40
0.0
 40
0.0
 40
0.0
 40
0.1141759018
 40
0.2375697245
 40
0.4999990825
 40
0.762428944
 40
0.8858232992
 40
1.0
 40
1.0
 40
1.0
 40
1.0
 10
43.9571973134
 20
20.3559174001
 30
0.0
 10
43.9330110193
 20
20.3698810475
 30
0.0
 10
43.8852118847
 20
20.4034210131
 30
0.0
 10
43.795664968
 20
20.4871514112
 30
0.0
 10
43.7011651553
 20
20.6163445219
 30
0.0
 10
43.6365298911
 20
20.7627801393
 30
0.0
 10
43.6087898243
 20
20.8821954965
 30
0.0
 10
43.6036424508
 20
20.9403610217
 30
0.0
 10
43.6036424508
 20
20.9682889859
 30
0.0
  0
SPLINE
  5
331
100
AcDbEntity
  8
0
100
AcDbSpline
 62
7
  6
BYLAYER
 70
0
 71
3
 72
11
 73
7
 74
0
 42
0.0000001
 43
0.0000001
 44
0.0000000001
 40
0.0
 40
0.0
 40
0.0
 40
0.0
 40
0.2061370916
 40
0.4350254715
 40
0.6996219372
 40
1.0
 40
1.0
 40
1.0
 40
1.0
 10
50.3753755869
 20
26.1598284952
 30
0.0
 10
50.3966638202
 20
26.1721498499
 30
0.0
 10
50.4359220935
 20
26.2088881302
 30
0.0
 10
50.4704892957
 20
26.2866225144
 30
0.0
 10
50.4825595277
 20
26.3815391389
 30
0.0
 10
50.4763665386
 20
26.4491605727
 30
0.0
 10
50.4701171009
 20
26.4844534716
 30
0.0
  0
SPLINE
  5
332
100
AcDbEntity
  8
0
100
AcDbSpline
 62
7
  6
BYLAYER
 70
0
 71
3
 72
11
 73
7
 74
0
 42
0.0000001
 43
0.0000001
 44
0.0000000001
 40
0.0
 40
0.0
 40
0.0
 40
0.0
 40
0.2895401978
 40
0.5491171512
 40
0.782255066
 40
1.0
 40
1.0
 40
1.0
 40
1.0
 10
42.6255137805
 20
30.1062744414
 30
0.0
 10
42.6255137805
 20
30.131593753
 30
0.0
 10
42.6293798054
 20
30.1797720122
 30
0.0
 10
42.64885634
 20
30.2459774333
 30
0.0
 10
42.6817095727
 20
30.2997180269
 30
0.0
 10
42.7125936837
 20
30.3256227
 30
0.0
 10
42.7290837503
 20
30.3351431837
 30
0.0
  0
SPLINE
  5
333
100
AcDbEntity
  8
0
100
AcDbSpline
 62
7
  6
BYLAYER
 70
0
 71
3
 72
9
 73
5
 74
0
 42
0.0000001
 43
0.0000001
 44
0.0000000001
 40
0.0
 40
0.0
 40
0.0
 40
0.0
 40
0.2584142999
 40
1.0
 40
1.0
 40
1.0
 40
1.0
 10
42.6327469426
 20
30.0199412944
 30
0.0
 10
42.6315575537
 20
30.0273129425
 30
0.0
 10
42.6274734125
 20
30.0559181539
 30
0.0
 10
42.6255137805
 20
30.0848460292
 30
0.0
 10
42.6255137805
 20
30.1062744414
 30
0.0
  0
SPLINE
  5
334
100
AcDbEntity
  8
0
100
AcDbSpline
 62
7
  6
BYLAYER
 70
0
 71
3
 72
9
 73
5
 74
0
 42
0.0000001
 43
0.0000001
 44
0.0000000001
 40
0.0
 40
0.0
 40
0.0
 40
0.0
 40
0.2415318849
 40
1.0
 40
1.0
 40
1.0
 40
1.0
 10
43.6036424508
 20
23.9609784077
 30
0.0
 10
43.6036424508
 20
23.967957755
 30
0.0
 10
43.6030003939
 20
23.9968525491
 30
0.0
 10
43.5999003411
 20
24.0256745533
 30
0.0
 10
43.5964092887
 20
24.0473115547
 30
0.0
  0
SPLINE
  5
335
100
AcDbEntity
  8
0
100
AcDbSpline
 62
7
  6
BYLAYER
 70
0
 71
3
 72
12
 73
8
 74
0
 42
0.0000001
 43
0.0000001
 44
0.0000000001
 40
0.0
 40
0.0
 40
0.0
 40
0.0
 40
0.1081693544
 40
0.2183735177
 40
0.4513309383
 40
0.7105262175
 40
1.0
 40
1.0
 40
1.0
 40
1.0
 10
35.2501007376
 20
32.2925473755
 30
0.0
 10
35.2787919504
 20
32.3091173788
 30
0.0
 10
35.3339360432
 20
32.3476502124
 30
0.0
 10
35.4329103258
 20
32.4449477909
 30
0.0
 10
35.5309451594
 20
32.604750822
 30
0.0
 10
35.5990651043
 20
32.8363484217
 30
0.0
 10
35.6125507134
 20
33.0049998691
 30
0.0
 10
35.6125507134
 20
33.0936658166
 30
0.0
  0
SPLINE
  5
336
100
AcDbEntity
  8
0
100
AcDbSpline
 62
7
  6
BYLAYER
 70
0
 71
3
 72
18
 73
14
 74
0
 42
0.0000001
 43
0.0000001
 44
0.0000000001
 40
0.0
 40
0.0
 40
0.0
 40
0.0
 40
0.0428466426
 40
0.0874623676
 40
0.1352823221
 40
0.1872320218
 40
0.2437228455
 40
0.304726044
 40
0.43835816
 40
0.5826623131
 40
0.7297821897
 40
0.8713439803
 40
1.0
 40
1.0
 40
1.0
 40
1.0
 10
27.0232589735
 20
59.6959543559
 30
0.0
 10
26.9973798651
 20
59.6809992694
 30
0.0
 10
26.9403141851
 20
59.657293793
 30
0.0
 10
26.8461269664
 20
59.6434775499
 30
0.0
 10
26.7449813194
 20
59.6509398906
 30
0.0
 10
26.63912194
 20
59.679045823
 30
0.0
 10
26.5306327458
 20
59.7270029796
 30
0.0
 10
26.3808518997
 20
59.8186534179
 30
0.0
 10
26.2024376247
 20
59.9766766029
 30
0.0
 10
26.0190750241
 20
60.2114160465
 30
0.0
 10
25.874622611
 20
60.4783699371
 30
0.0
 10
25.7809177763
 20
60.755450859
 30
0.0
 10
25.755805531
 20
60.9441694152
 30
0.0
 10
25.755805531
 20
61.0339189328
 30
0.0
  0
SPLINE
  5
337
100
AcDbEntity
  8
0
100
AcDbSpline
 62
7
  6
BYLAYER
 70
0
 71
3
 72
11
 73
7
 74
0
 42
0.0000001
 43
0.0000001
 44
0.0000000001
 40
0.0
 40
0.0
 40
0.0
 40
0.0
 40
0.2894964992
 40
0.5491656413
 40
0.7823301642
 40
1.0
 40
1.0
 40
1.0
 40
1.0
 10
8.4912083284
 20
68.5928346447
 30
0.0
 10
8.4780543628
 20
68.6004289185
 30
0.0
 10
8.4518572358
 20
68.6128681826
 30
0.0
 10
8.411610291
 20
68.6226190287
 30
0.0
 10
8.3738318044
 20
68.6216516406
 30
0.0
 10
8.3511026138
 20
68.6133963802
 30
0.0
 10
8.3412126187
 20
68.6076856996
 30
0.0
  0
SPLINE
  5
338
100
AcDbEntity
  8
0
100
AcDbSpline
 62
7
  6
BYLAYER
 70
0
 71
3
 72
18
 73
14
 74
0
 42
0.0000001
 43
0.0000001
 44
0.0000000001
 40
0.0
 40
0.0
 40
0.0
 40
0.0
 40
0.0428466426
 40
0.0874623676
 40
0.1352823221
 40
0.1872320218
 40
0.2437228455
 40
0.304726044
 40
0.43835816
 40
0.5826623131
 40
0.7297821897
 40
0.8713439803
 40
1.0
 40
1.0
 40
1.0
 40
1.0
 10
23.5230949793
 20
57.6751457942
 30
0.0
 10
23.4972158709
 20
57.6601907077
 30
0.0
 10
23.4401501909
 20
57.6364852314
 30
0.0
 10
23.3459629722
 20
57.6226689882
 30
0.0
 10
23.2448173252
 20
57.630131329
 30
0.0
 10
23.1389579458
 20
57.6582372614
 30
0.0
 10
23.0304687516
 20
57.7061944179
 30
0.0
 10
22.8806879055
 20
57.7978448562
 30
0.0
 10
22.7022736305
 20
57.9558680412
 30
0.0
 10
22.5189110299
 20
58.1906074848
 30
0.0
 10
22.3744586168
 20
58.4575613755
 30
0.0
 10
22.2807537821
 20
58.7346422973
 30
0.0
 10
22.2556415368
 20
58.9233608535
 30
0.0
 10
22.2556415368
 20
59.0131103712
 30
0.0
  0
SPLINE
  5
339
100
AcDbEntity
  8
0
100
AcDbSpline
 62
7
  6
BYLAYER
 70
0
 71
3
 72
11
 73
7
 74
0
 42
0.0000001
 43
0.0000001
 44
0.0000000001
 40
0.0
 40
0.0
 40
0.0
 40
0.0
 40
0.2177460211
 40
0.4508843679
 40
0.7104607696
 40
1.0
 40
1.0
 40
1.0
 40
1.0
 10
47.1484003509
 20
18.6331048169
 30
0.0
 10
47.1319106426
 20
18.6235845401
 30
0.0
 10
47.0940353904
 20
18.6097908167
 30
0.0
 10
47.0310696852
 20
18.6082091207
 30
0.0
 10
46.9639975968
 20
18.6244436161
 30
0.0
 10
46.9203420901
 20
18.6451836675
 30
0.0
 10
46.8984154582
 20
18.657842728
 30
0.0
  0
SPLINE
  5
33A
100
AcDbEntity
  8
0
100
AcDbSpline
 62
7
  6
BYLAYER
 70
0
 71
3
 72
14
 73
10
 74
0
 42
0.0000001
 43
0.0000001
 44
0.0000000001
 40
0.0
 40
0.0
 40
0.0
 40
0.0
 40
0.1109840334
 40
0.2290240195
 40
0.3527388201
 40
0.4807181947
 40
0.7423331489
 40
0.8726570922
 40
1.0
 40
1.0
 40
1.0
 40
1.0
 10
11.8712016916
 20
69.4582999194
 30
0.0
 10
11.9772026154
 20
69.519499216
 30
0.0
 10
12.2042711186
 20
69.6316880291
 30
0.0
 10
12.5702391092
 20
69.7654322818
 30
0.0
 10
12.9657145445
 20
69.8674038063
 30
0.0
 10
13.5249480051
 20
69.9587846563
 30
0.0
 10
14.1012792473
 20
69.9785163973
 30
0.0
 10
14.672081057
 20
69.9267135121
 30
0.0
 10
14.9523082918
 20
69.8767705363
 30
0.0
 10
15.0892716418
 20
69.8457125489
 30
0.0
  0
SPLINE
  5
33B
100
AcDbEntity
  8
0
100
AcDbSpline
 62
7
  6
BYLAYER
 70
0
 71
3
 72
22
 73
18
 74
0
 42
0.0000001
 43
0.0000001
 44
0.0000000001
 40
0.0
 40
0.0
 40
0.0
 40
0.0
 40
0.0623734617
 40
0.1287718287
 40
0.1983813834
 40
0.2703741308
 40
0.4173928689
 40
0.4904357751
 40
0.5617444003
 40
0.6303606633
 40
0.6954682398
 40
0.7564327188
 40
0.8128854735
 40
0.8648030924
 40
0.9125910987
 40
0.9571795885
 40
1.0
 40
1.0
 40
1.0
 40
1.0
 10
44.5649533652
 20
49.8073754431
 30
0.0
 10
44.5649533652
 20
49.9110435394
 30
0.0
 10
44.5508464955
 20
50.1252084541
 30
0.0
 10
44.4931113809
 20
50.4503839835
 30
0.0
 10
44.3990691029
 20
50.7836404979
 30
0.0
 10
44.2269974769
 20
51.2319300943
 30
0.0
 10
43.9946348498
 20
51.6613432739
 30
0.0
 10
43.7119443681
 20
52.055082921
 30
0.0
 10
43.4807189225
 20
52.3237651048
 30
0.0
 10
43.2348628452
 20
52.5605032591
 30
0.0
 10
42.9795937606
 20
52.7603853411
 30
0.0
 10
42.7201514329
 20
52.9190905211
 30
0.0
 10
42.4618411234
 20
53.0332414735
 30
0.0
 10
42.2098016622
 20
53.1002437904
 30
0.0
 10
41.9689670898
 20
53.1179209593
 30
0.0
 10
41.7446869543
 20
53.0851014727
 30
0.0
 10
41.6088334233
 20
53.0286049815
 30
0.0
 10
41.5471921249
 20
52.9930311244
 30
0.0
  0
SPLINE
  5
33C
100
AcDbEntity
  8
0
100
AcDbSpline
 62
7
  6
BYLAYER
 70
0
 71
3
 72
11
 73
7
 74
0
 42
0.0000001
 43
0.0000001
 44
0.0000000001
 40
0.0
 40
0.0
 40
0.0
 40
0.0
 40
0.2506981416
 40
0.5132092097
 40
0.7687121938
 40
1.0
 40
1.0
 40
1.0
 40
1.0
 10
49.3781147919
 20
44.8017607723
 30
0.0
 10
49.3721641332
 20
44.832681306
 30
0.0
 10
49.3524102863
 20
44.8946288243
 30
0.0
 10
49.305889343
 20
44.9798396586
 30
0.0
 10
49.245888115
 20
45.0530408576
 30
0.0
 10
49.1974737899
 20
45.0915929919
 30
0.0
 10
49.1723156329
 20
45.1061177321
 30
0.0
  0
SPLINE
  5
33D
100
AcDbEntity
  8
0
100
AcDbSpline
 62
7
  6
BYLAYER
 70
0
 71
3
 72
10
 73
6
 74
0
 42
0.0000001
 43
0.0000001
 44
0.0000000001
 40
0.0
 40
0.0
 40
0.0
 40
0.0
 40
0.2409295441
 40
0.4883191714
 40
1.0
 40
1.0
 40
1.0
 40
1.0
 10
48.7592090581
 20
52.2289156418
 30
0.0
 10
48.7592090581
 20
52.3157812596
 30
0.0
 10
48.7428792616
 20
52.4923011881
 30
0.0
 10
48.6464772105
 20
52.8409643361
 30
0.0
 10
48.503803018
 20
53.0831110595
 30
0.0
 10
48.3843109805
 20
53.2236661433
 30
0.0
  0
SPLINE
  5
33E
100
AcDbEntity
  8
0
100
AcDbSpline
 62
7
  6
BYLAYER
 70
0
 71
3
 72
18
 73
14
 74
0
 42
0.0000001
 43
0.0000001
 44
0.0000000001
 40
0.0
 40
0.0
 40
0.0
 40
0.0
 40
0.0428466426
 40
0.0874623676
 40
0.1352823221
 40
0.1872320218
 40
0.2437228455
 40
0.304726044
 40
0.43835816
 40
0.5826623131
 40
0.7297821897
 40
0.8713439803
 40
1.0
 40
1.0
 40
1.0
 40
1.0
 10
29.5335276431
 20
54.2050993808
 30
0.0
 10
29.5076485346
 20
54.1901442943
 30
0.0
 10
29.4505828547
 20
54.166438818
 30
0.0
 10
29.3563956359
 20
54.1526225748
 30
0.0
 10
29.255249989
 20
54.1600849155
 30
0.0
 10
29.1493906096
 20
54.1881908479
 30
0.0
 10
29.0409014153
 20
54.2361480045
 30
0.0
 10
28.8911205692
 20
54.3277984428
 30
0.0
 10
28.7127062943
 20
54.4858216278
 30
0.0
 10
28.5293436936
 20
54.7205610714
 30
0.0
 10
28.3848912805
 20
54.9875149621
 30
0.0
 10
28.2911864459
 20
55.2645958839
 30
0.0
 10
28.2660742006
 20
55.4533144401
 30
0.0
 10
28.2660742006
 20
55.5430639577
 30
0.0
  0
SPLINE
  5
33F
100
AcDbEntity
  8
0
100
AcDbSpline
 62
7
  6
BYLAYER
 70
0
 71
3
 72
9
 73
5
 74
0
 42
0.0000001
 43
0.0000001
 44
0.0000000001
 40
0.0
 40
0.0
 40
0.0
 40
0.0
 40
0.5175301624
 40
1.0
 40
1.0
 40
1.0
 40
1.0
 10
50.101298641
 20
30.4851145803
 30
0.0
 10
50.101298641
 20
31.1835828113
 30
0.0
 10
50.1726963578
 20
32.534590909
 30
0.0
 10
50.4124756192
 20
33.8676022759
 30
0.0
 10
50.5753860289
 20
34.4980439813
 30
0.0
  0
SPLINE
  5
340
100
AcDbEntity
  8
0
100
AcDbSpline
 62
7
  6
BYLAYER
 70
0
 71
3
 72
14
 73
10
 74
0
 42
0.0000001
 43
0.0000001
 44
0.0000000001
 40
0.0
 40
0.0
 40
0.0
 40
0.0
 40
0.1080450031
 40
0.2181337829
 40
0.3321057623
 40
0.4514799957
 40
0.5774272149
 40
0.7107510372
 40
1.0
 40
1.0
 40
1.0
 40
1.0
 10
10.9925529194
 20
68.2335776558
 30
0.0
 10
10.9925529187
 20
68.290369778
 30
0.0
 10
11.0023859915
 20
68.4052632343
 30
0.0
 10
11.0464618614
 20
68.5749432252
 30
0.0
 10
11.1190935466
 20
68.7409812429
 30
0.0
 10
11.2194563971
 20
68.9016694626
 30
0.0
 10
11.3464460794
 20
69.0556096802
 30
0.0
 10
11.5551199952
 20
69.2552800785
 30
0.0
 10
11.739531793
 20
69.3822807217
 30
0.0
 10
11.8712016916
 20
69.4582999194
 30
0.0
  0
SPLINE
  5
341
100
AcDbEntity
  8
0
100
AcDbSpline
 62
7
  6
BYLAYER
 70
0
 71
3
 72
9
 73
5
 74
0
 42
0.0000001
 43
0.0000001
 44
0.0000000001
 40
0.0
 40
0.0
 40
0.0
 40
0.0
 40
0.5122716924
 40
1.0
 40
1.0
 40
1.0
 40
1.0
 10
50.4701171009
 20
26.4844534716
 30
0.0
 10
50.3503845276
 20
27.1606278426
 30
0.0
 10
50.1678209044
 20
28.490308186
 30
0.0
 10
50.101298641
 20
29.83132137
 30
0.0
 10
50.101298641
 20
30.4851145803
 30
0.0
  0
SPLINE
  5
342
100
AcDbEntity
  8
0
100
AcDbSpline
 62
7
  6
BYLAYER
 70
0
 71
3
 72
11
 73
7
 74
0
 42
0.0000001
 43
0.0000001
 44
0.0000000001
 40
0.0
 40
0.0
 40
0.0
 40
0.0
 40
0.2895401978
 40
0.5491171512
 40
0.782255066
 40
1.0
 40
1.0
 40
1.0
 40
1.0
 10
48.1005019909
 20
26.9453600337
 30
0.0
 10
48.1005019909
 20
26.9706793453
 30
0.0
 10
48.1043680158
 20
27.0188576045
 30
0.0
 10
48.1238445504
 20
27.0850630256
 30
0.0
 10
48.1566977832
 20
27.1388036192
 30
0.0
 10
48.1875818941
 20
27.1647082924
 30
0.0
 10
48.2040719607
 20
27.1742287761
 30
0.0
  0
SPLINE
  5
343
100
AcDbEntity
  8
0
100
AcDbSpline
 62
7
  6
BYLAYER
 70
0
 71
3
 72
13
 73
9
 74
0
 42
0.0000001
 43
0.0000001
 44
0.0000000001
 40
0.0
 40
0.0
 40
0.0
 40
0.0
 40
0.1141759018
 40
0.2375697245
 40
0.4999990825
 40
0.762428944
 40
0.8858232992
 40
1.0
 40
1.0
 40
1.0
 40
1.0
 10
48.4540568535
 20
20.045919836
 30
0.0
 10
48.4298705595
 20
20.0598834835
 30
0.0
 10
48.3820714249
 20
20.0934234491
 30
0.0
 10
48.2925245082
 20
20.1771538472
 30
0.0
 10
48.1980246955
 20
20.3063469579
 30
0.0
 10
48.1333894313
 20
20.4527825753
 30
0.0
 10
48.1056493644
 20
20.5721979325
 30
0.0
 10
48.1005019909
 20
20.6303634576
 30
0.0
 10
48.1005019909
 20
20.6582914218
 30
0.0
  0
SPLINE
  5
344
100
AcDbEntity
  8
0
100
AcDbSpline
 62
7
  6
BYLAYER
 70
0
 71
3
 72
15
 73
11
 74
0
 42
0.0000001
 43
0.0000001
 44
0.0000000001
 40
0.0
 40
0.0
 40
0.0
 40
0.0
 40
0.103588189
 40
0.2115783445
 40
0.3261766489
 40
0.4482038524
 40
0.5775198206
 40
0.7133711091
 40
0.8546370542
 40
1.0
 40
1.0
 40
1.0
 40
1.0
 10
18.4361258189
 20
34.358117635
 30
0.0
 10
18.5255817898
 20
34.4097646704
 30
0.0
 10
18.6955439835
 20
34.5385764494
 30
0.0
 10
18.9076820386
 20
34.7877038442
 30
0.0
 10
19.0811788142
 20
35.0861032065
 30
0.0
 10
19.2165805544
 20
35.4261295679
 30
0.0
 10
19.3141663915
 20
35.8005671736
 30
0.0
 10
19.3737754225
 20
36.2021496021
 30
0.0
 10
19.3951048506
 20
36.6234748562
 30
0.0
 10
19.3836599035
 20
36.9095088403
 30
0.0
 10
19.3715583947
 20
37.0539538432
 30
0.0
  0
SPLINE
  5
345
100
AcDbEntity
  8
0
100
AcDbSpline
 62
7
  6
BYLAYER
 70
0
 71
3
 72
14
 73
10
 74
0
 42
0.0000001
 43
0.0000001
 44
0.0000000001
 40
0.0
 40
0.0
 40
0.0
 40
0.0
 40
0.1080450031
 40
0.2181337829
 40
0.3321057623
 40
0.4514799957
 40
0.5774272149
 40
0.7107510372
 40
1.0
 40
1.0
 40
1.0
 40
1.0
 10
45.1964767609
 20
48.4863797599
 30
0.0
 10
45.1964767601
 20
48.5431718821
 30
0.0
 10
45.206309833
 20
48.6580653384
 30
0.0
 10
45.2503857029
 20
48.8277453293
 30
0.0
 10
45.3230173881
 20
48.993783347
 30
0.0
 10
45.4233802385
 20
49.1544715667
 30
0.0
 10
45.5503699209
 20
49.3084117843
 30
0.0
 10
45.7590438367
 20
49.5080821826
 30
0.0
 10
45.9434556344
 20
49.6350828258
 30
0.0
 10
46.0751255331
 20
49.7111020235
 30
0.0
  0
SPLINE
  5
346
100
AcDbEntity
  8
0
100
AcDbSpline
 62
7
  6
BYLAYER
 70
0
 71
3
 72
13
 73
9
 74
0
 42
0.0000001
 43
0.0000001
 44
0.0000000001
 40
0.0
 40
0.0
 40
0.0
 40
0.0
 40
0.1141767831
 40
0.2375713001
 40
0.500001251
 40
0.7624305195
 40
0.8858241805
 40
1.0
 40
1.0
 40
1.0
 40
1.0
 10
50.5753860289
 20
18.4129463639
 30
0.0
 10
50.5753860289
 20
18.4408743482
 30
0.0
 10
50.5702386231
 20
18.4990399307
 30
0.0
 10
50.5424985532
 20
18.6184553697
 30
0.0
 10
50.47786322
 20
18.7648910087
 30
0.0
 10
50.3833633915
 20
18.8940840489
 30
0.0
 10
50.2938165441
 20
18.9778144034
 30
0.0
 10
50.246017443
 20
19.0113543123
 30
0.0
 10
50.2218311664
 20
19.0253179497
 30
0.0
  0
SPLINE
  5
347
100
AcDbEntity
  8
0
100
AcDbSpline
 62
7
  6
BYLAYER
 70
0
 71
3
 72
11
 73
7
 74
0
 42
0.0000001
 43
0.0000001
 44
0.0000000001
 40
0.0
 40
0.0
 40
0.0
 40
0.0
 40
0.2896413964
 40
0.5491107671
 40
0.7822355978
 40
1.0
 40
1.0
 40
1.0
 40
1.0
 10
25.755805531
 20
61.0339189328
 30
0.0
 10
25.755805531
 20
61.0871090095
 30
0.0
 10
25.7638904423
 20
61.1882891254
 30
0.0
 10
25.8048418857
 20
61.3273073527
 30
0.0
 10
25.8738244396
 20
61.4401404137
 30
0.0
 10
25.9386577034
 20
61.4945688513
 30
0.0
 10
25.9732825113
 20
61.5145779253
 30
0.0
  0
SPLINE
  5
348
100
AcDbEntity
  8
0
100
AcDbSpline
 62
7
  6
BYLAYER
 70
0
 71
3
 72
9
 73
5
 74
0
 42
0.0000001
 43
0.0000001
 44
0.0000000001
 40
0.0
 40
0.0
 40
0.0
 40
0.0
 40
0.2531375071
 40
1.0
 40
1.0
 40
1.0
 40
1.0
 10
48.7592090581
 20
50.187659599
 30
0.0
 10
48.8046282582
 20
50.1826517767
 30
0.0
 10
48.9837713865
 20
50.1604166471
 30
0.0
 10
49.1617156124
 20
50.1283291996
 30
0.0
 10
49.2931954833
 20
50.098514653
 30
0.0
  0
SPLINE
  5
349
100
AcDbEntity
  8
0
100
AcDbSpline
 62
7
  6
BYLAYER
 70
0
 71
3
 72
17
 73
13
 74
0
 42
0.0000001
 43
0.0000001
 44
0.0000000001
 40
0.0
 40
0.0
 40
0.0
 40
0.0
 40
0.042857965
 40
0.0874854797
 40
0.1353180708
 40
0.1872814984
 40
0.3045423159
 40
0.4382097446
 40
0.5825520305
 40
0.7297107839
 40
0.8713099826
 40
1.0
 40
1.0
 40
1.0
 40
1.0
 10
43.2971678438
 20
49.9619661059
 30
0.0
 10
43.2725210739
 20
49.9477231664
 30
0.0
 10
43.2181725265
 20
49.9251461012
 30
0.0
 10
43.1284717523
 20
49.911989782
 30
0.0
 10
43.0321371117
 20
49.9190885972
 30
0.0
 10
42.8921620919
 20
49.9563086818
 30
0.0
 10
42.7132253783
 20
50.0541516773
 30
0.0
 10
42.5155297846
 20
50.2292297518
 30
0.0
 10
42.3407748408
 20
50.4529077295
 30
0.0
 10
42.2032355836
 20
50.7071170895
 30
0.0
 10
42.1139839424
 20
50.971012097
 30
0.0
 10
42.0900693272
 20
51.1507423529
 30
0.0
 10
42.0900693272
 20
51.2362180839
 30
0.0
  0
SPLINE
  5
34A
100
AcDbEntity
  8
0
100
AcDbSpline
 62
7
  6
BYLAYER
 70
0
 71
3
 72
11
 73
7
 74
0
 42
0.0000001
 43
0.0000001
 44
0.0000000001
 40
0.0
 40
0.0
 40
0.0
 40
0.0
 40
0.2896413964
 40
0.5491107671
 40
0.7822355978
 40
1.0
 40
1.0
 40
1.0
 40
1.0
 10
46.1205611993
 20
53.563209761
 30
0.0
 10
46.1205611993
 20
53.6138669769
 30
0.0
 10
46.1282611148
 20
53.710228992
 30
0.0
 10
46.1672624895
 20
53.8426273037
 30
0.0
 10
46.2329601599
 20
53.9500873618
 30
0.0
 10
46.2947061254
 20
54.0019239691
 30
0.0
 10
46.3276821329
 20
54.02098023
 30
0.0
  0
SPLINE
  5
34B
100
AcDbEntity
  8
0
100
AcDbSpline
 62
7
  6
BYLAYER
 70
0
 71
3
 72
18
 73
14
 74
0
 42
0.0000001
 43
0.0000001
 44
0.0000000001
 40
0.0
 40
0.0
 40
0.0
 40
0.0
 40
0.1484833728
 40
0.2983366927
 40
0.4441893086
 40
0.5811508584
 40
0.64511163
 40
0.7055700206
 40
0.8152711006
 40
0.864993911
 40
0.9118076538
 40
0.9564749202
 40
1.0
 40
1.0
 40
1.0
 40
1.0
 10
48.3843109805
 20
53.2236661433
 30
0.0
 10
48.318258505
 20
53.403514134
 30
0.0
 10
48.1594594813
 20
53.7557484209
 30
0.0
 10
47.8559619164
 20
54.2438582389
 30
0.0
 10
47.4989055476
 20
54.6753210661
 30
0.0
 10
47.1645810233
 20
54.9758901752
 30
0.0
 10
46.8855451602
 20
55.1662827339
 30
0.0
 10
46.6204649869
 20
55.311596816
 30
0.0
 10
46.3498848213
 20
55.4083559995
 30
0.0
 10
46.0848389137
 20
55.4412211534
 30
0.0
 10
45.9018454955
 20
55.4338561295
 30
0.0
 10
45.7309798336
 20
55.3950593748
 30
0.0
 10
45.6263280139
 20
55.3480930085
 30
0.0
 10
45.5776851046
 20
55.3200207668
 30
0.0
  0
SPLINE
  5
34C
100
AcDbEntity
  8
0
100
AcDbSpline
 62
7
  6
BYLAYER
 70
0
 71
3
 72
9
 73
5
 74
0
 42
0.0000001
 43
0.0000001
 44
0.0000000001
 40
0.0
 40
0.0
 40
0.0
 40
0.0
 40
0.2604032204
 40
1.0
 40
1.0
 40
1.0
 40
1.0
 10
40.8970799803
 20
30.9379827938
 30
0.0
 10
40.8955017618
 20
30.9456951549
 30
0.0
 10
40.8901070393
 20
30.9754392472
 30
0.0
 10
40.8874423085
 20
31.0057189663
 30
0.0
 10
40.8874423085
 20
31.0280775308
 30
0.0
  0
SPLINE
  5
34D
100
AcDbEntity
  8
0
100
AcDbSpline
 62
7
  6
BYLAYER
 70
0
 71
3
 72
11
 73
7
 74
0
 42
0.0000001
 43
0.0000001
 44
0.0000000001
 40
0.0
 40
0.0
 40
0.0
 40
0.0
 40
0.2177460211
 40
0.4508843679
 40
0.7104607696
 40
1.0
 40
1.0
 40
1.0
 40
1.0
 10
20.2025103587
 20
40.6460556541
 30
0.0
 10
20.2190000671
 20
40.655575931
 30
0.0
 10
20.2568753193
 20
40.6693696543
 30
0.0
 10
20.3198410245
 20
40.6709513504
 30
0.0
 10
20.3869131128
 20
40.6547168549
 30
0.0
 10
20.4305686195
 20
40.6339768035
 30
0.0
 10
20.4524952515
 20
40.621317743
 30
0.0
  0
SPLINE
  5
34E
100
AcDbEntity
  8
0
100
AcDbSpline
 62
7
  6
BYLAYER
 70
0
 71
3
 72
11
 73
7
 74
0
 42
0.0000001
 43
0.0000001
 44
0.0000000001
 40
0.0
 40
0.0
 40
0.0
 40
0.0
 40
0.2279198017
 40
0.4748253546
 40
0.7346414206
 40
1.0
 40
1.0
 40
1.0
 40
1.0
 10
46.0751255331
 20
49.7111020235
 30
0.0
 10
46.2324374229
 20
49.8019255433
 30
0.0
 10
46.5785207935
 20
49.9600961591
 30
0.0
 10
47.1430667421
 20
50.1217298936
 30
0.0
 10
47.7533212118
 20
50.2123238304
 30
0.0
 10
48.17296373
 20
50.2226624827
 30
0.0
 10
48.3843109805
 20
50.2150067398
 30
0.0
  0
SPLINE
  5
34F
100
AcDbEntity
  8
0
100
AcDbSpline
 62
7
  6
BYLAYER
 70
0
 71
3
 72
11
 73
7
 74
0
 42
0.0000001
 43
0.0000001
 44
0.0000000001
 40
0.0
 40
0.0
 40
0.0
 40
0.0
 40
0.2177460211
 40
0.4508843679
 40
0.7104607696
 40
1.0
 40
1.0
 40
1.0
 40
1.0
 10
41.0499215507
 20
26.5630965935
 30
0.0
 10
41.0334318423
 20
26.5535763166
 30
0.0
 10
40.9955565901
 20
26.5397825933
 30
0.0
 10
40.9325908849
 20
26.5382008972
 30
0.0
 10
40.8655187966
 20
26.5544353927
 30
0.0
 10
40.8218632899
 20
26.5751754441
 30
0.0
 10
40.7999366579
 20
26.5878345045
 30
0.0
  0
SPLINE
  5
350
100
AcDbEntity
  8
0
100
AcDbSpline
 62
7
  6
BYLAYER
 70
0
 71
3
 72
11
 73
7
 74
0
 42
0.0000001
 43
0.0000001
 44
0.0000000001
 40
0.0
 40
0.0
 40
0.0
 40
0.0
 40
0.2895391946
 40
0.5491157945
 40
0.7822541179
 40
1.0
 40
1.0
 40
1.0
 40
1.0
 10
18.4726045073
 20
39.4782341122
 30
0.0
 10
18.4506778784
 20
39.4908931709
 30
0.0
 10
18.4070223493
 20
39.5116332004
 30
0.0
 10
18.3399502565
 20
39.527867734
 30
0.0
 10
18.2769845509
 20
39.5262860066
 30
0.0
 10
18.2391093074
 20
39.5124923029
 30
0.0
 10
18.2226196148
 20
39.5029720234
 30
0.0
  0
SPLINE
  5
351
100
AcDbEntity
  8
0
100
AcDbSpline
 62
7
  6
BYLAYER
 70
0
 71
3
 72
9
 73
5
 74
0
 42
0.0000001
 43
0.0000001
 44
0.0000000001
 40
0.0
 40
0.0
 40
0.0
 40
0.0
 40
0.2554623084
 40
1.0
 40
1.0
 40
1.0
 40
1.0
 10
10.2453982218
 20
51.0032123358
 30
0.0
 10
10.221500128
 20
50.8607858603
 30
0.0
 10
10.1207162751
 20
50.3045142217
 30
0.0
 10
9.9903864936
 20
49.7534815848
 30
0.0
 10
9.8752148675
 20
49.3486446203
 30
0.0
  0
SPLINE
  5
352
100
AcDbEntity
  8
0
100
AcDbSpline
 62
7
  6
BYLAYER
 70
0
 71
3
 72
9
 73
5
 74
0
 42
0.0000001
 43
0.0000001
 44
0.0000000001
 40
0.0
 40
0.0
 40
0.0
 40
0.0
 40
0.2360088515
 40
1.0
 40
1.0
 40
1.0
 40
1.0
 10
9.8752148675
 20
49.3486446203
 30
0.0
 10
9.8729710108
 20
49.3407572946
 30
0.0
 10
9.8648389107
 20
49.3069480112
 30
0.0
 10
9.8619293442
 20
49.2719977412
 30
0.0
 10
9.8619293442
 20
49.2454523342
 30
0.0
  0
SPLINE
  5
353
100
AcDbEntity
  8
0
100
AcDbSpline
 62
7
  6
BYLAYER
 70
0
 71
3
 72
11
 73
7
 74
0
 42
0.0000001
 43
0.0000001
 44
0.0000000001
 40
0.0
 40
0.0
 40
0.0
 40
0.0
 40
0.227706998
 40
0.4766502999
 40
0.7377193983
 40
1.0
 40
1.0
 40
1.0
 40
1.0
 10
9.8619293442
 20
49.2454523342
 30
0.0
 10
9.8619293442
 20
49.2093889221
 30
0.0
 10
9.870504682
 20
49.1338226193
 30
0.0
 10
9.9032612756
 20
49.0212091586
 30
0.0
 10
9.9548659935
 20
48.9098507842
 30
0.0
 10
10.0001516879
 20
48.8400262776
 30
0.0
 10
10.0253064471
 20
48.8069697935
 30
0.0
  0
ENDSEC
  0
SECTION
  2
OBJECTS
  0
DICTIONARY
  5
C
100
AcDbDictionary
280
0
281
1
  3
ACAD_GROUP
350
D
  3
ACAD_MLINESTYLE
350
17
  3
ACAD_LAYOUT
350
1A
  3
ACAD_PLOTSETTINGS
350
19
  3
ACAD_PLOTSTYLENAME
350
E
  0
DICTIONARY
  5
D
102
{ACAD_REACTORS
330
C
102
}
100
AcDbDictionary
280
0
281
1
  0
ACDBDICTIONARYWDFLT
  5
E
102
{ACAD_REACTORS
330
C
102
}
100
AcDbDictionary
281
1
  3
Normal
350
F
100
AcDbDictionaryWithDefault
340
F
  0
DICTIONARY
  5
17
102
{ACAD_REACTORS
330
C
102
}
100
AcDbDictionary
280
0
281
1
  3
Standard
350
18
  0
DICTIONARY
  5
19
102
{ACAD_REACTORS
330
C
102
}
100
AcDbDictionary
281
1
  0
DICTIONARY
  5
1A
102
{ACAD_REACTORS
330
C
102
}
100
AcDbDictionary
281
1
  3
Model
350
354
  3
Layout1
350
355
  0
ACDBPLACEHOLDER
  5
F
102
{ACAD_REACTORS
330
E
102
}
  0
MLINESTYLE
  5
18
102
{ACAD_REACTORS
330
17
102
}
100
AcDbMlineStyle
  2
STANDARD
 70
0
  3

 62
256
 51
90.0
 52
90.0
 71
2
 49
0.5
 62
256
  6
BYLAYER
 49
-0.5
 62
256
  6
BYLAYER
  0
LAYOUT
  5
354
102
{ACAD_REACTORS
330
1A
102
}
100
AcDbPlotSettings
  1

  2
none_device
  4

  6

 40
0.0
 41
0.0
 42
0.0
 43
0.0
 44
210.0
 45
297.0
 46
0.0
 47
0.0
 48
0.0
 49
0.0
140
0.0
141
0.0
142
1.0
143
1.0
 70
1024
 72
1
 73
0
 74
0
  7

 75
0
147
1.0
148
0.0
149
0.0
100
AcDbLayout
  1
Model
 70
0
 71
0
 10
0.0
 20
0.0
 11
210.0
 21
297.0
 12
0.0
 22
0.0
 32
0.0
 14
0.0
 24
0.0
 34
0.0
 15
0.0
 25
0.0
 35
0.0
146
0.0
 13
0.0
 23
0.0
 33
0.0
 16
1.0
 26
0.0
 36
0.0
 17
0.0
 27
1.0
 37
0.0
 76
0
330
212
345
0
346
0
  0
LAYOUT
  5
355
102
{ACAD_REACTORS
330
1A
102
}
100
AcDbPlotSettings
  1

  2
none_device
  4

  6

 40
0.0
 41
0.0
 42
0.0
 43
0.0
 44
210.0
 45
297.0
 46
0.0
 47
0.0
 48
0.0
 49
0.0
140
0.0
141
0.0
142
1.0
143
1.0
 70
0
 72
1
 73
0
 74
0
  7

 75
0
147
1.0
148
0.0
149
0.0
100
AcDbLayout
  1
Layout1
 70
0
 71
1
 10
0.0
 20
0.0
 11
210.0
 21
297.0
 12
0.0
 22
0.0
 32
0.0
 14
0.0
 24
0.0
 34
0.0
 15
0.0
 25
0.0
 35
0.0
146
0.0
 13
0.0
 23
0.0
 33
0.0
 16
1.0
 26
0.0
 36
0.0
 17
0.0
 27
1.0
 37
0.0
 76
0
330
213
345
0
346
0
  0
ENDSEC
  0
EOF
