999
DXF file: C:\Users\sesa63760\Dev\_Creo\CAD\MCADPP0003179_3D-CAD\drw0001_5.dxf
999
Pro/ENGINEER 2019471 by Parametric Technology Corporation
  0
SECTION
  2
HEADER
  9
$ACADVER
  1
AC1024
  9
$DWGCODEPAGE
  3
ANSI_1252
  9
$EXTMAX
 10
416.5338962611
 20
589.0979389978
 30
0.0
  9
$EXTMIN
 10
0.0
 20
0.0
 30
0.0
  9
$LIMMIN
 10
0.0
 20
0.0
  9
$LIMMAX
 10
416.5338962611
 20
589.0979389978
  9
$VIEWCTR
 10
208.2669481305
 20
294.5489694989
  9
$VIEWSIZE
 40
589.0979389978
  9
$CLAYER
  8
0
  9
$LTSCALE
 40
38.4004582458
  9
$CELTYPE
  6
BYLAYER
  9
$DIMSCALE
 40
1.0
  9
$DIMASZ
 40
4.9587368603
  9
$DIMEXO
 40
1.0
  9
$DIMDLI
 40
26.5312256971
  9
$DIMEXE
 40
1.0
  9
$DIMCEN
 40
6.2837113493
  9
$DIMLFAC
 40
1.0
  9
$DIMBLK
  1
_FILLED
  9
$DIMALT
 70
0
  9
$DIMALTF
 40
0.0393700787
  9
$DIMTXT
 40
6.9422316044
  9
$DIMTOL
 70
1
  9
$DIMLIM
 70
0
  9
$DIMTFAC
 40
1.0
  9
$DIMTP
 40
0.01
  9
$DIMTM
 40
0.01
  9
$DIMGAP
 40
0.625
  9
$DIMDSEP
 70
46
  9
$AUNITS
 70
0
  9
$PDMODE
 70
3
  9
$PDSIZE
 40
0.3125
  9
$HANDSEED
  5
568
  9
$TILEMODE
 70
1
  9
$MEASUREMENT
 70
1
  9
$INSUNITS
 70
4
  0
ENDSEC
  0
SECTION
  2
CLASSES
  0
CLASS
  1
ACDBDICTIONARYWDFLT
  2
AcDbDictionaryWithDefault
  3
AutoCAD 2000
 90
0
 91
1
280
0
281
0
  0
CLASS
  1
ACDBPLACEHOLDER
  2
AcDbPlaceHolder
  3
AutoCAD 2000
 90
0
 91
1
280
0
281
0
  0
CLASS
  1
LAYOUT
  2
AcDbLayout
  3
AutoCAD 2000
 90
0
 91
0
280
0
281
0
  0
ENDSEC
  0
SECTION
  2
TABLES
  0
TABLE
  2
VPORT
  5
8
100
AcDbSymbolTable
 70
2
  0
VPORT
  5
1F4
100
AcDbSymbolTableRecord
100
AcDbViewportTableRecord
  2
*ACTIVE
 70
0
 10
0.0
 20
0.0
 11
1.0
 21
1.0
 12
208.2669481305
 22
294.5489694989
 13
0.0
 23
0.0
 14
1.0
 24
1.0
 15
0.0
 25
0.0
 16
0.0
 26
0.0
 36
1.0
 17
0.0
 27
0.0
 37
0.0
 40
589.0979389978
 41
0.7070707071
 42
50.0
 43
0.0
 44
0.0
 50
0.0
 51
0.0
 71
0
 72
100
 73
1
 74
1
 75
0
 76
0
 77
0
 78
0
  0
ENDTAB
  0
TABLE
  2
LTYPE
  5
5
100
AcDbSymbolTable
 70
6
  0
LTYPE
  5
14
100
AcDbSymbolTableRecord
100
AcDbLinetypeTableRecord
  2
BYBLOCK
 70
0
  3

 72
65
 73
0
 40
0.0
  0
LTYPE
  5
15
100
AcDbSymbolTableRecord
100
AcDbLinetypeTableRecord
  2
BYLAYER
 70
0
  3

 72
65
 73
0
 40
0.0
  0
LTYPE
  5
16
100
AcDbSymbolTableRecord
100
AcDbLinetypeTableRecord
  2
CONTINUOUS
 70
64
  3
Solid line
 72
65
 73
0
 40
0.0
  0
LTYPE
  5
1F5
100
AcDbSymbolTableRecord
100
AcDbLinetypeTableRecord
  2
CENTER
 70
64
  3
____ _ ____ _ ____ _ ____ _ ____ _ ____ _ ____
 72
65
 73
4
 40
0.6
 49
0.375
 74
0
 49
-0.075
 74
0
 49
0.075
 74
0
 49
-0.075
 74
0
  0
LTYPE
  5
1F6
100
AcDbSymbolTableRecord
100
AcDbLinetypeTableRecord
  2
HIDDEN
 70
64
  3
- - - - - - - - - - - - - - - - - - - -
 72
65
 73
2
 40
0.2
 49
0.1
 74
0
 49
-0.1
 74
0
  0
LTYPE
  5
1F7
100
AcDbSymbolTableRecord
100
AcDbLinetypeTableRecord
  2
PHANTOM
 70
64
  3
_____ _ _ _____ _ _ _____ _ _ _____
 72
65
 73
6
 40
0.8
 49
0.45
 74
0
 49
-0.05
 74
0
 49
0.1
 74
0
 49
-0.05
 74
0
 49
0.1
 74
0
 49
-0.05
 74
0
  0
LTYPE
  5
1F8
100
AcDbSymbolTableRecord
100
AcDbLinetypeTableRecord
  2
DOT
 70
64
  3
. . . . . . . . . . . . . . . . . . . .
 72
65
 73
2
 40
0.2
 49
0.1
 74
0
 49
-0.1
 74
0
  0
LTYPE
  5
1F9
100
AcDbSymbolTableRecord
100
AcDbLinetypeTableRecord
  2
DASHED
 70
64
  3
- - - - - - - - - - - - - - - - - - - -
 72
65
 73
2
 40
0.2
 49
0.1
 74
0
 49
-0.1
 74
0
  0
ENDTAB
  0
TABLE
  2
LAYER
  5
2
100
AcDbSymbolTable
 70
36
  0
LAYER
  5
10
100
AcDbSymbolTableRecord
100
AcDbLayerTableRecord
  2
0
 70
0
 62
7
  6
CONTINUOUS
370
-3
390
F
  0
LAYER
  5
1FA
100
AcDbSymbolTableRecord
100
AcDbLayerTableRecord
  2
DEFAULT_1
 70
0
 62
7
  6
CENTER
370
-3
390
F
  0
LAYER
  5
1FB
100
AcDbSymbolTableRecord
100
AcDbLayerTableRecord
  2
DEFAULT_2
 70
0
 62
8
  6
HIDDEN
370
-3
390
F
  0
LAYER
  5
1FC
100
AcDbSymbolTableRecord
100
AcDbLayerTableRecord
  2
DEFAULT_3
 70
0
 62
7
  6
PHANTOM
370
-3
390
F
  0
LAYER
  5
1FD
100
AcDbSymbolTableRecord
100
AcDbLayerTableRecord
  2
00_COMPONENTS
 70
0
 62
7
  6
CONTINUOUS
370
-3
390
F
  0
LAYER
  5
1FE
100
AcDbSymbolTableRecord
100
AcDbLayerTableRecord
  2
01_1_DEFAULT_DATUMS
 70
0
 62
7
  6
CONTINUOUS
370
-3
390
F
  0
LAYER
  5
1FF
100
AcDbSymbolTableRecord
100
AcDbLayerTableRecord
  2
01_PLANES
 70
0
 62
7
  6
CONTINUOUS
370
-3
390
F
  0
LAYER
  5
200
100
AcDbSymbolTableRecord
100
AcDbLayerTableRecord
  2
02_COORD_SYS
 70
0
 62
7
  6
CONTINUOUS
370
-3
390
F
  0
LAYER
  5
201
100
AcDbSymbolTableRecord
100
AcDbLayerTableRecord
  2
03_AXES
 70
0
 62
7
  6
CONTINUOUS
370
-3
390
F
  0
LAYER
  5
202
100
AcDbSymbolTableRecord
100
AcDbLayerTableRecord
  2
04_POINTS
 70
0
 62
7
  6
CONTINUOUS
370
-3
390
F
  0
LAYER
  5
203
100
AcDbSymbolTableRecord
100
AcDbLayerTableRecord
  2
05_CURVES
 70
0
 62
7
  6
CONTINUOUS
370
-3
390
F
  0
LAYER
  5
204
100
AcDbSymbolTableRecord
100
AcDbLayerTableRecord
  2
06_SURFS
 70
0
 62
7
  6
CONTINUOUS
370
-3
390
F
  0
LAYER
  5
205
100
AcDbSymbolTableRecord
100
AcDbLayerTableRecord
  2
07_COSMETICS
 70
0
 62
7
  6
CONTINUOUS
370
-3
390
F
  0
LAYER
  5
206
100
AcDbSymbolTableRecord
100
AcDbLayerTableRecord
  2
10_NOTES
 70
0
 62
7
  6
CONTINUOUS
370
-3
390
F
  0
LAYER
  5
207
100
AcDbSymbolTableRecord
100
AcDbLayerTableRecord
  2
11_NOTES_PUB
 70
0
 62
7
  6
CONTINUOUS
370
-3
390
F
  0
LAYER
  5
208
100
AcDbSymbolTableRecord
100
AcDbLayerTableRecord
  2
13_REF_GTOL
 70
0
 62
7
  6
CONTINUOUS
370
-3
390
F
  0
LAYER
  5
209
100
AcDbSymbolTableRecord
100
AcDbLayerTableRecord
  2
16_MISC
 70
0
 62
7
  6
CONTINUOUS
370
-3
390
F
  0
LAYER
  5
20A
100
AcDbSymbolTableRecord
100
AcDbLayerTableRecord
  2
17_NO_PRINT
 70
0
 62
7
  6
CONTINUOUS
370
-3
390
F
  0
LAYER
  5
20B
100
AcDbSymbolTableRecord
100
AcDbLayerTableRecord
  2
18_DATUM_CAMS_JOINTS
 70
0
 62
7
  6
CONTINUOUS
370
-3
390
F
  0
LAYER
  5
20C
100
AcDbSymbolTableRecord
100
AcDbLayerTableRecord
  2
19_DATUM_FUNCTIONAL
 70
0
 62
7
  6
CONTINUOUS
370
-3
390
F
  0
LAYER
  5
20D
100
AcDbSymbolTableRecord
100
AcDbLayerTableRecord
  2
20_DATUM_KINEMATIC_SCHEME
 70
0
 62
7
  6
CONTINUOUS
370
-3
390
F
  0
ENDTAB
  0
TABLE
  2
STYLE
  5
3
100
AcDbSymbolTable
 70
1
  0
STYLE
  5
11
100
AcDbSymbolTableRecord
100
AcDbTextStyleTableRecord
  2
STANDARD
 70
0
 40
0.0
 41
0.8
 50
0.0
 71
0
 42
0.2
  3
txt
  4

  0
STYLE
  5
20E
100
AcDbSymbolTableRecord
100
AcDbTextStyleTableRecord
  2
TEXTSTYLE_1
 70
0
 40
0.0
 41
0.8
 50
0.0
 71
0
 42
0.2
  3
gdt
  4

  0
ENDTAB
  0
TABLE
  2
VIEW
  5
6
100
AcDbSymbolTable
 70
0
  0
ENDTAB
  0
TABLE
  2
UCS
  5
7
100
AcDbSymbolTable
 70
0
  0
ENDTAB
  0
TABLE
  2
APPID
  5
9
100
AcDbSymbolTable
 70
1
  0
APPID
  5
20F
100
AcDbSymbolTableRecord
100
AcDbRegAppTableRecord
  2
ACAD
 70
0
  0
ENDTAB
  0
TABLE
  2
BLOCK_RECORD
  5
1
100
AcDbSymbolTable
 70
0
  0
BLOCK_RECORD
  5
210
100
AcDbSymbolTableRecord
100
AcDbBlockTableRecord
  2
*Model_Space
  0
BLOCK_RECORD
  5
211
100
AcDbSymbolTableRecord
100
AcDbBlockTableRecord
  2
*Paper_Space
  0
BLOCK_RECORD
  5
212
100
AcDbSymbolTableRecord
100
AcDbBlockTableRecord
  2
_FILLED
  0
ENDTAB
  0
TABLE
  2
DIMSTYLE
  5
A
100
AcDbSymbolTable
 70
1
100
AcDbDimStyleTable
 71
0
  0
DIMSTYLE
105
213
100
AcDbSymbolTableRecord
100
AcDbDimStyleTableRecord
  2
STANDARD
 70
0
  3

  4

 40
1.0
 41
4.9587368603
 42
1.0
 43
0.38
 44
1.0
 45
0.0
 46
0.0
 47
0.01
 48
0.01
140
6.9422316044
141
0.09
142
0.0
143
25.4
144
1.0
145
0.0
146
1.0
147
0.625
 71
1
 72
0
 73
0
 74
0
 75
0
 76
0
 77
1
 78
8
 79
2
170
0
171
1
172
0
173
0
174
0
175
0
176
0
177
0
178
0
270
2
179
2
271
2
272
2
273
2
274
2
275
0
280
0
281
0
282
0
283
1
284
8
285
0
286
0
287
3
288
0
340
11
278
46
341
212
342
212
343
212
344
212
  0
ENDTAB
  0
ENDSEC
  0
SECTION
  2
BLOCKS
  0
BLOCK
  5
20
100
AcDbEntity
  8
0
100
AcDbBlockBegin
  2
*Model_Space
 70
0
 10
0.0
 20
0.0
 30
0.0
  3
*Model_Space
  1

  0
ENDBLK
  5
21
100
AcDbEntity
  8
0
100
AcDbBlockEnd
  0
BLOCK
  5
1C
100
AcDbEntity
  8
0
100
AcDbBlockBegin
  2
*Paper_Space
 70
0
 10
0.0
 20
0.0
 30
0.0
  3
*Paper_Space
  1

  0
ENDBLK
  5
1D
100
AcDbEntity
  8
0
100
AcDbBlockEnd
  0
BLOCK
  5
214
100
AcDbEntity
  8
0
100
AcDbBlockBegin
  2
_FILLED
 70
64
 10
0.0
 20
0.0
  3
_FILLED
  1

  0
SOLID
  5
215
100
AcDbEntity
  8
0
  6
BYBLOCK
 62
0
100
AcDbTrace
 10
0.0
 20
0.0
 11
-1.0
 21
0.25
 12
-1.0
 22
-0.25
 13
-1.0
 23
-0.25
  0
ENDBLK
  5
216
100
AcDbEntity
  8
0
  6
BYBLOCK
 62
0
100
AcDbBlockEnd
  0
ENDSEC
  0
SECTION
  2
ENTITIES
  0
LINE
  5
217
100
AcDbEntity
  8
0
100
AcDbLine
 62
7
  6
CONTINUOUS
 10
49.1584606068
 20
368.3117316768
 11
49.1527869337
 21
368.2949128447
  0
LINE
  5
218
100
AcDbEntity
  8
0
100
AcDbLine
 62
7
  6
CONTINUOUS
 10
49.20785808
 20
368.2950196078
 11
49.2007285839
 21
368.2788264029
  0
LINE
  5
219
100
AcDbEntity
  8
0
100
AcDbLine
 62
7
  6
CONTINUOUS
 10
52.592949002
 20
373.6925196078
 11
53.354949002
 21
374.4545196078
  0
LINE
  5
21A
100
AcDbEntity
  8
0
100
AcDbLine
 62
7
  6
CONTINUOUS
 10
48.7874139772
 20
365.5238674133
 11
48.782949002
 21
365.7756858849
  0
LINE
  5
21B
100
AcDbEntity
  8
0
100
AcDbLine
 62
7
  6
CONTINUOUS
 10
52.7219422945
 20
359.9988692126
 11
52.719949002
 21
360.1112881731
  0
LINE
  5
21C
100
AcDbEntity
  8
0
100
AcDbLine
 62
7
  6
CONTINUOUS
 10
59.0679557095
 20
360.2237071337
 11
59.069949002
 21
360.1112881731
  0
LINE
  5
21D
100
AcDbEntity
  8
0
100
AcDbLine
 62
7
  6
CONTINUOUS
 10
59.069949002
 20
360.46645234
 11
59.0679557095
 21
360.5788713006
  0
LINE
  5
21E
100
AcDbEntity
  8
0
100
AcDbLine
 62
7
  6
CONTINUOUS
 10
48.554349002
 20
382.1730653616
 11
48.554349002
 21
377.3471434912
  0
LINE
  5
21F
100
AcDbEntity
  8
0
100
AcDbLine
 62
7
  6
CONTINUOUS
 10
48.554349002
 20
356.7885383554
 11
48.554349002
 21
351.9626164849
  0
LINE
  5
220
100
AcDbEntity
  8
0
100
AcDbLine
 62
7
  6
CONTINUOUS
 10
48.782949002
 20
366.0327555777
 11
48.782949002
 21
365.7756858849
  0
LINE
  5
221
100
AcDbEntity
  8
0
100
AcDbLine
 62
7
  6
CONTINUOUS
 10
49.163949002
 20
286.2530196078
 11
49.163949002
 21
392.6790196078
  0
LINE
  5
222
100
AcDbEntity
  8
0
100
AcDbLine
 62
7
  6
CONTINUOUS
 10
51.830949002
 20
286.2530196078
 11
51.830949002
 21
392.6790196078
  0
LINE
  5
223
100
AcDbEntity
  8
0
100
AcDbLine
 62
7
  6
CONTINUOUS
 10
51.885141391
 20
321.438694586
 11
51.885141391
 21
356.304220726
  0
LINE
  5
224
100
AcDbEntity
  8
0
100
AcDbLine
 62
7
  6
CONTINUOUS
 10
51.885141391
 20
371.816656682
 11
51.885141391
 21
387.3360199163
  0
LINE
  5
225
100
AcDbEntity
  8
0
100
AcDbLine
 62
7
  6
CONTINUOUS
 10
51.957949002
 20
291.1993446297
 11
51.957949002
 21
321.438694586
  0
LINE
  5
226
100
AcDbEntity
  8
0
100
AcDbLine
 62
7
  6
CONTINUOUS
 10
52.592949002
 20
373.6925144945
 11
52.592949002
 21
365.0816066288
  0
LINE
  5
227
100
AcDbEntity
  8
0
100
AcDbLine
 62
7
  6
CONTINUOUS
 10
52.846949002
 20
386.1101044264
 11
52.8469573499
 21
373.9477420019
  0
LINE
  5
228
100
AcDbEntity
  8
0
100
AcDbLine
 62
7
  6
CONTINUOUS
 10
52.846949002
 20
320.7938911481
 11
52.846949002
 21
355.7902645005
  0
LINE
  5
229
100
AcDbEntity
  8
0
100
AcDbLine
 62
7
  6
CONTINUOUS
 10
53.354949002
 20
374.4545196078
 11
53.354949002
 21
365.5578908888
  0
LINE
  5
22A
100
AcDbEntity
  8
0
100
AcDbLine
 62
7
  6
CONTINUOUS
 10
53.354949002
 20
319.0189105649
 11
53.354949002
 21
293.6191286508
  0
LINE
  5
22B
100
AcDbEntity
  8
0
100
AcDbLine
 62
7
  6
CONTINUOUS
 10
54.370949002
 20
348.0217669294
 11
54.370949002
 21
354.9831075813
  0
LINE
  5
22C
100
AcDbEntity
  8
0
100
AcDbLine
 62
7
  6
CONTINUOUS
 10
54.370949002
 20
374.4545196078
 11
54.370949002
 21
386.1139149172
  0
LINE
  5
22D
100
AcDbEntity
  8
0
100
AcDbLine
 62
7
  6
CONTINUOUS
 10
54.904349002
 20
349.6538239948
 11
54.904349002
 21
354.7032265634
  0
LINE
  5
22E
100
AcDbEntity
  8
0
100
AcDbLine
 62
7
  6
CONTINUOUS
 10
54.904349002
 20
375.038351001
 11
54.904349002
 21
384.4818578518
  0
LINE
  5
22F
100
AcDbEntity
  8
0
100
AcDbLine
 62
7
  6
CONTINUOUS
 10
55.6676426231
 20
366.8839659411
 11
55.6676426231
 21
366.9876129629
  0
LINE
  5
230
100
AcDbEntity
  8
0
100
AcDbLine
 62
7
  6
CONTINUOUS
 10
56.009249002
 20
349.7400774201
 11
56.009249002
 21
354.1271255709
  0
LINE
  5
231
100
AcDbEntity
  8
0
100
AcDbLine
 62
7
  6
CONTINUOUS
 10
56.009249002
 20
375.1246044264
 11
56.009249002
 21
384.3956044264
  0
LINE
  5
232
100
AcDbEntity
  8
0
100
AcDbLine
 62
7
  6
CONTINUOUS
 10
56.021949002
 20
353.6770774201
 11
56.021949002
 21
354.1205060073
  0
LINE
  5
233
100
AcDbEntity
  8
0
100
AcDbLine
 62
7
  6
CONTINUOUS
 10
56.021949002
 20
379.0616044264
 11
56.021949002
 21
380.4586044264
  0
LINE
  5
234
100
AcDbEntity
  8
0
100
AcDbLine
 62
7
  6
CONTINUOUS
 10
57.558649002
 20
351.2895206798
 11
57.558649002
 21
353.6770774201
  0
LINE
  5
235
100
AcDbEntity
  8
0
100
AcDbLine
 62
7
  6
CONTINUOUS
 10
57.558649002
 20
376.6740476861
 11
57.558649002
 21
379.0616044264
  0
LINE
  5
236
100
AcDbEntity
  8
0
100
AcDbLine
 62
7
  6
CONTINUOUS
 10
57.558649002
 20
380.4586044264
 11
57.558649002
 21
382.8461611667
  0
LINE
  5
237
100
AcDbEntity
  8
0
100
AcDbLine
 62
7
  6
CONTINUOUS
 10
60.085949002
 20
346.7817006613
 11
60.085949002
 21
329.3563215207
  0
LINE
  5
238
100
AcDbEntity
  8
0
100
AcDbLine
 62
7
  6
CONTINUOUS
 10
60.085949002
 20
364.6543259332
 11
60.085949002
 21
380.0806196078
  0
LINE
  5
239
100
AcDbEntity
  8
0
100
AcDbLine
 62
7
  6
CONTINUOUS
 10
54.1169189889
 20
339.7431176481
 11
52.846949002
 21
334.2149026136
  0
LINE
  5
23A
100
AcDbEntity
  8
0
100
AcDbLine
 62
7
  6
CONTINUOUS
 10
61.4477107401
 20
360.6555086629
 11
61.5613639296
 21
357.4688924913
  0
LINE
  5
23B
100
AcDbEntity
  8
0
100
AcDbLine
 62
7
  6
CONTINUOUS
 10
61.4477107401
 20
360.7937944287
 11
61.3340575506
 21
363.9804106002
  0
LINE
  5
23C
100
AcDbEntity
  8
0
100
AcDbLine
 62
7
  6
CONTINUOUS
 10
61.3340575506
 20
363.8767635785
 11
61.4477107401
 21
360.6555086629
  0
LINE
  5
23D
100
AcDbEntity
  8
0
100
AcDbLine
 62
7
  6
CONTINUOUS
 10
61.5613639296
 20
357.5725395131
 11
61.4477107401
 21
360.7937944287
  0
LINE
  5
23E
100
AcDbEntity
  8
0
100
AcDbLine
 62
7
  6
CONTINUOUS
 10
61.3340575506
 20
363.8767635785
 11
61.3340575506
 21
363.9804106002
  0
LINE
  5
23F
100
AcDbEntity
  8
0
100
AcDbLine
 62
7
  6
CONTINUOUS
 10
61.5613639296
 20
357.4688924913
 11
61.5613639296
 21
357.5725395131
  0
LINE
  5
240
100
AcDbEntity
  8
0
100
AcDbLine
 62
7
  6
CONTINUOUS
 10
62.117949002
 20
293.6190196078
 11
62.117949002
 21
357.6016196079
  0
LINE
  5
241
100
AcDbEntity
  8
0
100
AcDbLine
 62
7
  6
CONTINUOUS
 10
62.752949002
 20
360.2686196078
 11
62.752949002
 21
380.0806196078
  0
LINE
  5
242
100
AcDbEntity
  8
0
100
AcDbLine
 62
7
  6
CONTINUOUS
 10
64.149949002
 20
360.9671196078
 11
64.149949002
 21
376.8421196078
  0
LINE
  5
243
100
AcDbEntity
  8
0
100
AcDbLine
 62
7
  6
CONTINUOUS
 10
64.530949002
 20
361.3481237939
 11
64.530949002
 21
376.4611154218
  0
LINE
  5
244
100
AcDbEntity
  8
0
100
AcDbLine
 62
7
  6
CONTINUOUS
 10
64.784949002
 20
293.6190196078
 11
64.784949002
 21
373.2988196078
  0
LINE
  5
245
100
AcDbEntity
  8
0
100
AcDbLine
 62
7
  6
CONTINUOUS
 10
65.000849002
 20
316.7329567292
 11
65.000849002
 21
295.90509637
  0
LINE
  5
246
100
AcDbEntity
  8
0
100
AcDbLine
 62
7
  6
CONTINUOUS
 10
66.067649002
 20
295.9050824864
 11
66.067649002
 21
316.7329728049
  0
LINE
  5
247
100
AcDbEntity
  8
0
100
AcDbLine
 62
7
  6
CONTINUOUS
 10
66.207349002
 20
312.6689156689
 11
66.207349002
 21
299.9691235468
  0
LINE
  5
248
100
AcDbEntity
  8
0
100
AcDbLine
 62
7
  6
CONTINUOUS
 10
67.451949002
 20
293.6192477723
 11
67.451949002
 21
299.9055317099
  0
LINE
  5
249
100
AcDbEntity
  8
0
100
AcDbLine
 62
7
  6
CONTINUOUS
 10
67.451949002
 20
312.6690196078
 11
67.451949002
 21
365.6788196078
  0
LINE
  5
24A
100
AcDbEntity
  8
0
100
AcDbLine
 62
7
  6
CONTINUOUS
 10
67.731349002
 20
299.9690196078
 11
67.731349002
 21
312.6690196078
  0
LINE
  5
24B
100
AcDbEntity
  8
0
100
AcDbLine
 62
7
  6
CONTINUOUS
 10
67.832949002
 20
316.7329567292
 11
67.832949002
 21
312.5674196078
  0
LINE
  5
24C
100
AcDbEntity
  8
0
100
AcDbLine
 62
7
  6
CONTINUOUS
 10
67.832949002
 20
300.0706196078
 11
67.832949002
 21
295.90509637
  0
LINE
  5
24D
100
AcDbEntity
  8
0
100
AcDbLine
 62
7
  6
CONTINUOUS
 10
67.959949002
 20
373.2988196078
 11
67.959949002
 21
365.6788196078
  0
LINE
  5
24E
100
AcDbEntity
  8
0
100
AcDbLine
 62
7
  6
CONTINUOUS
 10
67.959949002
 20
360.5988196078
 11
67.959949002
 21
352.9788196078
  0
LINE
  5
24F
100
AcDbEntity
  8
0
100
AcDbLine
 62
7
  6
CONTINUOUS
 10
68.493349002
 20
300.7310274573
 11
68.493349002
 21
311.9070117584
  0
LINE
  5
250
100
AcDbEntity
  8
0
100
AcDbLine
 62
7
  6
CONTINUOUS
 10
68.899749002
 20
295.9050824864
 11
68.899749002
 21
316.7329728049
  0
LINE
  5
251
100
AcDbEntity
  8
0
100
AcDbLine
 62
7
  6
CONTINUOUS
 10
69.001349002
 20
312.6689390625
 11
69.001349002
 21
299.9691001532
  0
LINE
  5
252
100
AcDbEntity
  8
0
100
AcDbLine
 62
7
  6
CONTINUOUS
 10
70.525349002
 20
299.9690196078
 11
70.525349002
 21
312.6690196078
  0
LINE
  5
253
100
AcDbEntity
  8
0
100
AcDbLine
 62
7
  6
CONTINUOUS
 10
71.287349002
 20
300.7310196078
 11
71.287349002
 21
311.9070196078
  0
LINE
  5
254
100
AcDbEntity
  8
0
100
AcDbLine
 62
7
  6
CONTINUOUS
 10
64.530949002
 20
361.3481196078
 11
64.149949002
 21
360.9671196078
  0
LINE
  5
255
100
AcDbEntity
  8
0
100
AcDbLine
 62
7
  6
CONTINUOUS
 10
52.846949002
 20
345.2713326826
 11
54.1169189889
 21
339.7431176481
  0
LINE
  5
256
100
AcDbEntity
  8
0
100
AcDbLine
 62
7
  6
CONTINUOUS
 10
52.8481746941
 20
373.9477452999
 11
52.846949002
 21
373.953896681
  0
LINE
  5
257
100
AcDbEntity
  8
0
100
AcDbLine
 62
7
  6
CONTINUOUS
 10
74.436949002
 20
322.1940196078
 11
74.436949002
 21
324.8610196078
  0
LINE
  5
258
100
AcDbEntity
  8
0
100
AcDbLine
 62
7
  6
CONTINUOUS
 10
80.786949002
 20
324.8610196078
 11
80.786949002
 21
322.1940196078
  0
LINE
  5
259
100
AcDbEntity
  8
0
100
AcDbLine
 62
7
  6
CONTINUOUS
 10
85.866949002
 20
396.8700196078
 11
85.866949002
 21
394.2030196078
  0
LINE
  5
25A
100
AcDbEntity
  8
0
100
AcDbLine
 62
7
  6
CONTINUOUS
 10
68.493349002
 20
300.7310196078
 11
67.731349002
 21
299.9690196078
  0
LINE
  5
25B
100
AcDbEntity
  8
0
100
AcDbLine
 62
7
  6
CONTINUOUS
 10
71.287349002
 20
300.7310196078
 11
70.525349002
 21
299.9690196078
  0
LINE
  5
25C
100
AcDbEntity
  8
0
100
AcDbLine
 62
7
  6
CONTINUOUS
 10
156.123349002
 20
364.9805312864
 11
156.885349002
 21
365.7425312864
  0
LINE
  5
25D
100
AcDbEntity
  8
0
100
AcDbLine
 62
7
  6
CONTINUOUS
 10
181.497949002
 20
193.6700196078
 11
360.313949002
 21
193.6700196078
  0
LINE
  5
25E
100
AcDbEntity
  8
0
100
AcDbLine
 62
7
  6
CONTINUOUS
 10
360.313949002
 20
196.3370196078
 11
181.497949002
 21
196.3370196078
  0
LINE
  5
25F
100
AcDbEntity
  8
0
100
AcDbLine
 62
7
  6
CONTINUOUS
 10
68.493349002
 20
311.9070196078
 11
67.731349002
 21
312.6690196078
  0
LINE
  5
260
100
AcDbEntity
  8
0
100
AcDbLine
 62
7
  6
CONTINUOUS
 10
71.287349002
 20
311.9070196078
 11
70.525349002
 21
312.6690196078
  0
LINE
  5
261
100
AcDbEntity
  8
0
100
AcDbLine
 62
7
  6
CONTINUOUS
 10
146.5331792848
 20
337.9352692663
 11
146.6051107859
 21
338.061186966
  0
LINE
  5
262
100
AcDbEntity
  8
0
100
AcDbLine
 62
7
  6
CONTINUOUS
 10
146.5335346324
 20
337.9352147797
 11
146.6056159685
 21
338.0610932039
  0
LINE
  5
263
100
AcDbEntity
  8
0
100
AcDbLine
 62
7
  6
CONTINUOUS
 10
146.3967809432
 20
336.6570753744
 11
146.3967809432
 21
337.6963965249
  0
LINE
  5
264
100
AcDbEntity
  8
0
100
AcDbLine
 62
7
  6
CONTINUOUS
 10
148.223949002
 20
331.7019007099
 11
148.223949002
 21
346.2781544738
  0
LINE
  5
265
100
AcDbEntity
  8
0
100
AcDbLine
 62
7
  6
CONTINUOUS
 10
148.858949002
 20
349.2382045341
 11
148.858949002
 21
346.6520022881
  0
LINE
  5
266
100
AcDbEntity
  8
0
100
AcDbLine
 62
7
  6
CONTINUOUS
 10
148.858949002
 20
330.7329950526
 11
148.858949002
 21
320.8728213718
  0
LINE
  5
267
100
AcDbEntity
  8
0
100
AcDbLine
 62
7
  6
CONTINUOUS
 10
150.382949002
 20
319.3601339483
 11
150.382949002
 21
319.0357802474
  0
LINE
  5
268
100
AcDbEntity
  8
0
100
AcDbLine
 62
7
  6
CONTINUOUS
 10
168.061349002
 20
352.6361312864
 11
167.680349002
 21
352.2551312864
  0
LINE
  5
269
100
AcDbEntity
  8
0
100
AcDbLine
 62
7
  6
CONTINUOUS
 10
169.686949002
 20
226.5340968488
 11
166.283349002
 21
226.5340968488
  0
LINE
  5
26A
100
AcDbEntity
  8
0
100
AcDbLine
 62
7
  6
CONTINUOUS
 10
372.124949002
 20
226.5340968488
 11
375.528549002
 21
226.5340968488
  0
LINE
  5
26B
100
AcDbEntity
  8
0
100
AcDbLine
 62
7
  6
CONTINUOUS
 10
166.283349002
 20
231.0547636286
 11
169.686949002
 21
231.0547636286
  0
LINE
  5
26C
100
AcDbEntity
  8
0
100
AcDbLine
 62
7
  6
CONTINUOUS
 10
372.124949002
 20
231.0547636286
 11
375.528549002
 21
231.0547636286
  0
LINE
  5
26D
100
AcDbEntity
  8
0
100
AcDbLine
 62
7
  6
CONTINUOUS
 10
52.846949002
 20
386.1101044264
 11
51.885141391
 21
387.3360199163
  0
LINE
  5
26E
100
AcDbEntity
  8
0
100
AcDbLine
 62
7
  6
CONTINUOUS
 10
152.115229002
 20
338.5814160011
 11
152.115229002
 21
340.2092885989
  0
LINE
  5
26F
100
AcDbEntity
  8
0
100
AcDbLine
 62
7
  6
CONTINUOUS
 10
152.922949002
 20
341.0489013218
 11
152.922949002
 21
341.9447353529
  0
LINE
  5
270
100
AcDbEntity
  8
0
100
AcDbLine
 62
7
  6
CONTINUOUS
 10
153.367449002
 20
352.5402895824
 11
153.367449002
 21
353.4361236134
  0
LINE
  5
271
100
AcDbEntity
  8
0
100
AcDbLine
 62
7
  6
CONTINUOUS
 10
153.6191441356
 20
360.4744816554
 11
153.6191441356
 21
360.1132934953
  0
LINE
  5
272
100
AcDbEntity
  8
0
100
AcDbLine
 62
7
  6
CONTINUOUS
 10
154.192949002
 20
342.0374078389
 11
154.192949002
 21
342.9385417706
  0
LINE
  5
273
100
AcDbEntity
  8
0
100
AcDbLine
 62
7
  6
CONTINUOUS
 10
154.700949002
 20
343.0259143592
 11
154.700949002
 21
343.7672942437
  0
LINE
  5
274
100
AcDbEntity
  8
0
100
AcDbLine
 62
7
  6
CONTINUOUS
 10
155.335949002
 20
325.8555438963
 11
155.335949002
 21
325.6629982131
  0
LINE
  5
275
100
AcDbEntity
  8
0
100
AcDbLine
 62
7
  6
CONTINUOUS
 10
155.716949002
 20
343.7672942483
 11
155.716949002
 21
347.5862470347
  0
LINE
  5
276
100
AcDbEntity
  8
0
100
AcDbLine
 62
7
  6
CONTINUOUS
 10
156.123349002
 20
364.9805261731
 11
156.123349002
 21
355.4047363998
  0
LINE
  5
277
100
AcDbEntity
  8
0
100
AcDbLine
 62
7
  6
CONTINUOUS
 10
156.8270465688
 20
354.7010337196
 11
156.8270465688
 21
354.5982872636
  0
LINE
  5
278
100
AcDbEntity
  8
0
100
AcDbLine
 62
7
  6
CONTINUOUS
 10
156.859949002
 20
353.9303768753
 11
156.859949002
 21
354.5982872636
  0
LINE
  5
279
100
AcDbEntity
  8
0
100
AcDbLine
 62
7
  6
CONTINUOUS
 10
156.885349002
 20
365.7425312864
 11
156.885349002
 21
354.6427312864
  0
LINE
  5
27A
100
AcDbEntity
  8
0
100
AcDbLine
 62
7
  6
CONTINUOUS
 10
159.615849002
 20
323.2993482604
 11
159.615849002
 21
319.3250541465
  0
LINE
  5
27B
100
AcDbEntity
  8
0
100
AcDbLine
 62
7
  6
CONTINUOUS
 10
159.615849002
 20
317.9238875839
 11
159.615849002
 21
313.8251546829
  0
LINE
  5
27C
100
AcDbEntity
  8
0
100
AcDbLine
 62
7
  6
CONTINUOUS
 10
159.615849002
 20
303.8768600802
 11
159.615849002
 21
299.9025659663
  0
LINE
  5
27D
100
AcDbEntity
  8
0
100
AcDbLine
 62
7
  6
CONTINUOUS
 10
159.615849002
 20
298.5013994038
 11
159.615849002
 21
294.4026665028
  0
LINE
  5
27E
100
AcDbEntity
  8
0
100
AcDbLine
 62
7
  6
CONTINUOUS
 10
159.742849002
 20
319.3250541465
 11
159.742849002
 21
317.9238875839
  0
LINE
  5
27F
100
AcDbEntity
  8
0
100
AcDbLine
 62
7
  6
CONTINUOUS
 10
159.742849002
 20
299.9025659663
 11
159.742849002
 21
298.5013994038
  0
LINE
  5
280
100
AcDbEntity
  8
0
100
AcDbLine
 62
7
  6
CONTINUOUS
 10
160.034949002
 20
325.9727555536
 11
160.034949002
 21
324.9334344032
  0
LINE
  5
281
100
AcDbEntity
  8
0
100
AcDbLine
 62
7
  6
CONTINUOUS
 10
162.295549002
 20
267.3046137993
 11
162.295549002
 21
258.9734254164
  0
LINE
  5
282
100
AcDbEntity
  8
0
100
AcDbLine
 62
7
  6
CONTINUOUS
 10
162.803549002
 20
267.8126196078
 11
162.803549002
 21
258.4654196078
  0
LINE
  5
283
100
AcDbEntity
  8
0
100
AcDbLine
 62
7
  6
CONTINUOUS
 10
163.095649002
 20
294.402665743
 11
163.095649002
 21
303.8768605116
  0
LINE
  5
284
100
AcDbEntity
  8
0
100
AcDbLine
 62
7
  6
CONTINUOUS
 10
163.095649002
 20
313.8251539231
 11
163.095649002
 21
323.2993486918
  0
LINE
  5
285
100
AcDbEntity
  8
0
100
AcDbLine
 62
7
  6
CONTINUOUS
 10
163.209949002
 20
353.9303768685
 11
163.209949002
 21
354.5982872636
  0
LINE
  5
286
100
AcDbEntity
  8
0
100
AcDbLine
 62
7
  6
CONTINUOUS
 10
163.2428514352
 20
354.6427312864
 11
163.2428514352
 21
354.5982872636
  0
LINE
  5
287
100
AcDbEntity
  8
0
100
AcDbLine
 62
7
  6
CONTINUOUS
 10
163.616349002
 20
374.3065163202
 11
163.616349002
 21
288.4572874051
  0
LINE
  5
288
100
AcDbEntity
  8
0
100
AcDbLine
 62
7
  6
CONTINUOUS
 10
162.295549002
 20
258.9734196078
 11
162.803549002
 21
258.4654196078
  0
LINE
  5
289
100
AcDbEntity
  8
0
100
AcDbLine
 62
7
  6
CONTINUOUS
 10
165.267349002
 20
258.4654953195
 11
165.267349002
 21
267.8125438962
  0
LINE
  5
28A
100
AcDbEntity
  8
0
100
AcDbLine
 62
7
  6
CONTINUOUS
 10
165.368949002
 20
271.7749949177
 11
165.368949002
 21
254.5030226169
  0
LINE
  5
28B
100
AcDbEntity
  8
0
100
AcDbLine
 62
7
  6
CONTINUOUS
 10
166.283349002
 20
226.5352419607
 11
166.283349002
 21
374.3065164538
  0
LINE
  5
28C
100
AcDbEntity
  8
0
100
AcDbLine
 62
7
  6
CONTINUOUS
 10
167.680349002
 20
352.2551312864
 11
167.680349002
 21
368.1301312864
  0
LINE
  5
28D
100
AcDbEntity
  8
0
100
AcDbLine
 62
7
  6
CONTINUOUS
 10
168.061349002
 20
352.6361354725
 11
168.061349002
 21
367.7491271004
  0
LINE
  5
28E
100
AcDbEntity
  8
0
100
AcDbLine
 62
7
  6
CONTINUOUS
 10
169.686949002
 20
226.5352458514
 11
169.686949002
 21
313.943465188
  0
LINE
  5
28F
100
AcDbEntity
  8
0
100
AcDbLine
 62
7
  6
CONTINUOUS
 10
170.220349002
 20
271.1400151745
 11
170.220349002
 21
255.1380240412
  0
LINE
  5
290
100
AcDbEntity
  8
0
100
AcDbLine
 62
7
  6
CONTINUOUS
 10
171.020449002
 20
296.8664662651
 11
171.020449002
 21
301.4130599895
  0
LINE
  5
291
100
AcDbEntity
  8
0
100
AcDbLine
 62
7
  6
CONTINUOUS
 10
171.020449002
 20
316.2889544453
 11
171.020449002
 21
317.2862364518
  0
LINE
  5
292
100
AcDbEntity
  8
0
100
AcDbLine
 62
7
  6
CONTINUOUS
 10
171.972949002
 20
347.625885942
 11
171.972949002
 21
350.8744552723
  0
LINE
  5
293
100
AcDbEntity
  8
0
100
AcDbLine
 62
7
  6
CONTINUOUS
 10
172.976249002
 20
277.4011222235
 11
172.976249002
 21
288.1961169922
  0
LINE
  5
294
100
AcDbEntity
  8
0
100
AcDbLine
 62
7
  6
CONTINUOUS
 10
173.496949002
 20
353.4228616273
 11
173.496949002
 21
348.297688176
  0
LINE
  5
295
100
AcDbEntity
  8
0
100
AcDbLine
 62
7
  6
CONTINUOUS
 10
173.496949002
 20
319.1219949019
 11
173.496949002
 21
310.2839982966
  0
LINE
  5
296
100
AcDbEntity
  8
0
100
AcDbLine
 62
7
  6
CONTINUOUS
 10
173.496949002
 20
310.132998228
 11
173.496949002
 21
274.1371865694
  0
LINE
  5
297
100
AcDbEntity
  8
0
100
AcDbLine
 62
7
  6
CONTINUOUS
 10
176.036949002
 20
348.681598999
 11
176.036949002
 21
322.8538221637
  0
LINE
  5
298
100
AcDbEntity
  8
0
100
AcDbLine
 62
7
  6
CONTINUOUS
 10
176.163949002
 20
199.0040196078
 11
176.163949002
 21
310.1329975149
  0
LINE
  5
299
100
AcDbEntity
  8
0
100
AcDbLine
 62
7
  6
CONTINUOUS
 10
176.163949002
 20
310.2840349668
 11
176.163949002
 21
319.7444788441
  0
LINE
  5
29A
100
AcDbEntity
  8
0
100
AcDbLine
 62
7
  6
CONTINUOUS
 10
176.163949002
 20
348.681598999
 11
176.163949002
 21
353.4228624203
  0
LINE
  5
29B
100
AcDbEntity
  8
0
100
AcDbLine
 62
7
  6
CONTINUOUS
 10
207.2468908441
 20
345.2422235997
 11
206.6010039934
 21
344.8225597043
  0
LINE
  5
29C
100
AcDbEntity
  8
0
100
AcDbLine
 62
7
  6
CONTINUOUS
 10
375.528549002
 20
245.5121924479
 11
372.124949002
 21
245.5121924479
  0
LINE
  5
29D
100
AcDbEntity
  8
0
100
AcDbLine
 62
7
  6
CONTINUOUS
 10
169.686949002
 20
245.5121924479
 11
166.283349002
 21
245.5121924479
  0
LINE
  5
29E
100
AcDbEntity
  8
0
100
AcDbLine
 62
7
  6
CONTINUOUS
 10
376.442949002
 20
254.5030196078
 11
375.553949002
 21
254.5030196078
  0
LINE
  5
29F
100
AcDbEntity
  8
0
100
AcDbLine
 62
7
  6
CONTINUOUS
 10
165.368949002
 20
254.5030196078
 11
166.257949002
 21
254.5030196078
  0
LINE
  5
2A0
100
AcDbEntity
  8
0
100
AcDbLine
 62
7
  6
CONTINUOUS
 10
176.163949002
 20
255.1380196078
 11
170.220349002
 21
255.1380196078
  0
LINE
  5
2A1
100
AcDbEntity
  8
0
100
AcDbLine
 62
7
  6
CONTINUOUS
 10
365.647949002
 20
255.1380196078
 11
371.591549002
 21
255.1380196078
  0
LINE
  5
2A2
100
AcDbEntity
  8
0
100
AcDbLine
 62
7
  6
CONTINUOUS
 10
166.283349002
 20
255.5727420553
 11
169.686949002
 21
255.5727420553
  0
LINE
  5
2A3
100
AcDbEntity
  8
0
100
AcDbLine
 62
7
  6
CONTINUOUS
 10
372.124949002
 20
255.5727420553
 11
375.528549002
 21
255.5727420553
  0
LINE
  5
2A4
100
AcDbEntity
  8
0
100
AcDbLine
 62
7
  6
CONTINUOUS
 10
375.553949002
 20
257.7018628779
 11
376.442949002
 21
257.7018628779
  0
LINE
  5
2A5
100
AcDbEntity
  8
0
100
AcDbLine
 62
7
  6
CONTINUOUS
 10
64.530949002
 20
376.4611196078
 11
64.149949002
 21
376.8421196078
  0
LINE
  5
2A6
100
AcDbEntity
  8
0
100
AcDbLine
 62
7
  6
CONTINUOUS
 10
148.858949002
 20
330.4440246086
 11
148.8734623041
 21
330.4162157781
  0
LINE
  5
2A7
100
AcDbEntity
  8
0
100
AcDbLine
 62
7
  6
CONTINUOUS
 10
178.830949002
 20
199.0040196078
 11
178.830949002
 21
301.2390196078
  0
LINE
  5
2A8
100
AcDbEntity
  8
0
100
AcDbLine
 62
7
  6
CONTINUOUS
 10
180.901049002
 20
279.8649227457
 11
180.901049002
 21
285.73231647
  0
LINE
  5
2A9
100
AcDbEntity
  8
0
100
AcDbLine
 62
7
  6
CONTINUOUS
 10
183.631549002
 20
259.2528249224
 11
183.631549002
 21
267.0252142933
  0
LINE
  5
2AA
100
AcDbEntity
  8
0
100
AcDbLine
 62
7
  6
CONTINUOUS
 10
232.7357908441
 20
346.4819568878
 11
232.0899039934
 21
346.0622929924
  0
LINE
  5
2AB
100
AcDbEntity
  8
0
100
AcDbLine
 62
7
  6
CONTINUOUS
 10
170.220349002
 20
258.4654196078
 11
169.686949002
 21
258.4654196078
  0
LINE
  5
2AC
100
AcDbEntity
  8
0
100
AcDbLine
 62
7
  6
CONTINUOUS
 10
165.267349002
 20
258.4654196078
 11
162.803549002
 21
258.4654196078
  0
LINE
  5
2AD
100
AcDbEntity
  8
0
100
AcDbLine
 62
7
  6
CONTINUOUS
 10
371.591549002
 20
258.4654196078
 11
372.124949002
 21
258.4654196078
  0
LINE
  5
2AE
100
AcDbEntity
  8
0
100
AcDbLine
 62
7
  6
CONTINUOUS
 10
375.528549002
 20
258.4654196078
 11
375.553949002
 21
258.4654196078
  0
LINE
  5
2AF
100
AcDbEntity
  8
0
100
AcDbLine
 62
7
  6
CONTINUOUS
 10
376.544549002
 20
258.4654196078
 11
379.008349002
 21
258.4654196078
  0
LINE
  5
2B0
100
AcDbEntity
  8
0
100
AcDbLine
 62
7
  6
CONTINUOUS
 10
375.528549002
 20
258.9820085976
 11
372.124949002
 21
258.9820085976
  0
LINE
  5
2B1
100
AcDbEntity
  8
0
100
AcDbLine
 62
7
  6
CONTINUOUS
 10
169.686949002
 20
258.9820085976
 11
166.283349002
 21
258.9820085976
  0
LINE
  5
2B2
100
AcDbEntity
  8
0
100
AcDbLine
 62
7
  6
CONTINUOUS
 10
375.553949002
 20
259.1370642808
 11
376.442949002
 21
259.1370642808
  0
LINE
  5
2B3
100
AcDbEntity
  8
0
100
AcDbLine
 62
7
  6
CONTINUOUS
 10
183.631549002
 20
259.2528196078
 11
178.830949002
 21
259.2528196078
  0
LINE
  5
2B4
100
AcDbEntity
  8
0
100
AcDbLine
 62
7
  6
CONTINUOUS
 10
358.180349002
 20
259.2528196078
 11
362.980949002
 21
259.2528196078
  0
LINE
  5
2B5
100
AcDbEntity
  8
0
100
AcDbLine
 62
7
  6
CONTINUOUS
 10
165.368949002
 20
259.2909196078
 11
165.267349002
 21
259.2909196078
  0
LINE
  5
2B6
100
AcDbEntity
  8
0
100
AcDbLine
 62
7
  6
CONTINUOUS
 10
376.442949002
 20
259.2909196078
 11
376.544549002
 21
259.2909196078
  0
LINE
  5
2B7
100
AcDbEntity
  8
0
100
AcDbLine
 62
7
  6
CONTINUOUS
 10
376.442949002
 20
259.8681346078
 11
375.553949002
 21
259.8681346078
  0
LINE
  5
2B8
100
AcDbEntity
  8
0
100
AcDbLine
 62
7
  6
CONTINUOUS
 10
375.553949002
 20
266.4099046078
 11
376.442949002
 21
266.4099046078
  0
LINE
  5
2B9
100
AcDbEntity
  8
0
100
AcDbLine
 62
7
  6
CONTINUOUS
 10
165.368949002
 20
266.9871196078
 11
165.267349002
 21
266.9871196078
  0
LINE
  5
2BA
100
AcDbEntity
  8
0
100
AcDbLine
 62
7
  6
CONTINUOUS
 10
376.442949002
 20
266.9871196078
 11
376.544549002
 21
266.9871196078
  0
LINE
  5
2BB
100
AcDbEntity
  8
0
100
AcDbLine
 62
7
  6
CONTINUOUS
 10
183.631549002
 20
267.0252196078
 11
178.830949002
 21
267.0252196078
  0
LINE
  5
2BC
100
AcDbEntity
  8
0
100
AcDbLine
 62
7
  6
CONTINUOUS
 10
358.180349002
 20
267.0252196078
 11
362.980949002
 21
267.0252196078
  0
LINE
  5
2BD
100
AcDbEntity
  8
0
100
AcDbLine
 62
7
  6
CONTINUOUS
 10
376.442949002
 20
267.1409749349
 11
375.553949002
 21
267.1409749349
  0
LINE
  5
2BE
100
AcDbEntity
  8
0
100
AcDbLine
 62
7
  6
CONTINUOUS
 10
170.220349002
 20
267.8126196078
 11
169.686949002
 21
267.8126196078
  0
LINE
  5
2BF
100
AcDbEntity
  8
0
100
AcDbLine
 62
7
  6
CONTINUOUS
 10
165.267349002
 20
267.8126196078
 11
162.803549002
 21
267.8126196078
  0
LINE
  5
2C0
100
AcDbEntity
  8
0
100
AcDbLine
 62
7
  6
CONTINUOUS
 10
371.591549002
 20
267.8126196078
 11
372.124949002
 21
267.8126196078
  0
LINE
  5
2C1
100
AcDbEntity
  8
0
100
AcDbLine
 62
7
  6
CONTINUOUS
 10
375.528549002
 20
267.8126196078
 11
375.553949002
 21
267.8126196078
  0
LINE
  5
2C2
100
AcDbEntity
  8
0
100
AcDbLine
 62
7
  6
CONTINUOUS
 10
376.544549002
 20
267.8126196078
 11
379.008349002
 21
267.8126196078
  0
LINE
  5
2C3
100
AcDbEntity
  8
0
100
AcDbLine
 62
7
  6
CONTINUOUS
 10
375.553949002
 20
268.5761763378
 11
376.442949002
 21
268.5761763378
  0
LINE
  5
2C4
100
AcDbEntity
  8
0
100
AcDbLine
 62
7
  6
CONTINUOUS
 10
148.8162330563
 20
330.4160788871
 11
148.8335946315
 21
330.3900002242
  0
LINE
  5
2C5
100
AcDbEntity
  8
0
100
AcDbLine
 62
7
  6
CONTINUOUS
 10
146.6464424296
 20
337.2750884217
 11
146.6126092375
 21
337.332209587
  0
LINE
  5
2C6
100
AcDbEntity
  8
0
100
AcDbLine
 62
7
  6
CONTINUOUS
 10
146.6470222009
 20
337.272976157
 11
146.6131285234
 21
337.3303259063
  0
LINE
  5
2C7
100
AcDbEntity
  8
0
100
AcDbLine
 62
7
  6
CONTINUOUS
 10
197.8357392174
 20
337.0829602129
 11
197.8304362515
 21
337.2362088113
  0
LINE
  5
2C8
100
AcDbEntity
  8
0
100
AcDbLine
 62
7
  6
CONTINUOUS
 10
197.8305376494
 20
335.1478438493
 11
197.8357392174
 21
334.9945952968
  0
LINE
  5
2C9
100
AcDbEntity
  8
0
100
AcDbLine
 62
7
  6
CONTINUOUS
 10
197.830149002
 20
335.1478439373
 11
197.830149002
 21
337.2362088535
  0
LINE
  5
2CA
100
AcDbEntity
  8
0
100
AcDbLine
 62
7
  6
CONTINUOUS
 10
200.4691591277
 20
334.0838953597
 11
200.4691591277
 21
331.9955304436
  0
LINE
  5
2CB
100
AcDbEntity
  8
0
100
AcDbLine
 62
7
  6
CONTINUOUS
 10
202.592649002
 20
338.744472404
 11
202.592649002
 21
337.2362088535
  0
LINE
  5
2CC
100
AcDbEntity
  8
0
100
AcDbLine
 62
7
  6
CONTINUOUS
 10
162.295549002
 20
267.3046196078
 11
162.803549002
 21
267.8126196078
  0
LINE
  5
2CD
100
AcDbEntity
  8
0
100
AcDbLine
 62
7
  6
CONTINUOUS
 10
176.163949002
 20
271.1400196078
 11
170.220349002
 21
271.1400196078
  0
LINE
  5
2CE
100
AcDbEntity
  8
0
100
AcDbLine
 62
7
  6
CONTINUOUS
 10
365.647949002
 20
271.1400196078
 11
371.591549002
 21
271.1400196078
  0
LINE
  5
2CF
100
AcDbEntity
  8
0
100
AcDbLine
 62
7
  6
CONTINUOUS
 10
376.442949002
 20
271.7750196078
 11
375.553949002
 21
271.7750196078
  0
LINE
  5
2D0
100
AcDbEntity
  8
0
100
AcDbLine
 62
7
  6
CONTINUOUS
 10
165.368949002
 20
271.7750196078
 11
166.257949002
 21
271.7750196078
  0
LINE
  5
2D1
100
AcDbEntity
  8
0
100
AcDbLine
 62
7
  6
CONTINUOUS
 10
176.163949002
 20
274.1369986516
 11
173.496949002
 21
274.1369986516
  0
LINE
  5
2D2
100
AcDbEntity
  8
0
100
AcDbLine
 62
7
  6
CONTINUOUS
 10
173.496949002
 20
274.1388285118
 11
176.163949002
 21
274.1388285118
  0
LINE
  5
2D3
100
AcDbEntity
  8
0
100
AcDbLine
 62
7
  6
CONTINUOUS
 10
166.283349002
 20
275.7495912767
 11
169.686949002
 21
275.7495912767
  0
LINE
  5
2D4
100
AcDbEntity
  8
0
100
AcDbLine
 62
7
  6
CONTINUOUS
 10
372.124949002
 20
275.7495912767
 11
375.528549002
 21
275.7495912767
  0
LINE
  5
2D5
100
AcDbEntity
  8
0
100
AcDbLine
 62
7
  6
CONTINUOUS
 10
176.163949002
 20
275.8621517361
 11
173.496949002
 21
275.8621517361
  0
LINE
  5
2D6
100
AcDbEntity
  8
0
100
AcDbLine
 62
7
  6
CONTINUOUS
 10
172.976249002
 20
277.4011196078
 11
169.686949002
 21
277.4011196078
  0
LINE
  5
2D7
100
AcDbEntity
  8
0
100
AcDbLine
 62
7
  6
CONTINUOUS
 10
173.496949002
 20
277.4138196078
 11
172.976249002
 21
277.4138196078
  0
LINE
  5
2D8
100
AcDbEntity
  8
0
100
AcDbLine
 62
7
  6
CONTINUOUS
 10
172.976249002
 20
278.7219196078
 11
169.686949002
 21
278.7219196078
  0
LINE
  5
2D9
100
AcDbEntity
  8
0
100
AcDbLine
 62
7
  6
CONTINUOUS
 10
173.496949002
 20
278.7346196078
 11
172.976249002
 21
278.7346196078
  0
LINE
  5
2DA
100
AcDbEntity
  8
0
100
AcDbLine
 62
7
  6
CONTINUOUS
 10
173.496949002
 20
279.0139224408
 11
176.163949002
 21
279.0139224408
  0
LINE
  5
2DB
100
AcDbEntity
  8
0
100
AcDbLine
 62
7
  6
CONTINUOUS
 10
178.830949002
 20
279.8649196078
 11
180.901049002
 21
279.8649196078
  0
LINE
  5
2DC
100
AcDbEntity
  8
0
100
AcDbLine
 62
7
  6
CONTINUOUS
 10
178.830949002
 20
281.1857196078
 11
180.901049002
 21
281.1857196078
  0
LINE
  5
2DD
100
AcDbEntity
  8
0
100
AcDbLine
 62
7
  6
CONTINUOUS
 10
205.894649002
 20
338.744472404
 11
205.894649002
 21
343.822146322
  0
LINE
  5
2DE
100
AcDbEntity
  8
0
100
AcDbLine
 62
7
  6
CONTINUOUS
 10
208.148899002
 20
343.8470739607
 11
208.148899002
 21
344.9654495039
  0
LINE
  5
2DF
100
AcDbEntity
  8
0
100
AcDbLine
 62
7
  6
CONTINUOUS
 10
209.1992165779
 20
327.3860177797
 11
209.1992165779
 21
329.4743826959
  0
LINE
  5
2E0
100
AcDbEntity
  8
0
100
AcDbLine
 62
7
  6
CONTINUOUS
 10
210.530149002
 20
343.2878861892
 11
210.530149002
 21
345.5246372754
  0
LINE
  5
2E1
100
AcDbEntity
  8
0
100
AcDbLine
 62
7
  6
CONTINUOUS
 10
212.911399002
 20
344.9654495039
 11
212.911399002
 21
343.8470739607
  0
LINE
  5
2E2
100
AcDbEntity
  8
0
100
AcDbLine
 62
7
  6
CONTINUOUS
 10
213.755949002
 20
319.7444788441
 11
213.755949002
 21
319.9322914167
  0
LINE
  5
2E3
100
AcDbEntity
  8
0
100
AcDbLine
 62
7
  6
CONTINUOUS
 10
213.755949002
 20
319.9568806814
 11
213.755949002
 21
323.5846303371
  0
LINE
  5
2E4
100
AcDbEntity
  8
0
100
AcDbLine
 62
7
  6
CONTINUOUS
 10
215.165649002
 20
338.744472404
 11
215.165649002
 21
343.822146322
  0
LINE
  5
2E5
100
AcDbEntity
  8
0
100
AcDbLine
 62
7
  6
CONTINUOUS
 10
178.830949002
 20
285.7323196078
 11
180.901049002
 21
285.7323196078
  0
LINE
  5
2E6
100
AcDbEntity
  8
0
100
AcDbLine
 62
7
  6
CONTINUOUS
 10
51.830949002
 20
286.2530196078
 11
49.163949002
 21
286.2530196078
  0
LINE
  5
2E7
100
AcDbEntity
  8
0
100
AcDbLine
 62
7
  6
CONTINUOUS
 10
173.496949002
 20
288.1834196078
 11
172.976249002
 21
288.1834196078
  0
LINE
  5
2E8
100
AcDbEntity
  8
0
100
AcDbLine
 62
7
  6
CONTINUOUS
 10
172.976249002
 20
288.1961196078
 11
169.686949002
 21
288.1961196078
  0
LINE
  5
2E9
100
AcDbEntity
  8
0
100
AcDbLine
 62
7
  6
CONTINUOUS
 10
166.283349002
 20
288.4572477434
 11
163.616349002
 21
288.4572477434
  0
LINE
  5
2EA
100
AcDbEntity
  8
0
100
AcDbLine
 62
7
  6
CONTINUOUS
 10
365.647949002
 20
288.5390196078
 11
362.980949002
 21
288.5390196078
  0
LINE
  5
2EB
100
AcDbEntity
  8
0
100
AcDbLine
 62
7
  6
CONTINUOUS
 10
176.163949002
 20
288.5390196078
 11
178.830949002
 21
288.5390196078
  0
LINE
  5
2EC
100
AcDbEntity
  8
0
100
AcDbLine
 62
7
  6
CONTINUOUS
 10
49.163949002
 20
288.8550324789
 11
51.830949002
 21
288.8550324789
  0
LINE
  5
2ED
100
AcDbEntity
  8
0
100
AcDbLine
 62
7
  6
CONTINUOUS
 10
163.616349002
 20
292.2244700598
 11
166.283349002
 21
292.2244700598
  0
LINE
  5
2EE
100
AcDbEntity
  8
0
100
AcDbLine
 62
7
  6
CONTINUOUS
 10
53.354949002
 20
293.6190196078
 11
67.451949002
 21
293.6190196078
  0
LINE
  5
2EF
100
AcDbEntity
  8
0
100
AcDbLine
 62
7
  6
CONTINUOUS
 10
163.095649002
 20
294.4026631273
 11
159.615849002
 21
294.4026631273
  0
LINE
  5
2F0
100
AcDbEntity
  8
0
100
AcDbLine
 62
7
  6
CONTINUOUS
 10
163.616349002
 20
294.4153631273
 11
163.095649002
 21
294.4153631273
  0
LINE
  5
2F1
100
AcDbEntity
  8
0
100
AcDbLine
 62
7
  6
CONTINUOUS
 10
65.000849002
 20
295.9050196078
 11
66.067649002
 21
295.9050196078
  0
LINE
  5
2F2
100
AcDbEntity
  8
0
100
AcDbLine
 62
7
  6
CONTINUOUS
 10
67.832949002
 20
295.9050196078
 11
68.899749002
 21
295.9050196078
  0
LINE
  5
2F3
100
AcDbEntity
  8
0
100
AcDbLine
 62
7
  6
CONTINUOUS
 10
169.686949002
 20
296.8664631273
 11
171.020449002
 21
296.8664631273
  0
LINE
  5
2F4
100
AcDbEntity
  8
0
100
AcDbLine
 62
7
  6
CONTINUOUS
 10
156.123349002
 20
355.4047312864
 11
156.885349002
 21
354.6427312864
  0
LINE
  5
2F5
100
AcDbEntity
  8
0
100
AcDbLine
 62
7
  6
CONTINUOUS
 10
223.2245587867
 20
337.389457494
 11
223.4587628019
 21
334.179961638
  0
LINE
  5
2F6
100
AcDbEntity
  8
0
100
AcDbLine
 62
7
  6
CONTINUOUS
 10
226.0731276472
 20
339.9035654183
 11
226.0810583831
 21
339.6736925324
  0
LINE
  5
2F7
100
AcDbEntity
  8
0
100
AcDbLine
 62
7
  6
CONTINUOUS
 10
226.0810583831
 20
341.7620574485
 11
226.0731276472
 21
341.9919303345
  0
LINE
  5
2F8
100
AcDbEntity
  8
0
100
AcDbLine
 62
7
  6
CONTINUOUS
 10
218.467649002
 20
338.744472404
 11
218.467649002
 21
337.2362088535
  0
LINE
  5
2F9
100
AcDbEntity
  8
0
100
AcDbLine
 62
7
  6
CONTINUOUS
 10
221.375949002
 20
320.7533875715
 11
221.375949002
 21
324.1383422946
  0
LINE
  5
2FA
100
AcDbEntity
  8
0
100
AcDbLine
 62
7
  6
CONTINUOUS
 10
226.0726730601
 20
339.9035654931
 11
226.0726730601
 21
341.9919304093
  0
LINE
  5
2FB
100
AcDbEntity
  8
0
100
AcDbLine
 62
7
  6
CONTINUOUS
 10
226.0810583831
 20
341.7620574485
 11
226.0810583831
 21
339.6736925324
  0
LINE
  5
2FC
100
AcDbEntity
  8
0
100
AcDbLine
 62
7
  6
CONTINUOUS
 10
226.4613008093
 20
334.4629087198
 11
226.4613008093
 21
336.551273636
  0
LINE
  5
2FD
100
AcDbEntity
  8
0
100
AcDbLine
 62
7
  6
CONTINUOUS
 10
227.3609293493
 20
325.9752981533
 11
227.3609293493
 21
324.1383422946
  0
LINE
  5
2FE
100
AcDbEntity
  8
0
100
AcDbLine
 62
7
  6
CONTINUOUS
 10
228.081549002
 20
339.9842056921
 11
228.081549002
 21
338.4759421416
  0
LINE
  5
2FF
100
AcDbEntity
  8
0
100
AcDbLine
 62
7
  6
CONTINUOUS
 10
302.4968908441
 20
345.2422235997
 11
301.8510039934
 21
344.8225597043
  0
LINE
  5
300
100
AcDbEntity
  8
0
100
AcDbLine
 62
7
  6
CONTINUOUS
 10
159.615849002
 20
298.5013994038
 11
159.742849002
 21
298.5013994038
  0
LINE
  5
301
100
AcDbEntity
  8
0
100
AcDbLine
 62
7
  6
CONTINUOUS
 10
159.742849002
 20
299.9025659663
 11
159.615849002
 21
299.9025659663
  0
LINE
  5
302
100
AcDbEntity
  8
0
100
AcDbLine
 62
7
  6
CONTINUOUS
 10
70.525349002
 20
299.9690196078
 11
69.001349002
 21
299.9690196078
  0
LINE
  5
303
100
AcDbEntity
  8
0
100
AcDbLine
 62
7
  6
CONTINUOUS
 10
62.117949002
 20
299.9690196078
 11
65.000849002
 21
299.9690196078
  0
LINE
  5
304
100
AcDbEntity
  8
0
100
AcDbLine
 62
7
  6
CONTINUOUS
 10
66.207349002
 20
299.9690196078
 11
67.832949002
 21
299.9690196078
  0
LINE
  5
305
100
AcDbEntity
  8
0
100
AcDbLine
 62
7
  6
CONTINUOUS
 10
365.647949002
 20
301.2390196078
 11
362.980949002
 21
301.2390196078
  0
LINE
  5
306
100
AcDbEntity
  8
0
100
AcDbLine
 62
7
  6
CONTINUOUS
 10
176.163949002
 20
301.2390196078
 11
178.830949002
 21
301.2390196078
  0
LINE
  5
307
100
AcDbEntity
  8
0
100
AcDbLine
 62
7
  6
CONTINUOUS
 10
69.001349002
 20
301.2898196078
 11
68.899749002
 21
301.2898196078
  0
LINE
  5
308
100
AcDbEntity
  8
0
100
AcDbLine
 62
7
  6
CONTINUOUS
 10
66.067649002
 20
301.2898196078
 11
66.207349002
 21
301.2898196078
  0
LINE
  5
309
100
AcDbEntity
  8
0
100
AcDbLine
 62
7
  6
CONTINUOUS
 10
169.686949002
 20
301.4130631273
 11
171.020449002
 21
301.4130631273
  0
LINE
  5
30A
100
AcDbEntity
  8
0
100
AcDbLine
 62
7
  6
CONTINUOUS
 10
163.616349002
 20
303.8641631273
 11
163.095649002
 21
303.8641631273
  0
LINE
  5
30B
100
AcDbEntity
  8
0
100
AcDbLine
 62
7
  6
CONTINUOUS
 10
163.095649002
 20
303.8768631273
 11
159.615849002
 21
303.8768631273
  0
LINE
  5
30C
100
AcDbEntity
  8
0
100
AcDbLine
 62
7
  6
CONTINUOUS
 10
176.163949002
 20
307.1909962341
 11
173.496949002
 21
307.1909962341
  0
LINE
  5
30D
100
AcDbEntity
  8
0
100
AcDbLine
 62
7
  6
CONTINUOUS
 10
375.528549002
 20
308.142451532
 11
372.124949002
 21
308.142451532
  0
LINE
  5
30E
100
AcDbEntity
  8
0
100
AcDbLine
 62
7
  6
CONTINUOUS
 10
226.4613008093
 20
334.4629087198
 11
226.0810583831
 21
339.6736925324
  0
LINE
  5
30F
100
AcDbEntity
  8
0
100
AcDbLine
 62
7
  6
CONTINUOUS
 10
226.4613008093
 20
336.551273636
 11
226.0810583831
 21
341.7620574485
  0
LINE
  5
310
100
AcDbEntity
  8
0
100
AcDbLine
 62
7
  6
CONTINUOUS
 10
231.383549002
 20
339.9842056921
 11
231.383549002
 21
345.0618796101
  0
LINE
  5
311
100
AcDbEntity
  8
0
100
AcDbLine
 62
7
  6
CONTINUOUS
 10
232.844049002
 20
335.5173639053
 11
232.844049002
 21
335.195173301
  0
LINE
  5
312
100
AcDbEntity
  8
0
100
AcDbLine
 62
7
  6
CONTINUOUS
 10
233.637799002
 20
345.0868072488
 11
233.637799002
 21
346.205182792
  0
LINE
  5
313
100
AcDbEntity
  8
0
100
AcDbLine
 62
7
  6
CONTINUOUS
 10
236.019049002
 20
344.5276194773
 11
236.019049002
 21
346.7643705635
  0
LINE
  5
314
100
AcDbEntity
  8
0
100
AcDbLine
 62
7
  6
CONTINUOUS
 10
238.400299002
 20
346.205182792
 11
238.400299002
 21
345.0868072488
  0
LINE
  5
315
100
AcDbEntity
  8
0
100
AcDbLine
 62
7
  6
CONTINUOUS
 10
239.194049002
 20
335.5177941423
 11
239.194049002
 21
335.0874981374
  0
LINE
  5
316
100
AcDbEntity
  8
0
100
AcDbLine
 62
7
  6
CONTINUOUS
 10
240.654549002
 20
339.9842056921
 11
240.654549002
 21
345.0618796101
  0
LINE
  5
317
100
AcDbEntity
  8
0
100
AcDbLine
 62
7
  6
CONTINUOUS
 10
327.9857908441
 20
346.4819568878
 11
327.3399039934
 21
346.0622929924
  0
LINE
  5
318
100
AcDbEntity
  8
0
100
AcDbLine
 62
7
  6
CONTINUOUS
 10
331.269049002
 20
344.5276194773
 11
333.650299002
 21
345.0868072488
  0
LINE
  5
319
100
AcDbEntity
  8
0
100
AcDbLine
 62
7
  6
CONTINUOUS
 10
331.269049002
 20
346.7643705635
 11
328.887799002
 21
346.205182792
  0
LINE
  5
31A
100
AcDbEntity
  8
0
100
AcDbLine
 62
7
  6
CONTINUOUS
 10
305.780149002
 20
343.2878861892
 11
308.161399002
 21
343.8470739607
  0
LINE
  5
31B
100
AcDbEntity
  8
0
100
AcDbLine
 62
7
  6
CONTINUOUS
 10
213.755949002
 20
319.9568806814
 11
221.375949002
 21
320.7533875715
  0
LINE
  5
31C
100
AcDbEntity
  8
0
100
AcDbLine
 62
7
  6
CONTINUOUS
 10
176.163949002
 20
310.1333956692
 11
173.496949002
 21
310.1333956692
  0
LINE
  5
31D
100
AcDbEntity
  8
0
100
AcDbLine
 62
7
  6
CONTINUOUS
 10
69.001349002
 20
311.3482196078
 11
68.899749002
 21
311.3482196078
  0
LINE
  5
31E
100
AcDbEntity
  8
0
100
AcDbLine
 62
7
  6
CONTINUOUS
 10
66.067649002
 20
311.3482196078
 11
66.207349002
 21
311.3482196078
  0
LINE
  5
31F
100
AcDbEntity
  8
0
100
AcDbLine
 62
7
  6
CONTINUOUS
 10
173.496949002
 20
311.8817934172
 11
176.163949002
 21
311.8817934172
  0
LINE
  5
320
100
AcDbEntity
  8
0
100
AcDbLine
 62
7
  6
CONTINUOUS
 10
70.525349002
 20
312.6690196078
 11
69.001349002
 21
312.6690196078
  0
LINE
  5
321
100
AcDbEntity
  8
0
100
AcDbLine
 62
7
  6
CONTINUOUS
 10
64.784949002
 20
312.6690196078
 11
65.000849002
 21
312.6690196078
  0
LINE
  5
322
100
AcDbEntity
  8
0
100
AcDbLine
 62
7
  6
CONTINUOUS
 10
66.207349002
 20
312.6690196078
 11
67.832949002
 21
312.6690196078
  0
LINE
  5
323
100
AcDbEntity
  8
0
100
AcDbLine
 62
7
  6
CONTINUOUS
 10
163.095649002
 20
313.8251513074
 11
159.615849002
 21
313.8251513074
  0
LINE
  5
324
100
AcDbEntity
  8
0
100
AcDbLine
 62
7
  6
CONTINUOUS
 10
163.616349002
 20
313.8378513074
 11
163.095649002
 21
313.8378513074
  0
LINE
  5
325
100
AcDbEntity
  8
0
100
AcDbLine
 62
7
  6
CONTINUOUS
 10
372.124949002
 20
313.943465188
 11
375.528549002
 21
313.943465188
  0
LINE
  5
326
100
AcDbEntity
  8
0
100
AcDbLine
 62
7
  6
CONTINUOUS
 10
64.784949002
 20
314.2183440083
 11
65.000849002
 21
314.2183440083
  0
LINE
  5
327
100
AcDbEntity
  8
0
100
AcDbLine
 62
7
  6
CONTINUOUS
 10
66.067649002
 20
314.2183440083
 11
67.451949002
 21
314.2183440083
  0
LINE
  5
328
100
AcDbEntity
  8
0
100
AcDbLine
 62
7
  6
CONTINUOUS
 10
170.3757508746
 20
316.2889513074
 11
171.020449002
 21
316.2889513074
  0
LINE
  5
329
100
AcDbEntity
  8
0
100
AcDbLine
 62
7
  6
CONTINUOUS
 10
65.000849002
 20
316.7330196078
 11
66.067649002
 21
316.7330196078
  0
LINE
  5
32A
100
AcDbEntity
  8
0
100
AcDbLine
 62
7
  6
CONTINUOUS
 10
67.832949002
 20
316.7330196078
 11
68.899749002
 21
316.7330196078
  0
LINE
  5
32B
100
AcDbEntity
  8
0
100
AcDbLine
 62
7
  6
CONTINUOUS
 10
159.615849002
 20
317.9238875839
 11
159.742849002
 21
317.9238875839
  0
LINE
  5
32C
100
AcDbEntity
  8
0
100
AcDbLine
 62
7
  6
CONTINUOUS
 10
53.354949002
 20
319.0190196078
 11
62.117949002
 21
319.0190196078
  0
LINE
  5
32D
100
AcDbEntity
  8
0
100
AcDbLine
 62
7
  6
CONTINUOUS
 10
150.3829490019
 20
319.0357802474
 11
159.742849002
 21
319.0357802474
  0
LINE
  5
32E
100
AcDbEntity
  8
0
100
AcDbLine
 62
7
  6
CONTINUOUS
 10
159.742849002
 20
319.3250541465
 11
159.615849002
 21
319.3250541465
  0
LINE
  5
32F
100
AcDbEntity
  8
0
100
AcDbLine
 62
7
  6
CONTINUOUS
 10
150.382949002
 20
319.3601339483
 11
159.615849002
 21
319.3601339483
  0
LINE
  5
330
100
AcDbEntity
  8
0
100
AcDbLine
 62
7
  6
CONTINUOUS
 10
176.036949002
 20
319.7444788441
 11
213.755949002
 21
319.7444788441
  0
LINE
  5
331
100
AcDbEntity
  8
0
100
AcDbLine
 62
7
  6
CONTINUOUS
 10
328.055949002
 20
319.7444788441
 11
365.774949002
 21
319.7444788441
  0
LINE
  5
332
100
AcDbEntity
  8
0
100
AcDbLine
 62
7
  6
CONTINUOUS
 10
328.055949002
 20
319.8955574383
 11
213.755949002
 21
319.8955574383
  0
LINE
  5
333
100
AcDbEntity
  8
0
100
AcDbLine
 62
7
  6
CONTINUOUS
 10
213.755949002
 20
319.9322914167
 11
328.055949002
 21
319.9322914167
  0
LINE
  5
334
100
AcDbEntity
  8
0
100
AcDbLine
 62
7
  6
CONTINUOUS
 10
221.375949002
 20
320.7533875715
 11
320.435949002
 21
320.7533875715
  0
LINE
  5
335
100
AcDbEntity
  8
0
100
AcDbLine
 62
7
  6
CONTINUOUS
 10
166.283349002
 20
320.8325916549
 11
163.616349002
 21
320.8325916549
  0
LINE
  5
336
100
AcDbEntity
  8
0
100
AcDbLine
 62
7
  6
CONTINUOUS
 10
53.354949002
 20
322.1940196078
 11
62.117949002
 21
322.1940196078
  0
LINE
  5
337
100
AcDbEntity
  8
0
100
AcDbLine
 62
7
  6
CONTINUOUS
 10
67.451949002
 20
322.1940196078
 11
80.786949002
 21
322.1940196078
  0
LINE
  5
338
100
AcDbEntity
  8
0
100
AcDbLine
 62
7
  6
CONTINUOUS
 10
176.036949002
 20
322.8538221637
 11
213.755949002
 21
322.8538221637
  0
LINE
  5
339
100
AcDbEntity
  8
0
100
AcDbLine
 62
7
  6
CONTINUOUS
 10
328.055949002
 20
322.8538221637
 11
365.774949002
 21
322.8538221637
  0
LINE
  5
33A
100
AcDbEntity
  8
0
100
AcDbLine
 62
7
  6
CONTINUOUS
 10
200.4691591276
 20
331.9955304436
 11
209.199216578
 21
327.3860177797
  0
LINE
  5
33B
100
AcDbEntity
  8
0
100
AcDbLine
 62
7
  6
CONTINUOUS
 10
168.061349002
 20
367.7491312864
 11
167.680349002
 21
368.1301312864
  0
LINE
  5
33C
100
AcDbEntity
  8
0
100
AcDbLine
 62
7
  6
CONTINUOUS
 10
245.3950986392
 20
341.7409619263
 11
245.756803682
 21
336.7842115696
  0
LINE
  5
33D
100
AcDbEntity
  8
0
100
AcDbLine
 62
7
  6
CONTINUOUS
 10
245.756803682
 20
336.7842115696
 11
245.7607701376
 21
336.6677426616
  0
LINE
  5
33E
100
AcDbEntity
  8
0
100
AcDbLine
 62
7
  6
CONTINUOUS
 10
245.3925862878
 20
341.8175861431
 11
245.3950986392
 21
341.7409619263
  0
LINE
  5
33F
100
AcDbEntity
  8
0
100
AcDbLine
 62
7
  6
CONTINUOUS
 10
243.956549002
 20
339.9842056921
 11
243.956549002
 21
338.4759421416
  0
LINE
  5
340
100
AcDbEntity
  8
0
100
AcDbLine
 62
7
  6
CONTINUOUS
 10
245.7610522457
 20
334.5793776866
 11
245.7610522457
 21
336.6677426028
  0
LINE
  5
341
100
AcDbEntity
  8
0
100
AcDbLine
 62
7
  6
CONTINUOUS
 10
251.5539154884
 20
344.3992270574
 11
251.5539154884
 21
342.3108621412
  0
LINE
  5
342
100
AcDbEntity
  8
0
100
AcDbLine
 62
7
  6
CONTINUOUS
 10
253.481549002
 20
333.8564550955
 11
253.481549002
 21
342.334132795
  0
LINE
  5
343
100
AcDbEntity
  8
0
100
AcDbLine
 62
7
  6
CONTINUOUS
 10
305.780149002
 20
345.5246372754
 11
303.398899002
 21
344.9654495039
  0
LINE
  5
344
100
AcDbEntity
  8
0
100
AcDbLine
 62
7
  6
CONTINUOUS
 10
221.375949002
 20
324.1383422946
 11
213.755949002
 21
323.3418354045
  0
LINE
  5
345
100
AcDbEntity
  8
0
100
AcDbLine
 62
7
  6
CONTINUOUS
 10
234.9614063683
 20
329.7711326146
 11
257.0496793936
 21
330.0377852491
  0
LINE
  5
346
100
AcDbEntity
  8
0
100
AcDbLine
 62
7
  6
CONTINUOUS
 10
285.6752949931
 20
331.257754427
 11
290.2452825156
 21
331.3129239376
  0
LINE
  5
347
100
AcDbEntity
  8
0
100
AcDbLine
 62
7
  6
CONTINUOUS
 10
282.5156038189
 20
332.7699592398
 11
260.1734425979
 21
332.5002416325
  0
LINE
  5
348
100
AcDbEntity
  8
0
100
AcDbLine
 62
7
  6
CONTINUOUS
 10
260.1056229024
 20
335.5179972406
 11
282.4477841234
 21
335.7877148479
  0
LINE
  5
349
100
AcDbEntity
  8
0
100
AcDbLine
 62
7
  6
CONTINUOUS
 10
163.616349002
 20
323.2866513074
 11
163.095649002
 21
323.2866513074
  0
LINE
  5
34A
100
AcDbEntity
  8
0
100
AcDbLine
 62
7
  6
CONTINUOUS
 10
163.095649002
 20
323.2993513074
 11
159.615849002
 21
323.2993513074
  0
LINE
  5
34B
100
AcDbEntity
  8
0
100
AcDbLine
 62
7
  6
CONTINUOUS
 10
213.755949002
 20
323.5846303371
 11
216.0787128218
 21
323.5846303371
  0
LINE
  5
34C
100
AcDbEntity
  8
0
100
AcDbLine
 62
7
  6
CONTINUOUS
 10
325.7331851822
 20
323.5846303371
 11
328.055949002
 21
323.5846303371
  0
LINE
  5
34D
100
AcDbEntity
  8
0
100
AcDbLine
 62
7
  6
CONTINUOUS
 10
221.375949002
 20
324.1383422946
 11
320.435949002
 21
324.1383422946
  0
LINE
  5
34E
100
AcDbEntity
  8
0
100
AcDbLine
 62
7
  6
CONTINUOUS
 10
53.354949002
 20
324.8610196078
 11
62.117949002
 21
324.8610196078
  0
LINE
  5
34F
100
AcDbEntity
  8
0
100
AcDbLine
 62
7
  6
CONTINUOUS
 10
67.451949002
 20
324.8610196078
 11
80.786949002
 21
324.8610196078
  0
LINE
  5
350
100
AcDbEntity
  8
0
100
AcDbLine
 62
7
  6
CONTINUOUS
 10
155.335949002
 20
325.6629982131
 11
148.858949002
 21
325.6629982131
  0
LINE
  5
351
100
AcDbEntity
  8
0
100
AcDbLine
 62
7
  6
CONTINUOUS
 10
163.616349002
 20
325.691005818
 11
166.283349002
 21
325.691005818
  0
LINE
  5
352
100
AcDbEntity
  8
0
100
AcDbLine
 62
7
  6
CONTINUOUS
 10
297.2416890734
 20
325.9752981533
 11
227.3609293492
 21
325.9752981533
  0
LINE
  5
353
100
AcDbEntity
  8
0
100
AcDbLine
 62
7
  6
CONTINUOUS
 10
166.283349002
 20
331.1757958165
 11
163.616349002
 21
331.1757958165
  0
LINE
  5
354
100
AcDbEntity
  8
0
100
AcDbLine
 62
7
  6
CONTINUOUS
 10
51.830949002
 20
331.8229150833
 11
49.163949002
 21
331.8229150833
  0
LINE
  5
355
100
AcDbEntity
  8
0
100
AcDbLine
 62
7
  6
CONTINUOUS
 10
67.451949002
 20
332.1254952074
 11
64.784949002
 21
332.1254952074
  0
LINE
  5
356
100
AcDbEntity
  8
0
100
AcDbLine
 62
7
  6
CONTINUOUS
 10
49.163949002
 20
335.5709022123
 11
51.830949002
 21
335.5709022123
  0
LINE
  5
357
100
AcDbEntity
  8
0
100
AcDbLine
 62
7
  6
CONTINUOUS
 10
320.435949002
 20
320.7533875715
 11
328.055949002
 21
319.9568806814
  0
LINE
  5
358
100
AcDbEntity
  8
0
100
AcDbLine
 62
7
  6
CONTINUOUS
 10
328.055949002
 20
323.3418354045
 11
320.435949002
 21
324.1383422946
  0
LINE
  5
359
100
AcDbEntity
  8
0
100
AcDbLine
 62
7
  6
CONTINUOUS
 10
209.199216578
 20
329.4743826958
 11
200.4691591276
 21
334.0838953598
  0
LINE
  5
35A
100
AcDbEntity
  8
0
100
AcDbLine
 62
7
  6
CONTINUOUS
 10
259.2609876199
 20
341.1636237364
 11
259.2835941851
 21
340.8538268391
  0
LINE
  5
35B
100
AcDbEntity
  8
0
100
AcDbLine
 62
7
  6
CONTINUOUS
 10
259.2835941851
 20
342.9421917552
 11
259.2609876199
 21
343.2519886525
  0
LINE
  5
35C
100
AcDbEntity
  8
0
100
AcDbLine
 62
7
  6
CONTINUOUS
 10
260.2522641552
 20
331.4200831172
 11
260.1734425979
 21
332.5002416325
  0
LINE
  5
35D
100
AcDbEntity
  8
0
100
AcDbLine
 62
7
  6
CONTINUOUS
 10
259.4192335761
 20
349.2048294899
 11
259.3514138806
 21
350.1342201818
  0
LINE
  5
35E
100
AcDbEntity
  8
0
100
AcDbLine
 62
7
  6
CONTINUOUS
 10
260.1056229024
 20
341.5510514428
 11
260.0378032069
 21
342.4804421347
  0
LINE
  5
35F
100
AcDbEntity
  8
0
100
AcDbLine
 62
7
  6
CONTINUOUS
 10
260.8747430548
 20
351.5448532961
 11
260.9425627503
 21
350.6154626042
  0
LINE
  5
360
100
AcDbEntity
  8
0
100
AcDbLine
 62
7
  6
CONTINUOUS
 10
261.561132381
 20
343.891075249
 11
261.6289520766
 21
342.9616845571
  0
LINE
  5
361
100
AcDbEntity
  8
0
100
AcDbLine
 62
7
  6
CONTINUOUS
 10
260.2533301379
 20
331.3802389176
 11
260.2522641552
 21
331.4200831172
  0
LINE
  5
362
100
AcDbEntity
  8
0
100
AcDbLine
 62
7
  6
CONTINUOUS
 10
256.1239030109
 20
342.3660316518
 11
256.1239030109
 21
344.454396568
  0
LINE
  5
363
100
AcDbEntity
  8
0
100
AcDbLine
 62
7
  6
CONTINUOUS
 10
259.2609876199
 20
343.2519886525
 11
259.2609876199
 21
341.1636237364
  0
LINE
  5
364
100
AcDbEntity
  8
0
100
AcDbLine
 62
7
  6
CONTINUOUS
 10
259.3514138806
 20
350.1342201818
 11
259.3514138806
 21
344.1011659795
  0
LINE
  5
365
100
AcDbEntity
  8
0
100
AcDbLine
 62
7
  6
CONTINUOUS
 10
259.4192335761
 20
349.2048294899
 11
259.4192335761
 21
343.1717752876
  0
LINE
  5
366
100
AcDbEntity
  8
0
100
AcDbLine
 62
7
  6
CONTINUOUS
 10
260.0378032069
 20
336.4473879324
 11
260.0378032069
 21
342.4804421347
  0
LINE
  5
367
100
AcDbEntity
  8
0
100
AcDbLine
 62
7
  6
CONTINUOUS
 10
260.1056229024
 20
335.5179972406
 11
260.1056229024
 21
341.5510514428
  0
LINE
  5
368
100
AcDbEntity
  8
0
100
AcDbLine
 62
7
  6
CONTINUOUS
 10
236.019049002
 20
344.5276194773
 11
238.400299002
 21
345.0868072488
  0
LINE
  5
369
100
AcDbEntity
  8
0
100
AcDbLine
 62
7
  6
CONTINUOUS
 10
236.019049002
 20
346.7643705635
 11
233.637799002
 21
346.205182792
  0
LINE
  5
36A
100
AcDbEntity
  8
0
100
AcDbLine
 62
7
  6
CONTINUOUS
 10
210.530149002
 20
343.2878861892
 11
212.911399002
 21
343.8470739607
  0
LINE
  5
36B
100
AcDbEntity
  8
0
100
AcDbLine
 62
7
  6
CONTINUOUS
 10
210.530149002
 20
345.5246372754
 11
208.148899002
 21
344.9654495039
  0
LINE
  5
36C
100
AcDbEntity
  8
0
100
AcDbLine
 62
7
  6
CONTINUOUS
 10
259.3387839691
 20
340.4588897885
 11
260.0378032069
 21
340.4673284438
  0
LINE
  5
36D
100
AcDbEntity
  8
0
100
AcDbLine
 62
7
  6
CONTINUOUS
 10
256.1239030109
 20
342.3660316518
 11
251.5539154884
 21
342.3108621412
  0
LINE
  5
36E
100
AcDbEntity
  8
0
100
AcDbLine
 62
7
  6
CONTINUOUS
 10
261.6289520766
 20
342.9616845571
 11
280.9244549493
 21
343.1946224907
  0
LINE
  5
36F
100
AcDbEntity
  8
0
100
AcDbLine
 62
7
  6
CONTINUOUS
 10
259.2835941851
 20
342.9421917552
 11
259.3283815279
 21
342.9427324341
  0
LINE
  5
370
100
AcDbEntity
  8
0
100
AcDbLine
 62
7
  6
CONTINUOUS
 10
259.4192335761
 20
343.1717752876
 11
260.2864458554
 21
343.1822443921
  0
LINE
  5
371
100
AcDbEntity
  8
0
100
AcDbLine
 62
7
  6
CONTINUOUS
 10
301.1451103469
 20
343.7839306419
 11
284.7495186104
 21
343.5860008298
  0
LINE
  5
372
100
AcDbEntity
  8
0
100
AcDbLine
 62
7
  6
CONTINUOUS
 10
261.561132381
 20
343.891075249
 11
280.8566352537
 21
344.1240131826
  0
LINE
  5
373
100
AcDbEntity
  8
0
100
AcDbLine
 62
7
  6
CONTINUOUS
 10
256.1239030109
 20
344.454396568
 11
251.5539154884
 21
344.3992270574
  0
LINE
  5
374
100
AcDbEntity
  8
0
100
AcDbLine
 62
7
  6
CONTINUOUS
 10
306.8377916357
 20
345.9410183804
 11
306.5777224951
 21
345.9378787904
  0
LINE
  5
375
100
AcDbEntity
  8
0
100
AcDbLine
 62
7
  6
CONTINUOUS
 10
304.8306136752
 20
345.9167874553
 11
284.7495186104
 21
345.6743657459
  0
LINE
  5
376
100
AcDbEntity
  8
0
100
AcDbLine
 62
7
  6
CONTINUOUS
 10
163.616349002
 20
336.0342099796
 11
166.283349002
 21
336.0342099796
  0
LINE
  5
377
100
AcDbEntity
  8
0
100
AcDbLine
 62
7
  6
CONTINUOUS
 10
64.784949002
 20
340.0248196078
 11
67.451949002
 21
340.0248196078
  0
LINE
  5
378
100
AcDbEntity
  8
0
100
AcDbLine
 62
7
  6
CONTINUOUS
 10
52.846949002
 20
348.0217091717
 11
54.370949002
 21
348.0217091717
  0
LINE
  5
379
100
AcDbEntity
  8
0
100
AcDbLine
 62
7
  6
CONTINUOUS
 10
365.774949002
 20
348.681598999
 11
324.922883068
 21
348.681598999
  0
LINE
  5
37A
100
AcDbEntity
  8
0
100
AcDbLine
 62
7
  6
CONTINUOUS
 10
235.9825796785
 20
348.681598999
 11
176.036949002
 21
348.681598999
  0
LINE
  5
37B
100
AcDbEntity
  8
0
100
AcDbLine
 62
7
  6
CONTINUOUS
 10
208.148899002
 20
343.8470739607
 11
210.530149002
 21
343.2878861892
  0
LINE
  5
37C
100
AcDbEntity
  8
0
100
AcDbLine
 62
7
  6
CONTINUOUS
 10
212.911399002
 20
344.9654495039
 11
210.530149002
 21
345.5246372754
  0
LINE
  5
37D
100
AcDbEntity
  8
0
100
AcDbLine
 62
7
  6
CONTINUOUS
 10
233.637799002
 20
345.0868072488
 11
236.019049002
 21
344.5276194773
  0
LINE
  5
37E
100
AcDbEntity
  8
0
100
AcDbLine
 62
7
  6
CONTINUOUS
 10
213.8134071599
 20
345.2422235997
 11
214.4592940106
 21
344.8225597043
  0
LINE
  5
37F
100
AcDbEntity
  8
0
100
AcDbLine
 62
7
  6
CONTINUOUS
 10
259.2835941851
 20
342.9421917552
 11
259.3111863418
 21
342.7449500336
  0
LINE
  5
380
100
AcDbEntity
  8
0
100
AcDbLine
 62
7
  6
CONTINUOUS
 10
280.238065623
 20
350.8484005378
 11
260.9425627503
 21
350.6154626042
  0
LINE
  5
381
100
AcDbEntity
  8
0
100
AcDbLine
 62
7
  6
CONTINUOUS
 10
280.1702459274
 20
351.7777912297
 11
260.8747430548
 21
351.5448532961
  0
LINE
  5
382
100
AcDbEntity
  8
0
100
AcDbLine
 62
7
  6
CONTINUOUS
 10
173.496949002
 20
349.2082084571
 11
176.163949002
 21
349.2082084571
  0
LINE
  5
383
100
AcDbEntity
  8
0
100
AcDbLine
 62
7
  6
CONTINUOUS
 10
52.846949002
 20
349.5082747424
 11
54.370949002
 21
349.5082747424
  0
LINE
  5
384
100
AcDbEntity
  8
0
100
AcDbLine
 62
7
  6
CONTINUOUS
 10
54.904349002
 20
349.6538239948
 11
54.370949002
 21
349.6538239948
  0
LINE
  5
385
100
AcDbEntity
  8
0
100
AcDbLine
 62
7
  6
CONTINUOUS
 10
244.5575089306
 20
349.7368528418
 11
259.3514138806
 21
349.7368528418
  0
LINE
  5
386
100
AcDbEntity
  8
0
100
AcDbLine
 62
7
  6
CONTINUOUS
 10
281.7456348651
 20
349.7368528418
 11
314.4382686548
 21
349.7368528418
  0
LINE
  5
387
100
AcDbEntity
  8
0
100
AcDbLine
 62
7
  6
CONTINUOUS
 10
56.009249002
 20
349.7400774201
 11
54.904349002
 21
349.7400774201
  0
LINE
  5
388
100
AcDbEntity
  8
0
100
AcDbLine
 62
7
  6
CONTINUOUS
 10
54.904349002
 20
349.8674436851
 11
54.370949002
 21
349.8674436851
  0
LINE
  5
389
100
AcDbEntity
  8
0
100
AcDbLine
 62
7
  6
CONTINUOUS
 10
54.904349002
 20
350.1590484606
 11
54.370949002
 21
350.1590484606
  0
LINE
  5
38A
100
AcDbEntity
  8
0
100
AcDbLine
 62
7
  6
CONTINUOUS
 10
150.382949002
 20
350.7508919577
 11
153.6859176614
 21
350.7508919577
  0
LINE
  5
38B
100
AcDbEntity
  8
0
100
AcDbLine
 62
7
  6
CONTINUOUS
 10
54.904349002
 20
350.7673858703
 11
54.370949002
 21
350.7673858703
  0
LINE
  5
38C
100
AcDbEntity
  8
0
100
AcDbLine
 62
7
  6
CONTINUOUS
 10
171.972949002
 20
350.8744552723
 11
166.4204044676
 21
350.8744552723
  0
LINE
  5
38D
100
AcDbEntity
  8
0
100
AcDbLine
 62
7
  6
CONTINUOUS
 10
166.283349002
 20
351.1168454853
 11
163.616349002
 21
351.1168454853
  0
LINE
  5
38E
100
AcDbEntity
  8
0
100
AcDbLine
 62
7
  6
CONTINUOUS
 10
54.904349002
 20
351.3062012376
 11
54.370949002
 21
351.3062012376
  0
LINE
  5
38F
100
AcDbEntity
  8
0
100
AcDbLine
 62
7
  6
CONTINUOUS
 10
176.163949002
 20
351.5162647045
 11
173.496949002
 21
351.5162647045
  0
LINE
  5
390
100
AcDbEntity
  8
0
100
AcDbLine
 62
7
  6
CONTINUOUS
 10
49.163949002
 20
351.9625774201
 11
48.554349002
 21
351.9625774201
  0
LINE
  5
391
100
AcDbEntity
  8
0
100
AcDbLine
 62
7
  6
CONTINUOUS
 10
54.904349002
 20
352.1671301869
 11
54.370949002
 21
352.1671301869
  0
LINE
  5
392
100
AcDbEntity
  8
0
100
AcDbLine
 62
7
  6
CONTINUOUS
 10
54.904349002
 20
352.2166425106
 11
54.370949002
 21
352.2166425106
  0
LINE
  5
393
100
AcDbEntity
  8
0
100
AcDbLine
 62
7
  6
CONTINUOUS
 10
167.680349002
 20
352.2551312864
 11
166.283349002
 21
352.2551312864
  0
LINE
  5
394
100
AcDbEntity
  8
0
100
AcDbLine
 62
7
  6
CONTINUOUS
 10
54.904349002
 20
352.9206387144
 11
54.370949002
 21
352.9206387144
  0
LINE
  5
395
100
AcDbEntity
  8
0
100
AcDbLine
 62
7
  6
CONTINUOUS
 10
67.451949002
 20
352.9788196078
 11
72.468449002
 21
352.9788196078
  0
LINE
  5
396
100
AcDbEntity
  8
0
100
AcDbLine
 62
7
  6
CONTINUOUS
 10
176.163949002
 20
353.4231810852
 11
173.496949002
 21
353.4231810852
  0
LINE
  5
397
100
AcDbEntity
  8
0
100
AcDbLine
 62
7
  6
CONTINUOUS
 10
54.904349002
 20
353.6000738811
 11
54.370949002
 21
353.6000738811
  0
LINE
  5
398
100
AcDbEntity
  8
0
100
AcDbLine
 62
7
  6
CONTINUOUS
 10
56.021949002
 20
353.6770774201
 11
57.558649002
 21
353.6770774201
  0
LINE
  5
399
100
AcDbEntity
  8
0
100
AcDbLine
 62
7
  6
CONTINUOUS
 10
54.904349002
 20
353.9945774201
 11
54.370949002
 21
353.9945774201
  0
LINE
  5
39A
100
AcDbEntity
  8
0
100
AcDbLine
 62
7
  6
CONTINUOUS
 10
163.616349002
 20
354.6427312864
 11
156.885349002
 21
354.6427312864
  0
LINE
  5
39B
100
AcDbEntity
  8
0
100
AcDbLine
 62
7
  6
CONTINUOUS
 10
54.8026254945
 20
354.7565774201
 11
54.370949002
 21
354.7565774201
  0
LINE
  5
39C
100
AcDbEntity
  8
0
100
AcDbLine
 62
7
  6
CONTINUOUS
 10
49.163949002
 20
356.7885774201
 11
48.554349002
 21
356.7885774201
  0
LINE
  5
39D
100
AcDbEntity
  8
0
100
AcDbLine
 62
7
  6
CONTINUOUS
 10
163.616349002
 20
359.5006368249
 11
166.283349002
 21
359.5006368249
  0
LINE
  5
39E
100
AcDbEntity
  8
0
100
AcDbLine
 62
7
  6
CONTINUOUS
 10
72.468449002
 20
360.5988196078
 11
67.451949002
 21
360.5988196078
  0
LINE
  5
39F
100
AcDbEntity
  8
0
100
AcDbLine
 62
7
  6
CONTINUOUS
 10
64.149949002
 20
360.9671196078
 11
62.752949002
 21
360.9671196078
  0
LINE
  5
3A0
100
AcDbEntity
  8
0
100
AcDbLine
 62
7
  6
CONTINUOUS
 10
238.400299002
 20
346.205182792
 11
236.019049002
 21
346.7643705635
  0
LINE
  5
3A1
100
AcDbEntity
  8
0
100
AcDbLine
 62
7
  6
CONTINUOUS
 10
239.3023071599
 20
346.4819568878
 11
239.9481940106
 21
346.0622929924
  0
LINE
  5
3A2
100
AcDbEntity
  8
0
100
AcDbLine
 62
7
  6
CONTINUOUS
 10
280.238065623
 20
350.8484005378
 11
280.1702459274
 21
351.7777912297
  0
LINE
  5
3A3
100
AcDbEntity
  8
0
100
AcDbLine
 62
7
  6
CONTINUOUS
 10
280.9244549493
 20
343.1946224907
 11
280.8566352537
 21
344.1240131826
  0
LINE
  5
3A4
100
AcDbEntity
  8
0
100
AcDbLine
 62
7
  6
CONTINUOUS
 10
282.5156038189
 20
332.7699592398
 11
282.5382103841
 21
332.4601623425
  0
LINE
  5
3A5
100
AcDbEntity
  8
0
100
AcDbLine
 62
7
  6
CONTINUOUS
 10
281.6902044535
 20
350.4964626895
 11
281.7580241491
 21
349.5670719976
  0
LINE
  5
3A6
100
AcDbEntity
  8
0
100
AcDbLine
 62
7
  6
CONTINUOUS
 10
282.4444134753
 20
341.9132939506
 11
282.3765937798
 21
342.8426846425
  0
LINE
  5
3A7
100
AcDbEntity
  8
0
100
AcDbLine
 62
7
  6
CONTINUOUS
 10
281.7574919188
 20
349.5670320723
 11
281.7613947971
 21
349.4745470972
  0
LINE
  5
3A8
100
AcDbEntity
  8
0
100
AcDbLine
 62
7
  6
CONTINUOUS
 10
282.4438812451
 20
341.9132540252
 11
282.4477841234
 21
341.8207690501
  0
LINE
  5
3A9
100
AcDbEntity
  8
0
100
AcDbLine
 62
7
  6
CONTINUOUS
 10
281.7613947971
 20
343.8606053731
 11
281.7613947971
 21
349.4745470972
  0
LINE
  5
3AA
100
AcDbEntity
  8
0
100
AcDbLine
 62
7
  6
CONTINUOUS
 10
282.4477841234
 20
341.8207690501
 11
282.4477841234
 21
335.7877148479
  0
LINE
  5
3AB
100
AcDbEntity
  8
0
100
AcDbLine
 62
7
  6
CONTINUOUS
 10
284.7495186104
 20
345.6743657459
 11
284.7495186104
 21
343.5860008298
  0
LINE
  5
3AC
100
AcDbEntity
  8
0
100
AcDbLine
 62
7
  6
CONTINUOUS
 10
288.406549002
 20
333.8564550955
 11
288.406549002
 21
343.6301489978
  0
LINE
  5
3AD
100
AcDbEntity
  8
0
100
AcDbLine
 62
7
  6
CONTINUOUS
 10
67.451949002
 20
365.0438196078
 11
64.784949002
 21
365.0438196078
  0
LINE
  5
3AE
100
AcDbEntity
  8
0
100
AcDbLine
 62
7
  6
CONTINUOUS
 10
64.784949002
 20
365.6788196078
 11
72.468449002
 21
365.6788196078
  0
LINE
  5
3AF
100
AcDbEntity
  8
0
100
AcDbLine
 62
7
  6
CONTINUOUS
 10
163.616349002
 20
365.7425312864
 11
156.885349002
 21
365.7425312864
  0
LINE
  5
3B0
100
AcDbEntity
  8
0
100
AcDbLine
 62
7
  6
CONTINUOUS
 10
167.680349002
 20
368.1301312864
 11
166.283349002
 21
368.1301312864
  0
LINE
  5
3B1
100
AcDbEntity
  8
0
100
AcDbLine
 62
7
  6
CONTINUOUS
 10
72.468449002
 20
373.2988196078
 11
64.784949002
 21
373.2988196078
  0
LINE
  5
3B2
100
AcDbEntity
  8
0
100
AcDbLine
 62
7
  6
CONTINUOUS
 10
62.752949002
 20
373.7306196078
 11
60.085949002
 21
373.7306196078
  0
LINE
  5
3B3
100
AcDbEntity
  8
0
100
AcDbLine
 62
7
  6
CONTINUOUS
 10
166.283349002
 20
373.757569638
 11
163.616349002
 21
373.757569638
  0
LINE
  5
3B4
100
AcDbEntity
  8
0
100
AcDbLine
 62
7
  6
CONTINUOUS
 10
166.283349002
 20
374.3065559819
 11
163.616349002
 21
374.3065559819
  0
LINE
  5
3B5
100
AcDbEntity
  8
0
100
AcDbLine
 62
7
  6
CONTINUOUS
 10
60.085949002
 20
374.4545196078
 11
53.354949002
 21
374.4545196078
  0
LINE
  5
3B6
100
AcDbEntity
  8
0
100
AcDbLine
 62
7
  6
CONTINUOUS
 10
303.398899002
 20
343.8470739607
 11
305.780149002
 21
343.2878861892
  0
LINE
  5
3B7
100
AcDbEntity
  8
0
100
AcDbLine
 62
7
  6
CONTINUOUS
 10
308.161399002
 20
344.9654495039
 11
305.780149002
 21
345.5246372754
  0
LINE
  5
3B8
100
AcDbEntity
  8
0
100
AcDbLine
 62
7
  6
CONTINUOUS
 10
328.887799002
 20
345.0868072488
 11
331.269049002
 21
344.5276194773
  0
LINE
  5
3B9
100
AcDbEntity
  8
0
100
AcDbLine
 62
7
  6
CONTINUOUS
 10
333.650299002
 20
346.205182792
 11
331.269049002
 21
346.7643705635
  0
LINE
  5
3BA
100
AcDbEntity
  8
0
100
AcDbLine
 62
7
  6
CONTINUOUS
 10
296.2780741449
 20
333.6098544115
 11
296.042394322
 21
336.8395745093
  0
LINE
  5
3BB
100
AcDbEntity
  8
0
100
AcDbLine
 62
7
  6
CONTINUOUS
 10
296.4040993648
 20
333.9711890687
 11
296.042394322
 21
338.9279394255
  0
LINE
  5
3BC
100
AcDbEntity
  8
0
100
AcDbLine
 62
7
  6
CONTINUOUS
 10
296.042394322
 20
338.9279394255
 11
296.0384278664
 21
339.0444083334
  0
LINE
  5
3BD
100
AcDbEntity
  8
0
100
AcDbLine
 62
7
  6
CONTINUOUS
 10
296.0384536674
 20
336.9560434035
 11
296.042394322
 21
336.8395745093
  0
LINE
  5
3BE
100
AcDbEntity
  8
0
100
AcDbLine
 62
7
  6
CONTINUOUS
 10
296.4066117162
 20
333.894564852
 11
296.4040993648
 21
333.9711890687
  0
LINE
  5
3BF
100
AcDbEntity
  8
0
100
AcDbLine
 62
7
  6
CONTINUOUS
 10
296.0381457583
 20
336.9560434761
 11
296.0381457583
 21
339.0444083923
  0
LINE
  5
3C0
100
AcDbEntity
  8
0
100
AcDbLine
 62
7
  6
CONTINUOUS
 10
296.042394322
 20
338.9279394255
 11
296.042394322
 21
336.8395745093
  0
LINE
  5
3C1
100
AcDbEntity
  8
0
100
AcDbLine
 62
7
  6
CONTINUOUS
 10
297.2416890733
 20
324.1383422946
 11
297.2416890733
 21
325.9752981533
  0
LINE
  5
3C2
100
AcDbEntity
  8
0
100
AcDbLine
 62
7
  6
CONTINUOUS
 10
297.842649002
 20
338.744472404
 11
297.842649002
 21
337.2362088535
  0
LINE
  5
3C3
100
AcDbEntity
  8
0
100
AcDbLine
 62
7
  6
CONTINUOUS
 10
301.144649002
 20
338.744472404
 11
301.144649002
 21
343.822146322
  0
LINE
  5
3C4
100
AcDbEntity
  8
0
100
AcDbLine
 62
7
  6
CONTINUOUS
 10
302.605149002
 20
334.2776306172
 11
302.605149002
 21
334.0937894762
  0
LINE
  5
3C5
100
AcDbEntity
  8
0
100
AcDbLine
 62
7
  6
CONTINUOUS
 10
303.398899002
 20
343.8470739607
 11
303.398899002
 21
344.9654495039
  0
LINE
  5
3C6
100
AcDbEntity
  8
0
100
AcDbLine
 62
7
  6
CONTINUOUS
 10
305.780149002
 20
343.2878861892
 11
305.780149002
 21
345.5246372754
  0
LINE
  5
3C7
100
AcDbEntity
  8
0
100
AcDbLine
 62
7
  6
CONTINUOUS
 10
54.904349002
 20
375.038351001
 11
54.370949002
 21
375.038351001
  0
LINE
  5
3C8
100
AcDbEntity
  8
0
100
AcDbLine
 62
7
  6
CONTINUOUS
 10
56.009249002
 20
375.1246044264
 11
54.904349002
 21
375.1246044264
  0
LINE
  5
3C9
100
AcDbEntity
  8
0
100
AcDbLine
 62
7
  6
CONTINUOUS
 10
54.904349002
 20
375.2519706914
 11
54.370949002
 21
375.2519706914
  0
LINE
  5
3CA
100
AcDbEntity
  8
0
100
AcDbLine
 62
7
  6
CONTINUOUS
 10
54.904349002
 20
375.5435754669
 11
54.370949002
 21
375.5435754669
  0
LINE
  5
3CB
100
AcDbEntity
  8
0
100
AcDbLine
 62
7
  6
CONTINUOUS
 10
54.904349002
 20
376.1519128766
 11
54.370949002
 21
376.1519128766
  0
LINE
  5
3CC
100
AcDbEntity
  8
0
100
AcDbLine
 62
7
  6
CONTINUOUS
 10
54.904349002
 20
376.6907282439
 11
54.370949002
 21
376.6907282439
  0
LINE
  5
3CD
100
AcDbEntity
  8
0
100
AcDbLine
 62
7
  6
CONTINUOUS
 10
64.149949002
 20
376.8421196078
 11
62.752949002
 21
376.8421196078
  0
LINE
  5
3CE
100
AcDbEntity
  8
0
100
AcDbLine
 62
7
  6
CONTINUOUS
 10
49.163949002
 20
377.3471044264
 11
48.554349002
 21
377.3471044264
  0
LINE
  5
3CF
100
AcDbEntity
  8
0
100
AcDbLine
 62
7
  6
CONTINUOUS
 10
54.904349002
 20
377.5516571931
 11
54.370949002
 21
377.5516571931
  0
LINE
  5
3D0
100
AcDbEntity
  8
0
100
AcDbLine
 62
7
  6
CONTINUOUS
 10
54.904349002
 20
377.6011695169
 11
54.370949002
 21
377.6011695169
  0
LINE
  5
3D1
100
AcDbEntity
  8
0
100
AcDbLine
 62
7
  6
CONTINUOUS
 10
54.904349002
 20
378.3051657207
 11
54.370949002
 21
378.3051657207
  0
LINE
  5
3D2
100
AcDbEntity
  8
0
100
AcDbLine
 62
7
  6
CONTINUOUS
 10
54.904349002
 20
378.9846008874
 11
54.370949002
 21
378.9846008874
  0
LINE
  5
3D3
100
AcDbEntity
  8
0
100
AcDbLine
 62
7
  6
CONTINUOUS
 10
56.021949002
 20
379.0616044264
 11
57.558649002
 21
379.0616044264
  0
LINE
  5
3D4
100
AcDbEntity
  8
0
100
AcDbLine
 62
7
  6
CONTINUOUS
 10
54.904349002
 20
379.3791044264
 11
54.370949002
 21
379.3791044264
  0
LINE
  5
3D5
100
AcDbEntity
  8
0
100
AcDbLine
 62
7
  6
CONTINUOUS
 10
60.085949002
 20
380.0806196078
 11
62.752949002
 21
380.0806196078
  0
LINE
  5
3D6
100
AcDbEntity
  8
0
100
AcDbLine
 62
7
  6
CONTINUOUS
 10
54.904349002
 20
380.1411044264
 11
54.370949002
 21
380.1411044264
  0
LINE
  5
3D7
100
AcDbEntity
  8
0
100
AcDbLine
 62
7
  6
CONTINUOUS
 10
57.558649002
 20
380.4586044264
 11
56.021949002
 21
380.4586044264
  0
LINE
  5
3D8
100
AcDbEntity
  8
0
100
AcDbLine
 62
7
  6
CONTINUOUS
 10
54.904349002
 20
380.5356079655
 11
54.370949002
 21
380.5356079655
  0
LINE
  5
3D9
100
AcDbEntity
  8
0
100
AcDbLine
 62
7
  6
CONTINUOUS
 10
54.904349002
 20
381.2150431321
 11
54.370949002
 21
381.2150431321
  0
LINE
  5
3DA
100
AcDbEntity
  8
0
100
AcDbLine
 62
7
  6
CONTINUOUS
 10
54.904349002
 20
381.9190393359
 11
54.370949002
 21
381.9190393359
  0
LINE
  5
3DB
100
AcDbEntity
  8
0
100
AcDbLine
 62
7
  6
CONTINUOUS
 10
54.904349002
 20
381.9685516597
 11
54.370949002
 21
381.9685516597
  0
LINE
  5
3DC
100
AcDbEntity
  8
0
100
AcDbLine
 62
7
  6
CONTINUOUS
 10
49.163949002
 20
382.1731044264
 11
48.554349002
 21
382.1731044264
  0
LINE
  5
3DD
100
AcDbEntity
  8
0
100
AcDbLine
 62
7
  6
CONTINUOUS
 10
54.904349002
 20
382.829480609
 11
54.370949002
 21
382.829480609
  0
LINE
  5
3DE
100
AcDbEntity
  8
0
100
AcDbLine
 62
7
  6
CONTINUOUS
 10
54.904349002
 20
383.3682959762
 11
54.370949002
 21
383.3682959762
  0
LINE
  5
3DF
100
AcDbEntity
  8
0
100
AcDbLine
 62
7
  6
CONTINUOUS
 10
54.904349002
 20
383.976633386
 11
54.370949002
 21
383.976633386
  0
LINE
  5
3E0
100
AcDbEntity
  8
0
100
AcDbLine
 62
7
  6
CONTINUOUS
 10
54.370949002
 20
384.184183496
 11
52.846949002
 21
384.184183496
  0
LINE
  5
3E1
100
AcDbEntity
  8
0
100
AcDbLine
 62
7
  6
CONTINUOUS
 10
54.904349002
 20
384.2682381614
 11
54.370949002
 21
384.2682381614
  0
LINE
  5
3E2
100
AcDbEntity
  8
0
100
AcDbLine
 62
7
  6
CONTINUOUS
 10
56.009249002
 20
384.3956044264
 11
54.904349002
 21
384.3956044264
  0
LINE
  5
3E3
100
AcDbEntity
  8
0
100
AcDbLine
 62
7
  6
CONTINUOUS
 10
54.904349002
 20
384.4818578518
 11
54.370949002
 21
384.4818578518
  0
LINE
  5
3E4
100
AcDbEntity
  8
0
100
AcDbLine
 62
7
  6
CONTINUOUS
 10
52.846949002
 20
386.1139726748
 11
54.370949002
 21
386.1139726748
  0
LINE
  5
3E5
100
AcDbEntity
  8
0
100
AcDbLine
 62
7
  6
CONTINUOUS
 10
315.3378971947
 20
339.1608773591
 11
315.7181396209
 21
333.9500935465
  0
LINE
  5
3E6
100
AcDbEntity
  8
0
100
AcDbLine
 62
7
  6
CONTINUOUS
 10
315.7181396209
 20
333.9500935465
 11
315.7260703568
 21
333.7202206605
  0
LINE
  5
3E7
100
AcDbEntity
  8
0
100
AcDbLine
 62
7
  6
CONTINUOUS
 10
306.8377916357
 20
345.9015738881
 11
306.8377916357
 21
345.9410183804
  0
LINE
  5
3E8
100
AcDbEntity
  8
0
100
AcDbLine
 62
7
  6
CONTINUOUS
 10
308.161399002
 20
344.9654495039
 11
308.161399002
 21
343.8470739607
  0
LINE
  5
3E9
100
AcDbEntity
  8
0
100
AcDbLine
 62
7
  6
CONTINUOUS
 10
308.955149002
 20
334.2780608542
 11
308.955149002
 21
333.916329732
  0
LINE
  5
3EA
100
AcDbEntity
  8
0
100
AcDbLine
 62
7
  6
CONTINUOUS
 10
310.415649002
 20
338.744472404
 11
310.415649002
 21
343.822146322
  0
LINE
  5
3EB
100
AcDbEntity
  8
0
100
AcDbLine
 62
7
  6
CONTINUOUS
 10
313.717649002
 20
338.744472404
 11
313.717649002
 21
337.2362088535
  0
LINE
  5
3EC
100
AcDbEntity
  8
0
100
AcDbLine
 62
7
  6
CONTINUOUS
 10
315.7265249439
 20
331.6318556696
 11
315.7265249439
 21
333.7202205857
  0
LINE
  5
3ED
100
AcDbEntity
  8
0
100
AcDbLine
 62
7
  6
CONTINUOUS
 10
318.3404352021
 20
341.5321893571
 11
318.3404352021
 21
339.4438244409
  0
LINE
  5
3EE
100
AcDbEntity
  8
0
100
AcDbLine
 62
7
  6
CONTINUOUS
 10
318.5746392173
 20
336.2343285849
 11
318.5746392173
 21
338.322693501
  0
LINE
  5
3EF
100
AcDbEntity
  8
0
100
AcDbLine
 62
7
  6
CONTINUOUS
 10
85.866949002
 20
394.2030196078
 11
53.354949002
 21
394.2030196078
  0
LINE
  5
3F0
100
AcDbEntity
  8
0
100
AcDbLine
 62
7
  6
CONTINUOUS
 10
85.866949002
 20
396.8700196078
 11
53.354949002
 21
396.8700196078
  0
LINE
  5
3F1
100
AcDbEntity
  8
0
100
AcDbLine
 62
7
  6
CONTINUOUS
 10
335.904549002
 20
344.4929405959
 11
341.3300388764
 21
341.6282556353
  0
LINE
  5
3F2
100
AcDbEntity
  8
0
100
AcDbLine
 62
7
  6
CONTINUOUS
 10
309.0634071599
 20
345.2422235997
 11
309.7092940106
 21
344.8225597043
  0
LINE
  5
3F3
100
AcDbEntity
  8
0
100
AcDbLine
 62
7
  6
CONTINUOUS
 10
379.516349002
 20
267.3046196078
 11
379.008349002
 21
267.8126196078
  0
LINE
  5
3F4
100
AcDbEntity
  8
0
100
AcDbLine
 62
7
  6
CONTINUOUS
 10
318.5746392173
 20
336.2343285849
 11
318.3404352021
 21
339.4438244409
  0
LINE
  5
3F5
100
AcDbEntity
  8
0
100
AcDbLine
 62
7
  6
CONTINUOUS
 10
318.5746392173
 20
338.322693501
 11
318.3404352021
 21
341.5321893571
  0
LINE
  5
3F6
100
AcDbEntity
  8
0
100
AcDbLine
 62
7
  6
CONTINUOUS
 10
320.435949002
 20
320.7533875715
 11
320.435949002
 21
324.1383422946
  0
LINE
  5
3F7
100
AcDbEntity
  8
0
100
AcDbLine
 62
7
  6
CONTINUOUS
 10
323.331549002
 20
339.9842056921
 11
323.331549002
 21
338.4759421416
  0
LINE
  5
3F8
100
AcDbEntity
  8
0
100
AcDbLine
 62
7
  6
CONTINUOUS
 10
326.633549002
 20
339.9842056921
 11
326.633549002
 21
345.0618796101
  0
LINE
  5
3F9
100
AcDbEntity
  8
0
100
AcDbLine
 62
7
  6
CONTINUOUS
 10
328.055949002
 20
319.7444788441
 11
328.055949002
 21
319.9322914167
  0
LINE
  5
3FA
100
AcDbEntity
  8
0
100
AcDbLine
 62
7
  6
CONTINUOUS
 10
328.055949002
 20
319.9568806814
 11
328.055949002
 21
323.5846303371
  0
LINE
  5
3FB
100
AcDbEntity
  8
0
100
AcDbLine
 62
7
  6
CONTINUOUS
 10
328.887799002
 20
345.0868072488
 11
328.887799002
 21
346.205182792
  0
LINE
  5
3FC
100
AcDbEntity
  8
0
100
AcDbLine
 62
7
  6
CONTINUOUS
 10
331.269049002
 20
344.5276194773
 11
331.269049002
 21
346.7643705635
  0
LINE
  5
3FD
100
AcDbEntity
  8
0
100
AcDbLine
 62
7
  6
CONTINUOUS
 10
334.5523071599
 20
346.4819568878
 11
335.1981940106
 21
346.0622929924
  0
LINE
  5
3FE
100
AcDbEntity
  8
0
100
AcDbLine
 62
7
  6
CONTINUOUS
 10
333.650299002
 20
346.205182792
 11
333.650299002
 21
345.0868072488
  0
LINE
  5
3FF
100
AcDbEntity
  8
0
100
AcDbLine
 62
7
  6
CONTINUOUS
 10
335.904549002
 20
339.9842056921
 11
335.904549002
 21
345.0618796101
  0
LINE
  5
400
100
AcDbEntity
  8
0
100
AcDbLine
 62
7
  6
CONTINUOUS
 10
339.206549002
 20
339.9842056921
 11
339.206549002
 21
338.4759421416
  0
LINE
  5
401
100
AcDbEntity
  8
0
100
AcDbLine
 62
7
  6
CONTINUOUS
 10
343.969049002
 20
336.3875772254
 11
343.969049002
 21
338.4759421416
  0
LINE
  5
402
100
AcDbEntity
  8
0
100
AcDbLine
 62
7
  6
CONTINUOUS
 10
343.9634587867
 20
338.6291907821
 11
343.9687617525
 21
338.4759421837
  0
LINE
  5
403
100
AcDbEntity
  8
0
100
AcDbLine
 62
7
  6
CONTINUOUS
 10
379.516349002
 20
258.9734196078
 11
379.008349002
 21
258.4654196078
  0
LINE
  5
404
100
AcDbEntity
  8
0
100
AcDbLine
 62
7
  6
CONTINUOUS
 10
358.180349002
 20
267.0252142933
 11
358.180349002
 21
259.2528249224
  0
LINE
  5
405
100
AcDbEntity
  8
0
100
AcDbLine
 62
7
  6
CONTINUOUS
 10
362.980949002
 20
301.2390196078
 11
362.980949002
 21
199.0040196078
  0
LINE
  5
406
100
AcDbEntity
  8
0
100
AcDbLine
 62
7
  6
CONTINUOUS
 10
365.647949002
 20
199.0040196078
 11
365.647949002
 21
301.2390196078
  0
LINE
  5
407
100
AcDbEntity
  8
0
100
AcDbLine
 62
7
  6
CONTINUOUS
 10
365.774949002
 20
322.8538221637
 11
365.774949002
 21
348.681598999
  0
LINE
  5
408
100
AcDbEntity
  8
0
100
AcDbLine
 62
7
  6
CONTINUOUS
 10
371.591549002
 20
255.1380240412
 11
371.591549002
 21
271.1400151745
  0
LINE
  5
409
100
AcDbEntity
  8
0
100
AcDbLine
 62
7
  6
CONTINUOUS
 10
372.124949002
 20
226.5345759962
 11
372.124949002
 21
313.943465188
  0
LINE
  5
40A
100
AcDbEntity
  8
0
100
AcDbLine
 62
7
  6
CONTINUOUS
 10
375.528549002
 20
226.5345746939
 11
375.528549002
 21
339.7712420233
  0
LINE
  5
40B
100
AcDbEntity
  8
0
100
AcDbLine
 62
7
  6
CONTINUOUS
 10
375.553949002
 20
254.503044298
 11
375.553949002
 21
271.7750044595
  0
LINE
  5
40C
100
AcDbEntity
  8
0
100
AcDbLine
 62
7
  6
CONTINUOUS
 10
376.442949002
 20
254.5030226169
 11
376.442949002
 21
259.8681346078
  0
LINE
  5
40D
100
AcDbEntity
  8
0
100
AcDbLine
 62
7
  6
CONTINUOUS
 10
376.442949002
 20
266.4099046078
 11
376.442949002
 21
271.7749949177
  0
LINE
  5
40E
100
AcDbEntity
  8
0
100
AcDbLine
 62
7
  6
CONTINUOUS
 10
376.544549002
 20
267.8125438962
 11
376.544549002
 21
258.4654953195
  0
LINE
  5
40F
100
AcDbEntity
  8
0
100
AcDbLine
 62
7
  6
CONTINUOUS
 10
379.008349002
 20
258.4654196078
 11
379.008349002
 21
267.8126196078
  0
LINE
  5
410
100
AcDbEntity
  8
0
100
AcDbLine
 62
7
  6
CONTINUOUS
 10
379.516349002
 20
258.9734254164
 11
379.516349002
 21
267.3046137993
  0
ARC
  5
411
100
AcDbEntity
  8
0
100
AcDbCircle
 62
7
  6
CONTINUOUS
 10
12.7106330646
 20
274.8961559218
 40
164.8608243591
100
AcDbArc
 50
29.552632751
 51
30.181059632
  0
ARC
  5
412
100
AcDbEntity
  8
0
100
AcDbCircle
 62
7
  6
CONTINUOUS
 10
41.5226203054
 20
339.9453859363
 40
12.5858543654
100
AcDbArc
 50
25.1518713176
 51
25.8726233155
  0
ARC
  5
413
100
AcDbEntity
  8
0
100
AcDbCircle
 62
7
  6
CONTINUOUS
 10
50.560949002
 20
293.6190196078
 40
2.794
100
AcDbArc
 50
300.0
 51
360.0
  0
ARC
  5
414
100
AcDbEntity
  8
0
100
AcDbCircle
 62
7
  6
CONTINUOUS
 10
50.560949002
 20
319.0190196078
 40
2.794
100
AcDbArc
 50
0.0
 51
60.0
  0
ARC
  5
415
100
AcDbEntity
  8
0
100
AcDbCircle
 62
7
  6
CONTINUOUS
 10
52.084949002
 20
290.9793741771
 40
0.254
100
AcDbArc
 50
120.0000000001
 51
149.9999999999
  0
ARC
  5
416
100
AcDbEntity
  8
0
100
AcDbCircle
 62
7
  6
CONTINUOUS
 10
53.354949002
 20
326.3850196078
 40
4.191
100
AcDbArc
 50
262.6443035894
 51
270.0
  0
ARC
  5
417
100
AcDbEntity
  8
0
100
AcDbCircle
 62
7
  6
CONTINUOUS
 10
49.5339882397
 20
322.4025744971
 40
3.683
100
AcDbArc
 50
331.3729033775
 51
334.0960634499
  0
ARC
  5
418
100
AcDbEntity
  8
0
100
AcDbCircle
 62
7
  6
CONTINUOUS
 10
53.354949002
 20
326.3850196078
 40
1.524
100
AcDbArc
 50
251.9672315605
 51
270.0
  0
ARC
  5
419
100
AcDbEntity
  8
0
100
AcDbCircle
 62
7
  6
CONTINUOUS
 10
52.084949002
 20
321.6586650386
 40
0.254
100
AcDbArc
 50
210.0000000001
 51
239.9999999999
  0
ARC
  5
41A
100
AcDbEntity
  8
0
100
AcDbCircle
 62
7
  6
CONTINUOUS
 10
55.8969535878
 20
365.7650344166
 40
7.1189586264
100
AcDbArc
 50
117.9079911922
 51
125.2211146348
  0
ARC
  5
41B
100
AcDbEntity
  8
0
100
AcDbCircle
 62
7
  6
CONTINUOUS
 10
55.8969148786
 20
366.0221674952
 40
7.1188804699
100
AcDbArc
 50
117.9154884356
 51
125.2153240267
  0
ARC
  5
41C
100
AcDbEntity
  8
0
100
AcDbCircle
 62
7
  6
CONTINUOUS
 10
55.8957605869
 20
365.772552861
 40
7.1133148229
100
AcDbArc
 50
159.5223059677
 51
162.1869134258
  0
ARC
  5
41D
100
AcDbEntity
  8
0
100
AcDbCircle
 62
7
  6
CONTINUOUS
 10
55.8941518256
 20
366.0301409603
 40
7.1116237453
100
AcDbArc
 50
161.4301466669
 51
162.1668142575
  0
ARC
  5
41E
100
AcDbEntity
  8
0
100
AcDbCircle
 62
7
  6
CONTINUOUS
 10
55.8876170575
 20
365.7757186713
 40
7.1046686075
100
AcDbArc
 50
182.3901503487
 51
198.746438524
  0
ARC
  5
41F
100
AcDbEntity
  8
0
100
AcDbCircle
 62
7
  6
CONTINUOUS
 10
55.886323477
 20
365.775687052
 40
7.103374495
100
AcDbArc
 50
182.0316015058
 51
182.3900521107
  0
ARC
  5
420
100
AcDbEntity
  8
0
100
AcDbCircle
 62
7
  6
CONTINUOUS
 10
55.8856200751
 20
365.7758199438
 40
7.1026610095
100
AcDbArc
 50
162.1869807457
 51
180.0010814311
  0
ARC
  5
421
100
AcDbEntity
  8
0
100
AcDbCircle
 62
7
  6
CONTINUOUS
 10
55.8855996092
 20
366.0328904819
 40
7.1026404123
100
AcDbArc
 50
162.1668007436
 51
180.0010882501
  0
ARC
  5
422
100
AcDbEntity
  8
0
100
AcDbCircle
 62
7
  6
CONTINUOUS
 10
55.8980636525
 20
362.4844688397
 40
6.6758436095
100
AcDbArc
 50
119.8928155557
 51
127.9184605494
  0
ARC
  5
423
100
AcDbEntity
  8
0
100
AcDbCircle
 62
7
  6
CONTINUOUS
 10
55.8980613002
 20
362.7415382165
 40
6.6758396683
100
AcDbArc
 50
119.8935237525
 51
127.9155032368
  0
ARC
  5
424
100
AcDbEntity
  8
0
100
AcDbCircle
 62
7
  6
CONTINUOUS
 10
55.8950199951
 20
362.4885383088
 40
6.6707317498
100
AcDbArc
 50
58.1878989939
 51
96.2461449669
  0
ARC
  5
425
100
AcDbEntity
  8
0
100
AcDbCircle
 62
7
  6
CONTINUOUS
 10
55.8950348582
 20
362.7456872284
 40
6.670649584
100
AcDbArc
 50
57.5705064541
 51
95.8540270266
  0
ARC
  5
426
100
AcDbEntity
  8
0
100
AcDbCircle
 62
7
  6
CONTINUOUS
 10
55.8981232753
 20
365.7384234425
 40
6.3579376769
100
AcDbArc
 50
121.717657051
 51
130.0167889149
  0
ARC
  5
427
100
AcDbEntity
  8
0
100
AcDbCircle
 62
7
  6
CONTINUOUS
 10
55.9004358038
 20
365.7369955544
 40
5.8526521251
100
AcDbArc
 50
124.7062848038
 51
134.6995684828
  0
ARC
  5
428
100
AcDbEntity
  8
0
100
AcDbCircle
 62
7
  6
CONTINUOUS
 10
55.9004368385
 20
365.4784113683
 40
5.8526509386
100
AcDbArc
 50
124.7051696452
 51
134.7012366109
  0
ARC
  5
429
100
AcDbEntity
  8
0
100
AcDbCircle
 62
7
  6
CONTINUOUS
 10
55.8948783126
 20
365.4839454866
 40
5.8450345407
100
AcDbArc
 50
59.0370688036
 51
72.9416172203
  0
ARC
  5
42A
100
AcDbEntity
  8
0
100
AcDbCircle
 62
7
  6
CONTINUOUS
 10
55.8949821735
 20
362.3478015354
 40
5.5907930258
100
AcDbArc
 50
60.3113498635
 51
94.8867903929
  0
ARC
  5
42B
100
AcDbEntity
  8
0
100
AcDbCircle
 62
7
  6
CONTINUOUS
 10
55.8921598277
 20
362.3520246025
 40
5.585718981
100
AcDbArc
 50
126.5440404277
 51
137.3004964414
  0
ARC
  5
42C
100
AcDbEntity
  8
0
100
AcDbCircle
 62
7
  6
CONTINUOUS
 10
55.8949408849
 20
360.4650866597
 40
5.5591836895
100
AcDbArc
 50
242.0464953029
 51
302.011622032
  0
ARC
  5
42D
100
AcDbEntity
  8
0
100
AcDbCircle
 62
7
  6
CONTINUOUS
 10
55.8949571239
 20
360.4524641948
 40
5.5591836895
100
AcDbArc
 50
62.0464958751
 51
122.0116214772
  0
ARC
  5
42E
100
AcDbEntity
  8
0
100
AcDbCircle
 62
7
  6
CONTINUOUS
 10
55.8932864299
 20
360.461869882
 40
5.5555632174
100
AcDbArc
 50
222.5651457254
 51
242.0460162189
  0
ARC
  5
42F
100
AcDbEntity
  8
0
100
AcDbCircle
 62
7
  6
CONTINUOUS
 10
55.8932168974
 20
360.4557036792
 40
5.5555031156
100
AcDbArc
 50
122.0141133209
 51
136.9913068117
  0
ARC
  5
430
100
AcDbEntity
  8
0
100
AcDbCircle
 62
7
  6
CONTINUOUS
 10
55.8987261626
 20
360.4579120355
 40
5.5525484994
100
AcDbArc
 50
2.0394129653
 51
62.0544990433
  0
ARC
  5
431
100
AcDbEntity
  8
0
100
AcDbCircle
 62
7
  6
CONTINUOUS
 10
55.8992375201
 20
360.4593509759
 40
5.5519815073
100
AcDbArc
 50
302.0054006922
 51
2.0247603666
  0
ARC
  5
432
100
AcDbEntity
  8
0
100
AcDbCircle
 62
7
  6
CONTINUOUS
 10
55.8951944249
 20
365.2475927209
 40
5.3358231581
100
AcDbArc
 50
46.7235406629
 51
89.9483079178
  0
ARC
  5
433
100
AcDbEntity
  8
0
100
AcDbCircle
 62
7
  6
CONTINUOUS
 10
55.8952872002
 20
365.4605086598
 40
5.3356403836
100
AcDbArc
 50
47.3895376619
 51
86.8471705182
  0
ARC
  5
434
100
AcDbEntity
  8
0
100
AcDbCircle
 62
7
  6
CONTINUOUS
 10
55.8937667437
 20
365.2493162492
 40
5.3339043389
100
AcDbArc
 50
128.2688458711
 51
140.3538855184
  0
ARC
  5
435
100
AcDbEntity
  8
0
100
AcDbCircle
 62
7
  6
CONTINUOUS
 10
55.8937560467
 20
365.4620788937
 40
5.3338888644
100
AcDbArc
 50
128.261337197
 51
140.3439842674
  0
ARC
  5
436
100
AcDbEntity
  8
0
100
AcDbCircle
 62
7
  6
CONTINUOUS
 10
56.009249002
 20
351.2894774201
 40
1.5494
100
AcDbArc
 50
270.0
 51
360.0
  0
ARC
  5
437
100
AcDbEntity
  8
0
100
AcDbCircle
 62
7
  6
CONTINUOUS
 10
62.752949002
 20
329.3563215207
 40
2.667
100
AcDbArc
 50
180.0
 51
256.225853002
  0
ARC
  5
438
100
AcDbEntity
  8
0
100
AcDbCircle
 62
7
  6
CONTINUOUS
 10
72.468449002
 20
356.7888196078
 40
3.81
100
AcDbArc
 50
270.0
 51
90.0
  0
ARC
  5
439
100
AcDbEntity
  8
0
100
AcDbCircle
 62
7
  6
CONTINUOUS
 10
62.752949002
 20
346.7817176949
 40
2.667
100
AcDbArc
 50
103.774146998
 51
180.0
  0
ARC
  5
43A
100
AcDbEntity
  8
0
100
AcDbCircle
 62
7
  6
CONTINUOUS
 10
62.752949002
 20
360.1919215208
 40
2.667
100
AcDbArc
 50
243.1685660316
 51
256.2258530019
  0
ARC
  5
43B
100
AcDbEntity
  8
0
100
AcDbCircle
 62
7
  6
CONTINUOUS
 10
62.117949002
 20
357.6783176949
 40
2.667
100
AcDbArc
 50
0.0
 51
76.225853002
  0
CIRCLE
  5
43C
100
AcDbEntity
  8
0
100
AcDbCircle
 62
7
  6
CONTINUOUS
 10
72.468449002
 20
356.7888196078
 40
1.7272
  0
ARC
  5
43D
100
AcDbEntity
  8
0
100
AcDbCircle
 62
7
  6
CONTINUOUS
 10
-124.2573704468
 20
648.613558313
 40
334.2814920873
100
AcDbArc
 50
301.7872128933
 51
302.0127857144
  0
ARC
  5
43E
100
AcDbEntity
  8
0
100
AcDbCircle
 62
7
  6
CONTINUOUS
 10
55.9099125489
 20
371.058933464
 40
5.1885039983
100
AcDbArc
 50
39.5659504666
 51
42.1342164624
  0
ARC
  5
43F
100
AcDbEntity
  8
0
100
AcDbCircle
 62
7
  6
CONTINUOUS
 10
53.354949002
 20
392.6790196078
 40
4.191
100
AcDbArc
 50
90.0
 51
180.0
  0
ARC
  5
440
100
AcDbEntity
  8
0
100
AcDbCircle
 62
7
  6
CONTINUOUS
 10
72.468449002
 20
369.4888196078
 40
3.81
100
AcDbArc
 50
270.0
 51
90.0
  0
CIRCLE
  5
441
100
AcDbEntity
  8
0
100
AcDbCircle
 62
7
  6
CONTINUOUS
 10
57.342749002
 20
368.9046196078
 40
2.1971
  0
CIRCLE
  5
442
100
AcDbEntity
  8
0
100
AcDbCircle
 62
7
  6
CONTINUOUS
 10
72.468449002
 20
369.4888196078
 40
1.7272
  0
ARC
  5
443
100
AcDbEntity
  8
0
100
AcDbCircle
 62
7
  6
CONTINUOUS
 10
56.009249002
 20
376.6740044264
 40
1.5494
100
AcDbArc
 50
270.0
 51
360.0
  0
ARC
  5
444
100
AcDbEntity
  8
0
100
AcDbCircle
 62
7
  6
CONTINUOUS
 10
56.009249002
 20
382.8462044264
 40
1.5494
100
AcDbArc
 50
0.0
 51
90.0
  0
ARC
  5
445
100
AcDbEntity
  8
0
100
AcDbCircle
 62
7
  6
CONTINUOUS
 10
53.354949002
 20
392.6790196078
 40
1.524
100
AcDbArc
 50
90.0
 51
180.0
  0
ARC
  5
446
100
AcDbEntity
  8
0
100
AcDbCircle
 62
7
  6
CONTINUOUS
 10
229.0730450774
 20
83.6129511789
 40
332.2200840647
100
AcDbArc
 50
122.0152809456
 51
122.242820951
  0
ARC
  5
447
100
AcDbEntity
  8
0
100
AcDbCircle
 62
7
  6
CONTINUOUS
 10
181.497949002
 20
199.0040196078
 40
5.334
100
AcDbArc
 50
180.0
 51
270.0
  0
ARC
  5
448
100
AcDbEntity
  8
0
100
AcDbCircle
 62
7
  6
CONTINUOUS
 10
181.497949002
 20
199.0040196078
 40
2.667
100
AcDbArc
 50
180.0
 51
270.0
  0
ARC
  5
449
100
AcDbEntity
  8
0
100
AcDbCircle
 62
7
  6
CONTINUOUS
 10
150.3599456374
 20
330.732631404
 40
1.5009966795
100
AcDbArc
 50
173.0990671358
 51
179.9861188677
  0
ARC
  5
44A
100
AcDbEntity
  8
0
100
AcDbCircle
 62
7
  6
CONTINUOUS
 10
159.9228889246
 20
338.3041464714
 40
13.3323867229
100
AcDbArc
 50
210.9804180165
 51
214.4363171193
  0
ARC
  5
44B
100
AcDbEntity
  8
0
100
AcDbCircle
 62
7
  6
CONTINUOUS
 10
159.9218401727
 20
337.7906835358
 40
13.3311403544
100
AcDbArc
 50
212.4839442111
 51
213.5858845515
  0
ARC
  5
44C
100
AcDbEntity
  8
0
100
AcDbCircle
 62
7
  6
CONTINUOUS
 10
159.9214440485
 20
337.932521814
 40
13.3306667372
100
AcDbArc
 50
213.0266078154
 51
213.5802233754
  0
ARC
  5
44D
100
AcDbEntity
  8
0
100
AcDbCircle
 62
7
  6
CONTINUOUS
 10
159.9195121442
 20
337.9312378334
 40
13.3283470693
100
AcDbArc
 50
213.5802184067
 51
214.2610526655
  0
ARC
  5
44E
100
AcDbEntity
  8
0
100
AcDbCircle
 62
7
  6
CONTINUOUS
 10
159.9172823172
 20
337.9298438946
 40
13.3257179264
100
AcDbArc
 50
208.3669827092
 51
213.0267069107
  0
ARC
  5
44F
100
AcDbEntity
  8
0
100
AcDbCircle
 62
7
  6
CONTINUOUS
 10
159.9135878757
 20
338.297873501
 40
13.3211683332
100
AcDbArc
 50
214.4366869456
 51
215.3961127075
  0
ARC
  5
450
100
AcDbEntity
  8
0
100
AcDbCircle
 62
7
  6
CONTINUOUS
 10
159.9120363083
 20
337.784566147
 40
13.319584959
100
AcDbArc
 50
207.4899691711
 51
212.4843959717
  0
ARC
  5
451
100
AcDbEntity
  8
0
100
AcDbCircle
 62
7
  6
CONTINUOUS
 10
159.8879117128
 20
337.9134546552
 40
13.2920872688
100
AcDbArc
 50
208.0355326288
 51
208.3649706427
  0
ARC
  5
452
100
AcDbEntity
  8
0
100
AcDbCircle
 62
7
  6
CONTINUOUS
 10
159.8820969497
 20
337.9103597158
 40
13.2855001511
100
AcDbArc
 50
207.6419099114
 51
208.0355381564
  0
ARC
  5
453
100
AcDbEntity
  8
0
100
AcDbCircle
 62
7
  6
CONTINUOUS
 10
159.8464147008
 20
338.41082106
 40
13.2480471599
100
AcDbArc
 50
179.9999849002
 51
180.6140228753
  0
ARC
  5
454
100
AcDbEntity
  8
0
100
AcDbCircle
 62
7
  6
CONTINUOUS
 10
159.8463661753
 20
337.8980337131
 40
13.2479986343
100
AcDbArc
 50
179.1980597503
 51
180.6140228753
  0
ARC
  5
455
100
AcDbEntity
  8
0
100
AcDbCircle
 62
7
  6
CONTINUOUS
 10
159.9259506663
 20
339.5417702112
 40
7.82850866
100
AcDbArc
 50
175.1558023773
 51
179.1360074579
  0
ARC
  5
456
100
AcDbEntity
  8
0
100
AcDbCircle
 62
7
  6
CONTINUOUS
 10
159.8961535082
 20
339.5424590616
 40
7.7987045062
100
AcDbArc
 50
179.137766748
 51
180.8622332521
  0
ARC
  5
457
100
AcDbEntity
  8
0
100
AcDbCircle
 62
7
  6
CONTINUOUS
 10
159.9755973163
 20
342.025074501
 40
6.2930002434
100
AcDbArc
 50
141.2164574013
 51
157.0906404912
  0
ARC
  5
458
100
AcDbEntity
  8
0
100
AcDbCircle
 62
7
  6
CONTINUOUS
 10
159.9656851311
 20
342.0301026858
 40
6.2819126172
100
AcDbArc
 50
157.0976909307
 51
158.6879910066
  0
ARC
  5
459
100
AcDbEntity
  8
0
100
AcDbCircle
 62
7
  6
CONTINUOUS
 10
159.9465533541
 20
342.0369478118
 40
6.2616013548
100
AcDbArc
 50
158.6827171635
 51
179.8465362872
  0
ARC
  5
45A
100
AcDbEntity
  8
0
100
AcDbCircle
 62
7
  6
CONTINUOUS
 10
159.9393466626
 20
342.0375512357
 40
6.2543941915
100
AcDbArc
 50
180.8284224732
 51
181.9883874835
  0
ARC
  5
45B
100
AcDbEntity
  8
0
100
AcDbCircle
 62
7
  6
CONTINUOUS
 10
159.9342395359
 20
342.0374663167
 40
6.2492863709
100
AcDbArc
 50
180.4109373411
 51
180.8283209772
  0
ARC
  5
45C
100
AcDbEntity
  8
0
100
AcDbCircle
 62
7
  6
CONTINUOUS
 10
159.930568145
 20
342.0374415566
 40
6.2456148968
100
AcDbArc
 50
179.850672989
 51
180.4109517652
  0
ARC
  5
45D
100
AcDbEntity
  8
0
100
AcDbCircle
 62
7
  6
CONTINUOUS
 10
159.9688256591
 20
343.7653939351
 40
5.2679207749
100
AcDbArc
 50
143.838067747
 51
179.9793313714
  0
ARC
  5
45E
100
AcDbEntity
  8
0
100
AcDbCircle
 62
7
  6
CONTINUOUS
 10
160.0353180514
 20
338.4625335665
 40
13.5306676132
100
AcDbArc
 50
269.9984372557
 51
285.4948034847
  0
ARC
  5
45F
100
AcDbEntity
  8
0
100
AcDbCircle
 62
7
  6
CONTINUOUS
 10
160.0355998158
 20
338.603080909
 40
13.5290981399
100
AcDbArc
 50
271.2151021981
 51
285.5017625109
  0
ARC
  5
460
100
AcDbEntity
  8
0
100
AcDbCircle
 62
7
  6
CONTINUOUS
 10
160.0340535428
 20
338.4573836186
 40
13.5255176899
100
AcDbArc
 50
249.7719001739
 51
270.003793277
  0
ARC
  5
461
100
AcDbEntity
  8
0
100
AcDbCircle
 62
7
  6
CONTINUOUS
 10
160.0350086894
 20
338.5859246696
 40
13.5119608996
100
AcDbArc
 50
268.7806938869
 51
269.999746903
  0
ARC
  5
462
100
AcDbEntity
  8
0
100
AcDbCircle
 62
7
  6
CONTINUOUS
 10
160.030086328
 20
338.4437828062
 40
13.5113840647
100
AcDbArc
 50
249.5479837141
 51
249.7677441558
  0
ARC
  5
463
100
AcDbEntity
  8
0
100
AcDbCircle
 62
7
  6
CONTINUOUS
 10
160.0507410862
 20
338.2637827331
 40
13.4813130587
100
AcDbArc
 50
62.2343470784
 51
62.6200741874
  0
ARC
  5
464
100
AcDbEntity
  8
0
100
AcDbCircle
 62
7
  6
CONTINUOUS
 10
159.9932528717
 20
338.3086864269
 40
13.4295265264
100
AcDbArc
 50
117.3706845886
 51
135.7412526072
  0
ARC
  5
465
100
AcDbEntity
  8
0
100
AcDbCircle
 62
7
  6
CONTINUOUS
 10
160.0772757871
 20
338.3094506569
 40
13.4285421454
100
AcDbArc
 50
44.2664225252
 51
62.2437544074
  0
ARC
  5
466
100
AcDbEntity
  8
0
100
AcDbCircle
 62
7
  6
CONTINUOUS
 10
160.0862086435
 20
339.533137983
 40
8.276963168
100
AcDbArc
 50
37.5711142122
 51
40.8281010879
  0
ARC
  5
467
100
AcDbEntity
  8
0
100
AcDbCircle
 62
7
  6
CONTINUOUS
 10
160.1090219747
 20
339.5503698993
 40
8.2483743046
100
AcDbArc
 50
27.4571038789
 51
37.5728671954
  0
ARC
  5
468
100
AcDbEntity
  8
0
100
AcDbCircle
 62
7
  6
CONTINUOUS
 10
160.1064811445
 20
340.1925606715
 40
7.8514331029
100
AcDbArc
 50
22.6025411216
 51
32.0472994231
  0
ARC
  5
469
100
AcDbEntity
  8
0
100
AcDbCircle
 62
7
  6
CONTINUOUS
 10
160.0349489517
 20
342.0507293819
 40
7.1652020056
100
AcDbArc
 50
270.0000004023
 51
270.3555742369
  0
ARC
  5
46A
100
AcDbEntity
  8
0
100
AcDbCircle
 62
7
  6
CONTINUOUS
 10
160.0459757943
 20
342.0172161616
 40
7.1296920472
100
AcDbArc
 50
300.3226153568
 51
300.7523913924
  0
ARC
  5
46B
100
AcDbEntity
  8
0
100
AcDbCircle
 62
7
  6
CONTINUOUS
 10
160.1159239703
 20
341.9424687315
 40
7.0312026068
100
AcDbArc
 50
7.1186222541
 51
27.9917201183
  0
ARC
  5
46C
100
AcDbEntity
  8
0
100
AcDbCircle
 62
7
  6
CONTINUOUS
 10
160.1214861767
 20
342.0379574668
 40
6.2634691871
100
AcDbArc
 50
354.0257709166
 51
358.0076727005
  0
ARC
  5
46D
100
AcDbEntity
  8
0
100
AcDbCircle
 62
7
  6
CONTINUOUS
 10
160.1226283128
 20
342.0370328899
 40
6.2623155088
100
AcDbArc
 50
359.8541932571
 51
5.855044577
  0
ARC
  5
46E
100
AcDbEntity
  8
0
100
AcDbCircle
 62
7
  6
CONTINUOUS
 10
160.1322868931
 20
342.0374888641
 40
6.2526587091
100
AcDbArc
 50
358.0085232988
 51
359.1663876636
  0
ARC
  5
46F
100
AcDbEntity
  8
0
100
AcDbCircle
 62
7
  6
CONTINUOUS
 10
160.137353733
 20
342.0374022773
 40
6.2475911458
100
AcDbArc
 50
359.1665056132
 51
359.4628082373
  0
ARC
  5
470
100
AcDbEntity
  8
0
100
AcDbCircle
 62
7
  6
CONTINUOUS
 10
160.1400254903
 20
342.037377954
 40
6.2449192779
100
AcDbArc
 50
359.4628015657
 51
359.8506211892
  0
ARC
  5
471
100
AcDbEntity
  8
0
100
AcDbCircle
 62
7
  6
CONTINUOUS
 10
160.0069792162
 20
342.9134591949
 40
5.821141278
100
AcDbArc
 50
138.1547327424
 51
139.8797042599
  0
ARC
  5
472
100
AcDbEntity
  8
0
100
AcDbCircle
 62
7
  6
CONTINUOUS
 10
160.0367177182
 20
353.5221629676
 40
6.7040069691
100
AcDbArc
 50
269.9848837614
 51
302.2928314064
  0
ARC
  5
473
100
AcDbEntity
  8
0
100
AcDbCircle
 62
7
  6
CONTINUOUS
 10
160.0367170473
 20
352.6263229168
 40
6.7040009462
100
AcDbArc
 50
269.9848894817
 51
302.2924940994
  0
ARC
  5
474
100
AcDbEntity
  8
0
100
AcDbCircle
 62
7
  6
CONTINUOUS
 10
160.1122788901
 20
353.4417913113
 40
6.5909946448
100
AcDbArc
 50
339.3239870934
 51
340.9198733015
  0
ARC
  5
475
100
AcDbEntity
  8
0
100
AcDbCircle
 62
7
  6
CONTINUOUS
 10
160.1147698866
 20
353.440163849
 40
6.5881085362
100
AcDbArc
 50
340.9261678299
 51
349.5886486795
  0
ARC
  5
476
100
AcDbEntity
  8
0
100
AcDbCircle
 62
7
  6
CONTINUOUS
 10
160.1279948812
 20
352.5408332166
 40
6.5744636769
100
AcDbArc
 50
340.9180483514
 51
357.5039881408
  0
ARC
  5
477
100
AcDbEntity
  8
0
100
AcDbCircle
 62
7
  6
CONTINUOUS
 10
160.034672748
 20
360.4560002331
 40
5.5938420443
100
AcDbArc
 50
89.9971704264
 51
108.1040901313
  0
ARC
  5
478
100
AcDbEntity
  8
0
100
AcDbCircle
 62
7
  6
CONTINUOUS
 10
160.035225256
 20
360.4560002331
 40
5.5938420443
100
AcDbArc
 50
71.8959098687
 51
90.0028295736
  0
ARC
  5
479
100
AcDbEntity
  8
0
100
AcDbCircle
 62
7
  6
CONTINUOUS
 10
159.9943272123
 20
360.5533982096
 40
5.5200717331
100
AcDbArc
 50
210.1923033655
 51
225.4434951555
  0
ARC
  5
47A
100
AcDbEntity
  8
0
100
AcDbCircle
 62
7
  6
CONTINUOUS
 10
159.9943272123
 20
360.5162738681
 40
5.5200717331
100
AcDbArc
 50
134.5565048445
 51
149.8076966345
  0
ARC
  5
47B
100
AcDbEntity
  8
0
100
AcDbCircle
 62
7
  6
CONTINUOUS
 10
159.9583873354
 20
360.5348360389
 40
5.4795856465
100
AcDbArc
 50
149.7864684129
 51
210.2135315871
  0
ARC
  5
47C
100
AcDbEntity
  8
0
100
AcDbCircle
 62
7
  6
CONTINUOUS
 10
160.0371828512
 20
361.8079032666
 40
3.2135796531
100
AcDbArc
 50
253.7060217933
 51
269.960172097
  0
CIRCLE
  5
47D
100
AcDbEntity
  8
0
100
AcDbCircle
 62
7
  6
CONTINUOUS
 10
160.873149002
 20
360.1926312864
 40
2.1971
  0
ARC
  5
47E
100
AcDbEntity
  8
0
100
AcDbCircle
 62
7
  6
CONTINUOUS
 10
238.0451192714
 20
341.9558798243
 40
3.5296449035
100
AcDbArc
 50
298.6014640561
 51
299.3062540951
  0
ARC
  5
47F
100
AcDbEntity
  8
0
100
AcDbCircle
 62
7
  6
CONTINUOUS
 10
360.313949002
 20
199.0040196078
 40
5.334
100
AcDbArc
 50
270.0
 51
360.0
  0
ARC
  5
480
100
AcDbEntity
  8
0
100
AcDbCircle
 62
7
  6
CONTINUOUS
 10
360.313949002
 20
199.0040196078
 40
2.667
100
AcDbArc
 50
270.0
 51
360.0
  0
ARC
  5
481
100
AcDbEntity
  8
0
100
AcDbCircle
 62
7
  6
CONTINUOUS
 10
324.6390799907
 20
264.1996009221
 40
196.2703738457
100
AcDbArc
 50
148.7602209895
 51
149.0203791567
  0
ARC
  5
482
100
AcDbEntity
  8
0
100
AcDbCircle
 62
7
  6
CONTINUOUS
 10
291.0021108602
 20
284.3106487299
 40
157.0797519564
100
AcDbArc
 50
149.1667820957
 51
149.8137397323
  0
ARC
  5
483
100
AcDbEntity
  8
0
100
AcDbCircle
 62
7
  6
CONTINUOUS
 10
311.7865367915
 20
333.3704519115
 40
51.7009797531
100
AcDbArc
 50
182.2850141272
 51
182.4714625712
  0
ARC
  5
484
100
AcDbEntity
  8
0
100
AcDbCircle
 62
7
  6
CONTINUOUS
 10
282.0671732938
 20
342.1630586019
 40
11.2770082647
100
AcDbArc
 50
285.3110344794
 51
287.9369759964
  0
ARC
  5
485
100
AcDbEntity
  8
0
100
AcDbCircle
 62
7
  6
CONTINUOUS
 10
282.3720649721
 20
341.1934178138
 40
10.2606019077
100
AcDbArc
 50
287.9847098732
 51
288.3347454882
  0
ARC
  5
486
100
AcDbEntity
  8
0
100
AcDbCircle
 62
7
  6
CONTINUOUS
 10
307.8752933689
 20
340.5932275808
 40
3.3886474007
100
AcDbArc
 50
299.3051106368
 51
300.2050385507
  0
ARC
  5
487
100
AcDbEntity
  8
0
100
AcDbCircle
 62
7
  6
CONTINUOUS
 10
204.3321784192
 20
640.1486136022
 40
322.1922308112
100
AcDbArc
 50
241.7496098311
 51
242.04368814
  0
ARC
  5
488
100
AcDbEntity
  8
0
100
AcDbCircle
 62
7
  6
CONTINUOUS
 10
291.002068528
 20
436.2771014016
 40
157.0797027847
100
AcDbArc
 50
210.1862601432
 51
210.8332179541
  0
SPLINE
  5
489
100
AcDbEntity
  8
0
100
AcDbSpline
 62
7
  6
CONTINUOUS
 70
0
 71
3
 72
15
 73
11
 74
0
 42
0.0000001
 43
0.0000001
 44
0.0000000001
 40
0.0
 40
0.0
 40
0.0
 40
0.0
 40
0.1249939718
 40
0.2499681893
 40
0.3749781113
 40
0.500008673
 40
0.6250407758
 40
0.7500529823
 40
0.8750278776
 40
1.0
 40
1.0
 40
1.0
 40
1.0
 10
59.0699315344
 20
360.1112881778
 30
0.0
 10
59.0698231211
 20
359.7030900667
 30
0.0
 10
58.9083536351
 20
358.8780073556
 30
0.0
 10
58.2171651264
 20
357.8310270327
 30
0.0
 10
57.1804701062
 20
357.1218602045
 30
0.0
 10
55.9524968925
 20
356.858029495
 30
0.0
 10
54.7159711157
 20
357.0783189892
 30
0.0
 10
53.65482918
 20
357.7504073932
 30
0.0
 10
52.9271624851
 20
358.7722435698
 30
0.0
 10
52.7364106733
 20
359.5909989794
 30
0.0
 10
52.7219422945
 20
359.9988692126
 30
0.0
  0
SPLINE
  5
48A
100
AcDbEntity
  8
0
100
AcDbSpline
 62
7
  6
CONTINUOUS
 70
0
 71
3
 72
15
 73
11
 74
0
 42
0.0000001
 43
0.0000001
 44
0.0000000001
 40
0.0
 40
0.0
 40
0.0
 40
0.0
 40
0.1249795534
 40
0.2499452834
 40
0.3749515082
 40
0.4999844543
 40
0.6250187346
 40
0.7500343985
 40
0.8750135821
 40
1.0
 40
1.0
 40
1.0
 40
1.0
 10
53.4834639043
 20
359.9992563466
 30
0.0
 10
53.472343553
 20
360.3127441504
 30
0.0
 10
53.5754457382
 20
360.9510223955
 30
0.0
 10
54.0835026152
 20
361.7709984689
 30
0.0
 10
54.8670846034
 20
362.335752161
 30
0.0
 10
55.8071749462
 20
362.5573188706
 30
0.0
 10
56.7606225808
 20
362.4028908665
 30
0.0
 10
57.5822863034
 20
361.8950228597
 30
0.0
 10
58.14722508
 20
361.1130579185
 30
0.0
 10
58.2953131376
 20
360.4836381886
 30
0.0
 10
58.3064340997
 20
360.1701331667
 30
0.0
  0
SPLINE
  5
48B
100
AcDbEntity
  8
0
100
AcDbSpline
 62
7
  6
CONTINUOUS
 70
0
 71
3
 72
15
 73
11
 74
0
 42
0.0000001
 43
0.0000001
 44
0.0000000001
 40
0.0
 40
0.0
 40
0.0
 40
0.0
 40
0.1249795534
 40
0.2499452834
 40
0.3749515082
 40
0.4999844543
 40
0.6250187346
 40
0.7500343985
 40
0.8750135821
 40
1.0
 40
1.0
 40
1.0
 40
1.0
 10
58.3064340997
 20
360.1701331667
 30
0.0
 10
58.317554451
 20
359.8566453629
 30
0.0
 10
58.2144522658
 20
359.2183671178
 30
0.0
 10
57.7063953888
 20
358.3983910444
 30
0.0
 10
56.9228134006
 20
357.8336373523
 30
0.0
 10
55.9827230578
 20
357.6120706427
 30
0.0
 10
55.0292754232
 20
357.7664986468
 30
0.0
 10
54.2076117006
 20
358.2743666536
 30
0.0
 10
53.642672924
 20
359.0563315948
 30
0.0
 10
53.4945848664
 20
359.6857513247
 30
0.0
 10
53.4834639043
 20
359.9992563466
 30
0.0
  0
SPLINE
  5
48C
100
AcDbEntity
  8
0
100
AcDbSpline
 62
7
  6
CONTINUOUS
 70
0
 71
3
 72
15
 73
11
 74
0
 42
0.0000001
 43
0.0000001
 44
0.0000000001
 40
0.0
 40
0.0
 40
0.0
 40
0.0
 40
0.1249939718
 40
0.2499681893
 40
0.3749781113
 40
0.500008673
 40
0.6250407758
 40
0.7500529823
 40
0.8750278776
 40
1.0
 40
1.0
 40
1.0
 40
1.0
 10
52.7199664696
 20
360.1112881685
 30
0.0
 10
52.7200748829
 20
360.5194862796
 30
0.0
 10
52.8815443689
 20
361.3445689907
 30
0.0
 10
53.5727328776
 20
362.3915493136
 30
0.0
 10
54.6094278978
 20
363.1007161417
 30
0.0
 10
55.8374011115
 20
363.3645468513
 30
0.0
 10
57.0739268884
 20
363.1442573571
 30
0.0
 10
58.135068824
 20
362.4721689531
 30
0.0
 10
58.8627355189
 20
361.4503327765
 30
0.0
 10
59.0534873308
 20
360.6315773669
 30
0.0
 10
59.0679557095
 20
360.2237071337
 30
0.0
  0
SPLINE
  5
48D
100
AcDbEntity
  8
0
100
AcDbSpline
 62
7
  6
CONTINUOUS
 70
0
 71
3
 72
9
 73
5
 74
0
 42
0.0000001
 43
0.0000001
 44
0.0000000001
 40
0.0
 40
0.0
 40
0.0
 40
0.0
 40
0.4999533407
 40
1.0
 40
1.0
 40
1.0
 40
1.0
 10
59.7575791482
 20
374.5397430653
 30
0.0
 10
59.4404356524
 20
374.8903124746
 30
0.0
 10
58.7066737728
 20
375.5076290104
 30
0.0
 10
57.8330699599
 20
375.9029597548
 30
0.0
 10
57.3798617997
 20
376.0377362576
 30
0.0
  0
SPLINE
  5
48E
100
AcDbEntity
  8
0
100
AcDbSpline
 62
7
  6
CONTINUOUS
 70
0
 71
3
 72
15
 73
11
 74
0
 42
0.0000001
 43
0.0000001
 44
0.0000000001
 40
0.0
 40
0.0
 40
0.0
 40
0.0
 40
0.1716277312
 40
0.3301177227
 40
0.474415292
 40
0.6040365758
 40
0.7192803528
 40
0.8215291176
 40
0.9136108627
 40
1.0
 40
1.0
 40
1.0
 40
1.0
 10
240.682475911
 20
342.5967159911
 30
0.0
 10
240.9260863485
 20
342.524777692
 30
0.0
 10
241.3904162031
 20
342.3712231371
 30
0.0
 10
242.0388371413
 20
342.0998334585
 30
0.0
 10
242.6051256865
 20
341.7994111867
 30
0.0
 10
243.0819136466
 20
341.4736690292
 30
0.0
 10
243.4631091781
 20
341.1261648658
 30
0.0
 10
243.7433524478
 20
340.7597370696
 30
0.0
 10
243.9166982992
 20
340.3775417014
 30
0.0
 10
243.9565381263
 20
340.1120621815
 30
0.0
 10
243.9565380496
 20
339.9842056929
 30
0.0
  0
SPLINE
  5
48F
100
AcDbEntity
  8
0
100
AcDbSpline
 62
7
  6
CONTINUOUS
 70
0
 71
3
 72
10
 73
6
 74
0
 42
0.0000001
 43
0.0000001
 44
0.0000000001
 40
0.0
 40
0.0
 40
0.0
 40
0.0
 40
0.5140848583
 40
0.7622749758
 40
1.0
 40
1.0
 40
1.0
 40
1.0
 10
236.019049002
 20
335.2474700371
 30
0.0
 10
236.697785189
 20
335.2474700371
 30
0.0
 10
237.7054627771
 20
335.2992370026
 30
0.0
 10
239.0142666344
 20
335.4764776147
 30
0.0
 10
239.644291394
 20
335.600304453
 30
0.0
 10
239.9500444599
 20
335.6711951139
 30
0.0
  0
SPLINE
  5
490
100
AcDbEntity
  8
0
100
AcDbSpline
 62
7
  6
CONTINUOUS
 70
0
 71
3
 72
16
 73
12
 74
0
 42
0.0000001
 43
0.0000001
 44
0.0000000001
 40
0.0
 40
0.0
 40
0.0
 40
0.0
 40
0.1734860864
 40
0.3342454581
 40
0.4806284134
 40
0.6116055261
 40
0.7270131396
 40
0.8279280052
 40
0.9171776209
 40
0.9590276255
 40
1.0
 40
1.0
 40
1.0
 40
1.0
 10
239.9500444599
 20
335.6711951139
 30
0.0
 10
240.2428356721
 20
335.7390804922
 30
0.0
 10
240.8029678493
 20
335.8881786957
 30
0.0
 10
241.5898490579
 20
336.1632537962
 30
0.0
 10
242.282076836
 20
336.4776192343
 30
0.0
 10
242.8684267477
 20
336.8262170525
 30
0.0
 10
243.3397079902
 20
337.2043487322
 30
0.0
 10
243.6883374433
 20
337.6075255146
 30
0.0
 10
243.8733471194
 20
337.9706694417
 30
0.0
 10
243.9447868995
 20
338.2612052727
 30
0.0
 10
243.9565380922
 20
338.4049590685
 30
0.0
 10
243.9565380496
 20
338.4759421408
 30
0.0
  0
SPLINE
  5
491
100
AcDbEntity
  8
0
100
AcDbSpline
 62
7
  6
CONTINUOUS
 70
0
 71
3
 72
15
 73
11
 74
0
 42
0.0000001
 43
0.0000001
 44
0.0000000001
 40
0.0
 40
0.0
 40
0.0
 40
0.0
 40
0.0863910861
 40
0.1784741978
 40
0.2807235771
 40
0.3959672549
 40
0.525587895
 40
0.6698844446
 40
0.8283732498
 40
1.0
 40
1.0
 40
1.0
 40
1.0
 10
228.0815599544
 20
339.9842056914
 30
0.0
 10
228.0815600312
 20
340.1120555596
 30
0.0
 10
228.1213950354
 20
340.3775201972
 30
0.0
 10
228.2947224667
 20
340.759695832
 30
0.0
 10
228.5749364683
 20
341.1261061769
 30
0.0
 10
228.95609312
 20
341.4735957594
 30
0.0
 10
229.4328336594
 20
341.7993266108
 30
0.0
 10
229.99906753
 20
342.0997412755
 30
0.0
 10
230.6474280929
 20
342.3711276853
 30
0.0
 10
231.1117161106
 20
342.524682735
 30
0.0
 10
231.35530499
 20
342.596622239
 30
0.0
  0
SPLINE
  5
492
100
AcDbEntity
  8
0
100
AcDbSpline
 62
7
  6
CONTINUOUS
 70
0
 71
3
 72
16
 73
12
 74
0
 42
0.0000001
 43
0.0000001
 44
0.0000000001
 40
0.0
 40
0.0
 40
0.0
 40
0.0
 40
0.0401687997
 40
0.0812796873
 40
0.169428356
 40
0.2699096633
 40
0.3855151716
 40
0.5171508332
 40
0.6644165323
 40
0.8260127252
 40
1.0
 40
1.0
 40
1.0
 40
1.0
 10
228.0815599544
 20
338.4759421423
 30
0.0
 10
228.0815599991
 20
338.4015753946
 30
0.0
 10
228.0944837902
 20
338.2507934473
 30
0.0
 10
228.1731290001
 20
337.9458498373
 30
0.0
 10
228.3769954507
 20
337.565381609
 30
0.0
 10
228.758893422
 20
337.1460711519
 30
0.0
 10
229.2737406093
 20
336.755080904
 30
0.0
 10
229.9126953325
 20
336.3975772869
 30
0.0
 10
230.6648134612
 20
336.0789296512
 30
0.0
 10
231.5166917913
 20
335.8048331957
 30
0.0
 10
232.121445182
 20
335.6598249405
 30
0.0
 10
232.4369519786
 20
335.5949261866
 30
0.0
  0
SPLINE
  5
493
100
AcDbEntity
  8
0
100
AcDbSpline
 62
7
  6
CONTINUOUS
 70
0
 71
3
 72
9
 73
5
 74
0
 42
0.0000001
 43
0.0000001
 44
0.0000000001
 40
0.0
 40
0.0
 40
0.0
 40
0.0
 40
0.4884298648
 40
1.0
 40
1.0
 40
1.0
 40
1.0
 10
232.4369519786
 20
335.5949261866
 30
0.0
 10
233.0115938499
 20
335.4767241644
 30
0.0
 10
234.2027863942
 20
335.3036401683
 30
0.0
 10
235.404581469
 20
335.2474700371
 30
0.0
 10
236.019049002
 20
335.2474700371
 30
0.0
  0
SPLINE
  5
494
100
AcDbEntity
  8
0
100
AcDbSpline
 62
7
  6
CONTINUOUS
 70
0
 71
3
 72
20
 73
16
 74
0
 42
0.0000001
 43
0.0000001
 44
0.0000000001
 40
0.0
 40
0.0
 40
0.0
 40
0.0
 40
0.1692033416
 40
0.3329984978
 40
0.4863199658
 40
0.557668002
 40
0.624826086
 40
0.6874246132
 40
0.7452033462
 40
0.7980406619
 40
0.8459971858
 40
0.8893737793
 40
0.928780191
 40
0.9652004141
 40
1.0
 40
1.0
 40
1.0
 40
1.0
 10
236.019049002
 20
336.7557335877
 30
0.0
 10
235.5024462104
 20
336.7557335877
 30
0.0
 10
234.4852353078
 20
336.7958199403
 30
0.0
 10
233.0096729267
 20
336.9748446219
 30
0.0
 10
231.8475797139
 20
337.2224774235
 30
0.0
 10
230.9937172219
 20
337.4785079347
 30
0.0
 10
230.4167850382
 20
337.6898466917
 30
0.0
 10
229.8932982564
 20
337.9230406492
 30
0.0
 10
229.4281120295
 20
338.1759524178
 30
0.0
 10
229.0254963545
 20
338.4463403195
 30
0.0
 10
228.6891208483
 20
338.7319925483
 30
0.0
 10
228.4221452081
 20
339.0307810316
 30
0.0
 10
228.2275411355
 20
339.3408345201
 30
0.0
 10
228.1085429263
 20
339.6596927653
 30
0.0
 10
228.0815598906
 20
339.8779574161
 30
0.0
 10
228.0815599544
 20
339.9842056914
 30
0.0
  0
SPLINE
  5
495
100
AcDbEntity
  8
0
100
AcDbSpline
 62
7
  6
CONTINUOUS
 70
0
 71
3
 72
20
 73
16
 74
0
 42
0.0000001
 43
0.0000001
 44
0.0000000001
 40
0.0
 40
0.0
 40
0.0
 40
0.0
 40
0.0347995737
 40
0.0712197276
 40
0.1106260117
 40
0.1540024495
 40
0.2019588113
 40
0.254795954
 40
0.3125745127
 40
0.3751728543
 40
0.4423307426
 40
0.513678652
 40
0.6670002899
 40
0.8307959724
 40
1.0
 40
1.0
 40
1.0
 40
1.0
 10
243.9565380496
 20
339.9842056929
 30
0.0
 10
243.9565379858
 20
339.8779574548
 30
0.0
 10
243.9295554339
 20
339.6596930087
 30
0.0
 10
243.8105571301
 20
339.3408354457
 30
0.0
 10
243.6159540651
 20
339.0307826639
 30
0.0
 10
243.3489796075
 20
338.7319949219
 30
0.0
 10
243.012605512
 20
338.446343371
 30
0.0
 10
242.6099915266
 20
338.1759557501
 30
0.0
 10
242.1448070005
 20
337.9230442448
 30
0.0
 10
241.6213219766
 20
337.6898505177
 30
0.0
 10
241.0443915209
 20
337.478511564
 30
0.0
 10
240.1905297629
 20
337.2224801986
 30
0.0
 10
239.0284349705
 20
336.9748463827
 30
0.0
 10
237.5528685106
 20
336.7958201986
 30
0.0
 10
236.5356538889
 20
336.7557335877
 30
0.0
 10
236.019049002
 20
336.7557335877
 30
0.0
  0
SPLINE
  5
496
100
AcDbEntity
  8
0
100
AcDbSpline
 62
7
  6
CONTINUOUS
 70
0
 71
3
 72
15
 73
11
 74
0
 42
0.0000001
 43
0.0000001
 44
0.0000000001
 40
0.0
 40
0.0
 40
0.0
 40
0.0
 40
0.1716277312
 40
0.3301177227
 40
0.474415292
 40
0.6040365758
 40
0.7192803528
 40
0.8215291176
 40
0.9136108627
 40
1.0
 40
1.0
 40
1.0
 40
1.0
 10
335.932475911
 20
342.5967159911
 30
0.0
 10
336.1760863485
 20
342.524777692
 30
0.0
 10
336.6404162031
 20
342.3712231371
 30
0.0
 10
337.2888371413
 20
342.0998334585
 30
0.0
 10
337.8551256865
 20
341.7994111867
 30
0.0
 10
338.3319136466
 20
341.4736690292
 30
0.0
 10
338.7131091781
 20
341.1261648658
 30
0.0
 10
338.9933524478
 20
340.7597370696
 30
0.0
 10
339.1666982992
 20
340.3775417014
 30
0.0
 10
339.2065381263
 20
340.1120621815
 30
0.0
 10
339.2065380496
 20
339.9842056929
 30
0.0
  0
SPLINE
  5
497
100
AcDbEntity
  8
0
100
AcDbSpline
 62
7
  6
CONTINUOUS
 70
0
 71
3
 72
20
 73
16
 74
0
 42
0.0000001
 43
0.0000001
 44
0.0000000001
 40
0.0
 40
0.0
 40
0.0
 40
0.0
 40
0.1692033416
 40
0.3329984978
 40
0.4863199658
 40
0.557668002
 40
0.624826086
 40
0.6874246132
 40
0.7452033462
 40
0.7980406619
 40
0.8459971858
 40
0.8893737793
 40
0.928780191
 40
0.9652004141
 40
1.0
 40
1.0
 40
1.0
 40
1.0
 10
331.269049002
 20
335.2474700371
 30
0.0
 10
331.7856517936
 20
335.2474700371
 30
0.0
 10
332.8028626962
 20
335.2875563897
 30
0.0
 10
334.2784250773
 20
335.4665810713
 30
0.0
 10
335.4405182901
 20
335.7142138729
 30
0.0
 10
336.2943807821
 20
335.9702443842
 30
0.0
 10
336.8713129658
 20
336.1815831412
 30
0.0
 10
337.3947997476
 20
336.4147770986
 30
0.0
 10
337.8599859745
 20
336.6676888672
 30
0.0
 10
338.2626016495
 20
336.9380767689
 30
0.0
 10
338.5989771557
 20
337.2237289977
 30
0.0
 10
338.8659527959
 20
337.5225174811
 30
0.0
 10
339.0605568685
 20
337.8325709696
 30
0.0
 10
339.1795550777
 20
338.1514292148
 30
0.0
 10
339.2065381134
 20
338.3696938655
 30
0.0
 10
339.2065380496
 20
338.4759421408
 30
0.0
  0
SPLINE
  5
498
100
AcDbEntity
  8
0
100
AcDbSpline
 62
7
  6
CONTINUOUS
 70
0
 71
3
 72
15
 73
11
 74
0
 42
0.0000001
 43
0.0000001
 44
0.0000000001
 40
0.0
 40
0.0
 40
0.0
 40
0.0
 40
0.0863910861
 40
0.1784741978
 40
0.2807235771
 40
0.3959672549
 40
0.525587895
 40
0.6698844446
 40
0.8283732498
 40
1.0
 40
1.0
 40
1.0
 40
1.0
 10
323.3315599544
 20
339.9842056914
 30
0.0
 10
323.3315600312
 20
340.1120555596
 30
0.0
 10
323.3713950354
 20
340.3775201972
 30
0.0
 10
323.5447224667
 20
340.759695832
 30
0.0
 10
323.8249364683
 20
341.1261061769
 30
0.0
 10
324.20609312
 20
341.4735957594
 30
0.0
 10
324.6828336594
 20
341.7993266108
 30
0.0
 10
325.24906753
 20
342.0997412755
 30
0.0
 10
325.8974280929
 20
342.3711276853
 30
0.0
 10
326.3617161106
 20
342.524682735
 30
0.0
 10
326.60530499
 20
342.596622239
 30
0.0
  0
SPLINE
  5
499
100
AcDbEntity
  8
0
100
AcDbSpline
 62
7
  6
CONTINUOUS
 70
0
 71
3
 72
20
 73
16
 74
0
 42
0.0000001
 43
0.0000001
 44
0.0000000001
 40
0.0
 40
0.0
 40
0.0
 40
0.0
 40
0.0347995737
 40
0.0712197276
 40
0.1106260117
 40
0.1540024495
 40
0.2019588113
 40
0.254795954
 40
0.3125745127
 40
0.3751728543
 40
0.4423307426
 40
0.513678652
 40
0.6670002899
 40
0.8307959724
 40
1.0
 40
1.0
 40
1.0
 40
1.0
 10
323.3315599544
 20
338.4759421423
 30
0.0
 10
323.3315600182
 20
338.3696939042
 30
0.0
 10
323.3585425701
 20
338.1514294581
 30
0.0
 10
323.4775408739
 20
337.8325718951
 30
0.0
 10
323.6721439389
 20
337.5225191134
 30
0.0
 10
323.9391183966
 20
337.2237313714
 30
0.0
 10
324.275492492
 20
336.9380798205
 30
0.0
 10
324.6781064774
 20
336.6676921995
 30
0.0
 10
325.1432910035
 20
336.4147806942
 30
0.0
 10
325.6667760274
 20
336.1815869671
 30
0.0
 10
326.2437064831
 20
335.9702480134
 30
0.0
 10
327.0975682411
 20
335.714216648
 30
0.0
 10
328.2596630335
 20
335.4665828321
 30
0.0
 10
329.7352294934
 20
335.287556648
 30
0.0
 10
330.7524441151
 20
335.2474700371
 30
0.0
 10
331.269049002
 20
335.2474700371
 30
0.0
  0
SPLINE
  5
49A
100
AcDbEntity
  8
0
100
AcDbSpline
 62
7
  6
CONTINUOUS
 70
0
 71
3
 72
20
 73
16
 74
0
 42
0.0000001
 43
0.0000001
 44
0.0000000001
 40
0.0
 40
0.0
 40
0.0
 40
0.0
 40
0.1692033416
 40
0.3329984978
 40
0.4863199658
 40
0.557668002
 40
0.624826086
 40
0.6874246132
 40
0.7452033462
 40
0.7980406619
 40
0.8459971858
 40
0.8893737793
 40
0.928780191
 40
0.9652004141
 40
1.0
 40
1.0
 40
1.0
 40
1.0
 10
331.269049002
 20
336.7557335877
 30
0.0
 10
330.7524462104
 20
336.7557335877
 30
0.0
 10
329.7352353078
 20
336.7958199403
 30
0.0
 10
328.2596729267
 20
336.9748446219
 30
0.0
 10
327.0975797139
 20
337.2224774235
 30
0.0
 10
326.2437172219
 20
337.4785079347
 30
0.0
 10
325.6667850382
 20
337.6898466917
 30
0.0
 10
325.1432982564
 20
337.9230406492
 30
0.0
 10
324.6781120295
 20
338.1759524178
 30
0.0
 10
324.2754963545
 20
338.4463403195
 30
0.0
 10
323.9391208483
 20
338.7319925483
 30
0.0
 10
323.6721452081
 20
339.0307810316
 30
0.0
 10
323.4775411355
 20
339.3408345201
 30
0.0
 10
323.3585429263
 20
339.6596927653
 30
0.0
 10
323.3315598906
 20
339.8779574161
 30
0.0
 10
323.3315599544
 20
339.9842056914
 30
0.0
  0
SPLINE
  5
49B
100
AcDbEntity
  8
0
100
AcDbSpline
 62
7
  6
CONTINUOUS
 70
0
 71
3
 72
20
 73
16
 74
0
 42
0.0000001
 43
0.0000001
 44
0.0000000001
 40
0.0
 40
0.0
 40
0.0
 40
0.0
 40
0.0347995737
 40
0.0712197276
 40
0.1106260117
 40
0.1540024495
 40
0.2019588113
 40
0.254795954
 40
0.3125745127
 40
0.3751728543
 40
0.4423307426
 40
0.513678652
 40
0.6670002899
 40
0.8307959724
 40
1.0
 40
1.0
 40
1.0
 40
1.0
 10
339.2065380496
 20
339.9842056929
 30
0.0
 10
339.2065379858
 20
339.8779574548
 30
0.0
 10
339.1795554339
 20
339.6596930087
 30
0.0
 10
339.0605571301
 20
339.3408354457
 30
0.0
 10
338.8659540651
 20
339.0307826639
 30
0.0
 10
338.5989796075
 20
338.7319949219
 30
0.0
 10
338.262605512
 20
338.446343371
 30
0.0
 10
337.8599915266
 20
338.1759557501
 30
0.0
 10
337.3948070005
 20
337.9230442448
 30
0.0
 10
336.8713219766
 20
337.6898505177
 30
0.0
 10
336.2943915209
 20
337.478511564
 30
0.0
 10
335.4405297629
 20
337.2224801986
 30
0.0
 10
334.2784349705
 20
336.9748463827
 30
0.0
 10
332.8028685106
 20
336.7958201986
 30
0.0
 10
331.7856538889
 20
336.7557335877
 30
0.0
 10
331.269049002
 20
336.7557335877
 30
0.0
  0
SPLINE
  5
49C
100
AcDbEntity
  8
0
100
AcDbSpline
 62
7
  6
CONTINUOUS
 70
0
 71
3
 72
15
 73
11
 74
0
 42
0.0000001
 43
0.0000001
 44
0.0000000001
 40
0.0
 40
0.0
 40
0.0
 40
0.0
 40
0.1716277312
 40
0.3301177227
 40
0.474415292
 40
0.6040365758
 40
0.7192803528
 40
0.8215291176
 40
0.9136108627
 40
1.0
 40
1.0
 40
1.0
 40
1.0
 10
215.193575911
 20
341.356982703
 30
0.0
 10
215.4371863485
 20
341.2850444039
 30
0.0
 10
215.9015162031
 20
341.131489849
 30
0.0
 10
216.5499371413
 20
340.8601001705
 30
0.0
 10
217.1162256865
 20
340.5596778986
 30
0.0
 10
217.5930136466
 20
340.2339357411
 30
0.0
 10
217.9742091781
 20
339.8864315777
 30
0.0
 10
218.2544524478
 20
339.5200037815
 30
0.0
 10
218.4277982992
 20
339.1378084133
 30
0.0
 10
218.4676381263
 20
338.8723288934
 30
0.0
 10
218.4676380496
 20
338.7444724048
 30
0.0
  0
SPLINE
  5
49D
100
AcDbEntity
  8
0
100
AcDbSpline
 62
7
  6
CONTINUOUS
 70
0
 71
3
 72
20
 73
16
 74
0
 42
0.0000001
 43
0.0000001
 44
0.0000000001
 40
0.0
 40
0.0
 40
0.0
 40
0.0
 40
0.1692033416
 40
0.3329984978
 40
0.4863199658
 40
0.557668002
 40
0.624826086
 40
0.6874246132
 40
0.7452033462
 40
0.7980406619
 40
0.8459971858
 40
0.8893737793
 40
0.928780191
 40
0.9652004141
 40
1.0
 40
1.0
 40
1.0
 40
1.0
 10
210.530149002
 20
334.007736749
 30
0.0
 10
211.0467517936
 20
334.007736749
 30
0.0
 10
212.0639626962
 20
334.0478231016
 30
0.0
 10
213.5395250773
 20
334.2268477832
 30
0.0
 10
214.7016182901
 20
334.4744805848
 30
0.0
 10
215.5554807821
 20
334.7305110961
 30
0.0
 10
216.1324129658
 20
334.9418498531
 30
0.0
 10
216.6558997476
 20
335.1750438105
 30
0.0
 10
217.1210859745
 20
335.4279555792
 30
0.0
 10
217.5237016495
 20
335.6983434808
 30
0.0
 10
217.8600771557
 20
335.9839957096
 30
0.0
 10
218.1270527959
 20
336.282784193
 30
0.0
 10
218.3216568685
 20
336.5928376815
 30
0.0
 10
218.4406550777
 20
336.9116959267
 30
0.0
 10
218.4676381134
 20
337.1299605775
 30
0.0
 10
218.4676380496
 20
337.2362088527
 30
0.0
  0
SPLINE
  5
49E
100
AcDbEntity
  8
0
100
AcDbSpline
 62
7
  6
CONTINUOUS
 70
0
 71
3
 72
15
 73
11
 74
0
 42
0.0000001
 43
0.0000001
 44
0.0000000001
 40
0.0
 40
0.0
 40
0.0
 40
0.0
 40
0.0863910861
 40
0.1784741978
 40
0.2807235771
 40
0.3959672549
 40
0.525587895
 40
0.6698844446
 40
0.8283732498
 40
1.0
 40
1.0
 40
1.0
 40
1.0
 10
202.5926599544
 20
338.7444724033
 30
0.0
 10
202.5926600312
 20
338.8723222715
 30
0.0
 10
202.6324950354
 20
339.1377869091
 30
0.0
 10
202.8058224667
 20
339.5199625439
 30
0.0
 10
203.0860364683
 20
339.8863728888
 30
0.0
 10
203.46719312
 20
340.2338624713
 30
0.0
 10
203.9439336594
 20
340.5595933227
 30
0.0
 10
204.51016753
 20
340.8600079874
 30
0.0
 10
205.1585280929
 20
341.1313943972
 30
0.0
 10
205.6228161106
 20
341.2849494469
 30
0.0
 10
205.86640499
 20
341.3568889509
 30
0.0
  0
SPLINE
  5
49F
100
AcDbEntity
  8
0
100
AcDbSpline
 62
7
  6
CONTINUOUS
 70
0
 71
3
 72
20
 73
16
 74
0
 42
0.0000001
 43
0.0000001
 44
0.0000000001
 40
0.0
 40
0.0
 40
0.0
 40
0.0
 40
0.0347995737
 40
0.0712197276
 40
0.1106260117
 40
0.1540024495
 40
0.2019588113
 40
0.254795954
 40
0.3125745127
 40
0.3751728543
 40
0.4423307426
 40
0.513678652
 40
0.6670002899
 40
0.8307959724
 40
1.0
 40
1.0
 40
1.0
 40
1.0
 10
202.5926599544
 20
337.2362088542
 30
0.0
 10
202.5926600182
 20
337.1299606161
 30
0.0
 10
202.6196425701
 20
336.91169617
 30
0.0
 10
202.7386408739
 20
336.592838607
 30
0.0
 10
202.9332439389
 20
336.2827858253
 30
0.0
 10
203.2002183966
 20
335.9839980833
 30
0.0
 10
203.536592492
 20
335.6983465324
 30
0.0
 10
203.9392064774
 20
335.4279589114
 30
0.0
 10
204.4043910035
 20
335.1750474061
 30
0.0
 10
204.9278760274
 20
334.941853679
 30
0.0
 10
205.5048064831
 20
334.7305147253
 30
0.0
 10
206.3586682411
 20
334.4744833599
 30
0.0
 10
207.5207630335
 20
334.226849544
 30
0.0
 10
208.9963294934
 20
334.04782336
 30
0.0
 10
210.0135441151
 20
334.007736749
 30
0.0
 10
210.530149002
 20
334.007736749
 30
0.0
  0
SPLINE
  5
4A0
100
AcDbEntity
  8
0
100
AcDbSpline
 62
7
  6
CONTINUOUS
 70
0
 71
3
 72
20
 73
16
 74
0
 42
0.0000001
 43
0.0000001
 44
0.0000000001
 40
0.0
 40
0.0
 40
0.0
 40
0.0
 40
0.1692033416
 40
0.3329984978
 40
0.4863199658
 40
0.557668002
 40
0.624826086
 40
0.6874246132
 40
0.7452033462
 40
0.7980406619
 40
0.8459971858
 40
0.8893737793
 40
0.928780191
 40
0.9652004141
 40
1.0
 40
1.0
 40
1.0
 40
1.0
 10
210.530149002
 20
335.5160002996
 30
0.0
 10
210.0135462104
 20
335.5160002996
 30
0.0
 10
208.9963353078
 20
335.5560866522
 30
0.0
 10
207.5207729267
 20
335.7351113338
 30
0.0
 10
206.3586797139
 20
335.9827441354
 30
0.0
 10
205.5048172219
 20
336.2387746466
 30
0.0
 10
204.9278850382
 20
336.4501134037
 30
0.0
 10
204.4043982564
 20
336.6833073611
 30
0.0
 10
203.9392120295
 20
336.9362191297
 30
0.0
 10
203.5365963545
 20
337.2066070314
 30
0.0
 10
203.2002208483
 20
337.4922592602
 30
0.0
 10
202.9332452081
 20
337.7910477435
 30
0.0
 10
202.7386411355
 20
338.101101232
 30
0.0
 10
202.6196429263
 20
338.4199594772
 30
0.0
 10
202.5926598906
 20
338.638224128
 30
0.0
 10
202.5926599544
 20
338.7444724033
 30
0.0
  0
SPLINE
  5
4A1
100
AcDbEntity
  8
0
100
AcDbSpline
 62
7
  6
CONTINUOUS
 70
0
 71
3
 72
20
 73
16
 74
0
 42
0.0000001
 43
0.0000001
 44
0.0000000001
 40
0.0
 40
0.0
 40
0.0
 40
0.0
 40
0.0347995737
 40
0.0712197276
 40
0.1106260117
 40
0.1540024495
 40
0.2019588113
 40
0.254795954
 40
0.3125745127
 40
0.3751728543
 40
0.4423307426
 40
0.513678652
 40
0.6670002899
 40
0.8307959724
 40
1.0
 40
1.0
 40
1.0
 40
1.0
 10
218.4676380496
 20
338.7444724048
 30
0.0
 10
218.4676379858
 20
338.6382241667
 30
0.0
 10
218.4406554339
 20
338.4199597206
 30
0.0
 10
218.3216571301
 20
338.1011021576
 30
0.0
 10
218.1270540651
 20
337.7910493759
 30
0.0
 10
217.8600796075
 20
337.4922616338
 30
0.0
 10
217.523705512
 20
337.2066100829
 30
0.0
 10
217.1210915266
 20
336.936222462
 30
0.0
 10
216.6559070005
 20
336.6833109567
 30
0.0
 10
216.1324219766
 20
336.4501172296
 30
0.0
 10
215.5554915209
 20
336.2387782759
 30
0.0
 10
214.7016297629
 20
335.9827469105
 30
0.0
 10
213.5395349705
 20
335.7351130946
 30
0.0
 10
212.0639685106
 20
335.5560869105
 30
0.0
 10
211.0467538889
 20
335.5160002996
 30
0.0
 10
210.530149002
 20
335.5160002996
 30
0.0
  0
SPLINE
  5
4A2
100
AcDbEntity
  8
0
100
AcDbSpline
 62
7
  6
CONTINUOUS
 70
0
 71
3
 72
15
 73
11
 74
0
 42
0.0000001
 43
0.0000001
 44
0.0000000001
 40
0.0
 40
0.0
 40
0.0
 40
0.0
 40
0.1716277312
 40
0.3301177227
 40
0.474415292
 40
0.6040365758
 40
0.7192803528
 40
0.8215291176
 40
0.9136108627
 40
1.0
 40
1.0
 40
1.0
 40
1.0
 10
310.443575911
 20
341.356982703
 30
0.0
 10
310.6871863485
 20
341.2850444039
 30
0.0
 10
311.1515162031
 20
341.131489849
 30
0.0
 10
311.7999371413
 20
340.8601001705
 30
0.0
 10
312.3662256865
 20
340.5596778986
 30
0.0
 10
312.8430136466
 20
340.2339357411
 30
0.0
 10
313.2242091781
 20
339.8864315777
 30
0.0
 10
313.5044524478
 20
339.5200037815
 30
0.0
 10
313.6777982992
 20
339.1378084133
 30
0.0
 10
313.7176381263
 20
338.8723288934
 30
0.0
 10
313.7176380496
 20
338.7444724048
 30
0.0
  0
SPLINE
  5
4A3
100
AcDbEntity
  8
0
100
AcDbSpline
 62
7
  6
CONTINUOUS
 70
0
 71
3
 72
10
 73
6
 74
0
 42
0.0000001
 43
0.0000001
 44
0.0000000001
 40
0.0
 40
0.0
 40
0.0
 40
0.0
 40
0.5142367022
 40
0.7624066939
 40
1.0
 40
1.0
 40
1.0
 40
1.0
 10
305.780149002
 20
334.007736749
 30
0.0
 10
306.4624266954
 20
334.007736749
 30
0.0
 10
307.4752535645
 20
334.0600307674
 30
0.0
 10
308.7903705145
 20
334.2391275297
 30
0.0
 10
309.4231629167
 20
334.3642486642
 30
0.0
 10
309.7301494665
 20
334.4358823861
 30
0.0
  0
SPLINE
  5
4A4
100
AcDbEntity
  8
0
100
AcDbSpline
 62
7
  6
CONTINUOUS
 70
0
 71
3
 72
16
 73
12
 74
0
 42
0.0000001
 43
0.0000001
 44
0.0000000001
 40
0.0
 40
0.0
 40
0.0
 40
0.0
 40
0.173452045
 40
0.3341614369
 40
0.4804941817
 40
0.6114353969
 40
0.7268340388
 40
0.8277757415
 40
0.9170893507
 40
0.9589817275
 40
1.0
 40
1.0
 40
1.0
 40
1.0
 10
309.7301494665
 20
334.4358823861
 30
0.0
 10
310.021689846
 20
334.5039118241
 30
0.0
 10
310.5793723503
 20
334.6531975522
 30
0.0
 10
311.3626948792
 20
334.9282777428
 30
0.0
 10
312.0516584125
 20
335.2423684586
 30
0.0
 10
312.6351507853
 20
335.5904464106
 30
0.0
 10
313.1040712712
 20
335.9678485619
 30
0.0
 10
313.450901769
 20
336.3701209766
 30
0.0
 10
313.6348974164
 20
336.7323049931
 30
0.0
 10
313.7059499699
 20
337.0220465154
 30
0.0
 10
313.7176380921
 20
337.1654127075
 30
0.0
 10
313.7176380496
 20
337.2362088527
 30
0.0
  0
SPLINE
  5
4A5
100
AcDbEntity
  8
0
100
AcDbSpline
 62
7
  6
CONTINUOUS
 70
0
 71
3
 72
15
 73
11
 74
0
 42
0.0000001
 43
0.0000001
 44
0.0000000001
 40
0.0
 40
0.0
 40
0.0
 40
0.0
 40
0.0863910861
 40
0.1784741978
 40
0.2807235771
 40
0.3959672549
 40
0.525587895
 40
0.6698844446
 40
0.8283732498
 40
1.0
 40
1.0
 40
1.0
 40
1.0
 10
297.8426599544
 20
338.7444724033
 30
0.0
 10
297.8426600312
 20
338.8723222715
 30
0.0
 10
297.8824950354
 20
339.1377869091
 30
0.0
 10
298.0558224667
 20
339.5199625439
 30
0.0
 10
298.3360364683
 20
339.8863728888
 30
0.0
 10
298.71719312
 20
340.2338624713
 30
0.0
 10
299.1939336594
 20
340.5595933227
 30
0.0
 10
299.76016753
 20
340.8600079874
 30
0.0
 10
300.4085280929
 20
341.1313943972
 30
0.0
 10
300.8728161106
 20
341.2849494469
 30
0.0
 10
301.11640499
 20
341.3568889509
 30
0.0
  0
SPLINE
  5
4A6
100
AcDbEntity
  8
0
100
AcDbSpline
 62
7
  6
CONTINUOUS
 70
0
 71
3
 72
16
 73
12
 74
0
 42
0.0000001
 43
0.0000001
 44
0.0000000001
 40
0.0
 40
0.0
 40
0.0
 40
0.0
 40
0.0397640804
 40
0.0805049151
 40
0.1681144756
 40
0.2684058121
 40
0.384142702
 40
0.5161332902
 40
0.6638463652
 40
0.8258341622
 40
1.0
 40
1.0
 40
1.0
 40
1.0
 10
297.8426599544
 20
337.2362088542
 30
0.0
 10
297.8426600001
 20
337.1600519701
 30
0.0
 10
297.8562281408
 20
337.0055423113
 30
0.0
 10
297.9388368358
 20
336.6929533503
 30
0.0
 10
298.1530638648
 20
336.3033620818
 30
0.0
 10
298.5530967476
 20
335.8756994802
 30
0.0
 10
299.0916210261
 20
335.4781750295
 30
0.0
 10
299.7590618216
 20
335.1163517118
 30
0.0
 10
300.5434483461
 20
334.7959742189
 30
0.0
 10
301.4301086678
 20
334.5230839218
 30
0.0
 10
302.0586412184
 20
334.3807719422
 30
0.0
 10
302.3861993011
 20
334.3177506655
 30
0.0
  0
SPLINE
  5
4A7
100
AcDbEntity
  8
0
100
AcDbSpline
 62
7
  6
CONTINUOUS
 70
0
 71
3
 72
9
 73
5
 74
0
 42
0.0000001
 43
0.0000001
 44
0.0000000001
 40
0.0
 40
0.0
 40
0.0
 40
0.0
 40
0.4897069508
 40
1.0
 40
1.0
 40
1.0
 40
1.0
 10
302.3861993011
 20
334.3177506655
 30
0.0
 10
302.9331031906
 20
334.2125278572
 30
0.0
 10
304.0619649991
 20
334.0580217645
 30
0.0
 10
305.1998026316
 20
334.007736749
 30
0.0
 10
305.780149002
 20
334.007736749
 30
0.0
  0
SPLINE
  5
4A8
100
AcDbEntity
  8
0
100
AcDbSpline
 62
7
  6
CONTINUOUS
 70
0
 71
3
 72
20
 73
16
 74
0
 42
0.0000001
 43
0.0000001
 44
0.0000000001
 40
0.0
 40
0.0
 40
0.0
 40
0.0
 40
0.1692033416
 40
0.3329984978
 40
0.4863199658
 40
0.557668002
 40
0.624826086
 40
0.6874246132
 40
0.7452033462
 40
0.7980406619
 40
0.8459971858
 40
0.8893737793
 40
0.928780191
 40
0.9652004141
 40
1.0
 40
1.0
 40
1.0
 40
1.0
 10
305.780149002
 20
335.5160002996
 30
0.0
 10
305.2635462104
 20
335.5160002996
 30
0.0
 10
304.2463353078
 20
335.5560866522
 30
0.0
 10
302.7707729267
 20
335.7351113338
 30
0.0
 10
301.6086797139
 20
335.9827441354
 30
0.0
 10
300.7548172219
 20
336.2387746466
 30
0.0
 10
300.1778850382
 20
336.4501134037
 30
0.0
 10
299.6543982564
 20
336.6833073611
 30
0.0
 10
299.1892120295
 20
336.9362191297
 30
0.0
 10
298.7865963545
 20
337.2066070314
 30
0.0
 10
298.4502208483
 20
337.4922592602
 30
0.0
 10
298.1832452081
 20
337.7910477435
 30
0.0
 10
297.9886411355
 20
338.101101232
 30
0.0
 10
297.8696429263
 20
338.4199594772
 30
0.0
 10
297.8426598906
 20
338.638224128
 30
0.0
 10
297.8426599544
 20
338.7444724033
 30
0.0
  0
SPLINE
  5
4A9
100
AcDbEntity
  8
0
100
AcDbSpline
 62
7
  6
CONTINUOUS
 70
0
 71
3
 72
20
 73
16
 74
0
 42
0.0000001
 43
0.0000001
 44
0.0000000001
 40
0.0
 40
0.0
 40
0.0
 40
0.0
 40
0.0347995737
 40
0.0712197276
 40
0.1106260117
 40
0.1540024495
 40
0.2019588113
 40
0.254795954
 40
0.3125745127
 40
0.3751728543
 40
0.4423307426
 40
0.513678652
 40
0.6670002899
 40
0.8307959724
 40
1.0
 40
1.0
 40
1.0
 40
1.0
 10
313.7176380496
 20
338.7444724048
 30
0.0
 10
313.7176379858
 20
338.6382241667
 30
0.0
 10
313.6906554339
 20
338.4199597206
 30
0.0
 10
313.5716571301
 20
338.1011021576
 30
0.0
 10
313.3770540651
 20
337.7910493759
 30
0.0
 10
313.1100796075
 20
337.4922616338
 30
0.0
 10
312.773705512
 20
337.2066100829
 30
0.0
 10
312.3710915266
 20
336.936222462
 30
0.0
 10
311.9059070005
 20
336.6833109567
 30
0.0
 10
311.3824219766
 20
336.4501172296
 30
0.0
 10
310.8054915209
 20
336.2387782759
 30
0.0
 10
309.9516297629
 20
335.9827469105
 30
0.0
 10
308.7895349705
 20
335.7351130946
 30
0.0
 10
307.3139685106
 20
335.5560869105
 30
0.0
 10
306.2967538889
 20
335.5160002996
 30
0.0
 10
305.780149002
 20
335.5160002996
 30
0.0
  0
SPLINE
  5
4AA
100
AcDbEntity
  8
0
100
AcDbSpline
 62
7
  6
CONTINUOUS
 70
0
 71
3
 72
11
 73
7
 74
0
 42
0.0000001
 43
0.0000001
 44
0.0000000001
 40
0.0
 40
0.0
 40
0.0
 40
0.0
 40
0.2491329538
 40
0.4987917448
 40
0.7491260075
 40
1.0
 40
1.0
 40
1.0
 40
1.0
 10
162.4457287614
 20
361.7369055863
 30
0.0
 10
162.4328179916
 20
361.4338714096
 30
0.0
 10
162.2876023949
 20
360.825887099
 30
0.0
 10
161.7445471777
 20
360.066159659
 30
0.0
 10
160.9568570917
 20
359.5609701335
 30
0.0
 10
160.3403777284
 20
359.4433405876
 30
0.0
 10
160.034949002
 20
359.4433405876
 30
0.0
  0
SPLINE
  5
4AB
100
AcDbEntity
  8
0
100
AcDbSpline
 62
7
  6
CONTINUOUS
 70
0
 71
3
 72
9
 73
5
 74
0
 42
0.0000001
 43
0.0000001
 44
0.0000000001
 40
0.0
 40
0.0
 40
0.0
 40
0.0
 40
0.5003450386
 40
1.0
 40
1.0
 40
1.0
 40
1.0
 10
160.034949002
 20
359.4433405876
 30
0.0
 10
159.7931812278
 20
359.4433405876
 30
0.0
 10
159.3072225901
 20
359.5162318244
 30
0.0
 10
158.8647191152
 20
359.7300779195
 30
0.0
 10
158.6654929588
 20
359.8664578046
 30
0.0
  0
SPLINE
  5
4AC
100
AcDbEntity
  8
0
100
AcDbSpline
 62
7
  6
CONTINUOUS
 70
0
 71
3
 72
11
 73
7
 74
0
 42
0.0000001
 43
0.0000001
 44
0.0000000001
 40
0.0
 40
0.0
 40
0.0
 40
0.0
 40
0.2492281895
 40
0.4990113034
 40
0.749311906
 40
1.0
 40
1.0
 40
1.0
 40
1.0
 10
163.0595022902
 20
360.7872073364
 30
0.0
 10
162.9582529644
 20
360.4726174014
 30
0.0
 10
162.652958695
 20
359.8708009015
 30
0.0
 10
161.9379309264
 20
359.1579647866
 30
0.0
 10
161.0363546014
 20
358.6994595415
 30
0.0
 10
160.3673667162
 20
358.5943243898
 30
0.0
 10
160.034949002
 20
358.5943243898
 30
0.0
  0
SPLINE
  5
4AD
100
AcDbEntity
  8
0
100
AcDbSpline
 62
7
  6
CONTINUOUS
 70
0
 71
3
 72
9
 73
5
 74
0
 42
0.0000001
 43
0.0000001
 44
0.0000000001
 40
0.0
 40
0.0
 40
0.0
 40
0.0
 40
0.2483141178
 40
1.0
 40
1.0
 40
1.0
 40
1.0
 10
153.6191441356
 20
360.1132934953
 30
0.0
 10
153.7500679051
 20
359.8790172271
 30
0.0
 10
154.278743884
 20
358.9363496347
 30
0.0
 10
154.8146131425
 20
357.9976961112
 30
0.0
 10
155.2230953522
 20
357.295435996
 30
0.0
  0
SPLINE
  5
4AE
100
AcDbEntity
  8
0
100
AcDbSpline
 62
7
  6
CONTINUOUS
 70
0
 71
3
 72
9
 73
5
 74
0
 42
0.0000001
 43
0.0000001
 44
0.0000000001
 40
0.0
 40
0.0
 40
0.0
 40
0.0
 40
0.4946761264
 40
1.0
 40
1.0
 40
1.0
 40
1.0
 10
156.8270465688
 20
354.5982872636
 30
0.0
 10
157.3557928237
 20
354.5797240773
 30
0.0
 10
158.4249319753
 20
354.5491316179
 30
0.0
 10
159.4944888821
 20
354.5379328801
 30
0.0
 10
160.034949002
 20
354.5379328801
 30
0.0
  0
LINE
  5
4AF
100
AcDbEntity
  8
0
100
AcDbLine
 62
7
  6
CONTINUOUS
 10
156.6730367322
 20
354.8526445586
 11
156.8270465688
 21
354.5982872636
  0
SPLINE
  5
4B0
100
AcDbEntity
  8
0
100
AcDbSpline
 62
7
  6
CONTINUOUS
 70
0
 71
3
 72
9
 73
5
 74
0
 42
0.0000001
 43
0.0000001
 44
0.0000000001
 40
0.0
 40
0.0
 40
0.0
 40
0.0
 40
0.5053239244
 40
1.0
 40
1.0
 40
1.0
 40
1.0
 10
160.034949002
 20
354.5379328801
 30
0.0
 10
160.5754091762
 20
354.5379328801
 30
0.0
 10
161.6449660821
 20
354.549131667
 30
0.0
 10
162.7141052346
 20
354.5797240792
 30
0.0
 10
163.2428514352
 20
354.5982872636
 30
0.0
  0
LINE
  5
4B1
100
AcDbEntity
  8
0
100
AcDbLine
 62
7
  6
CONTINUOUS
 10
163.2428514352
 20
354.5982872636
 11
163.2692803512
 21
354.6418794596
  0
SPLINE
  5
4B2
100
AcDbEntity
  8
0
100
AcDbSpline
 62
7
  6
CONTINUOUS
 70
0
 71
3
 72
9
 73
5
 74
0
 42
0.0000001
 43
0.0000001
 44
0.0000000001
 40
0.0
 40
0.0
 40
0.0
 40
0.0
 40
0.5053239415
 40
1.0
 40
1.0
 40
1.0
 40
1.0
 10
160.034949002
 20
366.0498422706
 30
0.0
 10
160.5754091945
 20
366.0498422706
 30
0.0
 10
161.6449661013
 20
366.0386435306
 30
0.0
 10
162.7141052528
 20
366.0080510708
 30
0.0
 10
163.2428514352
 20
365.9894878871
 30
0.0
  0
LINE
  5
4B3
100
AcDbEntity
  8
0
100
AcDbLine
 62
7
  6
CONTINUOUS
 10
163.2428514352
 20
365.9894878871
 11
163.3901143575
 21
365.7462906447
  0
SPLINE
  5
4B4
100
AcDbEntity
  8
0
100
AcDbSpline
 62
7
  6
CONTINUOUS
 70
0
 71
3
 72
9
 73
5
 74
0
 42
0.0000001
 43
0.0000001
 44
0.0000000001
 40
0.0
 40
0.0
 40
0.0
 40
0.0
 40
0.4946761349
 40
1.0
 40
1.0
 40
1.0
 40
1.0
 10
156.8270465688
 20
365.9894878871
 30
0.0
 10
157.3557928328
 20
366.0080510737
 30
0.0
 10
158.4249319853
 20
366.0386434871
 30
0.0
 10
159.4944888913
 20
366.0498422706
 30
0.0
 10
160.034949002
 20
366.0498422706
 30
0.0
  0
SPLINE
  5
4B5
100
AcDbEntity
  8
0
100
AcDbSpline
 62
7
  6
CONTINUOUS
 70
0
 71
3
 72
9
 73
5
 74
0
 42
0.0000001
 43
0.0000001
 44
0.0000000001
 40
0.0
 40
0.0
 40
0.0
 40
0.0
 40
0.2483141183
 40
1.0
 40
1.0
 40
1.0
 40
1.0
 10
153.6191441356
 20
360.4744816554
 30
0.0
 10
153.7500679054
 20
360.7087579242
 30
0.0
 10
154.27874387
 20
361.6514255246
 30
0.0
 10
154.8146131428
 20
362.59007904
 30
0.0
 10
155.2230953522
 20
363.2923391547
 30
0.0
  0
SPLINE
  5
4B6
100
AcDbEntity
  8
0
100
AcDbSpline
 62
7
  6
CONTINUOUS
 70
0
 71
3
 72
9
 73
5
 74
0
 42
0.0000001
 43
0.0000001
 44
0.0000000001
 40
0.0
 40
0.0
 40
0.0
 40
0.0
 40
0.2566000914
 40
1.0
 40
1.0
 40
1.0
 40
1.0
 10
155.2230953522
 20
357.7773329231
 30
0.0
 10
155.0881401767
 20
358.0093470348
 30
0.0
 10
154.5598706593
 20
358.9121756642
 30
0.0
 10
154.0223643973
 20
359.8095803063
 30
0.0
 10
153.6191441356
 20
360.4744816554
 30
0.0
  0
SPLINE
  5
4B7
100
AcDbEntity
  8
0
100
AcDbSpline
 62
7
  6
CONTINUOUS
 70
0
 71
3
 72
15
 73
11
 74
0
 42
0.0000001
 43
0.0000001
 44
0.0000000001
 40
0.0
 40
0.0
 40
0.0
 40
0.0
 40
0.1245426547
 40
0.2491549658
 40
0.3738960786
 40
0.4988053194
 40
0.6238963978
 40
0.7491558478
 40
0.8745390862
 40
1.0
 40
1.0
 40
1.0
 40
1.0
 10
152.9229630549
 20
341.0489013215
 30
0.0
 10
152.9229628618
 20
340.5875871152
 30
0.0
 10
153.014707163
 20
339.6621072974
 30
0.0
 10
153.4222330053
 20
338.3294683384
 30
0.0
 10
154.0839502193
 20
337.1009338433
 30
0.0
 10
154.9743206449
 20
336.0244091677
 30
0.0
 10
156.0590206994
 20
335.1410310721
 30
0.0
 10
157.2965127361
 20
334.4847705767
 30
0.0
 10
158.6385482917
 20
334.0806382549
 30
0.0
 10
159.5702335033
 20
333.9896933453
 30
0.0
 10
160.034949002
 20
333.9896933453
 30
0.0
  0
SPLINE
  5
4B8
100
AcDbEntity
  8
0
100
AcDbSpline
 62
7
  6
CONTINUOUS
 70
0
 71
3
 72
11
 73
7
 74
0
 42
0.0000001
 43
0.0000001
 44
0.0000000001
 40
0.0
 40
0.0
 40
0.0
 40
0.0
 40
0.2504787266
 40
0.5007239042
 40
0.7505888797
 40
1.0
 40
1.0
 40
1.0
 40
1.0
 10
160.034949002
 20
339.4813465436
 30
0.0
 10
160.393486446
 20
339.4813465436
 30
0.0
 10
161.1133720998
 20
339.5708183765
 30
0.0
 10
162.1241863972
 20
339.965463227
 30
0.0
 10
163.0058649167
 20
340.5954712043
 30
0.0
 10
163.4720924633
 20
341.148699387
 30
0.0
 10
163.6662753038
 20
341.4482801579
 30
0.0
  0
SPLINE
  5
4B9
100
AcDbEntity
  8
0
100
AcDbSpline
 62
7
  6
CONTINUOUS
 70
0
 71
3
 72
11
 73
7
 74
0
 42
0.0000001
 43
0.0000001
 44
0.0000000001
 40
0.0
 40
0.0
 40
0.0
 40
0.0
 40
0.2504174865
 40
0.5005050812
 40
0.7503222423
 40
1.0
 40
1.0
 40
1.0
 40
1.0
 10
155.6887140371
 20
347.5368784824
 30
0.0
 10
155.2615841804
 20
347.2093063042
 30
0.0
 10
154.4797173427
 20
346.4543198387
 30
0.0
 10
153.5967093491
 20
345.0883703489
 30
0.0
 10
153.0471878069
 20
343.5591424834
 30
0.0
 10
152.922949002
 20
342.4814235128
 30
0.0
 10
152.922949002
 20
341.9447353529
 30
0.0
  0
SPLINE
  5
4BA
100
AcDbEntity
  8
0
100
AcDbSpline
 62
7
  6
CONTINUOUS
 70
0
 71
3
 72
11
 73
7
 74
0
 42
0.0000001
 43
0.0000001
 44
0.0000000001
 40
0.0
 40
0.0
 40
0.0
 40
0.0
 40
0.25025681
 40
0.5003059881
 40
0.7501881232
 40
1.0
 40
1.0
 40
1.0
 40
1.0
 10
155.5555921425
 20
346.6645708832
 30
0.0
 10
155.3381830803
 20
346.4065739006
 30
0.0
 10
154.9477209644
 20
345.8516383899
 30
0.0
 10
154.5165293446
 20
344.9312715658
 30
0.0
 10
154.2522544447
 20
343.9504744801
 30
0.0
 10
154.192949002
 20
343.27532781
 30
0.0
 10
154.192949002
 20
342.9385419016
 30
0.0
  0
SPLINE
  5
4BB
100
AcDbEntity
  8
0
100
AcDbSpline
 62
7
  6
CONTINUOUS
 70
0
 71
3
 72
9
 73
5
 74
0
 42
0.0000001
 43
0.0000001
 44
0.0000000001
 40
0.0
 40
0.0
 40
0.0
 40
0.0
 40
0.5002526842
 40
1.0
 40
1.0
 40
1.0
 40
1.0
 10
160.034949002
 20
333.9896933453
 30
0.0
 10
160.6639143693
 20
333.9896933453
 30
0.0
 10
161.9267846645
 20
334.1566642783
 30
0.0
 10
163.1016851928
 20
334.6491414096
 30
0.0
 10
163.6441306036
 20
334.9662400182
 30
0.0
  0
SPLINE
  5
4BC
100
AcDbEntity
  8
0
100
AcDbSpline
 62
7
  6
CONTINUOUS
 70
0
 71
3
 72
15
 73
11
 74
0
 42
0.0000001
 43
0.0000001
 44
0.0000000001
 40
0.0
 40
0.0
 40
0.0
 40
0.0
 40
0.1245421974
 40
0.2491540819
 40
0.3738950502
 40
0.498804805
 40
0.6238951535
 40
0.7491549314
 40
0.8745378322
 40
1.0
 40
1.0
 40
1.0
 40
1.0
 10
155.7169616013
 20
343.7672942482
 30
0.0
 10
155.7169621014
 20
343.4872117943
 30
0.0
 10
155.7726656029
 20
342.9253158921
 30
0.0
 10
156.0200863564
 20
342.1162157602
 30
0.0
 10
156.421832928
 20
341.3703139369
 30
0.0
 10
156.9624235555
 20
340.7167175158
 30
0.0
 10
157.6209915697
 20
340.1803825404
 30
0.0
 10
158.3723223096
 20
339.7819371107
 30
0.0
 10
159.1871290862
 20
339.5365599661
 30
0.0
 10
159.7527976303
 20
339.4813465436
 30
0.0
 10
160.034949002
 20
339.4813465436
 30
0.0
  0
SPLINE
  5
4BD
100
AcDbEntity
  8
0
100
AcDbSpline
 62
7
  6
CONTINUOUS
 70
0
 71
3
 72
15
 73
11
 74
0
 42
0.0000001
 43
0.0000001
 44
0.0000000001
 40
0.0
 40
0.0
 40
0.0
 40
0.0
 40
0.1254605078
 40
0.2508423414
 40
0.3761023876
 40
0.501193497
 40
0.6261030335
 40
0.7508444825
 40
0.8754571242
 40
1.0
 40
1.0
 40
1.0
 40
1.0
 10
160.034949002
 20
337.139906647
 30
0.0
 10
159.6532195617
 20
337.139906647
 30
0.0
 10
158.8879116261
 20
337.214607804
 30
0.0
 10
157.7855294851
 20
337.5465767083
 30
0.0
 10
156.7690205333
 20
338.0856457537
 30
0.0
 10
155.8780047161
 20
338.8112673906
 30
0.0
 10
155.146626055
 20
339.6955581486
 30
0.0
 10
154.6030841691
 20
340.704720952
 30
0.0
 10
154.2683223595
 20
341.7993873523
 30
0.0
 10
154.1929489547
 20
342.5596043415
 30
0.0
 10
154.192949002
 20
342.9385417706
 30
0.0
  0
SPLINE
  5
4BE
100
AcDbEntity
  8
0
100
AcDbSpline
 62
7
  6
CONTINUOUS
 70
0
 71
3
 72
15
 73
11
 74
0
 42
0.0000001
 43
0.0000001
 44
0.0000000001
 40
0.0
 40
0.0
 40
0.0
 40
0.0
 40
0.1254493388
 40
0.2508237981
 40
0.3760803547
 40
0.501175692
 40
0.6260939126
 40
0.750844209
 40
0.8754614402
 40
1.0
 40
1.0
 40
1.0
 40
1.0
 10
160.034949002
 20
335.7345435718
 30
0.0
 10
159.6290901102
 20
335.7345435718
 30
0.0
 10
158.8154899352
 20
335.8122125171
 30
0.0
 10
157.6414598662
 20
336.1575626842
 30
0.0
 10
156.5548519232
 20
336.7189905546
 30
0.0
 10
155.5961876532
 20
337.4760308731
 30
0.0
 10
154.8006031452
 20
338.4008405859
 30
0.0
 10
154.1974709319
 20
339.459620471
 30
0.0
 10
153.8090235048
 20
340.6128309003
 30
0.0
 10
153.7026975777
 20
341.4178731566
 30
0.0
 10
153.6887183681
 20
341.8205428781
 30
0.0
  0
SPLINE
  5
4BF
100
AcDbEntity
  8
0
100
AcDbSpline
 62
7
  6
CONTINUOUS
 70
0
 71
3
 72
9
 73
5
 74
0
 42
0.0000001
 43
0.0000001
 44
0.0000000001
 40
0.0
 40
0.0
 40
0.0
 40
0.0
 40
0.4996829717
 40
1.0
 40
1.0
 40
1.0
 40
1.0
 10
163.629735736
 20
336.8417689047
 30
0.0
 10
163.1062055883
 20
336.4849219668
 30
0.0
 10
161.9445170334
 20
335.9252279031
 30
0.0
 10
160.6693329126
 20
335.7345435718
 30
0.0
 10
160.034949002
 20
335.7345435718
 30
0.0
  0
SPLINE
  5
4C0
100
AcDbEntity
  8
0
100
AcDbSpline
 62
7
  6
CONTINUOUS
 70
0
 71
3
 72
15
 73
11
 74
0
 42
0.0000001
 43
0.0000001
 44
0.0000000001
 40
0.0
 40
0.0
 40
0.0
 40
0.0
 40
0.1245428758
 40
0.2491555175
 40
0.3738969665
 40
0.498806503
 40
0.6238976124
 40
0.7491576586
 40
0.8745394922
 40
1.0
 40
1.0
 40
1.0
 40
1.0
 10
154.700949002
 20
343.0259143592
 30
0.0
 10
154.7009489588
 20
342.6799280109
 30
0.0
 10
154.7697681545
 20
341.9858168469
 30
0.0
 10
155.0754202415
 20
340.9863388292
 30
0.0
 10
155.5716976156
 20
340.0649293131
 30
0.0
 10
156.2394781323
 20
339.2575334036
 30
0.0
 10
157.0530143132
 20
338.5950093003
 30
0.0
 10
157.9811311822
 20
338.1028158241
 30
0.0
 10
158.9876540066
 20
337.7997137811
 30
0.0
 10
159.6864134261
 20
337.7315083768
 30
0.0
 10
160.034949002
 20
337.7315083768
 30
0.0
  0
SPLINE
  5
4C1
100
AcDbEntity
  8
0
100
AcDbSpline
 62
7
  6
CONTINUOUS
 70
0
 71
3
 72
11
 73
7
 74
0
 42
0.0000001
 43
0.0000001
 44
0.0000000001
 40
0.0
 40
0.0
 40
0.0
 40
0.0
 40
0.2502364283
 40
0.5003661507
 40
0.7503134021
 40
1.0
 40
1.0
 40
1.0
 40
1.0
 10
160.034949002
 20
336.2387727153
 30
0.0
 10
160.3577828938
 20
336.2387727153
 30
0.0
 10
161.0045651018
 20
336.2921071009
 30
0.0
 10
161.9472346323
 20
336.5300377313
 30
0.0
 10
162.8374485084
 20
336.9191242329
 30
0.0
 10
163.3804176015
 20
337.2729142161
 30
0.0
 10
163.6348263186
 20
337.4705007251
 30
0.0
  0
SPLINE
  5
4C2
100
AcDbEntity
  8
0
100
AcDbSpline
 62
7
  6
CONTINUOUS
 70
0
 71
3
 72
15
 73
11
 74
0
 42
0.0000001
 43
0.0000001
 44
0.0000000001
 40
0.0
 40
0.0
 40
0.0
 40
0.0
 40
0.1254602083
 40
0.2508426973
 40
0.3761022892
 40
0.5011934966
 40
0.6261030384
 40
0.7508444983
 40
0.8754571135
 40
1.0
 40
1.0
 40
1.0
 40
1.0
 10
160.034949002
 20
334.8855273763
 30
0.0
 10
159.5702359384
 20
334.8855273763
 30
0.0
 10
158.6385559201
 20
334.976471508
 30
0.0
 10
157.2965233006
 20
335.3805980443
 30
0.0
 10
156.0590308868
 20
336.0368555917
 30
0.0
 10
154.9743273825
 20
336.9202334905
 30
0.0
 10
154.0839515627
 20
337.996758138
 30
0.0
 10
153.4222301673
 20
339.2252952199
 30
0.0
 10
153.0147034963
 20
340.5579381577
 30
0.0
 10
152.9229595803
 20
341.483420111
 30
0.0
 10
152.9229582244
 20
341.9447353529
 30
0.0
  0
SPLINE
  5
4C3
100
AcDbEntity
  8
0
100
AcDbSpline
 62
7
  6
CONTINUOUS
 70
0
 71
3
 72
15
 73
11
 74
0
 42
0.0000001
 43
0.0000001
 44
0.0000000001
 40
0.0
 40
0.0
 40
0.0
 40
0.0
 40
0.1245426679
 40
0.2491548722
 40
0.3738959461
 40
0.4988055485
 40
0.6238967879
 40
0.7491554314
 40
0.8745380139
 40
1.0
 40
1.0
 40
1.0
 40
1.0
 10
154.1929537189
 20
342.0374078381
 30
0.0
 10
154.1929518576
 20
341.6584711957
 30
0.0
 10
154.2683266653
 20
340.8982564025
 30
0.0
 10
154.6030858522
 20
339.8035932719
 30
0.0
 10
155.1466251599
 20
338.7944321257
 30
0.0
 10
155.8780012772
 20
337.9101408034
 30
0.0
 10
156.7690115926
 20
337.1845186962
 30
0.0
 10
157.7855180831
 20
336.6454498694
 30
0.0
 10
158.8879006068
 20
336.3134751353
 30
0.0
 10
159.6532152189
 20
336.2387727153
 30
0.0
 10
160.034949002
 20
336.2387727153
 30
0.0
  0
SPLINE
  5
4C4
100
AcDbEntity
  8
0
100
AcDbSpline
 62
7
  6
CONTINUOUS
 70
0
 71
3
 72
15
 73
11
 74
0
 42
0.0000001
 43
0.0000001
 44
0.0000000001
 40
0.0
 40
0.0
 40
0.0
 40
0.0
 40
0.125459664
 40
0.2508413425
 40
0.376100102
 40
0.501191868
 40
0.6261027037
 40
0.7508448956
 40
0.8754576264
 40
1.0
 40
1.0
 40
1.0
 40
1.0
 10
160.034949002
 20
338.4728882613
 30
0.0
 10
159.6864159243
 20
338.4728882613
 30
0.0
 10
158.9876595488
 20
338.5410928927
 30
0.0
 10
157.9811433302
 20
338.8441927681
 30
0.0
 10
157.053027018
 20
339.3363813591
 30
0.0
 10
156.2394889467
 20
339.9989056352
 30
0.0
 10
155.571702794
 20
340.8063061659
 30
0.0
 10
155.0754236094
 20
341.7277209981
 30
0.0
 10
154.7697720064
 20
342.7271998433
 30
0.0
 10
154.7009548607
 20
343.4213094442
 30
0.0
 10
154.700953309
 20
343.7672942444
 30
0.0
  0
SPLINE
  5
4C5
100
AcDbEntity
  8
0
100
AcDbSpline
 62
7
  6
CONTINUOUS
 70
0
 71
3
 72
11
 73
7
 74
0
 42
0.0000001
 43
0.0000001
 44
0.0000000001
 40
0.0
 40
0.0
 40
0.0
 40
0.0
 40
0.2496873584
 40
0.4996343585
 40
0.7497631501
 40
1.0
 40
1.0
 40
1.0
 40
1.0
 10
163.6341604704
 20
338.3711143001
 30
0.0
 10
163.3797771758
 20
338.1736076625
 30
0.0
 10
162.8368815644
 20
337.8199648165
 30
0.0
 10
161.9468284261
 20
337.4310440973
 30
0.0
 10
161.0043535524
 20
337.193217845
 30
0.0
 10
160.3577132358
 20
337.139906647
 30
0.0
 10
160.034949002
 20
337.139906647
 30
0.0
  0
SPLINE
  5
4C6
100
AcDbEntity
  8
0
100
AcDbSpline
 62
7
  6
CONTINUOUS
 70
0
 71
3
 72
11
 73
7
 74
0
 42
0.0000001
 43
0.0000001
 44
0.0000000001
 40
0.0
 40
0.0
 40
0.0
 40
0.0
 40
0.2496172869
 40
0.4995471325
 40
0.7497016111
 40
1.0
 40
1.0
 40
1.0
 40
1.0
 10
163.6582957354
 20
339.8819113204
 30
0.0
 10
163.414869356
 20
339.6582740376
 30
0.0
 10
162.8845815252
 20
339.2552539677
 30
0.0
 10
161.9915891627
 20
338.8088943278
 30
0.0
 10
161.0307728781
 20
338.5345273243
 30
0.0
 10
160.3664111494
 20
338.4728882613
 30
0.0
 10
160.034949002
 20
338.4728882613
 30
0.0
  0
SPLINE
  5
4C7
100
AcDbEntity
  8
0
100
AcDbSpline
 62
7
  6
CONTINUOUS
 70
0
 71
3
 72
9
 73
5
 74
0
 42
0.0000001
 43
0.0000001
 44
0.0000000001
 40
0.0
 40
0.0
 40
0.0
 40
0.0
 40
0.4997476502
 40
1.0
 40
1.0
 40
1.0
 40
1.0
 10
163.6455318501
 20
335.8628920809
 30
0.0
 10
163.1092669649
 20
335.5492400916
 30
0.0
 10
161.9487725618
 20
335.0604700965
 30
0.0
 10
160.7012857809
 20
334.8895247
 30
0.0
 10
160.0794154884
 20
334.8856653551
 30
0.0
  0
SPLINE
  5
4C8
100
AcDbEntity
  8
0
100
AcDbSpline
 62
7
  6
CONTINUOUS
 70
0
 71
3
 72
11
 73
7
 74
0
 42
0.0000001
 43
0.0000001
 44
0.0000000001
 40
0.0
 40
0.0
 40
0.0
 40
0.0
 40
0.2502962293
 40
0.5004491916
 40
0.7503812877
 40
1.0
 40
1.0
 40
1.0
 40
1.0
 10
160.034949002
 20
337.7315083767
 30
0.0
 10
160.3664051823
 20
337.7315083767
 30
0.0
 10
161.0307556407
 20
337.7931453574
 30
0.0
 10
161.9915628171
 20
338.0675030507
 30
0.0
 10
162.8845513612
 20
338.5138555976
 30
0.0
 10
163.4148422563
 20
338.9168692881
 30
0.0
 10
163.6582692918
 20
339.1405040665
 30
0.0
  0
SPLINE
  5
4C9
100
AcDbEntity
  8
0
100
AcDbSpline
 62
7
  6
CONTINUOUS
 70
0
 71
3
 72
9
 73
5
 74
0
 42
0.0000001
 43
0.0000001
 44
0.0000000001
 40
0.0
 40
0.0
 40
0.0
 40
0.0
 40
0.2451176319
 40
1.0
 40
1.0
 40
1.0
 40
1.0
 10
55.6676426231
 20
366.9876129629
 30
0.0
 10
55.4448907293
 20
366.8509899432
 30
0.0
 10
54.5365724429
 20
366.2929015425
 30
0.0
 10
53.6304521935
 20
365.7312291686
 30
0.0
 10
52.9480883488
 20
365.3045979726
 30
0.0
  0
SPLINE
  5
4CA
100
AcDbEntity
  8
0
100
AcDbSpline
 62
7
  6
CONTINUOUS
 70
0
 71
3
 72
9
 73
5
 74
0
 42
0.0000001
 43
0.0000001
 44
0.0000000001
 40
0.0
 40
0.0
 40
0.0
 40
0.0
 40
0.2540088459
 40
1.0
 40
1.0
 40
1.0
 40
1.0
 10
58.5008500869
 20
365.5013311535
 30
0.0
 10
58.2615674889
 20
365.6283199468
 30
0.0
 10
57.3188921425
 20
366.1270326351
 30
0.0
 10
56.3736915579
 20
366.6209622102
 30
0.0
 10
55.6676426231
 20
366.9876129629
 30
0.0
  0
SPLINE
  5
4CB
100
AcDbEntity
  8
0
100
AcDbSpline
 62
7
  6
CONTINUOUS
 70
0
 71
3
 72
9
 73
5
 74
0
 42
0.0000001
 43
0.0000001
 44
0.0000000001
 40
0.0
 40
0.0
 40
0.0
 40
0.0
 40
0.2460237193
 40
1.0
 40
1.0
 40
1.0
 40
1.0
 10
61.3340575506
 20
363.9804106002
 30
0.0
 10
61.1022251542
 20
364.1060900357
 30
0.0
 10
60.1595004702
 20
364.616179861
 30
0.0
 10
59.2147188726
 20
365.1224764585
 30
0.0
 10
58.5008500869
 20
365.5013311535
 30
0.0
  0
SPLINE
  5
4CC
100
AcDbEntity
  8
0
100
AcDbSpline
 62
7
  6
CONTINUOUS
 70
0
 71
3
 72
9
 73
5
 74
0
 42
0.0000001
 43
0.0000001
 44
0.0000000001
 40
0.0
 40
0.0
 40
0.0
 40
0.0
 40
0.2540706175
 40
1.0
 40
1.0
 40
1.0
 40
1.0
 10
58.8418096551
 20
355.751238757
 30
0.0
 10
58.6121465163
 20
355.607647533
 30
0.0
 10
57.7075062445
 20
355.0436138406
 30
0.0
 10
56.8001226969
 20
354.4839880418
 30
0.0
 10
56.1222553809
 20
354.0682237667
 30
0.0
  0
SPLINE
  5
4CD
100
AcDbEntity
  8
0
100
AcDbSpline
 62
7
  6
CONTINUOUS
 70
0
 71
3
 72
9
 73
5
 74
0
 42
0.0000001
 43
0.0000001
 44
0.0000000001
 40
0.0
 40
0.0
 40
0.0
 40
0.0
 40
0.2451739313
 40
1.0
 40
1.0
 40
1.0
 40
1.0
 10
56.1222553809
 20
354.0682237667
 30
0.0
 10
55.8902087446
 20
354.188725434
 30
0.0
 10
54.9441523482
 20
354.6809905121
 30
0.0
 10
54.0001124659
 20
355.1771391074
 30
0.0
 10
53.2890479172
 20
355.554505576
 30
0.0
  0
SPLINE
  5
4CE
100
AcDbEntity
  8
0
100
AcDbSpline
 62
7
  6
CONTINUOUS
 70
0
 71
3
 72
9
 73
5
 74
0
 42
0.0000001
 43
0.0000001
 44
0.0000000001
 40
0.0
 40
0.0
 40
0.0
 40
0.0
 40
0.2460786821
 40
1.0
 40
1.0
 40
1.0
 40
1.0
 10
61.5613639296
 20
357.4688924913
 30
0.0
 10
61.3388446166
 20
357.3271234142
 30
0.0
 10
60.4341431487
 20
356.7517033743
 30
0.0
 10
59.5272176719
 20
356.1797732466
 30
0.0
 10
58.8418096551
 20
355.751238757
 30
0.0
  0
SPLINE
  5
4CF
100
AcDbEntity
  8
0
100
AcDbSpline
 62
7
  6
CONTINUOUS
 70
0
 71
3
 72
23
 73
19
 74
0
 42
0.0000001
 43
0.0000001
 44
0.0000000001
 40
0.0
 40
0.0
 40
0.0
 40
0.0
 40
0.0624829917
 40
0.124964607
 40
0.1874549216
 40
0.2499514739
 40
0.3124554438
 40
0.3749660552
 40
0.4374816204
 40
0.4999997289
 40
0.5625175761
 40
0.6250324043
 40
0.6875418999
 40
0.7500445423
 40
0.8125398384
 40
0.8750287436
 40
0.9375096134
 40
1.0
 40
1.0
 40
1.0
 40
1.0
 10
59.0679557095
 20
360.5788713006
 30
0.0
 10
59.0606876406
 20
360.7837614954
 30
0.0
 10
59.0061274996
 20
361.1932317632
 30
0.0
 10
58.8074059374
 20
361.7792282539
 30
0.0
 10
58.4992854097
 20
362.3161420553
 30
0.0
 10
58.0933114916
 20
362.7834992535
 30
0.0
 10
57.6047492137
 20
363.1638151982
 30
0.0
 10
57.0519552442
 20
363.4427849877
 30
0.0
 10
56.4557003914
 20
363.6099432617
 30
0.0
 10
55.8383808709
 20
363.6590107089
 30
0.0
 10
55.2231854892
 20
363.5881358435
 30
0.0
 10
54.6332266235
 20
363.3999806753
 30
0.0
 10
54.0906639698
 20
363.1016216278
 30
0.0
 10
53.6158796596
 20
362.7042581778
 30
0.0
 10
53.226712108
 20
362.2228321381
 30
0.0
 10
52.9378095286
 20
361.6753510738
 30
0.0
 10
52.7599601351
 20
361.0826653117
 30
0.0
 10
52.7199677855
 20
360.6714956678
 30
0.0
 10
52.7199541179
 20
360.4664523397
 30
0.0
  0
SPLINE
  5
4D0
100
AcDbEntity
  8
0
100
AcDbSpline
 62
7
  6
CONTINUOUS
 70
0
 71
3
 72
9
 73
5
 74
0
 42
0.0000001
 43
0.0000001
 44
0.0000000001
 40
0.0
 40
0.0
 40
0.0
 40
0.0
 40
0.2540088428
 40
1.0
 40
1.0
 40
1.0
 40
1.0
 10
58.5008500868
 20
365.3630453878
 30
0.0
 10
58.7401326819
 20
365.2360565961
 30
0.0
 10
59.6828080284
 20
364.7373439081
 30
0.0
 10
60.6280086128
 20
364.2434143327
 30
0.0
 10
61.3340575506
 20
363.8767635785
 30
0.0
  0
SPLINE
  5
4D1
100
AcDbEntity
  8
0
100
AcDbSpline
 62
7
  6
CONTINUOUS
 70
0
 71
3
 72
9
 73
5
 74
0
 42
0.0000001
 43
0.0000001
 44
0.0000000001
 40
0.0
 40
0.0
 40
0.0
 40
0.0
 40
0.253013483
 40
1.0
 40
1.0
 40
1.0
 40
1.0
 10
52.9480883489
 20
365.1663122069
 30
0.0
 10
53.1781090641
 20
365.3101269966
 30
0.0
 10
54.0865219375
 20
365.8796727949
 30
0.0
 10
54.992171777
 20
366.4536173246
 30
0.0
 10
55.6676426231
 20
366.8839659411
 30
0.0
  0
SPLINE
  5
4D2
100
AcDbEntity
  8
0
100
AcDbSpline
 62
7
  6
CONTINUOUS
 70
0
 71
3
 72
9
 73
5
 74
0
 42
0.0000001
 43
0.0000001
 44
0.0000000001
 40
0.0
 40
0.0
 40
0.0
 40
0.0
 40
0.2460237171
 40
1.0
 40
1.0
 40
1.0
 40
1.0
 10
55.6676426231
 20
366.8839659411
 30
0.0
 10
55.8994750174
 20
366.7582865068
 30
0.0
 10
56.8421996973
 20
366.2481966739
 30
0.0
 10
57.786981299
 20
365.7419000839
 30
0.0
 10
58.5008500868
 20
365.3630453878
 30
0.0
  0
SPLINE
  5
4D3
100
AcDbEntity
  8
0
100
AcDbSpline
 62
7
  6
CONTINUOUS
 70
0
 71
3
 72
27
 73
23
 74
0
 42
0.0000001
 43
0.0000001
 44
0.0000000001
 40
0.0
 40
0.0
 40
0.0
 40
0.0
 40
0.0624646897
 40
0.0937334461
 40
0.125003783
 40
0.1874755925
 40
0.2499550669
 40
0.2812354171
 40
0.3125173633
 40
0.3750107044
 40
0.4375085847
 40
0.5000085368
 40
0.5625077551
 40
0.6250035215
 40
0.6874936958
 40
0.7187738411
 40
0.7500523463
 40
0.8125283231
 40
0.8749974313
 40
0.9062668014
 40
0.9375350662
 40
1.0
 40
1.0
 40
1.0
 40
1.0
 10
59.4487165144
 20
360.5846847177
 30
0.0
 10
59.4404836676
 20
360.8167724444
 30
0.0
 10
59.3936314838
 20
361.1650736266
 30
0.0
 10
59.2645176052
 20
361.6120794577
 30
0.0
 10
59.0922218279
 20
362.0444687838
 30
0.0
 10
58.7984204159
 20
362.55007775
 30
0.0
 10
58.4114169499
 20
362.988543444
 30
0.0
 10
58.0554873126
 20
363.2886130081
 30
0.0
 10
57.6718932055
 20
363.5524694067
 30
0.0
 10
57.1464274127
 20
363.8097297554
 30
0.0
 10
56.468346418
 20
363.9892948339
 30
0.0
 10
55.7681359434
 20
364.0332773642
 30
0.0
 10
55.0728022336
 20
363.9398462845
 30
0.0
 10
54.4091537366
 20
363.712740158
 30
0.0
 10
53.9032421957
 20
363.4189373272
 30
0.0
 10
53.5393123825
 20
363.1285992235
 30
0.0
 10
53.2055443019
 20
362.8040967399
 30
0.0
 10
52.8505837209
 20
362.3393471099
 30
0.0
 10
52.5933478039
 20
361.8142198356
 30
0.0
 10
52.4521221308
 20
361.3707254279
 30
0.0
 10
52.3550034232
 20
360.9156996776
 30
0.0
 10
52.3329486107
 20
360.5649548796
 30
0.0
 10
52.3411814896
 20
360.3328662461
 30
0.0
  0
SPLINE
  5
4D4
100
AcDbEntity
  8
0
100
AcDbSpline
 62
7
  6
CONTINUOUS
 70
0
 71
3
 72
27
 73
23
 74
0
 42
0.0000001
 43
0.0000001
 44
0.0000000001
 40
0.0
 40
0.0
 40
0.0
 40
0.0
 40
0.0624646897
 40
0.0937334461
 40
0.125003783
 40
0.1874755925
 40
0.2499550669
 40
0.2812354171
 40
0.3125173633
 40
0.3750107044
 40
0.4375085847
 40
0.5000085368
 40
0.5625077551
 40
0.6250035215
 40
0.6874936958
 40
0.7187738411
 40
0.7500523463
 40
0.8125283231
 40
0.8749974313
 40
0.9062668014
 40
0.9375350662
 40
1.0
 40
1.0
 40
1.0
 40
1.0
 10
52.3411814896
 20
360.3328662461
 30
0.0
 10
52.3494143364
 20
360.1007785194
 30
0.0
 10
52.3962665202
 20
359.7524773372
 30
0.0
 10
52.5253803989
 20
359.3054715062
 30
0.0
 10
52.6976761761
 20
358.87308218
 30
0.0
 10
52.9914775881
 20
358.3674732138
 30
0.0
 10
53.3784810541
 20
357.9290075198
 30
0.0
 10
53.7344106914
 20
357.6289379557
 30
0.0
 10
54.1180047985
 20
357.3650815571
 30
0.0
 10
54.6434705913
 20
357.1078212084
 30
0.0
 10
55.321551586
 20
356.92825613
 30
0.0
 10
56.0217620606
 20
356.8842735996
 30
0.0
 10
56.7170957705
 20
356.9777046794
 30
0.0
 10
57.3807442674
 20
357.2048108058
 30
0.0
 10
57.8866558083
 20
357.4986136367
 30
0.0
 10
58.2505856215
 20
357.7889517403
 30
0.0
 10
58.5843537021
 20
358.1134542239
 30
0.0
 10
58.9393142831
 20
358.5782038539
 30
0.0
 10
59.1965502001
 20
359.1033311283
 30
0.0
 10
59.3377758732
 20
359.546825536
 30
0.0
 10
59.4348945808
 20
360.0018512862
 30
0.0
 10
59.4569493933
 20
360.3525960843
 30
0.0
 10
59.4487165144
 20
360.5846847177
 30
0.0
  0
SPLINE
  5
4D5
100
AcDbEntity
  8
0
100
AcDbSpline
 62
7
  6
CONTINUOUS
 70
0
 71
3
 72
15
 73
11
 74
0
 42
0.0000001
 43
0.0000001
 44
0.0000000001
 40
0.0
 40
0.0
 40
0.0
 40
0.0
 40
0.1254599343
 40
0.2508416361
 40
0.3761011566
 40
0.5011921815
 40
0.6261031724
 40
0.7508453848
 40
0.8754579605
 40
1.0
 40
1.0
 40
1.0
 40
1.0
 10
160.034949002
 20
350.7789447395
 30
0.0
 10
160.2424095542
 20
350.7789447395
 30
0.0
 10
160.658336565
 20
350.8195416055
 30
0.0
 10
161.2574540859
 20
350.9999614102
 30
0.0
 10
161.8099036677
 20
351.2929322417
 30
0.0
 10
162.2941490832
 20
351.6872954834
 30
0.0
 10
162.6916471409
 20
352.1678838748
 30
0.0
 10
162.9870529498
 20
352.7163451125
 30
0.0
 10
163.1689807698
 20
353.3112744927
 30
0.0
 10
163.2099401072
 20
353.7244341472
 30
0.0
 10
163.2099397379
 20
353.9303768686
 30
0.0
  0
SPLINE
  5
4D6
100
AcDbEntity
  8
0
100
AcDbSpline
 62
7
  6
CONTINUOUS
 70
0
 71
3
 72
15
 73
11
 74
0
 42
0.0000001
 43
0.0000001
 44
0.0000000001
 40
0.0
 40
0.0
 40
0.0
 40
0.0
 40
0.1245421991
 40
0.2491540842
 40
0.3738950524
 40
0.4988048089
 40
0.6238951641
 40
0.7491549363
 40
0.874537834
 40
1.0
 40
1.0
 40
1.0
 40
1.0
 10
156.8599582661
 20
353.9303768753
 30
0.0
 10
156.8599586354
 20
353.7244338916
 30
0.0
 10
156.9009170918
 20
353.311275136
 30
0.0
 10
157.0828441202
 20
352.7163485656
 30
0.0
 10
157.3782460125
 20
352.1678913388
 30
0.0
 10
157.7757391352
 20
351.6873057289
 30
0.0
 10
158.2599803268
 20
351.2929417743
 30
0.0
 10
158.8124294024
 20
350.9999672051
 30
0.0
 10
159.4115520162
 20
350.8195428432
 30
0.0
 10
159.827484761
 20
350.7789447395
 30
0.0
 10
160.034949002
 20
350.7789447395
 30
0.0
  0
SPLINE
  5
4D7
100
AcDbEntity
  8
0
100
AcDbSpline
 62
7
  6
CONTINUOUS
 70
0
 71
3
 72
15
 73
11
 74
0
 42
0.0000001
 43
0.0000001
 44
0.0000000001
 40
0.0
 40
0.0
 40
0.0
 40
0.0
 40
0.1245427339
 40
0.2491551835
 40
0.3738962107
 40
0.498805491
 40
0.6238967287
 40
0.749155709
 40
0.8745394917
 40
1.0
 40
1.0
 40
1.0
 40
1.0
 10
153.3674527126
 20
352.5402895822
 30
0.0
 10
153.367452726
 20
352.1078071578
 30
0.0
 10
153.4534794773
 20
351.2401701156
 30
0.0
 10
153.8355316873
 20
349.9908220742
 30
0.0
 10
154.4558770786
 20
348.8390607562
 30
0.0
 10
155.2906159036
 20
347.8298306934
 30
0.0
 10
156.3075178581
 20
347.0016626734
 30
0.0
 10
157.4676634414
 20
346.3864075834
 30
0.0
 10
158.7258250196
 20
346.0075465197
 30
0.0
 10
159.5992795487
 20
345.9222821043
 30
0.0
 10
160.034949002
 20
345.9222821043
 30
0.0
  0
SPLINE
  5
4D8
100
AcDbEntity
  8
0
100
AcDbSpline
 62
7
  6
CONTINUOUS
 70
0
 71
3
 72
11
 73
7
 74
0
 42
0.0000001
 43
0.0000001
 44
0.0000000001
 40
0.0
 40
0.0
 40
0.0
 40
0.0
 40
0.2497355813
 40
0.4995853029
 40
0.7496490416
 40
1.0
 40
1.0
 40
1.0
 40
1.0
 10
153.367449002
 20
353.4361236134
 30
0.0
 10
153.367449002
 20
353.8256863039
 30
0.0
 10
153.4371412424
 20
354.6067533948
 30
0.0
 10
153.7475514895
 20
355.7403719146
 30
0.0
 10
154.2538015362
 20
356.8021562596
 30
0.0
 10
154.7118040491
 20
357.4402156483
 30
0.0
 10
154.9666323518
 20
357.7361386972
 30
0.0
  0
SPLINE
  5
4D9
100
AcDbEntity
  8
0
100
AcDbSpline
 62
7
  6
CONTINUOUS
 70
0
 71
3
 72
15
 73
11
 74
0
 42
0.0000001
 43
0.0000001
 44
0.0000000001
 40
0.0
 40
0.0
 40
0.0
 40
0.0
 40
0.1254598023
 40
0.250843006
 40
0.3761022154
 40
0.5011935036
 40
0.6261030538
 40
0.7508444682
 40
0.8754571333
 40
1.0
 40
1.0
 40
1.0
 40
1.0
 10
160.034949002
 20
346.8181161354
 30
0.0
 10
159.5992818633
 20
346.8181161354
 30
0.0
 10
158.7258316399
 20
346.9033797255
 30
0.0
 10
157.4676722181
 20
347.2822364194
 30
0.0
 10
156.3075262167
 20
347.8974895626
 30
0.0
 10
155.2906206969
 20
348.7256567619
 30
0.0
 10
154.4558780128
 20
349.7348875018
 30
0.0
 10
153.8355299906
 20
350.8866514023
 30
0.0
 10
153.45347603
 20
352.1360020398
 30
0.0
 10
153.367449002
 20
353.0036405919
 30
0.0
 10
153.367449002
 20
353.4361236134
 30
0.0
  0
SPLINE
  5
4DA
100
AcDbEntity
  8
0
100
AcDbSpline
 62
7
  6
CONTINUOUS
 70
0
 71
3
 72
11
 73
7
 74
0
 42
0.0000001
 43
0.0000001
 44
0.0000000001
 40
0.0
 40
0.0
 40
0.0
 40
0.0
 40
0.2496531035
 40
0.4995928144
 40
0.7497327873
 40
1.0
 40
1.0
 40
1.0
 40
1.0
 10
163.6531231725
 20
349.7035278892
 30
0.0
 10
163.4033527095
 20
349.4928975259
 30
0.0
 10
162.8652278793
 20
349.114585169
 30
0.0
 10
161.9718915921
 20
348.6971637805
 30
0.0
 10
161.0188046501
 20
348.4412745371
 30
0.0
 10
160.3624795505
 20
348.3838563189
 30
0.0
 10
160.034949002
 20
348.3838563189
 30
0.0
  0
SPLINE
  5
4DB
100
AcDbEntity
  8
0
100
AcDbSpline
 62
7
  6
CONTINUOUS
 70
0
 71
3
 72
21
 73
17
 74
0
 42
0.0000001
 43
0.0000001
 44
0.0000000001
 40
0.0
 40
0.0
 40
0.0
 40
0.0
 40
0.0628147256
 40
0.1256179296
 40
0.1883843167
 40
0.2511073016
 40
0.3137746135
 40
0.3763814105
 40
0.5011250047
 40
0.6256614962
 40
0.6880251197
 40
0.7503776083
 40
0.8127358013
 40
0.8751161467
 40
0.9375334888
 40
1.0
 40
1.0
 40
1.0
 40
1.0
 10
160.034949002
 20
348.3838563189
 30
0.0
 10
159.7842254534
 20
348.3838563189
 30
0.0
 10
159.2821792376
 20
348.4174582803
 30
0.0
 10
158.5432296181
 20
348.5677069181
 30
0.0
 10
157.8311502902
 20
348.8151567057
 30
0.0
 10
157.1590382435
 20
349.1552240323
 30
0.0
 10
156.5389383539
 20
349.5819580897
 30
0.0
 10
155.7981009638
 20
350.2543155583
 30
0.0
 10
155.0530022102
 20
351.2717573015
 30
0.0
 10
154.6084506302
 20
352.4509971593
 30
0.0
 10
154.4522189253
 20
353.4361300982
 30
0.0
 10
154.4358897296
 20
354.185047619
 30
0.0
 10
154.5211058577
 20
354.9292192533
 30
0.0
 10
154.7062620818
 20
355.6553396361
 30
0.0
 10
154.9879208852
 20
356.3500533021
 30
0.0
 10
155.2367457861
 20
356.7840531171
 30
0.0
 10
155.3750687081
 20
356.9914995987
 30
0.0
  0
SPLINE
  5
4DC
100
AcDbEntity
  8
0
100
AcDbSpline
 62
7
  6
CONTINUOUS
 70
0
 71
3
 72
11
 73
7
 74
0
 42
0.0000001
 43
0.0000001
 44
0.0000000001
 40
0.0
 40
0.0
 40
0.0
 40
0.0
 40
0.2491906794
 40
0.4988873569
 40
0.7491872541
 40
1.0
 40
1.0
 40
1.0
 40
1.0
 10
154.9053386279
 20
319.0320078471
 30
0.0
 10
155.0029893485
 20
318.4756884357
 30
0.0
 10
155.3873818225
 20
317.3861960179
 30
0.0
 10
156.4615952553
 20
316.0325447308
 30
0.0
 10
157.917207312
 20
315.0946232571
 30
0.0
 10
159.0427520724
 20
314.814788267
 30
0.0
 10
159.6093725463
 20
314.7685820368
 30
0.0
  0
SPLINE
  5
4DD
100
AcDbEntity
  8
0
100
AcDbSpline
 62
7
  6
CONTINUOUS
 70
0
 71
3
 72
9
 73
5
 74
0
 42
0.0000001
 43
0.0000001
 44
0.0000000001
 40
0.0
 40
0.0
 40
0.0
 40
0.0
 40
0.4999878966
 40
1.0
 40
1.0
 40
1.0
 40
1.0
 10
57.8216553615
 20
369.114628821
 30
0.0
 10
57.4282676345
 20
369.3106467124
 30
0.0
 10
56.5762031102
 20
369.583483563
 30
0.0
 10
55.6815197837
 20
369.5851126992
 30
0.0
 10
55.2469534663
 20
369.5191753125
 30
0.0
  0
SPLINE
  5
4DE
100
AcDbEntity
  8
0
100
AcDbSpline
 62
7
  6
CONTINUOUS
 70
0
 71
3
 72
12
 73
8
 74
0
 42
0.0000001
 43
0.0000001
 44
0.0000000001
 40
0.0
 40
0.0
 40
0.0
 40
0.0
 40
0.2794876838
 40
0.5464972413
 40
0.7896468066
 40
0.8993760263
 40
1.0
 40
1.0
 40
1.0
 40
1.0
 10
236.019049002
 20
338.0987779831
 30
0.0
 10
236.375462218
 20
338.0987779831
 30
0.0
 10
237.0728973482
 20
338.1311475257
 30
0.0
 10
238.0710408752
 20
338.2752533935
 30
0.0
 10
238.8386139115
 20
338.4741613664
 30
0.0
 10
239.379776096
 20
338.6794945712
 30
0.0
 10
239.6221523198
 20
338.7955222152
 30
0.0
 10
239.7348107343
 20
338.8569548648
 30
0.0
  0
SPLINE
  5
4DF
100
AcDbEntity
  8
0
100
AcDbSpline
 62
7
  6
CONTINUOUS
 70
0
 71
3
 72
12
 73
8
 74
0
 42
0.0000001
 43
0.0000001
 44
0.0000000001
 40
0.0
 40
0.0
 40
0.0
 40
0.0
 40
0.3076592301
 40
0.570844049
 40
0.7962946331
 40
0.8996586952
 40
1.0
 40
1.0
 40
1.0
 40
1.0
 10
239.7728015258
 20
338.8779735275
 30
0.0
 10
239.9049742809
 20
338.9521710152
 30
0.0
 10
240.142086496
 20
339.1059824112
 30
0.0
 10
240.4287059439
 20
339.3777948793
 30
0.0
 10
240.5846456409
 20
339.630300989
 30
0.0
 10
240.6446832778
 20
339.8341582699
 30
0.0
 10
240.6545446459
 20
339.9347704519
 30
0.0
 10
240.6545452593
 20
339.9842056924
 30
0.0
  0
SPLINE
  5
4E0
100
AcDbEntity
  8
0
100
AcDbSpline
 62
7
  6
CONTINUOUS
 70
0
 71
3
 72
13
 73
9
 74
0
 42
0.0000001
 43
0.0000001
 44
0.0000000001
 40
0.0
 40
0.0
 40
0.0
 40
0.0
 40
0.2850531984
 40
0.555085424
 40
0.6802306034
 40
0.7967977111
 40
0.9036452328
 40
1.0
 40
1.0
 40
1.0
 40
1.0
 10
236.019049002
 20
347.2214894074
 30
0.0
 10
236.3425185716
 20
347.2214894074
 30
0.0
 10
236.9728370515
 20
347.1897294437
 30
0.0
 10
237.7372200574
 20
347.0695488519
 30
0.0
 10
238.2999472134
 20
346.9245312751
 30
0.0
 10
238.6752705479
 20
346.7984016
 30
0.0
 10
239.0087580189
 20
346.6542436294
 30
0.0
 10
239.2106190611
 20
346.5415318273
 30
0.0
 10
239.3023035372
 20
346.4819559659
 30
0.0
  0
SPLINE
  5
4E1
100
AcDbEntity
  8
0
100
AcDbSpline
 62
7
  6
CONTINUOUS
 70
0
 71
3
 72
11
 73
7
 74
0
 42
0.0000001
 43
0.0000001
 44
0.0000000001
 40
0.0
 40
0.0
 40
0.0
 40
0.0
 40
0.3009562365
 40
0.5620552631
 40
0.7905173829
 40
1.0
 40
1.0
 40
1.0
 40
1.0
 10
239.9481878931
 20
346.0622914348
 30
0.0
 10
240.0552624766
 20
345.9927184038
 30
0.0
 10
240.2473385158
 20
345.849451737
 30
0.0
 10
240.4766917995
 20
345.6013507906
 30
0.0
 10
240.6207617691
 20
345.3377650059
 30
0.0
 10
240.654549002
 20
345.1507608315
 30
0.0
 10
240.654549002
 20
345.0618796101
 30
0.0
  0
SPLINE
  5
4E2
100
AcDbEntity
  8
0
100
AcDbSpline
 62
7
  6
CONTINUOUS
 70
0
 71
3
 72
13
 73
9
 74
0
 42
0.0000001
 43
0.0000001
 44
0.0000000001
 40
0.0
 40
0.0
 40
0.0
 40
0.0
 40
0.0963534321
 40
0.203199525
 40
0.3197653743
 40
0.4449097189
 40
0.7149421769
 40
1.0
 40
1.0
 40
1.0
 40
1.0
 10
232.7357944442
 20
346.4819559717
 30
0.0
 10
232.8274776036
 20
346.5415310792
 30
0.0
 10
233.0293357785
 20
346.6542415505
 30
0.0
 10
233.3628187847
 20
346.7983983305
 30
0.0
 10
233.7381381251
 20
346.924527324
 30
0.0
 10
234.3008628487
 20
347.0695458511
 30
0.0
 10
235.0652501668
 20
347.18972866
 30
0.0
 10
235.6955741833
 20
347.2214894074
 30
0.0
 10
236.019049002
 20
347.2214894074
 30
0.0
  0
SPLINE
  5
4E3
100
AcDbEntity
  8
0
100
AcDbSpline
 62
7
  6
CONTINUOUS
 70
0
 71
3
 72
11
 73
7
 74
0
 42
0.0000001
 43
0.0000001
 44
0.0000000001
 40
0.0
 40
0.0
 40
0.0
 40
0.0
 40
0.2094826171
 40
0.4379447369
 40
0.6990437635
 40
1.0
 40
1.0
 40
1.0
 40
1.0
 10
231.383549002
 20
345.0618796101
 30
0.0
 10
231.383549002
 20
345.1507608315
 30
0.0
 10
231.4173362349
 20
345.3377650059
 30
0.0
 10
231.5614062046
 20
345.6013507906
 30
0.0
 10
231.7907594882
 20
345.849451737
 30
0.0
 10
231.9828355274
 20
345.9927184038
 30
0.0
 10
232.0899101109
 20
346.0622914348
 30
0.0
  0
SPLINE
  5
4E4
100
AcDbEntity
  8
0
100
AcDbSpline
 62
7
  6
CONTINUOUS
 70
0
 71
3
 72
18
 73
14
 74
0
 42
0.0000001
 43
0.0000001
 44
0.0000000001
 40
0.0
 40
0.0
 40
0.0
 40
0.0
 40
0.0348052574
 40
0.0712309699
 40
0.1106429956
 40
0.1540266789
 40
0.2019902129
 40
0.2548359941
 40
0.3751360569
 40
0.5136012916
 40
0.6669476487
 40
0.8307662795
 40
1.0
 40
1.0
 40
1.0
 40
1.0
 10
231.3835527447
 20
339.9842056918
 30
0.0
 10
231.3835519748
 20
339.9221564506
 30
0.0
 10
231.3993238238
 20
339.7946915262
 30
0.0
 10
231.468812598
 20
339.6084799261
 30
0.0
 10
231.5824536927
 20
339.4274034374
 30
0.0
 10
231.7383752704
 20
339.2529229898
 30
0.0
 10
231.9348052236
 20
339.0860793434
 30
0.0
 10
232.2626582236
 20
338.8660440639
 30
0.0
 10
232.7659408503
 20
338.6245560421
 30
0.0
 10
233.4658069753
 20
338.3963779341
 30
0.0
 10
234.2615277654
 20
338.2267353048
 30
0.0
 10
235.123304659
 20
338.1221894528
 30
0.0
 10
235.7173467673
 20
338.0987779831
 30
0.0
 10
236.019049002
 20
338.0987779831
 30
0.0
  0
SPLINE
  5
4E5
100
AcDbEntity
  8
0
100
AcDbSpline
 62
7
  6
CONTINUOUS
 70
0
 71
3
 72
21
 73
17
 74
0
 42
0.0000001
 43
0.0000001
 44
0.0000000001
 40
0.0
 40
0.0
 40
0.0
 40
0.0
 40
0.0552821329
 40
0.1035765653
 40
0.1460107764
 40
0.1847205517
 40
0.2227596044
 40
0.2633783895
 40
0.3091267584
 40
0.3615172634
 40
0.4211787123
 40
0.4881099661
 40
0.5618715452
 40
0.6417111725
 40
0.8154733107
 40
1.0
 40
1.0
 40
1.0
 40
1.0
 10
239.3023035372
 20
346.4819559659
 30
0.0
 10
239.3877806028
 20
346.4264136318
 30
0.0
 10
239.541852339
 20
346.3121395696
 30
0.0
 10
239.7284755131
 20
346.115737028
 30
0.0
 10
239.850824106
 20
345.9076492202
 30
0.0
 10
239.9031718782
 20
345.6902870743
 30
0.0
 10
239.8806840983
 20
345.4709543615
 30
0.0
 10
239.7857110383
 20
345.2586442526
 30
0.0
 10
239.624389322
 20
345.0573866992
 30
0.0
 10
239.4011985343
 20
344.868606839
 30
0.0
 10
239.1199476094
 20
344.6941840401
 30
0.0
 10
238.7851187724
 20
344.5365248572
 30
0.0
 10
238.4022140628
 20
344.3981321117
 30
0.0
 10
237.8196650414
 20
344.2380539383
 30
0.0
 10
237.0204624967
 20
344.105506303
 30
0.0
 10
236.3593074482
 20
344.0705006335
 30
0.0
 10
236.019049002
 20
344.0705006335
 30
0.0
  0
SPLINE
  5
4E6
100
AcDbEntity
  8
0
100
AcDbSpline
 62
7
  6
CONTINUOUS
 70
0
 71
3
 72
18
 73
14
 74
0
 42
0.0000001
 43
0.0000001
 44
0.0000000001
 40
0.0
 40
0.0
 40
0.0
 40
0.0
 40
0.1692316183
 40
0.3330494184
 40
0.4863976853
 40
0.6248628687
 40
0.7451630955
 40
0.7980090803
 40
0.8459728507
 40
0.8893567781
 40
0.9287689025
 40
0.9651947164
 40
1.0
 40
1.0
 40
1.0
 40
1.0
 10
236.019049002
 20
343.1764519011
 30
0.0
 10
235.7173503235
 20
343.1764519011
 30
0.0
 10
235.1233131007
 20
343.1998630155
 30
0.0
 10
234.2615372463
 20
343.3044068764
 30
0.0
 10
233.4658140594
 20
343.4740496691
 30
0.0
 10
232.7659436608
 20
343.7022276916
 30
0.0
 10
232.2626597502
 20
343.9437151761
 30
0.0
 10
231.9348053078
 20
344.1637507503
 30
0.0
 10
231.7383741533
 20
344.3305950116
 30
0.0
 10
231.582450789
 20
344.5050756068
 30
0.0
 10
231.4688101019
 20
344.6861533111
 30
0.0
 10
231.3993195028
 20
344.8723649556
 30
0.0
 10
231.383549002
 20
344.9998302828
 30
0.0
 10
231.383549002
 20
345.0618796101
 30
0.0
  0
SPLINE
  5
4E7
100
AcDbEntity
  8
0
100
AcDbSpline
 62
7
  6
CONTINUOUS
 70
0
 71
3
 72
21
 73
17
 74
0
 42
0.0000001
 43
0.0000001
 44
0.0000000001
 40
0.0
 40
0.0
 40
0.0
 40
0.0
 40
0.1845241337
 40
0.3582865712
 40
0.4381269444
 40
0.5118894804
 40
0.5788216605
 40
0.6384838843
 40
0.6908749161
 40
0.7366234768
 40
0.7772422164
 40
0.8152811992
 40
0.8539908508
 40
0.8964247941
 40
0.944718722
 40
1.0
 40
1.0
 40
1.0
 40
1.0
 10
236.019049002
 20
344.0705006335
 30
0.0
 10
235.6787952718
 20
344.0705006335
 30
0.0
 10
235.0176444086
 20
344.105505537
 30
0.0
 10
234.2184444392
 20
344.2380515271
 30
0.0
 10
233.6358915505
 20
344.3981295498
 30
0.0
 10
233.2529821124
 20
344.536523531
 30
0.0
 10
232.9181488986
 20
344.6941849726
 30
0.0
 10
232.6368947214
 20
344.868610371
 30
0.0
 10
232.4137023542
 20
345.057392676
 30
0.0
 10
232.2523812743
 20
345.2586525925
 30
0.0
 10
232.1574119055
 20
345.4709645895
 30
0.0
 10
232.1349273914
 20
345.6902970593
 30
0.0
 10
232.1872772245
 20
345.9076577355
 30
0.0
 10
232.3096265178
 20
346.1157431326
 30
0.0
 10
232.4962487083
 20
346.3121424094
 30
0.0
 10
232.6503187448
 20
346.4264144305
 30
0.0
 10
232.7357944442
 20
346.4819559717
 30
0.0
  0
SPLINE
  5
4E8
100
AcDbEntity
  8
0
100
AcDbSpline
 62
7
  6
CONTINUOUS
 70
0
 71
3
 72
18
 73
14
 74
0
 42
0.0000001
 43
0.0000001
 44
0.0000000001
 40
0.0
 40
0.0
 40
0.0
 40
0.0
 40
0.0348052836
 40
0.0712310975
 40
0.1106432219
 40
0.1540271493
 40
0.2019909197
 40
0.2548369045
 40
0.3751371313
 40
0.5136023147
 40
0.6669505816
 40
0.8307683817
 40
1.0
 40
1.0
 40
1.0
 40
1.0
 10
240.654549002
 20
345.0618796101
 30
0.0
 10
240.654549002
 20
344.9998302828
 30
0.0
 10
240.6387785012
 20
344.8723649556
 30
0.0
 10
240.5692879021
 20
344.6861533111
 30
0.0
 10
240.455647215
 20
344.5050756068
 30
0.0
 10
240.2997238507
 20
344.3305950116
 30
0.0
 10
240.1032926962
 20
344.1637507503
 30
0.0
 10
239.7754382538
 20
343.9437151761
 30
0.0
 10
239.2721543432
 20
343.7022276916
 30
0.0
 10
238.5722839446
 20
343.4740496691
 30
0.0
 10
237.7765607577
 20
343.3044068764
 30
0.0
 10
236.9147849033
 20
343.1998630155
 30
0.0
 10
236.3207476805
 20
343.1764519011
 30
0.0
 10
236.019049002
 20
343.1764519011
 30
0.0
  0
SPLINE
  5
4E9
100
AcDbEntity
  8
0
100
AcDbSpline
 62
7
  6
CONTINUOUS
 70
0
 71
3
 72
11
 73
7
 74
0
 42
0.0000001
 43
0.0000001
 44
0.0000000001
 40
0.0
 40
0.0
 40
0.0
 40
0.0
 40
0.2715662106
 40
0.5341514045
 40
0.7793807306
 40
1.0
 40
1.0
 40
1.0
 40
1.0
 10
331.269049002
 20
338.0987779831
 30
0.0
 10
331.5758182505
 20
338.0987779831
 30
0.0
 10
332.1795012937
 20
338.1229610234
 30
0.0
 10
333.0543651539
 20
338.230945571
 30
0.0
 10
333.8595915691
 20
338.4059466776
 30
0.0
 10
334.3603721823
 20
338.5728655619
 30
0.0
 10
334.5903296773
 20
338.6689342768
 30
0.0
  0
SPLINE
  5
4EA
100
AcDbEntity
  8
0
100
AcDbSpline
 62
7
  6
CONTINUOUS
 70
0
 71
3
 72
14
 73
10
 74
0
 42
0.0000001
 43
0.0000001
 44
0.0000000001
 40
0.0
 40
0.0
 40
0.0
 40
0.0
 40
0.3197157288
 40
0.460271729
 40
0.5879888548
 40
0.7037064024
 40
0.809054151
 40
0.9066304232
 40
1.0
 40
1.0
 40
1.0
 40
1.0
 10
334.5903296773
 20
338.6689342768
 30
0.0
 10
334.7830059764
 20
338.7494281283
 30
0.0
 10
335.0544228629
 20
338.8827741487
 30
0.0
 10
335.3716517839
 20
339.1002507071
 30
0.0
 10
335.5616998903
 20
339.264895647
 30
0.0
 10
335.7124545622
 20
339.4368142789
 30
0.0
 10
335.8222525297
 20
339.6150084834
 30
0.0
 10
335.889335522
 20
339.7980568421
 30
0.0
 10
335.9045445027
 20
339.9232236948
 30
0.0
 10
335.9045452593
 20
339.9842056924
 30
0.0
  0
SPLINE
  5
4EB
100
AcDbEntity
  8
0
100
AcDbSpline
 62
7
  6
CONTINUOUS
 70
0
 71
3
 72
13
 73
9
 74
0
 42
0.0000001
 43
0.0000001
 44
0.0000000001
 40
0.0
 40
0.0
 40
0.0
 40
0.0
 40
0.2850531984
 40
0.555085424
 40
0.6802306034
 40
0.7967977111
 40
0.9036452328
 40
1.0
 40
1.0
 40
1.0
 40
1.0
 10
331.269049002
 20
347.2214894074
 30
0.0
 10
331.5925185716
 20
347.2214894074
 30
0.0
 10
332.2228370515
 20
347.1897294437
 30
0.0
 10
332.9872200574
 20
347.0695488519
 30
0.0
 10
333.5499472134
 20
346.9245312751
 30
0.0
 10
333.9252705479
 20
346.7984016
 30
0.0
 10
334.2587580189
 20
346.6542436294
 30
0.0
 10
334.4606190611
 20
346.5415318273
 30
0.0
 10
334.5523035372
 20
346.4819559659
 30
0.0
  0
SPLINE
  5
4EC
100
AcDbEntity
  8
0
100
AcDbSpline
 62
7
  6
CONTINUOUS
 70
0
 71
3
 72
11
 73
7
 74
0
 42
0.0000001
 43
0.0000001
 44
0.0000000001
 40
0.0
 40
0.0
 40
0.0
 40
0.0
 40
0.3009562365
 40
0.5620552631
 40
0.7905173829
 40
1.0
 40
1.0
 40
1.0
 40
1.0
 10
335.1981878931
 20
346.0622914348
 30
0.0
 10
335.3052624766
 20
345.9927184038
 30
0.0
 10
335.4973385158
 20
345.849451737
 30
0.0
 10
335.7266917995
 20
345.6013507906
 30
0.0
 10
335.8707617691
 20
345.3377650059
 30
0.0
 10
335.904549002
 20
345.1507608315
 30
0.0
 10
335.904549002
 20
345.0618796101
 30
0.0
  0
SPLINE
  5
4ED
100
AcDbEntity
  8
0
100
AcDbSpline
 62
7
  6
CONTINUOUS
 70
0
 71
3
 72
13
 73
9
 74
0
 42
0.0000001
 43
0.0000001
 44
0.0000000001
 40
0.0
 40
0.0
 40
0.0
 40
0.0
 40
0.0963534321
 40
0.203199525
 40
0.3197653743
 40
0.4449097189
 40
0.7149421769
 40
1.0
 40
1.0
 40
1.0
 40
1.0
 10
327.9857944442
 20
346.4819559717
 30
0.0
 10
328.0774776036
 20
346.5415310792
 30
0.0
 10
328.2793357785
 20
346.6542415505
 30
0.0
 10
328.6128187847
 20
346.7983983305
 30
0.0
 10
328.9881381251
 20
346.924527324
 30
0.0
 10
329.5508628487
 20
347.0695458511
 30
0.0
 10
330.3152501668
 20
347.18972866
 30
0.0
 10
330.9455741833
 20
347.2214894074
 30
0.0
 10
331.269049002
 20
347.2214894074
 30
0.0
  0
SPLINE
  5
4EE
100
AcDbEntity
  8
0
100
AcDbSpline
 62
7
  6
CONTINUOUS
 70
0
 71
3
 72
11
 73
7
 74
0
 42
0.0000001
 43
0.0000001
 44
0.0000000001
 40
0.0
 40
0.0
 40
0.0
 40
0.0
 40
0.2094826171
 40
0.4379447369
 40
0.6990437635
 40
1.0
 40
1.0
 40
1.0
 40
1.0
 10
326.633549002
 20
345.0618796101
 30
0.0
 10
326.633549002
 20
345.1507608315
 30
0.0
 10
326.6673362349
 20
345.3377650059
 30
0.0
 10
326.8114062046
 20
345.6013507906
 30
0.0
 10
327.0407594882
 20
345.849451737
 30
0.0
 10
327.2328355274
 20
345.9927184038
 30
0.0
 10
327.3399101109
 20
346.0622914348
 30
0.0
  0
SPLINE
  5
4EF
100
AcDbEntity
  8
0
100
AcDbSpline
 62
7
  6
CONTINUOUS
 70
0
 71
3
 72
18
 73
14
 74
0
 42
0.0000001
 43
0.0000001
 44
0.0000000001
 40
0.0
 40
0.0
 40
0.0
 40
0.0
 40
0.0348052574
 40
0.0712309699
 40
0.1106429956
 40
0.1540266789
 40
0.2019902129
 40
0.2548359941
 40
0.3751360569
 40
0.5136012916
 40
0.6669476487
 40
0.8307662795
 40
1.0
 40
1.0
 40
1.0
 40
1.0
 10
326.6335527447
 20
339.9842056918
 30
0.0
 10
326.6335519748
 20
339.9221564506
 30
0.0
 10
326.6493238238
 20
339.7946915262
 30
0.0
 10
326.718812598
 20
339.6084799261
 30
0.0
 10
326.8324536927
 20
339.4274034374
 30
0.0
 10
326.9883752704
 20
339.2529229898
 30
0.0
 10
327.1848052236
 20
339.0860793434
 30
0.0
 10
327.5126582236
 20
338.8660440639
 30
0.0
 10
328.0159408503
 20
338.6245560421
 30
0.0
 10
328.7158069753
 20
338.3963779341
 30
0.0
 10
329.5115277654
 20
338.2267353048
 30
0.0
 10
330.373304659
 20
338.1221894528
 30
0.0
 10
330.9673467673
 20
338.0987779831
 30
0.0
 10
331.269049002
 20
338.0987779831
 30
0.0
  0
SPLINE
  5
4F0
100
AcDbEntity
  8
0
100
AcDbSpline
 62
7
  6
CONTINUOUS
 70
0
 71
3
 72
21
 73
17
 74
0
 42
0.0000001
 43
0.0000001
 44
0.0000000001
 40
0.0
 40
0.0
 40
0.0
 40
0.0
 40
0.0552821329
 40
0.1035765653
 40
0.1460107764
 40
0.1847205517
 40
0.2227596044
 40
0.2633783895
 40
0.3091267584
 40
0.3615172634
 40
0.4211787123
 40
0.4881099661
 40
0.5618715452
 40
0.6417111725
 40
0.8154733107
 40
1.0
 40
1.0
 40
1.0
 40
1.0
 10
334.5523035372
 20
346.4819559659
 30
0.0
 10
334.6377806028
 20
346.4264136318
 30
0.0
 10
334.791852339
 20
346.3121395696
 30
0.0
 10
334.9784755131
 20
346.115737028
 30
0.0
 10
335.100824106
 20
345.9076492202
 30
0.0
 10
335.1531718782
 20
345.6902870743
 30
0.0
 10
335.1306840983
 20
345.4709543615
 30
0.0
 10
335.0357110383
 20
345.2586442526
 30
0.0
 10
334.874389322
 20
345.0573866992
 30
0.0
 10
334.6511985343
 20
344.868606839
 30
0.0
 10
334.3699476094
 20
344.6941840401
 30
0.0
 10
334.0351187724
 20
344.5365248572
 30
0.0
 10
333.6522140628
 20
344.3981321117
 30
0.0
 10
333.0696650414
 20
344.2380539383
 30
0.0
 10
332.2704624967
 20
344.105506303
 30
0.0
 10
331.6093074482
 20
344.0705006335
 30
0.0
 10
331.269049002
 20
344.0705006335
 30
0.0
  0
SPLINE
  5
4F1
100
AcDbEntity
  8
0
100
AcDbSpline
 62
7
  6
CONTINUOUS
 70
0
 71
3
 72
18
 73
14
 74
0
 42
0.0000001
 43
0.0000001
 44
0.0000000001
 40
0.0
 40
0.0
 40
0.0
 40
0.0
 40
0.1692316183
 40
0.3330494184
 40
0.4863976853
 40
0.6248628687
 40
0.7451630955
 40
0.7980090803
 40
0.8459728507
 40
0.8893567781
 40
0.9287689025
 40
0.9651947164
 40
1.0
 40
1.0
 40
1.0
 40
1.0
 10
331.269049002
 20
343.1764519011
 30
0.0
 10
330.9673503235
 20
343.1764519011
 30
0.0
 10
330.3733131007
 20
343.1998630155
 30
0.0
 10
329.5115372463
 20
343.3044068764
 30
0.0
 10
328.7158140594
 20
343.4740496691
 30
0.0
 10
328.0159436608
 20
343.7022276916
 30
0.0
 10
327.5126597502
 20
343.9437151761
 30
0.0
 10
327.1848053078
 20
344.1637507503
 30
0.0
 10
326.9883741533
 20
344.3305950116
 30
0.0
 10
326.832450789
 20
344.5050756068
 30
0.0
 10
326.7188101019
 20
344.6861533111
 30
0.0
 10
326.6493195028
 20
344.8723649556
 30
0.0
 10
326.633549002
 20
344.9998302828
 30
0.0
 10
326.633549002
 20
345.0618796101
 30
0.0
  0
SPLINE
  5
4F2
100
AcDbEntity
  8
0
100
AcDbSpline
 62
7
  6
CONTINUOUS
 70
0
 71
3
 72
21
 73
17
 74
0
 42
0.0000001
 43
0.0000001
 44
0.0000000001
 40
0.0
 40
0.0
 40
0.0
 40
0.0
 40
0.1845241337
 40
0.3582865712
 40
0.4381269444
 40
0.5118894804
 40
0.5788216605
 40
0.6384838843
 40
0.6908749161
 40
0.7366234768
 40
0.7772422164
 40
0.8152811992
 40
0.8539908508
 40
0.8964247941
 40
0.944718722
 40
1.0
 40
1.0
 40
1.0
 40
1.0
 10
331.269049002
 20
344.0705006335
 30
0.0
 10
330.9287952718
 20
344.0705006335
 30
0.0
 10
330.2676444086
 20
344.105505537
 30
0.0
 10
329.4684444392
 20
344.2380515271
 30
0.0
 10
328.8858915505
 20
344.3981295498
 30
0.0
 10
328.5029821124
 20
344.536523531
 30
0.0
 10
328.1681488986
 20
344.6941849726
 30
0.0
 10
327.8868947214
 20
344.868610371
 30
0.0
 10
327.6637023542
 20
345.057392676
 30
0.0
 10
327.5023812743
 20
345.2586525925
 30
0.0
 10
327.4074119055
 20
345.4709645895
 30
0.0
 10
327.3849273914
 20
345.6902970593
 30
0.0
 10
327.4372772245
 20
345.9076577355
 30
0.0
 10
327.5596265178
 20
346.1157431326
 30
0.0
 10
327.7462487083
 20
346.3121424094
 30
0.0
 10
327.9003187448
 20
346.4264144305
 30
0.0
 10
327.9857944442
 20
346.4819559717
 30
0.0
  0
SPLINE
  5
4F3
100
AcDbEntity
  8
0
100
AcDbSpline
 62
7
  6
CONTINUOUS
 70
0
 71
3
 72
18
 73
14
 74
0
 42
0.0000001
 43
0.0000001
 44
0.0000000001
 40
0.0
 40
0.0
 40
0.0
 40
0.0
 40
0.0348052836
 40
0.0712310975
 40
0.1106432219
 40
0.1540271493
 40
0.2019909197
 40
0.2548369045
 40
0.3751371313
 40
0.5136023147
 40
0.6669505816
 40
0.8307683817
 40
1.0
 40
1.0
 40
1.0
 40
1.0
 10
335.904549002
 20
345.0618796101
 30
0.0
 10
335.904549002
 20
344.9998302828
 30
0.0
 10
335.8887785012
 20
344.8723649556
 30
0.0
 10
335.8192879021
 20
344.6861533111
 30
0.0
 10
335.705647215
 20
344.5050756068
 30
0.0
 10
335.5497238507
 20
344.3305950116
 30
0.0
 10
335.3532926962
 20
344.1637507503
 30
0.0
 10
335.0254382538
 20
343.9437151761
 30
0.0
 10
334.5221543432
 20
343.7022276916
 30
0.0
 10
333.8222839446
 20
343.4740496691
 30
0.0
 10
333.0265607577
 20
343.3044068764
 30
0.0
 10
332.1647849033
 20
343.1998630155
 30
0.0
 10
331.5707476805
 20
343.1764519011
 30
0.0
 10
331.269049002
 20
343.1764519011
 30
0.0
  0
SPLINE
  5
4F4
100
AcDbEntity
  8
0
100
AcDbSpline
 62
7
  6
CONTINUOUS
 70
0
 71
3
 72
12
 73
8
 74
0
 42
0.0000001
 43
0.0000001
 44
0.0000000001
 40
0.0
 40
0.0
 40
0.0
 40
0.0
 40
0.2804034623
 40
0.5479182962
 40
0.7908201942
 40
0.9000805321
 40
1.0
 40
1.0
 40
1.0
 40
1.0
 10
305.780149002
 20
336.859044695
 30
0.0
 10
306.1417790905
 20
336.859044695
 30
0.0
 10
306.8489644468
 20
336.8923362191
 30
0.0
 10
307.8596346265
 20
337.0404994043
 30
0.0
 10
308.6348821392
 20
337.2449549299
 30
0.0
 10
309.1789414569
 20
337.4559960833
 30
0.0
 10
309.4215325598
 20
337.575159955
 30
0.0
 10
309.5339015258
 20
337.6382402394
 30
0.0
  0
SPLINE
  5
4F5
100
AcDbEntity
  8
0
100
AcDbSpline
 62
7
  6
CONTINUOUS
 70
0
 71
3
 72
12
 73
8
 74
0
 42
0.0000001
 43
0.0000001
 44
0.0000000001
 40
0.0
 40
0.0
 40
0.0
 40
0.0
 40
0.3059637397
 40
0.5685644601
 40
0.794705547
 40
0.8987967801
 40
1.0
 40
1.0
 40
1.0
 40
1.0
 10
309.5801081467
 20
337.6646549286
 30
0.0
 10
309.7057016207
 20
337.7377766685
 30
0.0
 10
309.9310104059
 20
337.8890849452
 30
0.0
 10
310.2025722071
 20
338.1549960661
 30
0.0
 10
310.3496913648
 20
338.4006799319
 30
0.0
 10
310.4063331617
 20
338.5986564299
 30
0.0
 10
310.4156446629
 20
338.6964021339
 30
0.0
 10
310.4156452593
 20
338.7444724043
 30
0.0
  0
SPLINE
  5
4F6
100
AcDbEntity
  8
0
100
AcDbSpline
 62
7
  6
CONTINUOUS
 70
0
 71
3
 72
13
 73
9
 74
0
 42
0.0000001
 43
0.0000001
 44
0.0000000001
 40
0.0
 40
0.0
 40
0.0
 40
0.0
 40
0.2850531984
 40
0.555085424
 40
0.6802306034
 40
0.7967977111
 40
0.9036452328
 40
1.0
 40
1.0
 40
1.0
 40
1.0
 10
305.780149002
 20
345.9817561193
 30
0.0
 10
306.1036185716
 20
345.9817561193
 30
0.0
 10
306.7339370515
 20
345.9499961556
 30
0.0
 10
307.4983200574
 20
345.8298155638
 30
0.0
 10
308.0610472134
 20
345.684797987
 30
0.0
 10
308.4363705479
 20
345.5586683119
 30
0.0
 10
308.7698580189
 20
345.4145103413
 30
0.0
 10
308.9717190611
 20
345.3017985392
 30
0.0
 10
309.0634035372
 20
345.2422226778
 30
0.0
  0
SPLINE
  5
4F7
100
AcDbEntity
  8
0
100
AcDbSpline
 62
7
  6
CONTINUOUS
 70
0
 71
3
 72
11
 73
7
 74
0
 42
0.0000001
 43
0.0000001
 44
0.0000000001
 40
0.0
 40
0.0
 40
0.0
 40
0.0
 40
0.3009562365
 40
0.5620552631
 40
0.7905173829
 40
1.0
 40
1.0
 40
1.0
 40
1.0
 10
309.7092878931
 20
344.8225581467
 30
0.0
 10
309.8163624766
 20
344.7529851157
 30
0.0
 10
310.0084385158
 20
344.609718449
 30
0.0
 10
310.2377917995
 20
344.3616175025
 30
0.0
 10
310.3818617691
 20
344.0980317178
 30
0.0
 10
310.415649002
 20
343.9110275434
 30
0.0
 10
310.415649002
 20
343.822146322
 30
0.0
  0
SPLINE
  5
4F8
100
AcDbEntity
  8
0
100
AcDbSpline
 62
7
  6
CONTINUOUS
 70
0
 71
3
 72
13
 73
9
 74
0
 42
0.0000001
 43
0.0000001
 44
0.0000000001
 40
0.0
 40
0.0
 40
0.0
 40
0.0
 40
0.0963534321
 40
0.203199525
 40
0.3197653743
 40
0.4449097189
 40
0.7149421769
 40
1.0
 40
1.0
 40
1.0
 40
1.0
 10
302.4968944442
 20
345.2422226836
 30
0.0
 10
302.5885776036
 20
345.3017977911
 30
0.0
 10
302.7904357785
 20
345.4145082624
 30
0.0
 10
303.1239187847
 20
345.5586650424
 30
0.0
 10
303.4992381251
 20
345.6847940359
 30
0.0
 10
304.0619628487
 20
345.829812563
 30
0.0
 10
304.8263501668
 20
345.9499953719
 30
0.0
 10
305.4566741833
 20
345.9817561193
 30
0.0
 10
305.780149002
 20
345.9817561193
 30
0.0
  0
SPLINE
  5
4F9
100
AcDbEntity
  8
0
100
AcDbSpline
 62
7
  6
CONTINUOUS
 70
0
 71
3
 72
11
 73
7
 74
0
 42
0.0000001
 43
0.0000001
 44
0.0000000001
 40
0.0
 40
0.0
 40
0.0
 40
0.0
 40
0.2094826171
 40
0.4379447369
 40
0.6990437635
 40
1.0
 40
1.0
 40
1.0
 40
1.0
 10
301.144649002
 20
343.822146322
 30
0.0
 10
301.144649002
 20
343.9110275434
 30
0.0
 10
301.1784362349
 20
344.0980317178
 30
0.0
 10
301.3225062046
 20
344.3616175025
 30
0.0
 10
301.5518594882
 20
344.609718449
 30
0.0
 10
301.7439355274
 20
344.7529851157
 30
0.0
 10
301.8510101109
 20
344.8225581467
 30
0.0
  0
SPLINE
  5
4FA
100
AcDbEntity
  8
0
100
AcDbSpline
 62
7
  6
CONTINUOUS
 70
0
 71
3
 72
18
 73
14
 74
0
 42
0.0000001
 43
0.0000001
 44
0.0000000001
 40
0.0
 40
0.0
 40
0.0
 40
0.0
 40
0.0348052574
 40
0.0712309699
 40
0.1106429956
 40
0.1540266789
 40
0.2019902129
 40
0.2548359941
 40
0.3751360569
 40
0.5136012916
 40
0.6669476487
 40
0.8307662795
 40
1.0
 40
1.0
 40
1.0
 40
1.0
 10
301.1446527447
 20
338.7444724038
 30
0.0
 10
301.1446519748
 20
338.6824231625
 30
0.0
 10
301.1604238238
 20
338.5549582381
 30
0.0
 10
301.229912598
 20
338.368746638
 30
0.0
 10
301.3435536927
 20
338.1876701493
 30
0.0
 10
301.4994752704
 20
338.0131897017
 30
0.0
 10
301.6959052236
 20
337.8463460553
 30
0.0
 10
302.0237582236
 20
337.6263107758
 30
0.0
 10
302.5270408503
 20
337.3848227541
 30
0.0
 10
303.2269069753
 20
337.156644646
 30
0.0
 10
304.0226277654
 20
336.9870020167
 30
0.0
 10
304.884404659
 20
336.8824561647
 30
0.0
 10
305.4784467673
 20
336.859044695
 30
0.0
 10
305.780149002
 20
336.859044695
 30
0.0
  0
SPLINE
  5
4FB
100
AcDbEntity
  8
0
100
AcDbSpline
 62
7
  6
CONTINUOUS
 70
0
 71
3
 72
21
 73
17
 74
0
 42
0.0000001
 43
0.0000001
 44
0.0000000001
 40
0.0
 40
0.0
 40
0.0
 40
0.0
 40
0.0552821329
 40
0.1035765653
 40
0.1460107764
 40
0.1847205517
 40
0.2227596044
 40
0.2633783895
 40
0.3091267584
 40
0.3615172634
 40
0.4211787123
 40
0.4881099661
 40
0.5618715452
 40
0.6417111725
 40
0.8154733107
 40
1.0
 40
1.0
 40
1.0
 40
1.0
 10
309.0634035372
 20
345.2422226778
 30
0.0
 10
309.1488806028
 20
345.1866803437
 30
0.0
 10
309.302952339
 20
345.0724062815
 30
0.0
 10
309.4895755131
 20
344.87600374
 30
0.0
 10
309.611924106
 20
344.6679159321
 30
0.0
 10
309.6642718782
 20
344.4505537863
 30
0.0
 10
309.6417840983
 20
344.2312210734
 30
0.0
 10
309.5468110383
 20
344.0189109645
 30
0.0
 10
309.385489322
 20
343.8176534111
 30
0.0
 10
309.1622985343
 20
343.6288735509
 30
0.0
 10
308.8810476094
 20
343.454450752
 30
0.0
 10
308.5462187724
 20
343.2967915691
 30
0.0
 10
308.1633140628
 20
343.1583988236
 30
0.0
 10
307.5807650414
 20
342.9983206502
 30
0.0
 10
306.7815624967
 20
342.8657730149
 30
0.0
 10
306.1204074482
 20
342.8307673454
 30
0.0
 10
305.780149002
 20
342.8307673454
 30
0.0
  0
SPLINE
  5
4FC
100
AcDbEntity
  8
0
100
AcDbSpline
 62
7
  6
CONTINUOUS
 70
0
 71
3
 72
18
 73
14
 74
0
 42
0.0000001
 43
0.0000001
 44
0.0000000001
 40
0.0
 40
0.0
 40
0.0
 40
0.0
 40
0.1692316183
 40
0.3330494184
 40
0.4863976853
 40
0.6248628687
 40
0.7451630955
 40
0.7980090803
 40
0.8459728507
 40
0.8893567781
 40
0.9287689025
 40
0.9651947164
 40
1.0
 40
1.0
 40
1.0
 40
1.0
 10
305.780149002
 20
341.936718613
 30
0.0
 10
305.4784503235
 20
341.936718613
 30
0.0
 10
304.8844131007
 20
341.9601297274
 30
0.0
 10
304.0226372463
 20
342.0646735883
 30
0.0
 10
303.2269140594
 20
342.234316381
 30
0.0
 10
302.5270436608
 20
342.4624944035
 30
0.0
 10
302.0237597502
 20
342.703981888
 30
0.0
 10
301.6959053078
 20
342.9240174622
 30
0.0
 10
301.4994741533
 20
343.0908617235
 30
0.0
 10
301.343550789
 20
343.2653423188
 30
0.0
 10
301.2299101019
 20
343.446420023
 30
0.0
 10
301.1604195028
 20
343.6326316675
 30
0.0
 10
301.144649002
 20
343.7600969947
 30
0.0
 10
301.144649002
 20
343.822146322
 30
0.0
  0
SPLINE
  5
4FD
100
AcDbEntity
  8
0
100
AcDbSpline
 62
7
  6
CONTINUOUS
 70
0
 71
3
 72
21
 73
17
 74
0
 42
0.0000001
 43
0.0000001
 44
0.0000000001
 40
0.0
 40
0.0
 40
0.0
 40
0.0
 40
0.1845241337
 40
0.3582865712
 40
0.4381269444
 40
0.5118894804
 40
0.5788216605
 40
0.6384838843
 40
0.6908749161
 40
0.7366234768
 40
0.7772422164
 40
0.8152811992
 40
0.8539908508
 40
0.8964247941
 40
0.944718722
 40
1.0
 40
1.0
 40
1.0
 40
1.0
 10
305.780149002
 20
342.8307673454
 30
0.0
 10
305.4398952718
 20
342.8307673454
 30
0.0
 10
304.7787444086
 20
342.8657722489
 30
0.0
 10
303.9795444392
 20
342.998318239
 30
0.0
 10
303.3969915505
 20
343.1583962618
 30
0.0
 10
303.0140821124
 20
343.2967902429
 30
0.0
 10
302.6792488986
 20
343.4544516845
 30
0.0
 10
302.3979947214
 20
343.6288770829
 30
0.0
 10
302.1748023542
 20
343.8176593879
 30
0.0
 10
302.0134812743
 20
344.0189193044
 30
0.0
 10
301.9185119055
 20
344.2312313014
 30
0.0
 10
301.8960273914
 20
344.4505637712
 30
0.0
 10
301.9483772245
 20
344.6679244474
 30
0.0
 10
302.0707265178
 20
344.8760098445
 30
0.0
 10
302.2573487083
 20
345.0724091213
 30
0.0
 10
302.4114187448
 20
345.1866811424
 30
0.0
 10
302.4968944442
 20
345.2422226836
 30
0.0
  0
SPLINE
  5
4FE
100
AcDbEntity
  8
0
100
AcDbSpline
 62
7
  6
CONTINUOUS
 70
0
 71
3
 72
18
 73
14
 74
0
 42
0.0000001
 43
0.0000001
 44
0.0000000001
 40
0.0
 40
0.0
 40
0.0
 40
0.0
 40
0.0348052836
 40
0.0712310975
 40
0.1106432219
 40
0.1540271493
 40
0.2019909197
 40
0.2548369045
 40
0.3751371313
 40
0.5136023147
 40
0.6669505816
 40
0.8307683817
 40
1.0
 40
1.0
 40
1.0
 40
1.0
 10
310.415649002
 20
343.822146322
 30
0.0
 10
310.415649002
 20
343.7600969947
 30
0.0
 10
310.3998785012
 20
343.6326316675
 30
0.0
 10
310.3303879021
 20
343.446420023
 30
0.0
 10
310.216747215
 20
343.2653423188
 30
0.0
 10
310.0608238507
 20
343.0908617235
 30
0.0
 10
309.8643926962
 20
342.9240174622
 30
0.0
 10
309.5365382538
 20
342.703981888
 30
0.0
 10
309.0332543432
 20
342.4624944035
 30
0.0
 10
308.3333839446
 20
342.234316381
 30
0.0
 10
307.5376607577
 20
342.0646735883
 30
0.0
 10
306.6758849033
 20
341.9601297274
 30
0.0
 10
306.0818476805
 20
341.936718613
 30
0.0
 10
305.780149002
 20
341.936718613
 30
0.0
  0
SPLINE
  5
4FF
100
AcDbEntity
  8
0
100
AcDbSpline
 62
7
  6
CONTINUOUS
 70
0
 71
3
 72
11
 73
7
 74
0
 42
0.0000001
 43
0.0000001
 44
0.0000000001
 40
0.0
 40
0.0
 40
0.0
 40
0.0
 40
0.2715662106
 40
0.5341514045
 40
0.7793807306
 40
1.0
 40
1.0
 40
1.0
 40
1.0
 10
210.530149002
 20
336.859044695
 30
0.0
 10
210.8369182505
 20
336.859044695
 30
0.0
 10
211.4406012937
 20
336.8832277353
 30
0.0
 10
212.3154651539
 20
336.9912122829
 30
0.0
 10
213.1206915691
 20
337.1662133895
 30
0.0
 10
213.6214721823
 20
337.3331322738
 30
0.0
 10
213.8514296773
 20
337.4292009887
 30
0.0
  0
SPLINE
  5
500
100
AcDbEntity
  8
0
100
AcDbSpline
 62
7
  6
CONTINUOUS
 70
0
 71
3
 72
14
 73
10
 74
0
 42
0.0000001
 43
0.0000001
 44
0.0000000001
 40
0.0
 40
0.0
 40
0.0
 40
0.0
 40
0.3197157288
 40
0.460271729
 40
0.5879888548
 40
0.7037064024
 40
0.809054151
 40
0.9066304232
 40
1.0
 40
1.0
 40
1.0
 40
1.0
 10
213.8514296773
 20
337.4292009887
 30
0.0
 10
214.0441059764
 20
337.5096948402
 30
0.0
 10
214.3155228629
 20
337.6430408606
 30
0.0
 10
214.6327517839
 20
337.860517419
 30
0.0
 10
214.8227998903
 20
338.0251623589
 30
0.0
 10
214.9735545622
 20
338.1970809908
 30
0.0
 10
215.0833525297
 20
338.3752751954
 30
0.0
 10
215.150435522
 20
338.5583235541
 30
0.0
 10
215.1656445027
 20
338.6834904067
 30
0.0
 10
215.1656452593
 20
338.7444724043
 30
0.0
  0
SPLINE
  5
501
100
AcDbEntity
  8
0
100
AcDbSpline
 62
7
  6
CONTINUOUS
 70
0
 71
3
 72
13
 73
9
 74
0
 42
0.0000001
 43
0.0000001
 44
0.0000000001
 40
0.0
 40
0.0
 40
0.0
 40
0.0
 40
0.2850531984
 40
0.555085424
 40
0.6802306034
 40
0.7967977111
 40
0.9036452328
 40
1.0
 40
1.0
 40
1.0
 40
1.0
 10
210.530149002
 20
345.9817561193
 30
0.0
 10
210.8536185716
 20
345.9817561193
 30
0.0
 10
211.4839370515
 20
345.9499961556
 30
0.0
 10
212.2483200574
 20
345.8298155638
 30
0.0
 10
212.8110472134
 20
345.684797987
 30
0.0
 10
213.1863705479
 20
345.5586683119
 30
0.0
 10
213.5198580189
 20
345.4145103413
 30
0.0
 10
213.7217190611
 20
345.3017985392
 30
0.0
 10
213.8134035372
 20
345.2422226778
 30
0.0
  0
SPLINE
  5
502
100
AcDbEntity
  8
0
100
AcDbSpline
 62
7
  6
CONTINUOUS
 70
0
 71
3
 72
11
 73
7
 74
0
 42
0.0000001
 43
0.0000001
 44
0.0000000001
 40
0.0
 40
0.0
 40
0.0
 40
0.0
 40
0.3009562365
 40
0.5620552631
 40
0.7905173829
 40
1.0
 40
1.0
 40
1.0
 40
1.0
 10
214.4592878931
 20
344.8225581467
 30
0.0
 10
214.5663624766
 20
344.7529851157
 30
0.0
 10
214.7584385158
 20
344.609718449
 30
0.0
 10
214.9877917995
 20
344.3616175025
 30
0.0
 10
215.1318617691
 20
344.0980317178
 30
0.0
 10
215.165649002
 20
343.9110275434
 30
0.0
 10
215.165649002
 20
343.822146322
 30
0.0
  0
SPLINE
  5
503
100
AcDbEntity
  8
0
100
AcDbSpline
 62
7
  6
CONTINUOUS
 70
0
 71
3
 72
13
 73
9
 74
0
 42
0.0000001
 43
0.0000001
 44
0.0000000001
 40
0.0
 40
0.0
 40
0.0
 40
0.0
 40
0.0963534321
 40
0.203199525
 40
0.3197653743
 40
0.4449097189
 40
0.7149421769
 40
1.0
 40
1.0
 40
1.0
 40
1.0
 10
207.2468944442
 20
345.2422226836
 30
0.0
 10
207.3385776036
 20
345.3017977911
 30
0.0
 10
207.5404357785
 20
345.4145082624
 30
0.0
 10
207.8739187847
 20
345.5586650424
 30
0.0
 10
208.2492381251
 20
345.6847940359
 30
0.0
 10
208.8119628487
 20
345.829812563
 30
0.0
 10
209.5763501668
 20
345.9499953719
 30
0.0
 10
210.2066741833
 20
345.9817561193
 30
0.0
 10
210.530149002
 20
345.9817561193
 30
0.0
  0
SPLINE
  5
504
100
AcDbEntity
  8
0
100
AcDbSpline
 62
7
  6
CONTINUOUS
 70
0
 71
3
 72
11
 73
7
 74
0
 42
0.0000001
 43
0.0000001
 44
0.0000000001
 40
0.0
 40
0.0
 40
0.0
 40
0.0
 40
0.2094826171
 40
0.4379447369
 40
0.6990437635
 40
1.0
 40
1.0
 40
1.0
 40
1.0
 10
205.894649002
 20
343.822146322
 30
0.0
 10
205.894649002
 20
343.9110275434
 30
0.0
 10
205.9284362349
 20
344.0980317178
 30
0.0
 10
206.0725062046
 20
344.3616175025
 30
0.0
 10
206.3018594882
 20
344.609718449
 30
0.0
 10
206.4939355274
 20
344.7529851157
 30
0.0
 10
206.6010101109
 20
344.8225581467
 30
0.0
  0
SPLINE
  5
505
100
AcDbEntity
  8
0
100
AcDbSpline
 62
7
  6
CONTINUOUS
 70
0
 71
3
 72
18
 73
14
 74
0
 42
0.0000001
 43
0.0000001
 44
0.0000000001
 40
0.0
 40
0.0
 40
0.0
 40
0.0
 40
0.0348052574
 40
0.0712309699
 40
0.1106429956
 40
0.1540266789
 40
0.2019902129
 40
0.2548359941
 40
0.3751360569
 40
0.5136012916
 40
0.6669476487
 40
0.8307662795
 40
1.0
 40
1.0
 40
1.0
 40
1.0
 10
205.8946527447
 20
338.7444724038
 30
0.0
 10
205.8946519748
 20
338.6824231625
 30
0.0
 10
205.9104238238
 20
338.5549582381
 30
0.0
 10
205.979912598
 20
338.368746638
 30
0.0
 10
206.0935536927
 20
338.1876701493
 30
0.0
 10
206.2494752704
 20
338.0131897017
 30
0.0
 10
206.4459052236
 20
337.8463460553
 30
0.0
 10
206.7737582236
 20
337.6263107758
 30
0.0
 10
207.2770408503
 20
337.3848227541
 30
0.0
 10
207.9769069753
 20
337.156644646
 30
0.0
 10
208.7726277654
 20
336.9870020167
 30
0.0
 10
209.634404659
 20
336.8824561647
 30
0.0
 10
210.2284467673
 20
336.859044695
 30
0.0
 10
210.530149002
 20
336.859044695
 30
0.0
  0
SPLINE
  5
506
100
AcDbEntity
  8
0
100
AcDbSpline
 62
7
  6
CONTINUOUS
 70
0
 71
3
 72
21
 73
17
 74
0
 42
0.0000001
 43
0.0000001
 44
0.0000000001
 40
0.0
 40
0.0
 40
0.0
 40
0.0
 40
0.0552821329
 40
0.1035765653
 40
0.1460107764
 40
0.1847205517
 40
0.2227596044
 40
0.2633783895
 40
0.3091267584
 40
0.3615172634
 40
0.4211787123
 40
0.4881099661
 40
0.5618715452
 40
0.6417111725
 40
0.8154733107
 40
1.0
 40
1.0
 40
1.0
 40
1.0
 10
213.8134035372
 20
345.2422226778
 30
0.0
 10
213.8988806028
 20
345.1866803437
 30
0.0
 10
214.052952339
 20
345.0724062815
 30
0.0
 10
214.2395755131
 20
344.87600374
 30
0.0
 10
214.361924106
 20
344.6679159321
 30
0.0
 10
214.4142718782
 20
344.4505537863
 30
0.0
 10
214.3917840983
 20
344.2312210734
 30
0.0
 10
214.2968110383
 20
344.0189109645
 30
0.0
 10
214.135489322
 20
343.8176534111
 30
0.0
 10
213.9122985343
 20
343.6288735509
 30
0.0
 10
213.6310476094
 20
343.454450752
 30
0.0
 10
213.2962187724
 20
343.2967915691
 30
0.0
 10
212.9133140628
 20
343.1583988236
 30
0.0
 10
212.3307650414
 20
342.9983206502
 30
0.0
 10
211.5315624967
 20
342.8657730149
 30
0.0
 10
210.8704074482
 20
342.8307673454
 30
0.0
 10
210.530149002
 20
342.8307673454
 30
0.0
  0
SPLINE
  5
507
100
AcDbEntity
  8
0
100
AcDbSpline
 62
7
  6
CONTINUOUS
 70
0
 71
3
 72
18
 73
14
 74
0
 42
0.0000001
 43
0.0000001
 44
0.0000000001
 40
0.0
 40
0.0
 40
0.0
 40
0.0
 40
0.1692316183
 40
0.3330494184
 40
0.4863976853
 40
0.6248628687
 40
0.7451630955
 40
0.7980090803
 40
0.8459728507
 40
0.8893567781
 40
0.9287689025
 40
0.9651947164
 40
1.0
 40
1.0
 40
1.0
 40
1.0
 10
210.530149002
 20
341.936718613
 30
0.0
 10
210.2284503235
 20
341.936718613
 30
0.0
 10
209.6344131007
 20
341.9601297274
 30
0.0
 10
208.7726372463
 20
342.0646735883
 30
0.0
 10
207.9769140594
 20
342.234316381
 30
0.0
 10
207.2770436608
 20
342.4624944035
 30
0.0
 10
206.7737597502
 20
342.703981888
 30
0.0
 10
206.4459053078
 20
342.9240174622
 30
0.0
 10
206.2494741533
 20
343.0908617235
 30
0.0
 10
206.093550789
 20
343.2653423188
 30
0.0
 10
205.9799101019
 20
343.446420023
 30
0.0
 10
205.9104195028
 20
343.6326316675
 30
0.0
 10
205.894649002
 20
343.7600969947
 30
0.0
 10
205.894649002
 20
343.822146322
 30
0.0
  0
SPLINE
  5
508
100
AcDbEntity
  8
0
100
AcDbSpline
 62
7
  6
CONTINUOUS
 70
0
 71
3
 72
21
 73
17
 74
0
 42
0.0000001
 43
0.0000001
 44
0.0000000001
 40
0.0
 40
0.0
 40
0.0
 40
0.0
 40
0.1845241337
 40
0.3582865712
 40
0.4381269444
 40
0.5118894804
 40
0.5788216605
 40
0.6384838843
 40
0.6908749161
 40
0.7366234768
 40
0.7772422164
 40
0.8152811992
 40
0.8539908508
 40
0.8964247941
 40
0.944718722
 40
1.0
 40
1.0
 40
1.0
 40
1.0
 10
210.530149002
 20
342.8307673454
 30
0.0
 10
210.1898952718
 20
342.8307673454
 30
0.0
 10
209.5287444086
 20
342.8657722489
 30
0.0
 10
208.7295444392
 20
342.998318239
 30
0.0
 10
208.1469915505
 20
343.1583962618
 30
0.0
 10
207.7640821124
 20
343.2967902429
 30
0.0
 10
207.4292488986
 20
343.4544516845
 30
0.0
 10
207.1479947214
 20
343.6288770829
 30
0.0
 10
206.9248023542
 20
343.8176593879
 30
0.0
 10
206.7634812743
 20
344.0189193044
 30
0.0
 10
206.6685119055
 20
344.2312313014
 30
0.0
 10
206.6460273914
 20
344.4505637712
 30
0.0
 10
206.6983772245
 20
344.6679244474
 30
0.0
 10
206.8207265178
 20
344.8760098445
 30
0.0
 10
207.0073487083
 20
345.0724091213
 30
0.0
 10
207.1614187448
 20
345.1866811424
 30
0.0
 10
207.2468944442
 20
345.2422226836
 30
0.0
  0
SPLINE
  5
509
100
AcDbEntity
  8
0
100
AcDbSpline
 62
7
  6
CONTINUOUS
 70
0
 71
3
 72
18
 73
14
 74
0
 42
0.0000001
 43
0.0000001
 44
0.0000000001
 40
0.0
 40
0.0
 40
0.0
 40
0.0
 40
0.0348052836
 40
0.0712310975
 40
0.1106432219
 40
0.1540271493
 40
0.2019909197
 40
0.2548369045
 40
0.3751371313
 40
0.5136023147
 40
0.6669505816
 40
0.8307683817
 40
1.0
 40
1.0
 40
1.0
 40
1.0
 10
215.165649002
 20
343.822146322
 30
0.0
 10
215.165649002
 20
343.7600969947
 30
0.0
 10
215.1498785012
 20
343.6326316675
 30
0.0
 10
215.0803879021
 20
343.446420023
 30
0.0
 10
214.966747215
 20
343.2653423188
 30
0.0
 10
214.8108238507
 20
343.0908617235
 30
0.0
 10
214.6143926962
 20
342.9240174622
 30
0.0
 10
214.2865382538
 20
342.703981888
 30
0.0
 10
213.7832543432
 20
342.4624944035
 30
0.0
 10
213.0833839446
 20
342.234316381
 30
0.0
 10
212.2876607577
 20
342.0646735883
 30
0.0
 10
211.4258849033
 20
341.9601297274
 30
0.0
 10
210.8318476805
 20
341.936718613
 30
0.0
 10
210.530149002
 20
341.936718613
 30
0.0
  0
SPLINE
  5
50A
100
AcDbEntity
  8
0
100
AcDbSpline
 62
7
  6
CONTINUOUS
 70
0
 71
3
 72
9
 73
5
 74
0
 42
0.0000001
 43
0.0000001
 44
0.0000000001
 40
0.0
 40
0.0
 40
0.0
 40
0.0
 40
0.4997284748
 40
1.0
 40
1.0
 40
1.0
 40
1.0
 10
152.1152532791
 20
340.2092885989
 30
0.0
 10
152.1152532791
 20
340.9355884841
 30
0.0
 10
152.3202551471
 20
342.3962269489
 30
0.0
 10
152.9226139076
 20
343.7424454653
 30
0.0
 10
153.3084732537
 20
344.3587012526
 30
0.0
  0
SPLINE
  5
50B
100
AcDbEntity
  8
0
100
AcDbSpline
 62
7
  6
CONTINUOUS
 70
0
 71
3
 72
15
 73
11
 74
0
 42
0.0000001
 43
0.0000001
 44
0.0000000001
 40
0.0
 40
0.0
 40
0.0
 40
0.0
 40
0.125458954
 40
0.2508425395
 40
0.3761029092
 40
0.5011937377
 40
0.6261033614
 40
0.7508447124
 40
0.8754572499
 40
1.0
 40
1.0
 40
1.0
 40
1.0
 10
160.034949002
 20
332.3483562879
 30
0.0
 10
159.5174635035
 20
332.3483562879
 30
0.0
 10
158.4799729025
 20
332.4496240831
 30
0.0
 10
156.9855208576
 20
332.8996453909
 30
0.0
 10
155.6074854939
 20
333.6304474706
 30
0.0
 10
154.399593641
 20
334.6141540141
 30
0.0
 10
153.4080915185
 20
335.8129341521
 30
0.0
 10
152.671236642
 20
337.1810065131
 30
0.0
 10
152.2174245683
 20
338.6649938627
 30
0.0
 10
152.1152532791
 20
339.6955822025
 30
0.0
 10
152.1152532791
 20
340.2092885989
 30
0.0
  0
SPLINE
  5
50C
100
AcDbEntity
  8
0
100
AcDbSpline
 62
7
  6
CONTINUOUS
 70
0
 71
3
 72
9
 73
5
 74
0
 42
0.0000001
 43
0.0000001
 44
0.0000000001
 40
0.0
 40
0.0
 40
0.0
 40
0.0
 40
0.499774063
 40
1.0
 40
1.0
 40
1.0
 40
1.0
 10
163.6673114729
 20
333.2239582254
 30
0.0
 10
163.1094152656
 20
332.9381652078
 30
0.0
 10
161.9210492774
 20
332.4972781541
 30
0.0
 10
160.662353721
 20
332.3483562879
 30
0.0
 10
160.034949002
 20
332.3483562879
 30
0.0
  0
LINE
  5
50D
100
AcDbEntity
  8
0
100
AcDbLine
 62
7
  6
CONTINUOUS
 10
146.3967809432
 20
336.6570753744
 11
146.8248107207
 21
335.9079380596
  0
LINE
  5
50E
100
AcDbEntity
  8
0
100
AcDbLine
 62
7
  6
CONTINUOUS
 10
146.3967809432
 20
337.6963965249
 11
146.5331792848
 21
337.9352692663
  0
LINE
  5
50F
100
AcDbEntity
  8
0
100
AcDbLine
 62
7
  6
CONTINUOUS
 10
146.6126092375
 20
337.332209587
 11
146.3967809432
 21
337.6963965249
  0
SPLINE
  5
510
100
AcDbEntity
  8
0
100
AcDbSpline
 62
7
  6
CONTINUOUS
 70
0
 71
3
 72
9
 73
5
 74
0
 42
0.0000001
 43
0.0000001
 44
0.0000000001
 40
0.0
 40
0.0
 40
0.0
 40
0.0
 40
0.2488932245
 40
1.0
 40
1.0
 40
1.0
 40
1.0
 10
160.034949002
 20
324.9334344032
 30
0.0
 10
160.3326975685
 20
325.0984616486
 30
0.0
 10
161.5284479303
 20
325.7624789925
 30
0.0
 10
162.7217672325
 20
326.4308807947
 30
0.0
 10
163.6163065428
 20
326.9360518745
 30
0.0
  0
SPLINE
  5
511
100
AcDbEntity
  8
0
100
AcDbSpline
 62
7
  6
CONTINUOUS
 70
0
 71
3
 72
9
 73
5
 74
0
 42
0.0000001
 43
0.0000001
 44
0.0000000001
 40
0.0
 40
0.0
 40
0.0
 40
0.0
 40
0.2515664468
 40
1.0
 40
1.0
 40
1.0
 40
1.0
 10
154.1294490004
 20
328.2581250953
 30
0.0
 10
154.6225205259
 20
327.9755632456
 30
0.0
 10
156.584824217
 20
326.8563633416
 30
0.0
 10
158.5561625582
 20
325.7530522984
 30
0.0
 10
160.034949002
 20
324.9334344032
 30
0.0
  0
SPLINE
  5
512
100
AcDbEntity
  8
0
100
AcDbSpline
 62
7
  6
CONTINUOUS
 70
0
 71
3
 72
9
 73
5
 74
0
 42
0.0000001
 43
0.0000001
 44
0.0000000001
 40
0.0
 40
0.0
 40
0.0
 40
0.0
 40
0.2497627358
 40
1.0
 40
1.0
 40
1.0
 40
1.0
 10
148.223949002
 20
331.7019007099
 30
0.0
 10
148.7137376518
 20
331.412005138
 30
0.0
 10
150.6762359823
 20
330.253833156
 30
0.0
 10
152.6461345611
 20
329.1081601309
 30
0.0
 10
154.1294490004
 20
328.2581250953
 30
0.0
  0
SPLINE
  5
513
100
AcDbEntity
  8
0
100
AcDbSpline
 62
7
  6
CONTINUOUS
 70
0
 71
3
 72
15
 73
11
 74
0
 42
0.0000001
 43
0.0000001
 44
0.0000000001
 40
0.0
 40
0.0
 40
0.0
 40
0.0
 40
0.1244617037
 40
0.2490352759
 40
0.3738119052
 40
0.4988223079
 40
0.6240385083
 40
0.7493813263
 40
0.8747401525
 40
1.0
 40
1.0
 40
1.0
 40
1.0
 10
152.0983320586
 20
339.4251409258
 30
0.0
 10
152.1083292483
 20
338.7607734031
 30
0.0
 10
152.2996393154
 20
337.4277990082
 30
0.0
 10
153.0818897584
 20
335.5693371241
 30
0.0
 10
154.3089810364
 20
333.9642744811
 30
0.0
 10
155.9021532295
 20
332.7168489653
 30
0.0
 10
157.7592096893
 20
331.9060653153
 30
0.0
 10
159.7618216142
 20
331.5837601446
 30
0.0
 10
161.7807099345
 20
331.7696089281
 30
0.0
 10
163.0560415129
 20
332.2266334049
 30
0.0
 10
163.6521938454
 20
332.5295640411
 30
0.0
  0
SPLINE
  5
514
100
AcDbEntity
  8
0
100
AcDbSpline
 62
7
  6
CONTINUOUS
 70
0
 71
3
 72
9
 73
5
 74
0
 42
0.0000001
 43
0.0000001
 44
0.0000000001
 40
0.0
 40
0.0
 40
0.0
 40
0.0
 40
0.2499230884
 40
1.0
 40
1.0
 40
1.0
 40
1.0
 10
166.2834287385
 20
349.5251638329
 30
0.0
 10
166.6436015763
 20
349.3183068596
 30
0.0
 10
168.0835046471
 20
348.4884799536
 30
0.0
 10
169.518551229
 20
347.6502399704
 30
0.0
 10
170.5928092123
 20
347.0178850655
 30
0.0
  0
SPLINE
  5
515
100
AcDbEntity
  8
0
100
AcDbSpline
 62
7
  6
CONTINUOUS
 70
0
 71
3
 72
9
 73
5
 74
0
 42
0.0000001
 43
0.0000001
 44
0.0000000001
 40
0.0
 40
0.0
 40
0.0
 40
0.0
 40
0.2497564729
 40
1.0
 40
1.0
 40
1.0
 40
1.0
 10
148.223949002
 20
346.2781544738
 30
0.0
 10
148.7068513098
 20
346.5639741651
 30
0.0
 10
150.6417861849
 20
347.7059243981
 30
0.0
 10
152.5838914361
 20
348.835763861
 30
0.0
 10
154.0462058513
 20
349.674213599
 30
0.0
  0
SPLINE
  5
516
100
AcDbEntity
  8
0
100
AcDbSpline
 62
7
  6
CONTINUOUS
 70
0
 71
3
 72
9
 73
5
 74
0
 42
0.0000001
 43
0.0000001
 44
0.0000000001
 40
0.0
 40
0.0
 40
0.0
 40
0.0
 40
0.2515664468
 40
1.0
 40
1.0
 40
1.0
 40
1.0
 10
154.1294490004
 20
329.41653117
 30
0.0
 10
153.6363774753
 20
329.6990930195
 30
0.0
 10
151.6740737849
 20
330.8182929224
 30
0.0
 10
149.7027354451
 20
331.9216039656
 30
0.0
 10
148.223949002
 20
332.7412218603
 30
0.0
  0
SPLINE
  5
517
100
AcDbEntity
  8
0
100
AcDbSpline
 62
7
  6
CONTINUOUS
 70
0
 71
3
 72
11
 73
7
 74
0
 42
0.0000001
 43
0.0000001
 44
0.0000000001
 40
0.0
 40
0.0
 40
0.0
 40
0.0
 40
0.2503035811
 40
0.5003597403
 40
0.7502237749
 40
1.0
 40
1.0
 40
1.0
 40
1.0
 10
153.4249243309
 20
344.5819715116
 30
0.0
 10
153.1508092116
 20
344.2258720087
 30
0.0
 10
152.6601335303
 20
343.4677526923
 30
0.0
 10
152.120325829
 20
342.227368685
 30
0.0
 10
151.7903956496
 20
340.9164291914
 30
0.0
 10
151.716449002
 20
340.0176678098
 30
0.0
 10
151.716449002
 20
339.5692306292
 30
0.0
  0
SPLINE
  5
518
100
AcDbEntity
  8
0
100
AcDbSpline
 62
7
  6
CONTINUOUS
 70
0
 71
3
 72
15
 73
11
 74
0
 42
0.0000001
 43
0.0000001
 44
0.0000000001
 40
0.0
 40
0.0
 40
0.0
 40
0.0
 40
0.1244602972
 40
0.2490295228
 40
0.3737973897
 40
0.4987978883
 40
0.6240069823
 40
0.7493503613
 40
0.874719727
 40
1.0
 40
1.0
 40
1.0
 40
1.0
 10
151.716449002
 20
339.5692306292
 30
0.0
 10
151.716449002
 20
338.8760521796
 30
0.0
 10
151.8943634654
 20
337.482664236
 30
0.0
 10
152.6778202508
 20
335.5306897111
 30
0.0
 10
153.9278110315
 20
333.833937367
 30
0.0
 10
155.5648135761
 20
332.5016564567
 30
0.0
 10
157.4847064726
 20
331.617479074
 30
0.0
 10
159.566253879
 20
331.2374277813
 30
0.0
 10
161.6762322929
 20
331.3846835231
 30
0.0
 10
163.0175007929
 20
331.8303269722
 30
0.0
 10
163.6469166281
 20
332.1314651259
 30
0.0
  0
SPLINE
  5
519
100
AcDbEntity
  8
0
100
AcDbSpline
 62
7
  6
CONTINUOUS
 70
0
 71
3
 72
9
 73
5
 74
0
 42
0.0000001
 43
0.0000001
 44
0.0000000001
 40
0.0
 40
0.0
 40
0.0
 40
0.0
 40
0.2502169671
 40
1.0
 40
1.0
 40
1.0
 40
1.0
 10
163.6163062304
 20
328.074836545
 30
0.0
 10
163.3168774955
 20
327.9007481975
 30
0.0
 10
162.120998829
 20
327.2036266064
 30
0.0
 10
160.9281032075
 20
326.5013946908
 30
0.0
 10
160.034949002
 20
325.9727555536
 30
0.0
  0
SPLINE
  5
51A
100
AcDbEntity
  8
0
100
AcDbSpline
 62
7
  6
CONTINUOUS
 70
0
 71
3
 72
9
 73
5
 74
0
 42
0.0000001
 43
0.0000001
 44
0.0000000001
 40
0.0
 40
0.0
 40
0.0
 40
0.0
 40
0.2497627356
 40
1.0
 40
1.0
 40
1.0
 40
1.0
 10
160.034949002
 20
325.9727555536
 30
0.0
 10
159.5451603524
 20
326.2626511255
 30
0.0
 10
157.5826620334
 20
327.4208231293
 30
0.0
 10
155.6127634411
 20
328.5664961337
 30
0.0
 10
154.1294490004
 20
329.41653117
 30
0.0
  0
SPLINE
  5
51B
100
AcDbEntity
  8
0
100
AcDbSpline
 62
7
  6
CONTINUOUS
 70
0
 71
3
 72
13
 73
9
 74
0
 42
0.0000001
 43
0.0000001
 44
0.0000000001
 40
0.0
 40
0.0
 40
0.0
 40
0.0
 40
0.1255073757
 40
0.2508971382
 40
0.5007768731
 40
0.750238158
 40
0.8751349094
 40
1.0
 40
1.0
 40
1.0
 40
1.0
 10
154.1294490041
 20
329.4165311679
 30
0.0
 10
153.6836538963
 20
329.672000575
 30
0.0
 10
152.824653737
 20
330.2416835613
 30
0.0
 10
151.2745871576
 20
331.5904255868
 30
0.0
 10
149.6895965997
 20
333.6376016437
 30
0.0
 10
148.6938861693
 20
336.0256016734
 30
0.0
 10
148.2916131402
 20
338.0341421698
 30
0.0
 10
148.223949002
 20
339.0580527863
 30
0.0
 10
148.223949002
 20
339.5692306292
 30
0.0
  0
SPLINE
  5
51C
100
AcDbEntity
  8
0
100
AcDbSpline
 62
7
  6
CONTINUOUS
 70
0
 71
3
 72
13
 73
9
 74
0
 42
0.0000001
 43
0.0000001
 44
0.0000000001
 40
0.0
 40
0.0
 40
0.0
 40
0.0
 40
0.1248654524
 40
0.2497625578
 40
0.4992292467
 40
0.7491095826
 40
0.8744924084
 40
1.0
 40
1.0
 40
1.0
 40
1.0
 10
148.223949002
 20
339.5692306292
 30
0.0
 10
148.223949002
 20
340.0764505141
 30
0.0
 10
148.2905656402
 20
341.092411566
 30
0.0
 10
148.6866626772
 20
343.0859565252
 30
0.0
 10
149.667244589
 20
345.4580408481
 30
0.0
 10
151.2292919564
 20
347.4969610387
 30
0.0
 10
152.7584146566
 20
348.845317922
 30
0.0
 10
153.6063907702
 20
349.4169766501
 30
0.0
 10
154.0466653974
 20
349.674043155
 30
0.0
  0
SPLINE
  5
51D
100
AcDbEntity
  8
0
100
AcDbSpline
 62
7
  6
CONTINUOUS
 70
0
 71
3
 72
9
 73
5
 74
0
 42
0.0000001
 43
0.0000001
 44
0.0000000001
 40
0.0
 40
0.0
 40
0.0
 40
0.0
 40
0.5003812934
 40
1.0
 40
1.0
 40
1.0
 40
1.0
 10
166.3091647519
 20
349.5016316183
 30
0.0
 10
166.953059833
 20
349.100871293
 30
0.0
 10
168.1655628556
 20
348.1737851174
 30
0.0
 10
169.1768212759
 20
347.0304216667
 30
0.0
 10
169.6213368665
 20
346.4173444389
 30
0.0
  0
SPLINE
  5
51E
100
AcDbEntity
  8
0
100
AcDbSpline
 62
7
  6
CONTINUOUS
 70
0
 71
3
 72
11
 73
7
 74
0
 42
0.0000001
 43
0.0000001
 44
0.0000000001
 40
0.0
 40
0.0
 40
0.0
 40
0.0
 40
0.2500367803
 40
0.5001534463
 40
0.7501856802
 40
1.0
 40
1.0
 40
1.0
 40
1.0
 10
163.6348215918
 20
328.4037051139
 30
0.0
 10
162.8547790706
 20
328.1559308236
 30
0.0
 10
161.2381054984
 20
327.8212143998
 30
0.0
 10
158.7655832027
 20
327.8283959033
 30
0.0
 10
156.3477372438
 20
328.3421196903
 30
0.0
 10
154.8389287659
 20
329.0099534129
 30
0.0
 10
154.1294490041
 20
329.4165311679
 30
0.0
  0
SPLINE
  5
51F
100
AcDbEntity
  8
0
100
AcDbSpline
 62
7
  6
CONTINUOUS
 70
0
 71
3
 72
9
 73
5
 74
0
 42
0.0000001
 43
0.0000001
 44
0.0000000001
 40
0.0
 40
0.0
 40
0.0
 40
0.0
 40
0.4997970116
 40
1.0
 40
1.0
 40
1.0
 40
1.0
 10
146.5983675409
 20
337.7559389901
 30
0.0
 10
146.5983678054
 20
336.6987216294
 30
0.0
 10
146.8536888467
 20
334.5757135612
 30
0.0
 10
147.6079890401
 20
332.574969349
 30
0.0
 10
148.0963435982
 20
331.6363347542
 30
0.0
  0
SPLINE
  5
520
100
AcDbEntity
  8
0
100
AcDbSpline
 62
7
  6
CONTINUOUS
 70
0
 71
3
 72
9
 73
5
 74
0
 42
0.0000001
 43
0.0000001
 44
0.0000000001
 40
0.0
 40
0.0
 40
0.0
 40
0.0
 40
0.5002051175
 40
1.0
 40
1.0
 40
1.0
 40
1.0
 10
148.1129445735
 20
331.7466297889
 30
0.0
 10
147.6302042636
 20
332.6683847827
 30
0.0
 10
146.8795129456
 20
334.6317218523
 30
0.0
 10
146.6102699294
 20
336.7164589369
 30
0.0
 10
146.5991282902
 20
337.7560603986
 30
0.0
  0
SPLINE
  5
521
100
AcDbEntity
  8
0
100
AcDbSpline
 62
7
  6
CONTINUOUS
 70
0
 71
3
 72
9
 73
5
 74
0
 42
0.0000001
 43
0.0000001
 44
0.0000000001
 40
0.0
 40
0.0
 40
0.0
 40
0.0
 40
0.4997947852
 40
1.0
 40
1.0
 40
1.0
 40
1.0
 10
146.5983675409
 20
338.4108245514
 30
0.0
 10
146.5983678069
 20
339.4741286254
 30
0.0
 10
146.856664271
 20
341.6094588121
 30
0.0
 10
147.6196008404
 20
343.6203955921
 30
0.0
 10
148.1133873899
 20
344.5630769138
 30
0.0
  0
SPLINE
  5
522
100
AcDbEntity
  8
0
100
AcDbSpline
 62
7
  6
CONTINUOUS
 70
0
 71
3
 72
9
 73
5
 74
0
 42
0.0000001
 43
0.0000001
 44
0.0000000001
 40
0.0
 40
0.0
 40
0.0
 40
0.0
 40
0.4997947852
 40
1.0
 40
1.0
 40
1.0
 40
1.0
 10
146.5983675409
 20
338.2687267458
 30
0.0
 10
146.5983678069
 20
337.2054226718
 30
0.0
 10
146.856664271
 20
335.0700924851
 30
0.0
 10
147.6196008404
 20
333.0591557051
 30
0.0
 10
148.1133873899
 20
332.1164743834
 30
0.0
  0
SPLINE
  5
523
100
AcDbEntity
  8
0
100
AcDbSpline
 62
7
  6
CONTINUOUS
 70
0
 71
3
 72
11
 73
7
 74
0
 42
0.0000001
 43
0.0000001
 44
0.0000000001
 40
0.0
 40
0.0
 40
0.0
 40
0.0
 40
0.2495994056
 40
0.4994757465
 40
0.7496193524
 40
1.0
 40
1.0
 40
1.0
 40
1.0
 10
149.054609773
 20
330.5819082129
 30
0.0
 10
149.4398087618
 20
330.0398038959
 30
0.0
 10
150.2932906078
 20
329.0111344547
 30
0.0
 10
151.7885729904
 20
327.6762959525
 30
0.0
 10
153.4670273679
 20
326.5768749584
 30
0.0
 10
154.6838469049
 20
326.0171883093
 30
0.0
 10
155.3089004044
 20
325.7840868059
 30
0.0
  0
SPLINE
  5
524
100
AcDbEntity
  8
0
100
AcDbSpline
 62
7
  6
CONTINUOUS
 70
0
 71
3
 72
13
 73
9
 74
0
 42
0.0000001
 43
0.0000001
 44
0.0000000001
 40
0.0
 40
0.0
 40
0.0
 40
0.0
 40
0.1253910395
 40
0.2507334964
 40
0.5007418703
 40
0.7503576487
 40
0.8752353416
 40
1.0
 40
1.0
 40
1.0
 40
1.0
 10
159.7474836195
 20
325.0770232826
 30
0.0
 10
159.191161218
 20
325.0888619914
 30
0.0
 10
158.0788264053
 20
325.1813114951
 30
0.0
 10
155.8994206002
 20
325.6373102289
 30
0.0
 10
153.3074226107
 20
326.706209784
 30
0.0
 10
151.0593052739
 20
328.3785519428
 30
0.0
 10
149.5541152769
 20
330.0104793617
 30
0.0
 10
148.907759577
 20
330.9145745446
 30
0.0
 10
148.6144865436
 20
331.3841913156
 30
0.0
  0
SPLINE
  5
525
100
AcDbEntity
  8
0
100
AcDbSpline
 62
7
  6
CONTINUOUS
 70
0
 71
3
 72
9
 73
5
 74
0
 42
0.0000001
 43
0.0000001
 44
0.0000000001
 40
0.0
 40
0.0
 40
0.0
 40
0.0
 40
0.5002051175
 40
1.0
 40
1.0
 40
1.0
 40
1.0
 10
148.1129445735
 20
332.2594175446
 30
0.0
 10
147.6302042636
 20
333.1811725384
 30
0.0
 10
146.8795129456
 20
335.1445096081
 30
0.0
 10
146.6102699294
 20
337.2292466927
 30
0.0
 10
146.5991282902
 20
338.2688481543
 30
0.0
  0
SPLINE
  5
526
100
AcDbEntity
  8
0
100
AcDbSpline
 62
7
  6
CONTINUOUS
 70
0
 71
3
 72
9
 73
5
 74
0
 42
0.0000001
 43
0.0000001
 44
0.0000000001
 40
0.0
 40
0.0
 40
0.0
 40
0.0
 40
0.4994934655
 40
1.0
 40
1.0
 40
1.0
 40
1.0
 10
148.858949002
 20
320.5484676709
 30
0.0
 10
148.858949002
 20
320.3516702929
 30
0.0
 10
148.9380475242
 20
319.9537097885
 30
0.0
 10
149.1653607891
 20
319.6177547169
 30
0.0
 10
149.3053182675
 20
319.4788361359
 30
0.0
  0
SPLINE
  5
527
100
AcDbEntity
  8
0
100
AcDbSpline
 62
7
  6
CONTINUOUS
 70
0
 71
3
 72
9
 73
5
 74
0
 42
0.0000001
 43
0.0000001
 44
0.0000000001
 40
0.0
 40
0.0
 40
0.0
 40
0.0
 40
0.4994983725
 40
1.0
 40
1.0
 40
1.0
 40
1.0
 10
149.3053182675
 20
319.4788361359
 30
0.0
 10
149.4456753243
 20
319.3395209425
 30
0.0
 10
149.7849778484
 20
319.1138770911
 30
0.0
 10
150.1847922801
 20
319.0357802474
 30
0.0
 10
150.3829490019
 20
319.0357802474
 30
0.0
  0
SPLINE
  5
528
100
AcDbEntity
  8
0
100
AcDbSpline
 62
7
  6
CONTINUOUS
 70
0
 71
3
 72
9
 73
5
 74
0
 42
0.0000001
 43
0.0000001
 44
0.0000000001
 40
0.0
 40
0.0
 40
0.0
 40
0.0
 40
0.4994934655
 40
1.0
 40
1.0
 40
1.0
 40
1.0
 10
148.858949002
 20
349.2382045341
 30
0.0
 10
148.858949002
 20
349.4350019122
 30
0.0
 10
148.9380475242
 20
349.8329624165
 30
0.0
 10
149.1653607891
 20
350.1689174881
 30
0.0
 10
149.3053182675
 20
350.3078360691
 30
0.0
  0
SPLINE
  5
529
100
AcDbEntity
  8
0
100
AcDbSpline
 62
7
  6
CONTINUOUS
 70
0
 71
3
 72
9
 73
5
 74
0
 42
0.0000001
 43
0.0000001
 44
0.0000000001
 40
0.0
 40
0.0
 40
0.0
 40
0.0
 40
0.4994983725
 40
1.0
 40
1.0
 40
1.0
 40
1.0
 10
149.3053182675
 20
350.3078360691
 30
0.0
 10
149.4456753243
 20
350.4471512625
 30
0.0
 10
149.7849778485
 20
350.6727951139
 30
0.0
 10
150.1847922802
 20
350.7508919577
 30
0.0
 10
150.382949002
 20
350.7508919577
 30
0.0
  0
SPLINE
  5
52A
100
AcDbEntity
  8
0
100
AcDbSpline
 62
7
  6
CONTINUOUS
 70
0
 71
3
 72
12
 73
8
 74
0
 42
0.0000001
 43
0.0000001
 44
0.0000000001
 40
0.0
 40
0.0
 40
0.0
 40
0.0
 40
0.3499448155
 40
0.6568799823
 40
0.8829731117
 40
0.9563721776
 40
1.0
 40
1.0
 40
1.0
 40
1.0
 10
171.972949002
 20
350.8744552723
 30
0.0
 10
172.1485822193
 20
350.8715655469
 30
0.0
 10
172.4784263877
 20
350.8744389865
 30
0.0
 10
172.9212586623
 20
350.8937616258
 30
0.0
 10
173.2249483424
 20
350.9157377755
 30
0.0
 10
173.39664239
 20
350.9281516681
 30
0.0
 10
173.4553538756
 20
350.9320369779
 30
0.0
 10
173.4772489983
 20
350.9316113989
 30
0.0
  0
SPLINE
  5
52B
100
AcDbEntity
  8
0
100
AcDbSpline
 62
7
  6
CONTINUOUS
 70
0
 71
3
 72
9
 73
5
 74
0
 42
0.0000001
 43
0.0000001
 44
0.0000000001
 40
0.0
 40
0.0
 40
0.0
 40
0.0
 40
0.5005016275
 40
1.0
 40
1.0
 40
1.0
 40
1.0
 10
150.3829490021
 20
319.3601339483
 30
0.0
 10
150.1847922802
 20
319.3601339483
 30
0.0
 10
149.7849778485
 20
319.438230792
 30
0.0
 10
149.4456753243
 20
319.6638746434
 30
0.0
 10
149.3053182675
 20
319.8031898368
 30
0.0
  0
SPLINE
  5
52C
100
AcDbEntity
  8
0
100
AcDbSpline
 62
7
  6
CONTINUOUS
 70
0
 71
3
 72
9
 73
5
 74
0
 42
0.0000001
 43
0.0000001
 44
0.0000000001
 40
0.0
 40
0.0
 40
0.0
 40
0.0
 40
0.5005065345
 40
1.0
 40
1.0
 40
1.0
 40
1.0
 10
149.3053182675
 20
319.8031898368
 30
0.0
 10
149.1653607891
 20
319.9421084178
 30
0.0
 10
148.9380475242
 20
320.2780634894
 30
0.0
 10
148.858949002
 20
320.6760239938
 30
0.0
 10
148.858949002
 20
320.8728213718
 30
0.0
  0
SPLINE
  5
52D
100
AcDbEntity
  8
0
100
AcDbSpline
 62
7
  6
CONTINUOUS
 70
0
 71
3
 72
17
 73
13
 74
0
 42
0.0000001
 43
0.0000001
 44
0.0000000001
 40
0.0
 40
0.0
 40
0.0
 40
0.0
 40
0.0345973896
 40
0.0712558477
 40
0.1111793912
 40
0.1552294515
 40
0.2572985718
 40
0.378657396
 40
0.5175127671
 40
0.670433877
 40
0.8329461929
 40
1.0
 40
1.0
 40
1.0
 40
1.0
 10
223.4587628019
 20
334.179961638
 30
0.0
 10
223.4697491066
 20
334.0294070053
 30
0.0
 10
223.5310685714
 20
333.7211297004
 30
0.0
 10
223.7311551523
 20
333.2755423123
 30
0.0
 10
224.0364417987
 20
332.8434009387
 30
0.0
 10
224.605904108
 20
332.2611608796
 30
0.0
 10
225.5798140006
 20
331.5994508317
 30
0.0
 10
227.0239119823
 20
330.9454886127
 30
0.0
 10
228.7510529263
 20
330.4152740156
 30
0.0
 10
230.6981178515
 20
330.0291724105
 30
0.0
 10
232.7933625098
 20
329.8018399753
 30
0.0
 10
234.232572151
 20
329.7623340288
 30
0.0
 10
234.9614063683
 20
329.7711326146
 30
0.0
  0
SPLINE
  5
52E
100
AcDbEntity
  8
0
100
AcDbSpline
 62
7
  6
CONTINUOUS
 70
0
 71
3
 72
14
 73
10
 74
0
 42
0.0000001
 43
0.0000001
 44
0.0000000001
 40
0.0
 40
0.0
 40
0.0
 40
0.0
 40
0.3340547005
 40
0.4872563013
 40
0.6254175618
 40
0.7454169953
 40
0.8459530351
 40
0.9287030515
 40
1.0
 40
1.0
 40
1.0
 40
1.0
 10
257.0496793936
 20
330.0377852491
 30
0.0
 10
257.462475196
 20
330.0427685761
 30
0.0
 10
258.0660926404
 20
330.0944305918
 30
0.0
 10
258.8212567124
 20
330.2633613492
 30
0.0
 10
259.3040756086
 20
330.4262181189
 30
0.0
 10
259.7031511565
 20
330.6231356477
 30
0.0
 10
260.0059866053
 20
330.8486510411
 30
0.0
 10
260.2038574357
 20
331.1003700741
 30
0.0
 10
260.2536513775
 20
331.2921298965
 30
0.0
 10
260.2537040847
 20
331.3802388806
 30
0.0
  0
SPLINE
  5
52F
100
AcDbEntity
  8
0
100
AcDbSpline
 62
7
  6
CONTINUOUS
 70
0
 71
3
 72
14
 73
10
 74
0
 42
0.0000001
 43
0.0000001
 44
0.0000000001
 40
0.0
 40
0.0
 40
0.0
 40
0.0
 40
0.0708659764
 40
0.1546867429
 40
0.2568418255
 40
0.3783190049
 40
0.5173210622
 40
0.6703560001
 40
1.0
 40
1.0
 40
1.0
 40
1.0
 10
282.5382103841
 20
332.4601623425
 30
0.0
 10
282.5443415616
 20
332.3761416276
 30
0.0
 10
282.6067587673
 20
332.1954680134
 30
0.0
 10
282.8123083144
 20
331.9634566491
 30
0.0
 10
283.1165035411
 20
331.7564599675
 30
0.0
 10
283.5105961572
 20
331.5780027451
 30
0.0
 10
283.9815600734
 20
331.4334442979
 30
0.0
 10
284.7073208546
 20
331.2896228892
 30
0.0
 10
285.2834490475
 20
331.2530240095
 30
0.0
 10
285.6752949931
 20
331.257754427
 30
0.0
  0
SPLINE
  5
530
100
AcDbEntity
  8
0
100
AcDbSpline
 62
7
  6
CONTINUOUS
 70
0
 71
3
 72
15
 73
11
 74
0
 42
0.0000001
 43
0.0000001
 44
0.0000000001
 40
0.0
 40
0.0
 40
0.0
 40
0.0
 40
0.1701237914
 40
0.3342200898
 40
0.4874148568
 40
0.6255319462
 40
0.7454998557
 40
0.8460193153
 40
0.9287202909
 40
1.0
 40
1.0
 40
1.0
 40
1.0
 10
290.2452825156
 20
331.3129239376
 30
0.0
 10
290.6496762381
 20
331.3178058336
 30
0.0
 10
291.4441447756
 20
331.3580995513
 30
0.0
 10
292.5941722963
 20
331.5098542129
 30
0.0
 10
293.6522698043
 20
331.7467307882
 30
0.0
 10
294.5807374151
 20
332.0599654089
 30
0.0
 10
295.3482979667
 20
332.4385692595
 30
0.0
 10
295.9305327226
 20
332.8723861088
 30
0.0
 10
296.311123645
 20
333.3563606568
 30
0.0
 10
296.4068314053
 20
333.7251166636
 30
0.0
 10
296.4068810476
 20
333.8945648389
 30
0.0
  0
SPLINE
  5
531
100
AcDbEntity
  8
0
100
AcDbSpline
 62
7
  6
CONTINUOUS
 70
0
 71
3
 72
15
 73
11
 74
0
 42
0.0000001
 43
0.0000001
 44
0.0000000001
 40
0.0
 40
0.0
 40
0.0
 40
0.0
 40
0.0947146583
 40
0.2163991352
 40
0.3586129895
 40
0.5110006805
 40
0.6616481858
 40
0.7988974028
 40
0.9132336683
 40
1.0
 40
1.0
 40
1.0
 40
1.0
 10
302.313055759
 20
334.3147392975
 30
0.0
 10
302.4891864162
 20
334.1358301889
 30
0.0
 10
302.9873044891
 20
333.8262491976
 30
0.0
 10
303.8897517602
 20
333.5192681108
 30
0.0
 10
304.9812952969
 20
333.330074582
 30
0.0
 10
306.1632335442
 20
333.2792776116
 30
0.0
 10
307.3295246772
 20
333.3707266823
 30
0.0
 10
308.3764873422
 20
333.5971422214
 30
0.0
 10
309.2111160143
 20
333.9327744854
 30
0.0
 10
309.6495086644
 20
334.2648699501
 30
0.0
 10
309.78622262
 20
334.4498153161
 30
0.0
  0
SPLINE
  5
532
100
AcDbEntity
  8
0
100
AcDbSpline
 62
7
  6
CONTINUOUS
 70
0
 71
3
 72
11
 73
7
 74
0
 42
0.0000001
 43
0.0000001
 44
0.0000000001
 40
0.0
 40
0.0
 40
0.0
 40
0.0
 40
0.2399645217
 40
0.48562868
 40
0.7396315491
 40
1.0
 40
1.0
 40
1.0
 40
1.0
 10
282.3765567904
 20
342.8426811008
 30
0.0
 10
282.3637799485
 20
343.016322449
 30
0.0
 10
282.2632394559
 20
343.3662944993
 30
0.0
 10
281.9144295402
 20
343.7915627695
 30
0.0
 10
281.4228799457
 20
344.0666224383
 30
0.0
 10
281.0455367302
 20
344.1262936269
 30
0.0
 10
280.8566352537
 20
344.1240131826
 30
0.0
  0
SPLINE
  5
533
100
AcDbEntity
  8
0
100
AcDbSpline
 62
7
  6
CONTINUOUS
 70
0
 71
3
 72
10
 73
6
 74
0
 42
0.0000001
 43
0.0000001
 44
0.0000000001
 40
0.0
 40
0.0
 40
0.0
 40
0.0
 40
0.170709248
 40
0.4206330046
 40
1.0
 40
1.0
 40
1.0
 40
1.0
 10
282.5156038189
 20
332.7699592398
 30
0.0
 10
282.5031017857
 20
332.9412851834
 30
0.0
 10
282.4853388639
 20
333.3643015461
 30
0.0
 10
282.4570293422
 20
334.3701331593
 30
0.0
 10
282.4477841234
 20
335.2047087951
 30
0.0
 10
282.4477841234
 20
335.7877148479
 30
0.0
  0
SPLINE
  5
534
100
AcDbEntity
  8
0
100
AcDbSpline
 62
7
  6
CONTINUOUS
 70
0
 71
3
 72
11
 73
7
 74
0
 42
0.0000001
 43
0.0000001
 44
0.0000000001
 40
0.0
 40
0.0
 40
0.0
 40
0.0
 40
0.259867179
 40
0.5145776535
 40
0.7607791882
 40
1.0
 40
1.0
 40
1.0
 40
1.0
 10
261.561132381
 20
343.891075249
 30
0.0
 10
261.3631849344
 20
343.8886856005
 30
0.0
 10
260.9683938143
 20
343.8131695136
 30
0.0
 10
260.4639407744
 20
343.5022241046
 30
0.0
 10
260.1202532412
 20
343.0368092649
 30
0.0
 10
260.0378032069
 20
342.6626759954
 30
0.0
 10
260.0378032069
 20
342.4804421347
 30
0.0
  0
SPLINE
  5
535
100
AcDbEntity
  8
0
100
AcDbSpline
 62
7
  6
CONTINUOUS
 70
0
 71
3
 72
14
 73
10
 74
0
 42
0.0000001
 43
0.0000001
 44
0.0000000001
 40
0.0
 40
0.0
 40
0.0
 40
0.0
 40
0.0819366531
 40
0.1707650719
 40
0.2715255481
 40
0.3870681563
 40
0.5183900659
 40
0.6652242686
 40
1.0
 40
1.0
 40
1.0
 40
1.0
 10
296.0381659435
 20
339.0444083459
 30
0.0
 10
296.0382173474
 20
339.2219539072
 30
0.0
 10
296.1025118093
 20
339.5942237741
 30
0.0
 10
296.3783060389
 20
340.1220039608
 30
0.0
 10
296.8193127034
 20
340.621155776
 30
0.0
 10
297.4147323397
 20
341.0875546575
 30
0.0
 10
298.1547966269
 20
341.5162851664
 30
0.0
 10
299.3719214411
 20
342.0524849715
 30
0.0
 10
300.3813073419
 20
342.339357503
 30
0.0
 10
301.0896974418
 20
342.4955884036
 30
0.0
  0
SPLINE
  5
536
100
AcDbEntity
  8
0
100
AcDbSpline
 62
7
  6
CONTINUOUS
 70
0
 71
3
 72
14
 73
10
 74
0
 42
0.0000001
 43
0.0000001
 44
0.0000000001
 40
0.0
 40
0.0
 40
0.0
 40
0.0
 40
0.3314330031
 40
0.4773887248
 40
0.6085931593
 40
0.7248177908
 40
0.826894801
 40
0.9172286821
 40
1.0
 40
1.0
 40
1.0
 40
1.0
 10
310.5049557439
 20
342.4468809325
 30
0.0
 10
311.1681973522
 20
342.2916339753
 30
0.0
 10
312.1137138747
 20
342.0111992175
 30
0.0
 10
313.2564940055
 20
341.4987495716
 30
0.0
 10
313.9568631662
 20
341.0910758257
 30
0.0
 10
314.5268618744
 20
340.6497024566
 30
0.0
 10
314.9579309283
 20
340.1788608002
 30
0.0
 10
315.2411066122
 20
339.6827710918
 30
0.0
 10
315.3255165515
 20
339.330539792
 30
0.0
 10
315.3378971947
 20
339.1608773591
 30
0.0
  0
SPLINE
  5
537
100
AcDbEntity
  8
0
100
AcDbSpline
 62
7
  6
CONTINUOUS
 70
0
 71
3
 72
9
 73
5
 74
0
 42
0.0000001
 43
0.0000001
 44
0.0000000001
 40
0.0
 40
0.0
 40
0.0
 40
0.0
 40
0.4697259485
 40
1.0
 40
1.0
 40
1.0
 40
1.0
 10
260.1266666836
 20
331.3091106325
 30
0.0
 10
260.0945273385
 20
332.1131477886
 30
0.0
 10
260.0547943643
 20
333.8259369668
 30
0.0
 10
260.0378032069
 20
335.5389848001
 30
0.0
 10
260.0378032069
 20
336.4473879324
 30
0.0
  0
SPLINE
  5
538
100
AcDbEntity
  8
0
100
AcDbSpline
 62
7
  6
CONTINUOUS
 70
0
 71
3
 72
11
 73
7
 74
0
 42
0.0000001
 43
0.0000001
 44
0.0000000001
 40
0.0
 40
0.0
 40
0.0
 40
0.0
 40
0.2005762717
 40
0.4266817363
 40
0.6913963
 40
1.0
 40
1.0
 40
1.0
 40
1.0
 10
197.8357392174
 20
334.9945952968
 30
0.0
 10
197.8559198773
 20
334.7180426321
 30
0.0
 10
198.0205314857
 20
334.1352989448
 30
0.0
 10
198.5757778297
 20
333.3423668501
 30
0.0
 10
199.4117952064
 20
332.6083213281
 30
0.0
 10
200.091888335
 20
332.1947312514
 30
0.0
 10
200.4691591276
 20
331.9955304436
 30
0.0
  0
SPLINE
  5
539
100
AcDbEntity
  8
0
100
AcDbSpline
 62
7
  6
CONTINUOUS
 70
0
 71
3
 72
11
 73
7
 74
0
 42
0.0000001
 43
0.0000001
 44
0.0000000001
 40
0.0
 40
0.0
 40
0.0
 40
0.0
 40
0.2157814375
 40
0.4574507608
 40
0.7206931767
 40
1.0
 40
1.0
 40
1.0
 40
1.0
 10
209.199216578
 20
327.3860177797
 30
0.0
 10
210.003245713
 20
326.9614864978
 30
0.0
 10
211.775687355
 20
326.1886825047
 30
0.0
 10
214.6782234521
 20
325.2816721265
 30
0.0
 10
217.9112336599
 20
324.5802931402
 30
0.0
 10
220.1785965071
 20
324.2699372202
 30
0.0
 10
221.3494656617
 20
324.1509681867
 30
0.0
  0
SPLINE
  5
53A
100
AcDbEntity
  8
0
100
AcDbSpline
 62
7
  6
CONTINUOUS
 70
0
 71
3
 72
16
 73
12
 74
0
 42
0.0000001
 43
0.0000001
 44
0.0000000001
 40
0.0
 40
0.0
 40
0.0
 40
0.0
 40
0.1732834541
 40
0.3373244673
 40
0.4884871036
 40
0.623847891
 40
0.7415248075
 40
0.8412406218
 40
0.9252550424
 40
0.9632834753
 40
1.0
 40
1.0
 40
1.0
 40
1.0
 10
300.5546575797
 20
324.0457776668
 30
0.0
 10
301.5959776413
 20
324.1338416582
 30
0.0
 10
303.6179885191
 20
324.3764425409
 30
0.0
 10
306.5103031474
 20
324.9525068348
 30
0.0
 10
309.1221712406
 20
325.717045898
 30
0.0
 10
311.3811563643
 20
326.6478461183
 30
0.0
 10
313.2278211422
 20
327.7218205643
 30
0.0
 10
314.6166818181
 20
328.9140124857
 30
0.0
 10
315.382876591
 20
330.0414835983
 30
0.0
 10
315.6781301224
 20
330.9583371962
 30
0.0
 10
315.7264652481
 20
331.4104258582
 30
0.0
 10
315.7265012154
 20
331.6318557328
 30
0.0
  0
SPLINE
  5
53B
100
AcDbEntity
  8
0
100
AcDbSpline
 62
7
  6
CONTINUOUS
 70
0
 71
3
 72
15
 73
11
 74
0
 42
0.0000001
 43
0.0000001
 44
0.0000000001
 40
0.0
 40
0.0
 40
0.0
 40
0.0
 40
0.0785074312
 40
0.1649871353
 40
0.2649623732
 40
0.3811148615
 40
0.5139988085
 40
0.662762396
 40
0.8255901711
 40
1.0
 40
1.0
 40
1.0
 40
1.0
 10
197.8301719916
 20
337.2362088221
 30
0.0
 10
197.8302361432
 20
337.4959950313
 30
0.0
 10
197.9366322737
 20
338.0456897832
 30
0.0
 10
198.3861524872
 20
338.8125156735
 30
0.0
 10
199.0971359883
 20
339.5284507724
 30
0.0
 10
200.0511334082
 20
340.1877176608
 30
0.0
 10
201.2296397151
 20
340.7812913144
 30
0.0
 10
202.6091616402
 20
341.2980009508
 30
0.0
 10
204.1608900366
 20
341.7269568216
 30
0.0
 10
205.2570403234
 20
341.9420427084
 30
0.0
 10
205.8267305304
 20
342.0344340562
 30
0.0
  0
SPLINE
  5
53C
100
AcDbEntity
  8
0
100
AcDbSpline
 62
7
  6
CONTINUOUS
 70
0
 71
3
 72
14
 73
10
 74
0
 42
0.0000001
 43
0.0000001
 44
0.0000000001
 40
0.0
 40
0.0
 40
0.0
 40
0.0
 40
0.334439766
 40
0.4827602398
 40
0.6158402881
 40
0.7327716349
 40
0.8338824547
 40
0.9213902684
 40
1.0
 40
1.0
 40
1.0
 40
1.0
 10
215.2060904955
 20
342.0388790941
 30
0.0
 10
216.2847770496
 20
341.8651588669
 30
0.0
 10
217.8319246545
 20
341.5194098067
 30
0.0
 10
219.7232859877
 20
340.8261885044
 30
0.0
 10
220.8946110788
 20
340.2524440279
 30
0.0
 10
221.8533150527
 20
339.615040675
 30
0.0
 10
222.58177656
 20
338.9227876648
 30
0.0
 10
223.0631789949
 20
338.1822284266
 30
0.0
 10
223.2058684045
 20
337.6455876211
 30
0.0
 10
223.2245587867
 20
337.389457494
 30
0.0
  0
SPLINE
  5
53D
100
AcDbEntity
  8
0
100
AcDbSpline
 62
7
  6
CONTINUOUS
 70
0
 71
3
 72
11
 73
7
 74
0
 42
0.0000001
 43
0.0000001
 44
0.0000000001
 40
0.0
 40
0.0
 40
0.0
 40
0.0
 40
0.2392210439
 40
0.4854226584
 40
0.7401330692
 40
1.0
 40
1.0
 40
1.0
 40
1.0
 10
260.1056229024
 20
341.5510514428
 30
0.0
 10
260.1056229024
 20
341.7332854802
 30
0.0
 10
260.188073076
 20
342.1074189979
 30
0.0
 10
260.5317609399
 20
342.5728338393
 30
0.0
 10
261.0362139465
 20
342.8837789398
 30
0.0
 10
261.4310048191
 20
342.9592949109
 30
0.0
 10
261.6289520766
 20
342.9616845571
 30
0.0
  0
SPLINE
  5
53E
100
AcDbEntity
  8
0
100
AcDbSpline
 62
7
  6
CONTINUOUS
 70
0
 71
3
 72
11
 73
7
 74
0
 42
0.0000001
 43
0.0000001
 44
0.0000000001
 40
0.0
 40
0.0
 40
0.0
 40
0.0
 40
0.2603686944
 40
0.5143716398
 40
0.7600357415
 40
1.0
 40
1.0
 40
1.0
 40
1.0
 10
280.9244549493
 20
343.1946224907
 30
0.0
 10
281.1133566025
 20
343.1969029372
 30
0.0
 10
281.4907000544
 20
343.1372316385
 30
0.0
 10
281.9822497463
 20
342.8621717025
 30
0.0
 10
282.3310592875
 20
342.4369033801
 30
0.0
 10
282.4315997152
 20
342.0869315778
 30
0.0
 10
282.4443764991
 20
341.9132904166
 30
0.0
  0
SPLINE
  5
53F
100
AcDbEntity
  8
0
100
AcDbSpline
 62
7
  6
CONTINUOUS
 70
0
 71
3
 72
10
 73
6
 74
0
 42
0.0000001
 43
0.0000001
 44
0.0000000001
 40
0.0
 40
0.0
 40
0.0
 40
0.0
 40
0.5793668516
 40
0.8292906625
 40
1.0
 40
1.0
 40
1.0
 40
1.0
 10
260.1056229024
 20
335.5179972406
 30
0.0
 10
260.1056229024
 20
334.9349913325
 30
0.0
 10
260.1148681182
 20
334.1004157867
 30
0.0
 10
260.1431776349
 20
333.0945841735
 30
0.0
 10
260.1609405581
 20
332.6715676659
 30
0.0
 10
260.1734425979
 20
332.5002416325
 30
0.0
  0
SPLINE
  5
540
100
AcDbEntity
  8
0
100
AcDbSpline
 62
7
  6
CONTINUOUS
 70
0
 71
3
 72
17
 73
13
 74
0
 42
0.0000001
 43
0.0000001
 44
0.0000000001
 40
0.0
 40
0.0
 40
0.0
 40
0.0
 40
0.0350501841
 40
0.0716763791
 40
0.1112007191
 40
0.1546079703
 40
0.2550514986
 40
0.3749302909
 40
0.5129447473
 40
0.6660295618
 40
0.8299947614
 40
1.0
 40
1.0
 40
1.0
 40
1.0
 10
315.7265012154
 20
333.7202206489
 30
0.0
 10
315.7264605824
 20
333.4700667735
 30
0.0
 10
315.6642567384
 20
332.9566478749
 30
0.0
 10
315.3896042708
 20
332.2057848552
 30
0.0
 10
314.9401052561
 20
331.4747362608
 30
0.0
 10
314.0745800288
 20
330.4865557977
 30
0.0
 10
312.5494615947
 20
329.3517159528
 30
0.0
 10
310.2486245795
 20
328.2166426902
 30
0.0
 10
307.4625758709
 20
327.276669545
 30
0.0
 10
304.2884911632
 20
326.5661570207
 30
0.0
 10
300.8383269779
 20
326.110801385
 30
0.0
 10
298.4549315242
 20
325.989944581
 30
0.0
 10
297.2416890734
 20
325.9752981533
 30
0.0
  0
SPLINE
  5
541
100
AcDbEntity
  8
0
100
AcDbSpline
 62
7
  6
CONTINUOUS
 70
0
 71
3
 72
12
 73
8
 74
0
 42
0.0000001
 43
0.0000001
 44
0.0000000001
 40
0.0
 40
0.0
 40
0.0
 40
0.0
 40
0.2779925896
 40
0.5447945271
 40
0.7885968748
 40
0.8988461024
 40
1.0
 40
1.0
 40
1.0
 40
1.0
 10
227.3609293492
 20
325.9752981533
 30
0.0
 10
225.6321521463
 20
325.9544281199
 30
0.0
 10
222.239725
 20
326.0737697312
 30
0.0
 10
217.3710700696
 20
326.7235902997
 30
0.0
 10
213.611512985
 20
327.6538087694
 30
0.0
 10
210.9506620194
 20
328.6273288884
 30
0.0
 10
209.755531369
 20
329.1806457887
 30
0.0
 10
209.199216578
 20
329.4743826958
 30
0.0
  0
SPLINE
  5
542
100
AcDbEntity
  8
0
100
AcDbSpline
 62
7
  6
CONTINUOUS
 70
0
 71
3
 72
11
 73
7
 74
0
 42
0.0000001
 43
0.0000001
 44
0.0000000001
 40
0.0
 40
0.0
 40
0.0
 40
0.0
 40
0.3086037
 40
0.5733182637
 40
0.7994237283
 40
1.0
 40
1.0
 40
1.0
 40
1.0
 10
200.4691591276
 20
334.0838953598
 30
0.0
 10
200.091888335
 20
334.2830961676
 30
0.0
 10
199.4117952064
 20
334.6966862443
 30
0.0
 10
198.5757778297
 20
335.4307317663
 30
0.0
 10
198.0205314857
 20
336.223663861
 30
0.0
 10
197.8559198773
 20
336.8064075483
 30
0.0
 10
197.8357392174
 20
337.0829602129
 30
0.0
  0
SPLINE
  5
543
100
AcDbEntity
  8
0
100
AcDbSpline
 62
7
  6
CONTINUOUS
 70
0
 71
3
 72
11
 73
7
 74
0
 42
0.0000001
 43
0.0000001
 44
0.0000000001
 40
0.0
 40
0.0
 40
0.0
 40
0.0
 40
0.3086037
 40
0.5733182637
 40
0.7994237283
 40
1.0
 40
1.0
 40
1.0
 40
1.0
 10
341.3300388764
 20
341.6282556353
 30
0.0
 10
341.707309669
 20
341.4290548274
 30
0.0
 10
342.3874027976
 20
341.0154647508
 30
0.0
 10
343.2234201743
 20
340.2814192288
 30
0.0
 10
343.7786665183
 20
339.488487134
 30
0.0
 10
343.9432781267
 20
338.9057434467
 30
0.0
 10
343.9634587867
 20
338.6291907821
 30
0.0
  0
SPLINE
  5
544
100
AcDbEntity
  8
0
100
AcDbSpline
 62
7
  6
CONTINUOUS
 70
0
 71
3
 72
11
 73
7
 74
0
 42
0.0000001
 43
0.0000001
 44
0.0000000001
 40
0.0
 40
0.0
 40
0.0
 40
0.0
 40
0.2694405861
 40
0.5313294932
 40
0.7773076394
 40
1.0
 40
1.0
 40
1.0
 40
1.0
 10
314.4382686548
 20
349.7368528418
 30
0.0
 10
315.8996513924
 20
349.7544948528
 30
0.0
 10
318.7841947139
 20
349.6737263583
 30
0.0
 10
322.9800540511
 20
349.2111979608
 30
0.0
 10
326.869755602
 20
348.4267408882
 30
0.0
 10
329.3028937776
 20
347.6656835758
 30
0.0
 10
330.4274971815
 20
347.2248477497
 30
0.0
  0
SPLINE
  5
545
100
AcDbEntity
  8
0
100
AcDbSpline
 62
7
  6
CONTINUOUS
 70
0
 71
3
 72
17
 73
13
 74
0
 42
0.0000001
 43
0.0000001
 44
0.0000000001
 40
0.0
 40
0.0
 40
0.0
 40
0.0
 40
0.0410277166
 40
0.0894374927
 40
0.2084299731
 40
0.3515745038
 40
0.5073260621
 40
0.6618829032
 40
0.8016468229
 40
0.8624868913
 40
0.9159709619
 40
1.0
 40
1.0
 40
1.0
 40
1.0
 10
232.3483357098
 20
335.599715303
 30
0.0
 10
232.4139454103
 20
335.5075600585
 30
0.0
 10
232.5883073879
 20
335.3288785988
 30
0.0
 10
233.0669059361
 20
335.0065501602
 30
0.0
 10
233.875196497
 20
334.6969092528
 30
0.0
 10
235.0092760602
 20
334.4764180946
 30
0.0
 10
236.2618680457
 20
334.4093812964
 30
0.0
 10
237.5025850805
 20
334.5036910443
 30
0.0
 10
238.4634316972
 20
334.7153535349
 30
0.0
 10
239.1195241101
 20
334.9683833888
 30
0.0
 10
239.5997375495
 20
335.2258577837
 30
0.0
 10
239.9016983039
 20
335.4850574535
 30
0.0
 10
240.0157518683
 20
335.6867321536
 30
0.0
  0
SPLINE
  5
546
100
AcDbEntity
  8
0
100
AcDbSpline
 62
7
  6
CONTINUOUS
 70
0
 71
3
 72
10
 73
6
 74
0
 42
0.0000001
 43
0.0000001
 44
0.0000000001
 40
0.0
 40
0.0
 40
0.0
 40
0.0
 40
0.2114348077
 40
0.4545480325
 40
1.0
 40
1.0
 40
1.0
 40
1.0
 10
282.2189217246
 20
343.0563566996
 30
0.0
 10
282.3807666688
 20
343.14296164
 30
0.0
 10
282.7476665139
 20
343.2939470116
 30
0.0
 10
283.5885819404
 20
343.5149079568
 30
0.0
 10
284.2760120844
 20
343.5802845946
 30
0.0
 10
284.7495186104
 20
343.5860008298
 30
0.0
  0
SPLINE
  5
547
100
AcDbEntity
  8
0
100
AcDbSpline
 62
7
  6
CONTINUOUS
 70
0
 71
3
 72
18
 73
14
 74
0
 42
0.0000001
 43
0.0000001
 44
0.0000000001
 40
0.0
 40
0.0
 40
0.0
 40
0.0
 40
0.0054475681
 40
0.0188999328
 40
0.040816399
 40
0.0711479033
 40
0.109783442
 40
0.1565745119
 40
0.2735250386
 40
0.4195706162
 40
0.5917968605
 40
0.7868098453
 40
1.0
 40
1.0
 40
1.0
 40
1.0
 10
259.3111889641
 20
342.7447328111
 30
0.0
 10
259.3136569392
 20
342.7447628255
 30
0.0
 10
259.3172816738
 20
342.7555677488
 30
0.0
 10
259.3205819727
 20
342.7713366945
 30
0.0
 10
259.3245119774
 20
342.802182691
 30
0.0
 10
259.3280899643
 20
342.8426352642
 30
0.0
 10
259.3316132369
 20
342.895185414
 30
0.0
 10
259.3363165216
 20
342.9866570133
 30
0.0
 10
259.3412212624
 20
343.1270010329
 30
0.0
 10
259.3457178711
 20
343.3241128369
 30
0.0
 10
259.3490084081
 20
343.5566581411
 30
0.0
 10
259.3509980916
 20
343.8196269227
 30
0.0
 10
259.3514138806
 20
344.0045748247
 30
0.0
 10
259.3514138806
 20
344.1011659795
 30
0.0
  0
SPLINE
  5
548
100
AcDbEntity
  8
0
100
AcDbSpline
 62
7
  6
CONTINUOUS
 70
0
 71
3
 72
11
 73
7
 74
0
 42
0.0000001
 43
0.0000001
 44
0.0000000001
 40
0.0
 40
0.0
 40
0.0
 40
0.0
 40
0.259867179
 40
0.5145776535
 40
0.7607791882
 40
1.0
 40
1.0
 40
1.0
 40
1.0
 10
260.8747430548
 20
351.5448532961
 30
0.0
 10
260.6767956081
 20
351.5424636476
 30
0.0
 10
260.282004488
 20
351.4669475607
 30
0.0
 10
259.7775514481
 20
351.1560021516
 30
0.0
 10
259.4338639149
 20
350.6905873119
 30
0.0
 10
259.3514138806
 20
350.3164540425
 30
0.0
 10
259.3514138806
 20
350.1342201818
 30
0.0
  0
SPLINE
  5
549
100
AcDbEntity
  8
0
100
AcDbSpline
 62
7
  6
CONTINUOUS
 70
0
 71
3
 72
11
 73
7
 74
0
 42
0.0000001
 43
0.0000001
 44
0.0000000001
 40
0.0
 40
0.0
 40
0.0
 40
0.0
 40
0.2399645217
 40
0.48562868
 40
0.7396315491
 40
1.0
 40
1.0
 40
1.0
 40
1.0
 10
281.6901674641
 20
350.4964591478
 30
0.0
 10
281.6773906223
 20
350.670100496
 30
0.0
 10
281.5768501296
 20
351.0200725464
 30
0.0
 10
281.2280402139
 20
351.4453408165
 30
0.0
 10
280.7364906194
 20
351.7204004854
 30
0.0
 10
280.3591474039
 20
351.780071674
 30
0.0
 10
280.1702459274
 20
351.7777912297
 30
0.0
  0
SPLINE
  5
54A
100
AcDbEntity
  8
0
100
AcDbSpline
 62
7
  6
CONTINUOUS
 70
0
 71
3
 72
27
 73
23
 74
0
 42
0.0000001
 43
0.0000001
 44
0.0000000001
 40
0.0
 40
0.0
 40
0.0
 40
0.0
 40
0.0174836211
 40
0.0359949904
 40
0.0561317509
 40
0.0783233112
 40
0.1296862478
 40
0.1907175381
 40
0.2605637773
 40
0.3375462835
 40
0.4194722411
 40
0.5038392726
 40
0.5880028747
 40
0.669330264
 40
0.7453553576
 40
0.8139497491
 40
0.873536875
 40
0.9234266291
 40
0.9449576571
 40
0.9645417569
 40
0.982669968
 40
1.0
 40
1.0
 40
1.0
 40
1.0
 10
318.5746392173
 20
336.2343285849
 30
0.0
 10
318.5870024185
 20
336.0649051749
 30
0.0
 10
318.6555727586
 20
335.718117677
 30
0.0
 10
318.8788817375
 20
335.21647804
 30
0.0
 10
319.2196475325
 20
334.7296993921
 30
0.0
 10
319.855026721
 20
334.0736203984
 30
0.0
 10
320.9423780073
 20
333.3265136975
 30
0.0
 10
322.5563257612
 20
332.5857881672
 30
0.0
 10
324.4884620918
 20
331.982226485
 30
0.0
 10
326.6695339512
 20
331.5384776964
 30
0.0
 10
329.0208439788
 20
331.2711341435
 30
0.0
 10
331.4554934298
 20
331.1906096678
 30
0.0
 10
333.8832117434
 20
331.2999896386
 30
0.0
 10
336.2140311451
 20
331.5950726794
 30
0.0
 10
338.3619430123
 20
332.0643586799
 30
0.0
 10
340.2497961658
 20
332.6904605033
 30
0.0
 10
341.8104259103
 20
333.4499774053
 30
0.0
 10
342.846114746
 20
334.2116391762
 30
0.0
 10
343.4344055872
 20
334.8761855693
 30
0.0
 10
343.7399600242
 20
335.367955624
 30
0.0
 10
343.9266096622
 20
335.8734160952
 30
0.0
 10
343.968983408
 20
336.2191957055
 30
0.0
 10
343.9690256695
 20
336.3875772982
 30
0.0
  0
SPLINE
  5
54B
100
AcDbEntity
  8
0
100
AcDbSpline
 62
7
  6
CONTINUOUS
 70
0
 71
3
 72
13
 73
9
 74
0
 42
0.0000001
 43
0.0000001
 44
0.0000000001
 40
0.0
 40
0.0
 40
0.0
 40
0.0
 40
0.022465032
 40
0.0719382079
 40
0.15141054
 40
0.261366477
 40
0.5719868984
 40
1.0
 40
1.0
 40
1.0
 40
1.0
 10
259.3387839161
 20
340.4588943357
 30
0.0
 10
259.3357769536
 20
340.458857908
 30
0.0
 10
259.3294740142
 20
340.4690969465
 30
0.0
 10
259.3244550095
 20
340.4870448195
 30
0.0
 10
259.3175137275
 20
340.5191711801
 30
0.0
 10
259.3077227555
 20
340.5848953635
 30
0.0
 10
259.295618505
 20
340.6982542
 30
0.0
 10
259.2877639751
 20
340.7966846769
 30
0.0
 10
259.2835941851
 20
340.8538268391
 30
0.0
  0
SPLINE
  5
54C
100
AcDbEntity
  8
0
100
AcDbSpline
 62
7
  6
CONTINUOUS
 70
0
 71
3
 72
13
 73
9
 74
0
 42
0.0000001
 43
0.0000001
 44
0.0000000001
 40
0.0
 40
0.0
 40
0.0
 40
0.0
 40
0.159869579
 40
0.2647804028
 40
0.3869837808
 40
0.5248311491
 40
0.6754710905
 40
1.0
 40
1.0
 40
1.0
 40
1.0
 10
245.4321620743
 20
340.0179901098
 30
0.0
 10
245.5290897214
 20
340.3687219794
 30
0.0
 10
245.9617830547
 20
340.8586507223
 30
0.0
 10
246.7038893939
 20
341.3222636615
 30
0.0
 10
247.4690105834
 20
341.6581550487
 30
0.0
 10
248.3637687108
 20
341.9318837528
 30
0.0
 10
249.7318308734
 20
342.2143922686
 30
0.0
 10
250.8153096752
 20
342.3019455915
 30
0.0
 10
251.5539154884
 20
342.3108621412
 30
0.0
  0
SPLINE
  5
54D
100
AcDbEntity
  8
0
100
AcDbSpline
 62
7
  6
CONTINUOUS
 70
0
 71
3
 72
27
 73
23
 74
0
 42
0.0000001
 43
0.0000001
 44
0.0000000001
 40
0.0
 40
0.0
 40
0.0
 40
0.0
 40
0.0174819105
 40
0.0359941272
 40
0.0561322876
 40
0.0783233657
 40
0.1296861804
 40
0.190717085
 40
0.2605627347
 40
0.3375450349
 40
0.4194706791
 40
0.5038372772
 40
0.5880004947
 40
0.6693277517
 40
0.7453530296
 40
0.813947639
 40
0.8735349976
 40
0.9234255286
 40
0.9449558005
 40
0.964541212
 40
0.9826708123
 40
1.0
 40
1.0
 40
1.0
 40
1.0
 10
226.4613008093
 20
334.4629087198
 30
0.0
 10
226.4706959238
 20
334.3341595137
 30
0.0
 10
226.5228331791
 20
334.0706134443
 30
0.0
 10
226.6925183381
 20
333.6893522086
 30
0.0
 10
226.9515105288
 20
333.3193888594
 30
0.0
 10
227.4343907788
 20
332.8207540095
 30
0.0
 10
228.2607874883
 20
332.2529758473
 30
0.0
 10
229.4873695237
 20
331.6900101689
 30
0.0
 10
230.95578854
 20
331.2313120122
 30
0.0
 10
232.6133931411
 20
330.8940579378
 30
0.0
 10
234.4003820951
 20
330.6908761791
 30
0.0
 10
236.2507072467
 20
330.6296735855
 30
0.0
 10
238.095766424
 20
330.7127982764
 30
0.0
 10
239.8671878699
 20
330.9370555307
 30
0.0
 10
241.4996028346
 20
331.2937102652
 30
0.0
 10
242.9343812874
 20
331.7695388154
 30
0.0
 10
244.1204611523
 20
332.3467804126
 30
0.0
 10
244.9076096072
 20
332.9256227048
 30
0.0
 10
245.3546950651
 20
333.430700622
 30
0.0
 10
245.5869534461
 20
333.8044435434
 30
0.0
 10
245.7287628962
 20
334.1886240934
 30
0.0
 10
245.7609942454
 20
334.4514139582
 30
0.0
 10
245.7610318064
 20
334.5793777452
 30
0.0
  0
SPLINE
  5
54E
100
AcDbEntity
  8
0
100
AcDbSpline
 62
7
  6
CONTINUOUS
 70
0
 71
3
 72
14
 73
10
 74
0
 42
0.0000001
 43
0.0000001
 44
0.0000000001
 40
0.0
 40
0.0
 40
0.0
 40
0.0
 40
0.3296438713
 40
0.4826787956
 40
0.6216808626
 40
0.7431580689
 40
0.8453131841
 40
0.9291339987
 40
1.0
 40
1.0
 40
1.0
 40
1.0
 10
256.1239030109
 20
342.3660316518
 30
0.0
 10
256.5157488021
 20
342.3707620675
 30
0.0
 10
257.0918768218
 20
342.3341632201
 30
0.0
 10
257.8176374543
 20
342.1903418932
 30
0.0
 10
258.2886014131
 20
342.0457834964
 30
0.0
 10
258.6826941249
 20
341.8673263003
 30
0.0
 10
258.9868895108
 20
341.6603296115
 30
0.0
 10
259.1924391303
 20
341.4283181559
 30
0.0
 10
259.2548564403
 20
341.2476444805
 30
0.0
 10
259.2609876199
 20
341.1636237364
 30
0.0
  0
SPLINE
  5
54F
100
AcDbEntity
  8
0
100
AcDbSpline
 62
7
  6
CONTINUOUS
 70
0
 71
3
 72
17
 73
13
 74
0
 42
0.0000001
 43
0.0000001
 44
0.0000000001
 40
0.0
 40
0.0
 40
0.0
 40
0.0
 40
0.0350501841
 40
0.0716763791
 40
0.1112007191
 40
0.1546079703
 40
0.2550514986
 40
0.3749302909
 40
0.5129447473
 40
0.6660295618
 40
0.8299947614
 40
1.0
 40
1.0
 40
1.0
 40
1.0
 10
226.0726967886
 20
341.9919303461
 30
0.0
 10
226.0727374216
 20
342.2420842215
 30
0.0
 10
226.1349412656
 20
342.7555031201
 30
0.0
 10
226.4095937332
 20
343.5063661399
 30
0.0
 10
226.8590927479
 20
344.2374147343
 30
0.0
 10
227.7246179752
 20
345.2255951973
 30
0.0
 10
229.2497364093
 20
346.3604350423
 30
0.0
 10
231.5505734245
 20
347.4955083049
 30
0.0
 10
234.3366221331
 20
348.43548145
 30
0.0
 10
237.5107068408
 20
349.1459939743
 30
0.0
 10
240.9608710262
 20
349.60134961
 30
0.0
 10
243.3442664798
 20
349.722206414
 30
0.0
 10
244.5575089306
 20
349.7368528418
 30
0.0
  0
SPLINE
  5
550
100
AcDbEntity
  8
0
100
AcDbSpline
 62
7
  6
CONTINUOUS
 70
0
 71
3
 72
15
 73
11
 74
0
 42
0.0000001
 43
0.0000001
 44
0.0000000001
 40
0.0
 40
0.0
 40
0.0
 40
0.0
 40
0.1726328185
 40
0.3351173309
 40
0.4845689028
 40
0.618738052
 40
0.7362710409
 40
0.8371482209
 40
0.9234074812
 40
1.0
 40
1.0
 40
1.0
 40
1.0
 10
310.4180415101
 20
343.6583662018
 30
0.0
 10
310.9605818322
 20
343.591325912
 30
0.0
 10
312.0099113968
 20
343.4262648294
 30
0.0
 10
313.5053323479
 20
343.0755228584
 30
0.0
 10
314.8500073941
 20
342.6359204744
 30
0.0
 10
316.0129013458
 20
342.1178057356
 30
0.0
 10
316.968397915
 20
341.5324033536
 30
0.0
 10
317.6964019599
 20
340.8893297549
 30
0.0
 10
318.1795287985
 20
340.1952232574
 30
0.0
 10
318.3227833679
 20
339.6857224665
 30
0.0
 10
318.3404352021
 20
339.4438244409
 30
0.0
  0
SPLINE
  5
551
100
AcDbEntity
  8
0
100
AcDbSpline
 62
7
  6
CONTINUOUS
 70
0
 71
3
 72
15
 73
11
 74
0
 42
0.0000001
 43
0.0000001
 44
0.0000000001
 40
0.0
 40
0.0
 40
0.0
 40
0.0
 40
0.1701237914
 40
0.3342200898
 40
0.4874148568
 40
0.6255319462
 40
0.7454998557
 40
0.8460193153
 40
0.9287202909
 40
1.0
 40
1.0
 40
1.0
 40
1.0
 10
251.5539154884
 20
344.3992270574
 30
0.0
 10
251.1495217659
 20
344.3943451614
 30
0.0
 10
250.3550532284
 20
344.3540514437
 30
0.0
 10
249.2050257077
 20
344.2022967822
 30
0.0
 10
248.1469281997
 20
343.9654202068
 30
0.0
 10
247.2184605889
 20
343.6521855861
 30
0.0
 10
246.4509000373
 20
343.2735817355
 30
0.0
 10
245.8686652814
 20
342.8397648862
 30
0.0
 10
245.488074359
 20
342.3557903382
 30
0.0
 10
245.3923665987
 20
341.9870343314
 30
0.0
 10
245.3923169564
 20
341.8175861561
 30
0.0
  0
SPLINE
  5
552
100
AcDbEntity
  8
0
100
AcDbSpline
 62
7
  6
CONTINUOUS
 70
0
 71
3
 72
17
 73
13
 74
0
 42
0.0000001
 43
0.0000001
 44
0.0000000001
 40
0.0
 40
0.0
 40
0.0
 40
0.0
 40
0.0345973896
 40
0.0712558477
 40
0.1111793912
 40
0.1552294515
 40
0.2572985718
 40
0.378657396
 40
0.5175127671
 40
0.670433877
 40
0.8329461929
 40
1.0
 40
1.0
 40
1.0
 40
1.0
 10
318.3404352021
 20
341.5321893571
 30
0.0
 10
318.3294488974
 20
341.6827439897
 30
0.0
 10
318.2681294326
 20
341.9910212946
 30
0.0
 10
318.0680428517
 20
342.4366086827
 30
0.0
 10
317.7627562053
 20
342.8687500563
 30
0.0
 10
317.193293896
 20
343.4509901154
 30
0.0
 10
316.2193840034
 20
344.1127001633
 30
0.0
 10
314.7752860217
 20
344.7666623823
 30
0.0
 10
313.0481450777
 20
345.2968769795
 30
0.0
 10
311.1010801525
 20
345.6829785845
 30
0.0
 10
309.0058354942
 20
345.9103110197
 30
0.0
 10
307.566625853
 20
345.9498169662
 30
0.0
 10
306.8377916357
 20
345.9410183804
 30
0.0
  0
SPLINE
  5
553
100
AcDbEntity
  8
0
100
AcDbSpline
 62
7
  6
CONTINUOUS
 70
0
 71
3
 72
11
 73
7
 74
0
 42
0.0000001
 43
0.0000001
 44
0.0000000001
 40
0.0
 40
0.0
 40
0.0
 40
0.0
 40
0.3098219428
 40
0.5916752044
 40
0.8249802984
 40
1.0
 40
1.0
 40
1.0
 40
1.0
 10
284.7495186104
 20
345.6743657459
 30
0.0
 10
284.4063897727
 20
345.670223448
 30
0.0
 10
283.7509174601
 20
345.6217390573
 30
0.0
 10
282.8533119307
 20
345.4283099261
 30
0.0
 10
282.1430186347
 20
345.1397994433
 30
0.0
 10
281.7743354808
 20
344.8505796516
 30
0.0
 10
281.6652396505
 20
344.6903437451
 30
0.0
  0
SPLINE
  5
554
100
AcDbEntity
  8
0
100
AcDbSpline
 62
7
  6
CONTINUOUS
 70
0
 71
3
 72
27
 73
23
 74
0
 42
0.0000001
 43
0.0000001
 44
0.0000000001
 40
0.0
 40
0.0
 40
0.0
 40
0.0
 40
0.0173289748
 40
0.03545813
 40
0.0550430433
 40
0.0765729669
 40
0.1264626677
 40
0.1860495868
 40
0.2546445415
 40
0.3306707503
 40
0.4119988709
 40
0.4961623693
 40
0.580528576
 40
0.6624532651
 40
0.7394346189
 40
0.8092799794
 40
0.8703114229
 40
0.9216751063
 40
0.943866627
 40
0.96400532
 40
0.9825179483
 40
1.0
 40
1.0
 40
1.0
 40
1.0
 10
245.7610320605
 20
336.6677426491
 30
0.0
 10
245.7609950122
 20
336.539780437
 30
0.0
 10
245.7287674213
 20
336.2769948672
 30
0.0
 10
245.5869589647
 20
335.8928231623
 30
0.0
 10
245.35471139
 20
335.5190851891
 30
0.0
 10
244.9076364469
 20
335.0140142077
 30
0.0
 10
244.1205049404
 20
334.4351700471
 30
0.0
 10
242.9344337623
 20
333.8579249619
 30
0.0
 10
241.4996518294
 20
333.3820876295
 30
0.0
 10
239.8672220768
 20
333.0254257745
 30
0.0
 10
238.0957857021
 20
332.8011644904
 30
0.0
 10
236.2507210197
 20
332.7180386308
 30
0.0
 10
234.400403781
 20
332.7792399915
 30
0.0
 10
232.6134314937
 20
332.9824177333
 30
0.0
 10
230.9558422242
 20
333.3196649363
 30
0.0
 10
229.487425984
 20
333.7783545604
 30
0.0
 10
228.2608338332
 20
334.3413172278
 30
0.0
 10
227.4344198152
 20
334.9090944467
 30
0.0
 10
226.9515259645
 20
335.4077351337
 30
0.0
 10
226.6925253469
 20
335.7777054046
 30
0.0
 10
226.5228368905
 20
336.1589738099
 30
0.0
 10
226.4706959995
 20
336.4225233931
 30
0.0
 10
226.4613008093
 20
336.551273636
 30
0.0
  0
SPLINE
  5
555
100
AcDbEntity
  8
0
100
AcDbSpline
 62
7
  6
CONTINUOUS
 70
0
 71
3
 72
18
 73
14
 74
0
 42
0.0000001
 43
0.0000001
 44
0.0000000001
 40
0.0
 40
0.0
 40
0.0
 40
0.0
 40
0.213273729
 40
0.4082012609
 40
0.5804023334
 40
0.7264687324
 40
0.8434308421
 40
0.8902022205
 40
0.9288588735
 40
0.9591946139
 40
0.9810887728
 40
0.9945420514
 40
1.0
 40
1.0
 40
1.0
 40
1.0
 10
259.4192335761
 20
343.1717752876
 30
0.0
 10
259.4192335761
 20
342.9785166194
 30
0.0
 10
259.4184058569
 20
342.608621286
 30
0.0
 10
259.4144199426
 20
342.0827066221
 30
0.0
 10
259.4078444117
 20
341.6176956943
 30
0.0
 10
259.3988453245
 20
341.2234647081
 30
0.0
 10
259.3890473273
 20
340.9427631916
 30
0.0
 10
259.3796279142
 20
340.759808999
 30
0.0
 10
259.3725909641
 20
340.6547008932
 30
0.0
 10
259.3654359583
 20
340.5737966183
 30
0.0
 10
259.3575787771
 20
340.5121128084
 30
0.0
 10
259.3509484066
 20
340.4806051186
 30
0.0
 10
259.3437292906
 20
340.4589542462
 30
0.0
 10
259.3387839161
 20
340.4588943357
 30
0.0
  0
SPLINE
  5
556
100
AcDbEntity
  8
0
100
AcDbSpline
 62
7
  6
CONTINUOUS
 70
0
 71
3
 72
27
 73
23
 74
0
 42
0.0000001
 43
0.0000001
 44
0.0000000001
 40
0.0
 40
0.0
 40
0.0
 40
0.0
 40
0.0173298096
 40
0.0354576162
 40
0.0550413514
 40
0.0765721846
 40
0.1264615471
 40
0.1860488048
 40
0.2546439869
 40
0.3306702353
 40
0.4119985522
 40
0.4961624558
 40
0.5805290837
 40
0.6624540279
 40
0.7394353652
 40
0.809280865
 40
0.8703121057
 40
0.9216754776
 40
0.9438672853
 40
0.9640044666
 40
0.9825162293
 40
1.0
 40
1.0
 40
1.0
 40
1.0
 10
343.9690260124
 20
338.4759421729
 30
0.0
 10
343.9689844328
 20
338.3075627411
 30
0.0
 10
343.9266152559
 20
337.9617885062
 30
0.0
 10
343.7399662278
 20
337.4563382021
 30
0.0
 10
343.434423762
 20
336.9645722609
 30
0.0
 10
342.846141784
 20
336.3000298471
 30
0.0
 10
341.8104627178
 20
335.5383629537
 30
0.0
 10
340.2498301952
 20
334.7788386027
 30
0.0
 10
338.3619589338
 20
334.1527271363
 30
0.0
 10
336.2140195789
 20
333.6834352362
 30
0.0
 10
333.8831768712
 20
333.3883514279
 30
0.0
 10
331.4554503582
 20
333.2789745181
 30
0.0
 10
329.0208118888
 20
333.3595018961
 30
0.0
 10
326.6695270778
 20
333.6268442833
 30
0.0
 10
324.4884831212
 20
334.0705868846
 30
0.0
 10
322.556363746
 20
334.6741388903
 30
0.0
 10
320.9424172553
 20
335.414857864
 30
0.0
 10
319.8550552466
 20
336.1619602006
 30
0.0
 10
319.2196654429
 20
336.8180436141
 30
0.0
 10
318.8788892943
 20
337.3048280574
 30
0.0
 10
318.6555778166
 20
337.8064767218
 30
0.0
 10
318.5870025243
 20
338.1532686408
 30
0.0
 10
318.5746392173
 20
338.322693501
 30
0.0
  0
SPLINE
  5
557
100
AcDbEntity
  8
0
100
AcDbSpline
 62
7
  6
CONTINUOUS
 70
0
 71
3
 72
14
 73
10
 74
0
 42
0.0000001
 43
0.0000001
 44
0.0000000001
 40
0.0
 40
0.0
 40
0.0
 40
0.0
 40
0.0708659764
 40
0.1546867429
 40
0.2568418255
 40
0.3783190049
 40
0.5173210622
 40
0.6703560001
 40
1.0
 40
1.0
 40
1.0
 40
1.0
 10
259.2609876199
 20
343.2519886525
 30
0.0
 10
259.2548564424
 20
343.3360093674
 30
0.0
 10
259.1924392367
 20
343.5166829816
 30
0.0
 10
258.9868896896
 20
343.7486943459
 30
0.0
 10
258.6826944629
 20
343.9556910275
 30
0.0
 10
258.2886018468
 20
344.13414825
 30
0.0
 10
257.8176379306
 20
344.2787066972
 30
0.0
 10
257.0918771494
 20
344.4225281058
 30
0.0
 10
256.5157489565
 20
344.4591269855
 30
0.0
 10
256.1239030109
 20
344.454396568
 30
0.0
  0
SPLINE
  5
558
100
AcDbEntity
  8
0
100
AcDbSpline
 62
7
  6
CONTINUOUS
 70
0
 71
3
 72
11
 73
7
 74
0
 42
0.0000001
 43
0.0000001
 44
0.0000000001
 40
0.0
 40
0.0
 40
0.0
 40
0.0
 40
0.2603686944
 40
0.5143716398
 40
0.7600357415
 40
1.0
 40
1.0
 40
1.0
 40
1.0
 10
280.238065623
 20
350.8484005378
 30
0.0
 10
280.4269672762
 20
350.8506809842
 30
0.0
 10
280.8043107281
 20
350.7910096856
 30
0.0
 10
281.29586042
 20
350.5159497495
 30
0.0
 10
281.6446699612
 20
350.0906814272
 30
0.0
 10
281.7452103889
 20
349.7407096249
 30
0.0
 10
281.7579871728
 20
349.5670684637
 30
0.0
  0
SPLINE
  5
559
100
AcDbEntity
  8
0
100
AcDbSpline
 62
7
  6
CONTINUOUS
 70
0
 71
3
 72
11
 73
7
 74
0
 42
0.0000001
 43
0.0000001
 44
0.0000000001
 40
0.0
 40
0.0
 40
0.0
 40
0.0
 40
0.2392210439
 40
0.4854226584
 40
0.7401330692
 40
1.0
 40
1.0
 40
1.0
 40
1.0
 10
259.4192335761
 20
349.2048294899
 30
0.0
 10
259.4192335761
 20
349.3870635272
 30
0.0
 10
259.5016837497
 20
349.761197045
 30
0.0
 10
259.8453716136
 20
350.2266118863
 30
0.0
 10
260.3498246202
 20
350.5375569869
 30
0.0
 10
260.7446154928
 20
350.613072958
 30
0.0
 10
260.9425627503
 20
350.6154626042
 30
0.0
  0
SPLINE
  5
55A
100
AcDbEntity
  8
0
100
AcDbSpline
 62
7
  6
CONTINUOUS
 70
0
 71
3
 72
9
 73
5
 74
0
 42
0.0000001
 43
0.0000001
 44
0.0000000001
 40
0.0
 40
0.0
 40
0.0
 40
0.0
 40
0.4999335575
 40
1.0
 40
1.0
 40
1.0
 40
1.0
 10
54.1169189889
 20
339.9092843092
 30
0.0
 10
54.1169189889
 20
340.8343626875
 30
0.0
 10
53.9130006025
 20
342.6904185879
 30
0.0
 10
53.3084217355
 20
344.4570261014
 30
0.0
 10
52.9151392055
 20
345.2946142189
 30
0.0
  0
SPLINE
  5
55B
100
AcDbEntity
  8
0
100
AcDbSpline
 62
7
  6
CONTINUOUS
 70
0
 71
3
 72
9
 73
5
 74
0
 42
0.0000001
 43
0.0000001
 44
0.0000000001
 40
0.0
 40
0.0
 40
0.0
 40
0.0
 40
0.1976658122
 40
1.0
 40
1.0
 40
1.0
 40
1.0
 10
52.846949002
 20
379.5384926224
 30
0.0
 10
52.7836746507
 20
379.5339457204
 30
0.0
 10
52.4633280917
 20
379.5143064642
 30
0.0
 10
52.1425292333
 20
379.5031587293
 30
0.0
 10
51.885141391
 20
379.4957087888
 30
0.0
  0
SPLINE
  5
55C
100
AcDbEntity
  8
0
100
AcDbSpline
 62
7
  6
CONTINUOUS
 70
0
 71
3
 72
9
 73
5
 74
0
 42
0.0000001
 43
0.0000001
 44
0.0000000001
 40
0.0
 40
0.0
 40
0.0
 40
0.0
 40
0.2992921281
 40
1.0
 40
1.0
 40
1.0
 40
1.0
 10
51.885141391
 20
326.7471131057
 30
0.0
 10
51.9812248743
 20
326.751283667
 30
0.0
 10
52.3021515659
 20
326.7668923316
 30
0.0
 10
52.6230810072
 20
326.7871479222
 30
0.0
 10
52.846949002
 20
326.8112725651
 30
0.0
  0
SPLINE
  5
55D
100
AcDbEntity
  8
0
100
AcDbSpline
 62
7
  6
CONTINUOUS
 70
0
 71
3
 72
9
 73
5
 74
0
 42
0.0000001
 43
0.0000001
 44
0.0000000001
 40
0.0
 40
0.0
 40
0.0
 40
0.0
 40
0.1978999884
 40
1.0
 40
1.0
 40
1.0
 40
1.0
 10
52.846949002
 20
352.1764627479
 30
0.0
 10
52.7837208091
 20
352.1696491005
 30
0.0
 10
52.4636923637
 20
352.1402217254
 30
0.0
 10
52.1426501204
 20
352.1234806096
 30
0.0
 10
51.885141391
 20
352.1123032884
 30
0.0
  0
SPLINE
  5
55E
100
AcDbEntity
  8
0
100
AcDbSpline
 62
7
  6
CONTINUOUS
 70
0
 71
3
 72
13
 73
9
 74
0
 42
0.0000001
 43
0.0000001
 44
0.0000000001
 40
0.0
 40
0.0
 40
0.0
 40
0.0
 40
0.1196591773
 40
0.2402257575
 40
0.3623753542
 40
0.4866060744
 40
0.7403345081
 40
1.0
 40
1.0
 40
1.0
 40
1.0
 10
375.528549002
 20
339.7712420233
 30
0.0
 10
375.528549002
 20
340.3539966952
 30
0.0
 10
375.401565815
 20
341.5277427154
 30
0.0
 10
374.8395319599
 20
343.2139238145
 30
0.0
 10
373.9275733396
 20
344.766063718
 30
0.0
 10
372.2877537641
 20
346.5862639008
 30
0.0
 10
369.5625437668
 20
348.2328009451
 30
0.0
 10
367.0395513667
 20
348.681598999
 30
0.0
 10
365.774949002
 20
348.681598999
 30
0.0
  0
SPLINE
  5
55F
100
AcDbEntity
  8
0
100
AcDbSpline
 62
7
  6
CONTINUOUS
 70
0
 71
3
 72
13
 73
9
 74
0
 42
0.0000001
 43
0.0000001
 44
0.0000000001
 40
0.0
 40
0.0
 40
0.0
 40
0.0
 40
0.1196321182
 40
0.2402353655
 40
0.3623701962
 40
0.4866045876
 40
0.7403223615
 40
1.0
 40
1.0
 40
1.0
 40
1.0
 10
372.124949002
 20
313.943465188
 30
0.0
 10
372.124949002
 20
314.3227758264
 30
0.0
 10
372.0421288202
 20
315.0869347347
 30
0.0
 10
371.6764302041
 20
316.1847550679
 30
0.0
 10
371.082589319
 20
317.1952923635
 30
0.0
 10
370.0151327892
 20
318.3803323922
 30
0.0
 10
368.2408481984
 20
319.4522391944
 30
0.0
 10
366.5982938723
 20
319.7444788441
 30
0.0
 10
365.774949002
 20
319.7444788441
 30
0.0
  0
SPLINE
  5
560
100
AcDbEntity
  8
0
100
AcDbSpline
 62
7
  6
CONTINUOUS
 70
0
 71
3
 72
14
 73
10
 74
0
 42
0.0000001
 43
0.0000001
 44
0.0000000001
 40
0.0
 40
0.0
 40
0.0
 40
0.0
 40
0.0734763185
 40
0.1571100473
 40
0.2569864477
 40
0.3752580119
 40
0.5113917353
 40
0.6632165453
 40
1.0
 40
1.0
 40
1.0
 40
1.0
 10
253.481549002
 20
333.8564550955
 30
0.0
 10
253.481549002
 20
333.6708797591
 30
0.0
 10
253.5754823791
 20
333.2711106531
 30
0.0
 10
253.9573018321
 20
332.7331385966
 30
0.0
 10
254.549141443
 20
332.2436377257
 30
0.0
 10
255.3341374399
 20
331.8068514118
 30
0.0
 10
256.2918948703
 20
331.4321659187
 30
0.0
 10
257.8158632071
 20
331.0156703466
 30
0.0
 10
259.0460968246
 20
330.8515843835
 30
0.0
 10
259.8948927902
 20
330.796268044
 30
0.0
  0
SPLINE
  5
561
100
AcDbEntity
  8
0
100
AcDbSpline
 62
7
  6
CONTINUOUS
 70
0
 71
3
 72
11
 73
7
 74
0
 42
0.0000001
 43
0.0000001
 44
0.0000000001
 40
0.0
 40
0.0
 40
0.0
 40
0.0
 40
0.3280277985
 40
0.6004978152
 40
0.8187002152
 40
1.0
 40
1.0
 40
1.0
 40
1.0
 10
285.5997235506
 20
331.4536964826
 30
0.0
 10
286.0043789731
 20
331.5877997208
 30
0.0
 10
286.7324343548
 20
331.8786774782
 30
0.0
 10
287.6402879167
 20
332.4469244644
 30
0.0
 10
288.2462988198
 20
333.0987720897
 30
0.0
 10
288.406549002
 20
333.6208419151
 30
0.0
 10
288.406549002
 20
333.8564550955
 30
0.0
  0
SPLINE
  5
562
100
AcDbEntity
  8
0
100
AcDbSpline
 62
7
  6
CONTINUOUS
 70
0
 71
3
 72
13
 73
9
 74
0
 42
0.0000001
 43
0.0000001
 44
0.0000000001
 40
0.0
 40
0.0
 40
0.0
 40
0.0
 40
0.2596654919
 40
0.5133939256
 40
0.6376246458
 40
0.7597742425
 40
0.8803408227
 40
1.0
 40
1.0
 40
1.0
 40
1.0
 10
176.036949002
 20
348.681598999
 30
0.0
 10
174.7723466373
 20
348.681598999
 30
0.0
 10
172.2493542372
 20
348.2328009451
 30
0.0
 10
169.5241442399
 20
346.5862639008
 30
0.0
 10
167.8843246645
 20
344.766063718
 30
0.0
 10
166.9723660441
 20
343.2139238145
 30
0.0
 10
166.410332189
 20
341.5277427154
 30
0.0
 10
166.283349002
 20
340.3539966952
 30
0.0
 10
166.283349002
 20
339.7712420233
 30
0.0
  0
SPLINE
  5
563
100
AcDbEntity
  8
0
100
AcDbSpline
 62
7
  6
CONTINUOUS
 70
0
 71
3
 72
13
 73
9
 74
0
 42
0.0000001
 43
0.0000001
 44
0.0000000001
 40
0.0
 40
0.0
 40
0.0
 40
0.0
 40
0.2596775338
 40
0.5133952848
 40
0.6376296853
 40
0.7597645368
 40
0.8803678464
 40
1.0
 40
1.0
 40
1.0
 40
1.0
 10
176.036949002
 20
319.7444788441
 30
0.0
 10
175.2136044637
 20
319.7444788441
 30
0.0
 10
173.5710505569
 20
319.4522394042
 30
0.0
 10
171.7967661294
 20
318.3803330964
 30
0.0
 10
170.7293093353
 20
317.1952932819
 30
0.0
 10
170.1354680963
 20
316.1847558352
 30
0.0
 10
169.7697693784
 20
315.0869351394
 30
0.0
 10
169.686949002
 20
314.3227759387
 30
0.0
 10
169.686949002
 20
313.943465188
 30
0.0
  0
SPLINE
  5
564
100
AcDbEntity
  8
0
100
AcDbSpline
 62
7
  6
CONTINUOUS
 70
0
 71
3
 72
13
 73
9
 74
0
 42
0.0000001
 43
0.0000001
 44
0.0000000001
 40
0.0
 40
0.0
 40
0.0
 40
0.0
 40
0.1196591773
 40
0.2402257575
 40
0.3623753542
 40
0.4866060744
 40
0.7403345081
 40
1.0
 40
1.0
 40
1.0
 40
1.0
 10
166.283349002
 20
313.943465188
 30
0.0
 10
166.283349002
 20
314.5262198599
 30
0.0
 10
166.410332189
 20
315.6999658801
 30
0.0
 10
166.9723660441
 20
317.3861469791
 30
0.0
 10
167.8843246645
 20
318.9382868826
 30
0.0
 10
169.5241442399
 20
320.7584870655
 30
0.0
 10
172.2493542372
 20
322.4050241098
 30
0.0
 10
174.7723466373
 20
322.8538221637
 30
0.0
 10
176.036949002
 20
322.8538221637
 30
0.0
  0
SPLINE
  5
565
100
AcDbEntity
  8
0
100
AcDbSpline
 62
7
  6
CONTINUOUS
 70
0
 71
3
 72
13
 73
9
 74
0
 42
0.0000001
 43
0.0000001
 44
0.0000000001
 40
0.0
 40
0.0
 40
0.0
 40
0.0
 40
0.2596654919
 40
0.5133939256
 40
0.6376246458
 40
0.7597742425
 40
0.8803408227
 40
1.0
 40
1.0
 40
1.0
 40
1.0
 10
365.774949002
 20
322.8538221637
 30
0.0
 10
367.0395513667
 20
322.8538221637
 30
0.0
 10
369.5625437668
 20
322.4050241098
 30
0.0
 10
372.2877537641
 20
320.7584870655
 30
0.0
 10
373.9275733396
 20
318.9382868826
 30
0.0
 10
374.8395319599
 20
317.3861469791
 30
0.0
 10
375.401565815
 20
315.6999658801
 30
0.0
 10
375.528549002
 20
314.5262198599
 30
0.0
 10
375.528549002
 20
313.943465188
 30
0.0
  0
ENDSEC
  0
SECTION
  2
OBJECTS
  0
DICTIONARY
  5
C
100
AcDbDictionary
280
0
281
1
  3
ACAD_GROUP
350
D
  3
ACAD_MLINESTYLE
350
17
  3
ACAD_LAYOUT
350
1A
  3
ACAD_PLOTSETTINGS
350
19
  3
ACAD_PLOTSTYLENAME
350
E
  0
DICTIONARY
  5
D
102
{ACAD_REACTORS
330
C
102
}
100
AcDbDictionary
280
0
281
1
  0
ACDBDICTIONARYWDFLT
  5
E
102
{ACAD_REACTORS
330
C
102
}
100
AcDbDictionary
281
1
  3
Normal
350
F
100
AcDbDictionaryWithDefault
340
F
  0
DICTIONARY
  5
17
102
{ACAD_REACTORS
330
C
102
}
100
AcDbDictionary
280
0
281
1
  3
Standard
350
18
  0
DICTIONARY
  5
19
102
{ACAD_REACTORS
330
C
102
}
100
AcDbDictionary
281
1
  0
DICTIONARY
  5
1A
102
{ACAD_REACTORS
330
C
102
}
100
AcDbDictionary
281
1
  3
Model
350
566
  3
Layout1
350
567
  0
ACDBPLACEHOLDER
  5
F
102
{ACAD_REACTORS
330
E
102
}
  0
MLINESTYLE
  5
18
102
{ACAD_REACTORS
330
17
102
}
100
AcDbMlineStyle
  2
STANDARD
 70
0
  3

 62
256
 51
90.0
 52
90.0
 71
2
 49
0.5
 62
256
  6
BYLAYER
 49
-0.5
 62
256
  6
BYLAYER
  0
LAYOUT
  5
566
102
{ACAD_REACTORS
330
1A
102
}
100
AcDbPlotSettings
  1

  2
none_device
  4

  6

 40
0.0
 41
0.0
 42
0.0
 43
0.0
 44
210.0
 45
297.0
 46
0.0
 47
0.0
 48
0.0
 49
0.0
140
0.0
141
0.0
142
1.0
143
1.0
 70
1024
 72
1
 73
0
 74
0
  7

 75
0
147
1.0
148
0.0
149
0.0
100
AcDbLayout
  1
Model
 70
0
 71
0
 10
0.0
 20
0.0
 11
210.0
 21
297.0
 12
0.0
 22
0.0
 32
0.0
 14
0.0
 24
0.0
 34
0.0
 15
0.0
 25
0.0
 35
0.0
146
0.0
 13
0.0
 23
0.0
 33
0.0
 16
1.0
 26
0.0
 36
0.0
 17
0.0
 27
1.0
 37
0.0
 76
0
330
210
345
0
346
0
  0
LAYOUT
  5
567
102
{ACAD_REACTORS
330
1A
102
}
100
AcDbPlotSettings
  1

  2
none_device
  4

  6

 40
0.0
 41
0.0
 42
0.0
 43
0.0
 44
210.0
 45
297.0
 46
0.0
 47
0.0
 48
0.0
 49
0.0
140
0.0
141
0.0
142
1.0
143
1.0
 70
0
 72
1
 73
0
 74
0
  7

 75
0
147
1.0
148
0.0
149
0.0
100
AcDbLayout
  1
Layout1
 70
0
 71
1
 10
0.0
 20
0.0
 11
210.0
 21
297.0
 12
0.0
 22
0.0
 32
0.0
 14
0.0
 24
0.0
 34
0.0
 15
0.0
 25
0.0
 35
0.0
146
0.0
 13
0.0
 23
0.0
 33
0.0
 16
1.0
 26
0.0
 36
0.0
 17
0.0
 27
1.0
 37
0.0
 76
0
330
211
345
0
346
0
  0
ENDSEC
  0
EOF
