999
DXF file: C:\Users\sesa63760\Dev\_Creo\CAD\MCADPD0004675_3D-CAD\drw0001_5.dxf
999
Pro/ENGINEER 2019471 by Parametric Technology Corporation
  0
SECTION
  2
HEADER
  9
$ACADVER
  1
AC1024
  9
$DWGCODEPAGE
  3
ANSI_1252
  9
$EXTMAX
 10
88.7910587355
 20
125.5759259259
 30
0.0
  9
$EXTMIN
 10
0.0
 20
0.0
 30
0.0
  9
$LIMMIN
 10
0.0
 20
0.0
  9
$LIMMAX
 10
88.7910587355
 20
125.5759259259
  9
$VIEWCTR
 10
44.3955293678
 20
62.787962963
  9
$VIEWSIZE
 40
125.5759259259
  9
$CLAYER
  8
0
  9
$LTSCALE
 40
8.1856899863
  9
$CELTYPE
  6
BYLAYER
  9
$DIMSCALE
 40
1.0
  9
$DIMASZ
 40
1.0570364135
  9
$DIMEXO
 40
1.0
  9
$DIMDLI
 40
5.6555676269
  9
$DIMEXE
 40
1.0
  9
$DIMCEN
 40
1.3394765432
  9
$DIMLFAC
 40
1.0
  9
$DIMBLK
  1
_FILLED
  9
$DIMALT
 70
0
  9
$DIMALTF
 40
0.0393700787
  9
$DIMTXT
 40
1.4798509789
  9
$DIMTOL
 70
1
  9
$DIMLIM
 70
0
  9
$DIMTFAC
 40
1.0
  9
$DIMTP
 40
0.01
  9
$DIMTM
 40
0.01
  9
$DIMGAP
 40
0.625
  9
$DIMDSEP
 70
46
  9
$AUNITS
 70
0
  9
$PDMODE
 70
3
  9
$PDSIZE
 40
0.3125
  9
$HANDSEED
  5
27E
  9
$TILEMODE
 70
1
  9
$MEASUREMENT
 70
1
  9
$INSUNITS
 70
4
  0
ENDSEC
  0
SECTION
  2
CLASSES
  0
CLASS
  1
ACDBDICTIONARYWDFLT
  2
AcDbDictionaryWithDefault
  3
AutoCAD 2000
 90
0
 91
1
280
0
281
0
  0
CLASS
  1
ACDBPLACEHOLDER
  2
AcDbPlaceHolder
  3
AutoCAD 2000
 90
0
 91
1
280
0
281
0
  0
CLASS
  1
LAYOUT
  2
AcDbLayout
  3
AutoCAD 2000
 90
0
 91
0
280
0
281
0
  0
ENDSEC
  0
SECTION
  2
TABLES
  0
TABLE
  2
VPORT
  5
8
100
AcDbSymbolTable
 70
2
  0
VPORT
  5
1F4
100
AcDbSymbolTableRecord
100
AcDbViewportTableRecord
  2
*ACTIVE
 70
0
 10
0.0
 20
0.0
 11
1.0
 21
1.0
 12
44.3955293678
 22
62.787962963
 13
0.0
 23
0.0
 14
1.0
 24
1.0
 15
0.0
 25
0.0
 16
0.0
 26
0.0
 36
1.0
 17
0.0
 27
0.0
 37
0.0
 40
125.5759259259
 41
0.7070707071
 42
50.0
 43
0.0
 44
0.0
 50
0.0
 51
0.0
 71
0
 72
100
 73
1
 74
1
 75
0
 76
0
 77
0
 78
0
  0
ENDTAB
  0
TABLE
  2
LTYPE
  5
5
100
AcDbSymbolTable
 70
6
  0
LTYPE
  5
14
100
AcDbSymbolTableRecord
100
AcDbLinetypeTableRecord
  2
BYBLOCK
 70
0
  3

 72
65
 73
0
 40
0.0
  0
LTYPE
  5
15
100
AcDbSymbolTableRecord
100
AcDbLinetypeTableRecord
  2
BYLAYER
 70
0
  3

 72
65
 73
0
 40
0.0
  0
LTYPE
  5
16
100
AcDbSymbolTableRecord
100
AcDbLinetypeTableRecord
  2
CONTINUOUS
 70
64
  3
Solid line
 72
65
 73
0
 40
0.0
  0
LTYPE
  5
1F5
100
AcDbSymbolTableRecord
100
AcDbLinetypeTableRecord
  2
CENTER
 70
64
  3
____ _ ____ _ ____ _ ____ _ ____ _ ____ _ ____
 72
65
 73
4
 40
0.6
 49
0.375
 74
0
 49
-0.075
 74
0
 49
0.075
 74
0
 49
-0.075
 74
0
  0
LTYPE
  5
1F6
100
AcDbSymbolTableRecord
100
AcDbLinetypeTableRecord
  2
HIDDEN
 70
64
  3
- - - - - - - - - - - - - - - - - - - -
 72
65
 73
2
 40
0.2
 49
0.1
 74
0
 49
-0.1
 74
0
  0
LTYPE
  5
1F7
100
AcDbSymbolTableRecord
100
AcDbLinetypeTableRecord
  2
PHANTOM
 70
64
  3
_____ _ _ _____ _ _ _____ _ _ _____
 72
65
 73
6
 40
0.8
 49
0.45
 74
0
 49
-0.05
 74
0
 49
0.1
 74
0
 49
-0.05
 74
0
 49
0.1
 74
0
 49
-0.05
 74
0
  0
LTYPE
  5
1F8
100
AcDbSymbolTableRecord
100
AcDbLinetypeTableRecord
  2
DOT
 70
64
  3
. . . . . . . . . . . . . . . . . . . .
 72
65
 73
2
 40
0.2
 49
0.1
 74
0
 49
-0.1
 74
0
  0
LTYPE
  5
1F9
100
AcDbSymbolTableRecord
100
AcDbLinetypeTableRecord
  2
DASHED
 70
64
  3
- - - - - - - - - - - - - - - - - - - -
 72
65
 73
2
 40
0.2
 49
0.1
 74
0
 49
-0.1
 74
0
  0
ENDTAB
  0
TABLE
  2
LAYER
  5
2
100
AcDbSymbolTable
 70
36
  0
LAYER
  5
10
100
AcDbSymbolTableRecord
100
AcDbLayerTableRecord
  2
0
 70
0
 62
7
  6
CONTINUOUS
370
-3
390
F
  0
LAYER
  5
1FA
100
AcDbSymbolTableRecord
100
AcDbLayerTableRecord
  2
DEFAULT_1
 70
0
 62
7
  6
CENTER
370
-3
390
F
  0
LAYER
  5
1FB
100
AcDbSymbolTableRecord
100
AcDbLayerTableRecord
  2
DEFAULT_2
 70
0
 62
7
  6
HIDDEN
370
-3
390
F
  0
LAYER
  5
1FC
100
AcDbSymbolTableRecord
100
AcDbLayerTableRecord
  2
DEFAULT_3
 70
0
 62
7
  6
PHANTOM
370
-3
390
F
  0
LAYER
  5
1FD
100
AcDbSymbolTableRecord
100
AcDbLayerTableRecord
  2
00_COMPONENTS
 70
0
 62
7
  6
CONTINUOUS
370
-3
390
F
  0
LAYER
  5
1FE
100
AcDbSymbolTableRecord
100
AcDbLayerTableRecord
  2
00_COMPONENTS_1
 70
0
 62
7
  6
CONTINUOUS
370
-3
390
F
  0
LAYER
  5
1FF
100
AcDbSymbolTableRecord
100
AcDbLayerTableRecord
  2
01_1_DEFAULT_DATUMS
 70
0
 62
7
  6
CONTINUOUS
370
-3
390
F
  0
LAYER
  5
200
100
AcDbSymbolTableRecord
100
AcDbLayerTableRecord
  2
01_PLANES
 70
0
 62
7
  6
CONTINUOUS
370
-3
390
F
  0
LAYER
  5
201
100
AcDbSymbolTableRecord
100
AcDbLayerTableRecord
  2
02_COORD_SYS
 70
0
 62
7
  6
CONTINUOUS
370
-3
390
F
  0
LAYER
  5
202
100
AcDbSymbolTableRecord
100
AcDbLayerTableRecord
  2
03_AXES
 70
0
 62
7
  6
CONTINUOUS
370
-3
390
F
  0
LAYER
  5
203
100
AcDbSymbolTableRecord
100
AcDbLayerTableRecord
  2
03_AXES_1
 70
0
 62
7
  6
CONTINUOUS
370
-3
390
F
  0
LAYER
  5
204
100
AcDbSymbolTableRecord
100
AcDbLayerTableRecord
  2
04_POINTS
 70
0
 62
7
  6
CONTINUOUS
370
-3
390
F
  0
LAYER
  5
205
100
AcDbSymbolTableRecord
100
AcDbLayerTableRecord
  2
05_CURVES
 70
0
 62
7
  6
CONTINUOUS
370
-3
390
F
  0
LAYER
  5
206
100
AcDbSymbolTableRecord
100
AcDbLayerTableRecord
  2
06_SURFS
 70
0
 62
7
  6
CONTINUOUS
370
-3
390
F
  0
LAYER
  5
207
100
AcDbSymbolTableRecord
100
AcDbLayerTableRecord
  2
07_COSMETICS
 70
0
 62
7
  6
CONTINUOUS
370
-3
390
F
  0
LAYER
  5
208
100
AcDbSymbolTableRecord
100
AcDbLayerTableRecord
  2
10_NOTES
 70
0
 62
7
  6
CONTINUOUS
370
-3
390
F
  0
LAYER
  5
209
100
AcDbSymbolTableRecord
100
AcDbLayerTableRecord
  2
11_NOTES_PUB
 70
0
 62
7
  6
CONTINUOUS
370
-3
390
F
  0
LAYER
  5
20A
100
AcDbSymbolTableRecord
100
AcDbLayerTableRecord
  2
13_REF_GTOL
 70
0
 62
7
  6
CONTINUOUS
370
-3
390
F
  0
LAYER
  5
20B
100
AcDbSymbolTableRecord
100
AcDbLayerTableRecord
  2
16_MISC
 70
0
 62
7
  6
CONTINUOUS
370
-3
390
F
  0
LAYER
  5
20C
100
AcDbSymbolTableRecord
100
AcDbLayerTableRecord
  2
17_NO_PRINT
 70
0
 62
7
  6
CONTINUOUS
370
-3
390
F
  0
LAYER
  5
20D
100
AcDbSymbolTableRecord
100
AcDbLayerTableRecord
  2
18_DATUM_CAMS_JOINTS
 70
0
 62
7
  6
CONTINUOUS
370
-3
390
F
  0
LAYER
  5
20E
100
AcDbSymbolTableRecord
100
AcDbLayerTableRecord
  2
19_DATUM_FUNCTIONAL
 70
0
 62
7
  6
CONTINUOUS
370
-3
390
F
  0
LAYER
  5
20F
100
AcDbSymbolTableRecord
100
AcDbLayerTableRecord
  2
20_DATUM_KINEMATIC_SCHEME
 70
0
 62
7
  6
CONTINUOUS
370
-3
390
F
  0
LAYER
  5
210
100
AcDbSymbolTableRecord
100
AcDbLayerTableRecord
  2
INTFCLR_31
 70
0
 62
7
  6
CONTINUOUS
370
-3
390
F
  0
LAYER
  5
211
100
AcDbSymbolTableRecord
100
AcDbLayerTableRecord
  2
INTFCLR_71
 70
0
 62
7
  6
CONTINUOUS
370
-3
390
F
  0
LAYER
  5
212
100
AcDbSymbolTableRecord
100
AcDbLayerTableRecord
  2
INTF_BLANK
 70
0
 62
7
  6
CONTINUOUS
370
-3
390
F
  0
LAYER
  5
213
100
AcDbSymbolTableRecord
100
AcDbLayerTableRecord
  2
_BLACK_HOLE
 70
0
 62
7
  6
CONTINUOUS
370
-3
390
F
  0
ENDTAB
  0
TABLE
  2
STYLE
  5
3
100
AcDbSymbolTable
 70
1
  0
STYLE
  5
11
100
AcDbSymbolTableRecord
100
AcDbTextStyleTableRecord
  2
STANDARD
 70
0
 40
0.0
 41
1.0
 50
0.0
 71
0
 42
0.2
  3
ARIAL.TTF
  4

  0
STYLE
  5
214
100
AcDbSymbolTableRecord
100
AcDbTextStyleTableRecord
  2
TEXTSTYLE_1
 70
0
 40
0.0
 41
0.8
 50
0.0
 71
0
 42
0.2
  3
gdt
  4

  0
ENDTAB
  0
TABLE
  2
VIEW
  5
6
100
AcDbSymbolTable
 70
0
  0
ENDTAB
  0
TABLE
  2
UCS
  5
7
100
AcDbSymbolTable
 70
0
  0
ENDTAB
  0
TABLE
  2
APPID
  5
9
100
AcDbSymbolTable
 70
1
  0
APPID
  5
215
100
AcDbSymbolTableRecord
100
AcDbRegAppTableRecord
  2
ACAD
 70
0
  0
ENDTAB
  0
TABLE
  2
BLOCK_RECORD
  5
1
100
AcDbSymbolTable
 70
0
  0
BLOCK_RECORD
  5
216
100
AcDbSymbolTableRecord
100
AcDbBlockTableRecord
  2
*Model_Space
  0
BLOCK_RECORD
  5
217
100
AcDbSymbolTableRecord
100
AcDbBlockTableRecord
  2
*Paper_Space
  0
BLOCK_RECORD
  5
218
100
AcDbSymbolTableRecord
100
AcDbBlockTableRecord
  2
_FILLED
  0
ENDTAB
  0
TABLE
  2
DIMSTYLE
  5
A
100
AcDbSymbolTable
 70
1
100
AcDbDimStyleTable
 71
0
  0
DIMSTYLE
105
219
100
AcDbSymbolTableRecord
100
AcDbDimStyleTableRecord
  2
STANDARD
 70
0
  3

  4

 40
1.0
 41
1.0570364135
 42
1.0
 43
0.38
 44
1.0
 45
0.0
 46
0.0
 47
0.01
 48
0.01
140
1.4798509789
141
0.09
142
0.0
143
25.4
144
1.0
145
0.0
146
1.0
147
0.625
 71
1
 72
0
 73
0
 74
0
 75
0
 76
0
 77
1
 78
8
 79
2
170
0
171
1
172
0
173
0
174
0
175
0
176
0
177
0
178
0
270
2
179
2
271
2
272
2
273
2
274
2
275
0
280
0
281
0
282
0
283
1
284
8
285
0
286
0
287
3
288
0
340
11
278
46
341
218
342
218
343
218
344
218
  0
ENDTAB
  0
ENDSEC
  0
SECTION
  2
BLOCKS
  0
BLOCK
  5
20
100
AcDbEntity
  8
0
100
AcDbBlockBegin
  2
*Model_Space
 70
0
 10
0.0
 20
0.0
 30
0.0
  3
*Model_Space
  1

  0
ENDBLK
  5
21
100
AcDbEntity
  8
0
100
AcDbBlockEnd
  0
BLOCK
  5
1C
100
AcDbEntity
  8
0
100
AcDbBlockBegin
  2
*Paper_Space
 70
0
 10
0.0
 20
0.0
 30
0.0
  3
*Paper_Space
  1

  0
ENDBLK
  5
1D
100
AcDbEntity
  8
0
100
AcDbBlockEnd
  0
BLOCK
  5
21A
100
AcDbEntity
  8
0
100
AcDbBlockBegin
  2
_FILLED
 70
64
 10
0.0
 20
0.0
  3
_FILLED
  1

  0
SOLID
  5
21B
100
AcDbEntity
  8
0
  6
BYBLOCK
 62
0
100
AcDbTrace
 10
0.0
 20
0.0
 11
-1.0
 21
0.25
 12
-1.0
 22
-0.25
 13
-1.0
 23
-0.25
  0
ENDBLK
  5
21C
100
AcDbEntity
  8
0
  6
BYBLOCK
 62
0
100
AcDbBlockEnd
  0
ENDSEC
  0
SECTION
  2
ENTITIES
  0
LINE
  5
21D
100
AcDbEntity
  8
00_COMPONENTS_1
100
AcDbLine
 62
7
  6
BYLAYER
 10
13.4501589974
 20
31.7666666667
 11
10.3501589974
 21
34.8666666667
  0
LINE
  5
21E
100
AcDbEntity
  8
00_COMPONENTS_1
100
AcDbLine
 62
7
  6
BYLAYER
 10
10.3501589974
 20
34.8666666667
 11
10.3501589974
 21
86.1024629414
  0
LINE
  5
21F
100
AcDbEntity
  8
00_COMPONENTS_1
100
AcDbLine
 62
7
  6
BYLAYER
 10
12.3501589974
 20
77.8666666667
 11
12.3501589974
 21
86.1024629414
  0
LINE
  5
220
100
AcDbEntity
  8
00_COMPONENTS_1
100
AcDbLine
 62
7
  6
BYLAYER
 10
13.4501589974
 20
31.7666666667
 11
13.4501589974
 21
30.5166666667
  0
LINE
  5
221
100
AcDbEntity
  8
00_COMPONENTS_1
100
AcDbLine
 62
7
  6
BYLAYER
 10
13.4501589974
 20
30.5166666667
 11
57.1200790315
 21
30.5166666667
  0
LINE
  5
222
100
AcDbEntity
  8
03_AXES_1
100
AcDbLine
 62
7
420
15788975
  6
BYLAYER
 10
56.0257357043
 20
41.7166666667
 11
56.7551906254
 21
41.7166666667
  0
LINE
  5
223
100
AcDbEntity
  8
03_AXES_1
100
AcDbLine
 62
7
420
15788975
  6
BYLAYER
 10
57.0934241241
 20
41.7166666667
 11
57.1202498232
 21
41.7166666667
  0
LINE
  5
224
100
AcDbEntity
  8
00_COMPONENTS_1
100
AcDbLine
 62
7
  6
BYLAYER
 10
28.5001589974
 20
77.8666666667
 11
28.5001589974
 21
82.0166666667
  0
LINE
  5
225
100
AcDbEntity
  8
00_COMPONENTS_1
100
AcDbLine
 62
7
  6
BYLAYER
 10
55.8701589974
 20
44.5666666667
 11
68.4701589974
 21
44.5666666667
  0
LINE
  5
226
100
AcDbEntity
  8
00_COMPONENTS_1
100
AcDbLine
 62
7
  6
BYLAYER
 10
55.1201589974
 20
46.3166666667
 11
55.8701589974
 21
46.3166666667
  0
LINE
  5
227
100
AcDbEntity
  8
00_COMPONENTS_1
100
AcDbLine
 62
7
  6
BYLAYER
 10
68.4701589974
 20
46.3166666667
 11
72.1700822137
 21
46.3166666667
  0
LINE
  5
228
100
AcDbEntity
  8
03_AXES_1
100
AcDbLine
 62
7
420
15788975
  6
BYLAYER
 10
70.6260500427
 20
52.5916666667
 11
71.4687115578
 21
52.5916666667
  0
LINE
  5
229
100
AcDbEntity
  8
03_AXES_1
100
AcDbLine
 62
7
420
15788975
  6
BYLAYER
 10
71.8704919603
 20
52.5916666667
 11
72.1492382536
 21
52.5916666667
  0
LINE
  5
22A
100
AcDbEntity
  8
00_COMPONENTS_1
100
AcDbLine
 62
7
  6
BYLAYER
 10
37.2801589974
 20
88.0166666667
 11
37.2801589974
 21
82.0166666667
  0
LINE
  5
22B
100
AcDbEntity
  8
00_COMPONENTS_1
100
AcDbLine
 62
7
  6
BYLAYER
 10
70.1701589974
 20
56.5166666667
 11
77.1700338235
 21
56.5166666667
  0
LINE
  5
22C
100
AcDbEntity
  8
00_COMPONENTS_1
100
AcDbLine
 62
7
  6
BYLAYER
 10
77.1701372996
 20
57.5416666667
 11
76.1958406519
 21
57.5416666667
  0
LINE
  5
22D
100
AcDbEntity
  8
00_COMPONENTS_1
100
AcDbLine
 62
7
  6
BYLAYER
 10
76.1441005086
 20
57.7516666667
 11
77.2701540058
 21
57.7516666667
  0
LINE
  5
22E
100
AcDbEntity
  8
00_COMPONENTS_1
100
AcDbLine
 62
7
  6
BYLAYER
 10
76.1274079143
 20
58.0416666667
 11
76.2573730091
 21
58.0416666667
  0
LINE
  5
22F
100
AcDbEntity
  8
00_COMPONENTS_1
100
AcDbLine
 62
7
  6
BYLAYER
 10
76.2573730091
 20
58.6469334745
 11
76.1274079143
 21
58.6469334745
  0
LINE
  5
230
100
AcDbEntity
  8
00_COMPONENTS_1
100
AcDbLine
 62
7
  6
BYLAYER
 10
76.2009689047
 20
59.2884240855
 11
76.0503774173
 21
59.2884240855
  0
LINE
  5
231
100
AcDbEntity
  8
00_COMPONENTS_1
100
AcDbLine
 62
7
  6
BYLAYER
 10
77.2701589974
 20
59.8916666667
 11
80.9001589974
 21
59.8916666667
  0
LINE
  5
232
100
AcDbEntity
  8
00_COMPONENTS_1
100
AcDbLine
 62
7
  6
BYLAYER
 10
75.9262626056
 20
61.4029761905
 11
75.7858925229
 21
61.4029761905
  0
LINE
  5
233
100
AcDbEntity
  8
00_COMPONENTS_1
100
AcDbLine
 62
7
  6
BYLAYER
 10
75.7154229753
 20
61.6916666667
 11
75.3682444462
 21
61.6916666667
  0
LINE
  5
234
100
AcDbEntity
  8
00_COMPONENTS_1
100
AcDbLine
 62
7
  6
BYLAYER
 10
75.2976426912
 20
61.9016666667
 11
75.8167723944
 21
61.9016666667
  0
LINE
  5
235
100
AcDbEntity
  8
00_COMPONENTS_1
100
AcDbLine
 62
7
  6
BYLAYER
 10
75.2750472139
 20
62.1916666667
 11
75.4162114416
 21
62.1916666667
  0
LINE
  5
236
100
AcDbEntity
  8
00_COMPONENTS_1
100
AcDbLine
 62
7
  6
BYLAYER
 10
46.1573873994
 20
82.0166666667
 11
46.1573873994
 21
95.3666666667
  0
LINE
  5
237
100
AcDbEntity
  8
00_COMPONENTS_1
100
AcDbLine
 62
7
  6
BYLAYER
 10
48.4573873994
 20
82.0166666667
 11
48.4573873994
 21
95.3666666667
  0
LINE
  5
238
100
AcDbEntity
  8
00_COMPONENTS_1
100
AcDbLine
 62
7
  6
BYLAYER
 10
80.9001589974
 20
64.6916666667
 11
77.2701589974
 21
64.6916666667
  0
LINE
  5
239
100
AcDbEntity
  8
00_COMPONENTS_1
100
AcDbLine
 62
7
  6
BYLAYER
 10
40.1301589974
 20
88.0166666667
 11
42.2801589974
 21
82.0166666667
  0
LINE
  5
23A
100
AcDbEntity
  8
00_COMPONENTS_1
100
AcDbLine
 62
7
  6
BYLAYER
 10
55.1201589974
 20
30.5166666667
 11
55.1201589974
 21
46.3166666667
  0
LINE
  5
23B
100
AcDbEntity
  8
00_COMPONENTS_1
100
AcDbLine
 62
7
  6
BYLAYER
 10
77.1623702362
 20
71.2516666667
 11
76.9270503949
 21
71.2516666667
  0
LINE
  5
23C
100
AcDbEntity
  8
00_COMPONENTS_1
100
AcDbLine
 62
7
  6
BYLAYER
 10
76.9109779683
 20
71.4216666667
 11
79.3699184699
 21
71.4216666667
  0
LINE
  5
23D
100
AcDbEntity
  8
00_COMPONENTS_1
100
AcDbLine
 62
7
  6
BYLAYER
 10
79.3699184699
 20
72.9216666667
 11
76.9109779683
 21
72.9216666667
  0
LINE
  5
23E
100
AcDbEntity
  8
00_COMPONENTS_1
100
AcDbLine
 62
7
  6
BYLAYER
 10
55.8701589974
 20
44.5666666667
 11
55.8701589974
 21
46.3166666667
  0
LINE
  5
23F
100
AcDbEntity
  8
00_COMPONENTS_1
100
AcDbLine
 62
7
  6
BYLAYER
 10
57.1201589974
 20
38.3343597616
 11
57.1201589974
 21
30.5166666667
  0
LINE
  5
240
100
AcDbEntity
  8
00_COMPONENTS_1
100
AcDbLine
 62
7
  6
BYLAYER
 10
76.9270503949
 20
73.0516673006
 11
77.1623702362
 21
73.0516673006
  0
LINE
  5
241
100
AcDbEntity
  8
00_COMPONENTS_1
100
AcDbLine
 62
7
  6
BYLAYER
 10
77.2701589974
 20
73.6416666667
 11
77.7501589974
 21
73.6416666667
  0
LINE
  5
242
100
AcDbEntity
  8
00_COMPONENTS_1
100
AcDbLine
 62
7
  6
BYLAYER
 10
77.2701519621
 20
74.5316666667
 11
75.2750472139
 21
74.5316666667
  0
LINE
  5
243
100
AcDbEntity
  8
00_COMPONENTS_1
100
AcDbLine
 62
7
  6
BYLAYER
 10
75.2750472139
 20
74.7416666667
 11
77.1700793631
 21
74.7416666667
  0
LINE
  5
244
100
AcDbEntity
  8
00_COMPONENTS_1
100
AcDbLine
 62
7
  6
BYLAYER
 10
77.7501589974
 20
76.9416666667
 11
77.1701589974
 21
76.9416666667
  0
LINE
  5
245
100
AcDbEntity
  8
00_COMPONENTS_1
100
AcDbLine
 62
7
  6
BYLAYER
 10
28.5001589974
 20
77.8666666667
 11
10.3501589974
 21
77.8666666667
  0
LINE
  5
246
100
AcDbEntity
  8
00_COMPONENTS_1
100
AcDbLine
 62
7
  6
BYLAYER
 10
77.1700338235
 20
82.0166666667
 11
28.5001589974
 21
82.0166666667
  0
LINE
  5
247
100
AcDbEntity
  8
00_COMPONENTS_1
100
AcDbLine
 62
7
  6
BYLAYER
 10
68.4701589974
 20
44.5666666667
 11
68.4701589974
 21
46.3166666667
  0
LINE
  5
248
100
AcDbEntity
  8
00_COMPONENTS_1
100
AcDbLine
 62
7
  6
BYLAYER
 10
70.1701589974
 20
46.3166666667
 11
70.1701589974
 21
56.5166666667
  0
LINE
  5
249
100
AcDbEntity
  8
00_COMPONENTS_1
100
AcDbLine
 62
7
  6
BYLAYER
 10
12.3501589974
 20
86.1024629414
 11
10.3501589974
 21
86.1024629414
  0
LINE
  5
24A
100
AcDbEntity
  8
00_COMPONENTS_1
100
AcDbLine
 62
7
  6
BYLAYER
 10
40.1301589974
 20
88.0166666667
 11
37.2801589974
 21
88.0166666667
  0
LINE
  5
24B
100
AcDbEntity
  8
00_COMPONENTS_1
100
AcDbLine
 62
7
  6
BYLAYER
 10
72.1701589974
 20
56.5166666667
 11
72.1701589974
 21
46.3166666667
  0
LINE
  5
24C
100
AcDbEntity
  8
00_COMPONENTS_1
100
AcDbLine
 62
7
  6
BYLAYER
 10
74.8467113684
 20
56.5166666667
 11
74.8467113684
 21
82.0166666667
  0
LINE
  5
24D
100
AcDbEntity
  8
00_COMPONENTS_1
100
AcDbLine
 62
7
  6
BYLAYER
 10
75.2750472139
 20
74.7416666667
 11
75.2750472139
 21
62.1916666667
  0
LINE
  5
24E
100
AcDbEntity
  8
00_COMPONENTS_1
100
AcDbLine
 62
7
  6
BYLAYER
 10
75.4162114416
 20
62.1916666667
 11
75.4162114416
 21
74.5316666667
  0
LINE
  5
24F
100
AcDbEntity
  8
00_COMPONENTS_1
100
AcDbLine
 62
7
  6
BYLAYER
 10
76.1274079143
 20
58.6469334745
 11
76.1274079143
 21
58.0416666667
  0
LINE
  5
250
100
AcDbEntity
  8
00_COMPONENTS_1
100
AcDbLine
 62
7
  6
BYLAYER
 10
76.2573730091
 20
58.0416666667
 11
76.2573730091
 21
58.6469334745
  0
LINE
  5
251
100
AcDbEntity
  8
00_COMPONENTS_1
100
AcDbLine
 62
7
  6
BYLAYER
 10
76.9109779683
 20
72.8516668251
 11
76.9109779683
 21
71.4516671421
  0
LINE
  5
252
100
AcDbEntity
  8
00_COMPONENTS_1
100
AcDbLine
 62
7
  6
BYLAYER
 10
77.1415734684
 20
57.5416666667
 11
77.1415734684
 21
57.7516666667
  0
LINE
  5
253
100
AcDbEntity
  8
00_COMPONENTS_1
100
AcDbLine
 62
7
  6
BYLAYER
 10
77.1415734684
 20
74.5316666667
 11
77.1415734684
 21
74.7416666667
  0
LINE
  5
254
100
AcDbEntity
  8
00_COMPONENTS_1
100
AcDbLine
 62
7
  6
BYLAYER
 10
77.1701589974
 20
56.5166666667
 11
77.1701589974
 21
57.5416666667
  0
LINE
  5
255
100
AcDbEntity
  8
00_COMPONENTS_1
100
AcDbLine
 62
7
  6
BYLAYER
 10
77.1701589974
 20
74.7416666667
 11
77.1701589974
 21
82.0166666667
  0
LINE
  5
256
100
AcDbEntity
  8
00_COMPONENTS_1
100
AcDbLine
 62
7
  6
BYLAYER
 10
77.2701589974
 20
57.7516666667
 11
77.2701589974
 21
71.4216666667
  0
LINE
  5
257
100
AcDbEntity
  8
00_COMPONENTS_1
100
AcDbLine
 62
7
  6
BYLAYER
 10
77.2701589974
 20
72.9216666667
 11
77.2701589974
 21
74.5316666667
  0
LINE
  5
258
100
AcDbEntity
  8
00_COMPONENTS_1
100
AcDbLine
 62
7
  6
BYLAYER
 10
77.5701589974
 20
71.4216666667
 11
77.5701589974
 21
72.9216666667
  0
LINE
  5
259
100
AcDbEntity
  8
00_COMPONENTS_1
100
AcDbLine
 62
7
  6
BYLAYER
 10
77.7501589974
 20
76.9416666667
 11
77.7501589974
 21
73.6416666667
  0
LINE
  5
25A
100
AcDbEntity
  8
00_COMPONENTS_1
100
AcDbLine
 62
7
  6
BYLAYER
 10
79.3701589974
 20
71.4216666667
 11
79.3701589974
 21
72.9216666667
  0
LINE
  5
25B
100
AcDbEntity
  8
00_COMPONENTS_1
100
AcDbLine
 62
7
  6
BYLAYER
 10
80.9001589974
 20
64.6916666667
 11
80.9001589974
 21
59.8916666667
  0
LINE
  5
25C
100
AcDbEntity
  8
00_COMPONENTS_1
100
AcDbLine
 62
7
  6
BYLAYER
 10
48.4571438189
 20
95.3666666667
 11
46.1576309798
 21
95.3666666667
  0
ARC
  5
25D
100
AcDbEntity
  8
00_COMPONENTS_1
100
AcDbCircle
 62
7
  6
BYLAYER
 10
79.3797706615
 20
71.4515583916
 40
2.4687926956
100
AcDbArc
 50
179.997476118
 51
180.7206173497
  0
ARC
  5
25E
100
AcDbEntity
  8
00_COMPONENTS_1
100
AcDbCircle
 62
7
  6
BYLAYER
 10
79.180692246
 20
72.8534723415
 40
2.2697149958
100
AcDbArc
 50
178.1909354918
 51
180.0455777396
  0
SPLINE
  5
25F
100
AcDbEntity
  8
00_COMPONENTS_1
100
AcDbSpline
 62
7
  6
BYLAYER
 70
0
 71
3
 72
15
 73
11
 74
0
 42
0.0000001
 43
0.0000001
 44
0.0000000001
 40
0.0
 40
0.0
 40
0.0
 40
0.0
 40
0.0250149552
 40
0.0481442538
 40
0.0792879942
 40
0.1660992864
 40
0.2837358058
 40
0.4290669028
 40
0.5990633428
 40
1.0
 40
1.0
 40
1.0
 40
1.0
 10
76.9270503949
 20
73.0516673006
 30
0.0
 10
76.9259783503
 20
73.0516673006
 30
0.0
 10
76.9245512221
 20
73.0494638856
 30
0.0
 10
76.9233698841
 20
73.0464970721
 30
0.0
 10
76.921643829
 20
73.0405863795
 30
0.0
 10
76.9198292852
 20
73.0307133839
 30
0.0
 10
76.9178273624
 20
73.0158235542
 30
0.0
 10
76.9160127609
 20
72.9973654949
 30
0.0
 10
76.9137367635
 20
72.9667469791
 30
0.0
 10
76.9126588779
 20
72.9422984992
 30
0.0
 10
76.9121085249
 20
72.9251247158
 30
0.0
  0
SPLINE
  5
260
100
AcDbEntity
  8
00_COMPONENTS_1
100
AcDbSpline
 62
7
  6
BYLAYER
 70
0
 71
3
 72
16
 73
12
 74
0
 42
0.0000001
 43
0.0000001
 44
0.0000000001
 40
0.0
 40
0.0
 40
0.0
 40
0.0
 40
0.2010102042
 40
0.3894603242
 40
0.5602052585
 40
0.708411906
 40
0.8291609129
 40
0.9187134372
 40
0.9748391211
 40
0.9906470233
 40
1.0
 40
1.0
 40
1.0
 40
1.0
 10
76.9111732258
 20
71.4205088456
 30
0.0
 10
76.9113177866
 20
71.4090557556
 30
0.0
 10
76.9117550216
 20
71.3868665197
 30
0.0
 10
76.9129117388
 20
71.3549649909
 30
0.0
 10
76.914486451
 20
71.3260907328
 30
0.0
 10
76.9163982808
 20
71.3011134461
 30
0.0
 10
76.9185973015
 20
71.2807781599
 30
0.0
 10
76.9209438494
 20
71.2658194657
 30
0.0
 10
76.9232293878
 20
71.2567894638
 30
0.0
 10
76.9252281123
 20
71.252653741
 30
0.0
 10
76.9265174418
 20
71.2516666667
 30
0.0
 10
76.9270503949
 20
71.2516666667
 30
0.0
  0
SPLINE
  5
261
100
AcDbEntity
  8
00_COMPONENTS_1
100
AcDbSpline
 62
7
  6
BYLAYER
 70
0
 71
3
 72
13
 73
9
 74
0
 42
0.0000001
 43
0.0000001
 44
0.0000000001
 40
0.0
 40
0.0
 40
0.0
 40
0.0
 40
0.0780359696
 40
0.1735607543
 40
0.2849400562
 40
0.4102590581
 40
0.6929754493
 40
1.0
 40
1.0
 40
1.0
 40
1.0
 10
76.2009689047
 20
59.2884240855
 30
0.0
 10
76.205750809
 20
59.272329794
 30
0.0
 10
76.2144742352
 20
59.2359721653
 30
0.0
 10
76.2252266288
 20
59.175599721
 30
0.0
 10
76.234719037
 20
59.1047346001
 30
0.0
 10
76.2459045241
 20
58.9935279084
 30
0.0
 10
76.2549800523
 20
58.8398854876
 30
0.0
 10
76.2573730091
 20
58.7129906936
 30
0.0
 10
76.2573730091
 20
58.6469334745
 30
0.0
  0
SPLINE
  5
262
100
AcDbEntity
  8
00_COMPONENTS_1
100
AcDbSpline
 62
7
  6
BYLAYER
 70
0
 71
3
 72
13
 73
9
 74
0
 42
0.0000001
 43
0.0000001
 44
0.0000000001
 40
0.0
 40
0.0
 40
0.0
 40
0.0
 40
0.3109228225
 40
0.5882076491
 40
0.710713362
 40
0.8208203887
 40
0.9175457455
 40
1.0
 40
1.0
 40
1.0
 40
1.0
 10
75.9262626056
 20
61.4029761905
 30
0.0
 10
75.9371754934
 20
61.1818533499
 30
0.0
 10
75.964834885
 20
60.763837058
 30
0.0
 10
76.0178124695
 20
60.260372749
 30
0.0
 10
76.0695307879
 20
59.9009636325
 30
0.0
 10
76.1097047014
 20
59.6698815905
 30
0.0
 10
76.1522165656
 20
59.4682852083
 30
0.0
 10
76.1842471756
 20
59.3447038371
 30
0.0
 10
76.2009689047
 20
59.2884240855
 30
0.0
  0
SPLINE
  5
263
100
AcDbEntity
  8
00_COMPONENTS_1
100
AcDbSpline
 62
7
  6
BYLAYER
 70
0
 71
3
 72
19
 73
15
 74
0
 42
0.0000001
 43
0.0000001
 44
0.0000000001
 40
0.0
 40
0.0
 40
0.0
 40
0.0
 40
0.0180325683
 40
0.0395235912
 40
0.0665813794
 40
0.1002239829
 40
0.1408531394
 40
0.1885671932
 40
0.2433287206
 40
0.3049526497
 40
0.4475517778
 40
0.613534915
 40
0.7993056467
 40
1.0
 40
1.0
 40
1.0
 40
1.0
 10
75.8167723944
 20
61.9016666667
 30
0.0
 10
75.8199221397
 20
61.9016666667
 30
0.0
 10
75.82686435
 20
61.8998067647
 30
0.0
 10
75.8361489584
 20
61.8925063655
 30
0.0
 10
75.8450521842
 20
61.8811431211
 30
0.0
 10
75.8536955545
 20
61.8656437091
 30
0.0
 10
75.8621049672
 20
61.8460390417
 30
0.0
 10
75.8702416004
 20
61.8223864926
 30
0.0
 10
75.8780502246
 20
61.7947957667
 30
0.0
 10
75.8884723537
 20
61.7507648181
 30
0.0
 10
75.8999857485
 20
61.6870910445
 30
0.0
 10
75.9112787486
 20
61.6014627531
 30
0.0
 10
75.9203018401
 20
61.505370497
 30
0.0
 10
75.9245346568
 20
61.4379888233
 30
0.0
 10
75.9262626056
 20
61.4029761905
 30
0.0
  0
SPLINE
  5
264
100
AcDbEntity
  8
00_COMPONENTS_1
100
AcDbSpline
 62
7
  6
BYLAYER
 70
0
 71
3
 72
18
 73
14
 74
0
 42
0.0000001
 43
0.0000001
 44
0.0000000001
 40
0.0
 40
0.0
 40
0.0
 40
0.0
 40
0.0065123803
 40
0.0209861952
 40
0.0441807545
 40
0.0761458674
 40
0.1167116135
 40
0.1655404813
 40
0.2865214823
 40
0.435386745
 40
0.6074730693
 40
0.7975929286
 40
1.0
 40
1.0
 40
1.0
 40
1.0
 10
77.1623683372
 20
71.2516666667
 30
0.0
 10
77.1627364239
 20
71.2516666667
 30
0.0
 10
77.1634743971
 20
71.252962183
 30
0.0
 10
77.1640475679
 20
71.2551728387
 30
0.0
 10
77.1648204026
 20
71.2591508094
 30
0.0
 10
77.1655048062
 20
71.2644706676
 30
0.0
 10
77.1662078703
 20
71.2713127279
 30
0.0
 10
77.1671633567
 20
71.2831571973
 30
0.0
 10
77.1682095538
 20
71.3011457296
 30
0.0
 10
77.169234979
 20
71.3261015979
 30
0.0
 10
77.1700615322
 20
71.3549774528
 30
0.0
 10
77.1706630994
 20
71.3868844751
 30
0.0
 10
77.1708953098
 20
71.4090696368
 30
0.0
 10
77.1709724536
 20
71.4205096397
 30
0.0
  0
SPLINE
  5
265
100
AcDbEntity
  8
00_COMPONENTS_1
100
AcDbSpline
 62
7
  6
BYLAYER
 70
0
 71
3
 72
18
 73
14
 74
0
 42
0.0000001
 43
0.0000001
 44
0.0000000001
 40
0.0
 40
0.0
 40
0.0
 40
0.0
 40
0.1883155018
 40
0.3696546452
 40
0.5365363582
 40
0.6830996749
 40
0.8045026231
 40
0.8545976303
 40
0.8972913309
 40
0.9325197329
 40
0.9605454141
 40
0.982309027
 40
1.0
 40
1.0
 40
1.0
 40
1.0
 10
75.4162114416
 20
62.1916666667
 30
0.0
 10
75.4162114416
 20
62.1726649841
 30
0.0
 10
75.4168953796
 20
62.1353616631
 30
0.0
 10
75.4199123119
 20
62.0812948325
 30
0.0
 10
75.4247865432
 20
62.0315881337
 30
0.0
 10
75.4312922524
 20
61.9881777696
 30
0.0
 10
75.4381298025
 20
61.9567738326
 30
0.0
 10
75.4444656584
 20
61.9360965665
 30
0.0
 10
75.4491226751
 20
61.9240335087
 30
0.0
 10
75.4539472478
 20
61.9144631255
 30
0.0
 10
75.4589419724
 20
61.9074361831
 30
0.0
 10
75.4641429699
 20
61.9028785524
 30
0.0
 10
75.4681362271
 20
61.9016666667
 30
0.0
 10
75.4699213072
 20
61.9016666667
 30
0.0
  0
SPLINE
  5
266
100
AcDbEntity
  8
00_COMPONENTS_1
100
AcDbSpline
 62
7
  6
BYLAYER
 70
0
 71
3
 72
17
 73
13
 74
0
 42
0.0000001
 43
0.0000001
 44
0.0000000001
 40
0.0
 40
0.0
 40
0.0
 40
0.0
 40
0.2112043484
 40
0.4048068221
 40
0.5766291146
 40
0.7228807982
 40
0.8402238262
 40
0.9262282822
 40
0.9568604441
 40
0.9791466862
 40
0.993209212
 40
1.0
 40
1.0
 40
1.0
 40
1.0
 10
77.1704796876
 20
72.9251421655
 30
0.0
 10
77.1703284051
 20
72.9340998576
 30
0.0
 10
77.1699776372
 20
72.9512676534
 30
0.0
 10
77.1692707864
 20
72.9757179977
 30
0.0
 10
77.1684180406
 20
72.9974047993
 30
0.0
 10
77.1674418242
 20
73.0158537916
 30
0.0
 10
77.1663724957
 20
73.0306344343
 30
0.0
 10
77.165340871
 20
73.0405333127
 30
0.0
 10
77.1644465761
 20
73.0463274169
 30
0.0
 10
77.1637886228
 20
73.0491528021
 30
0.0
 10
77.1632925684
 20
73.0507997457
 30
0.0
 10
77.1626564552
 20
73.0516673006
 30
0.0
 10
77.1623684002
 20
73.0516673006
 30
0.0
  0
SPLINE
  5
267
100
AcDbEntity
  8
00_COMPONENTS_1
100
AcDbSpline
 62
7
  6
BYLAYER
 70
0
 71
3
 72
15
 73
11
 74
0
 42
0.0000001
 43
0.0000001
 44
0.0000000001
 40
0.0
 40
0.0
 40
0.0
 40
0.0
 40
0.3749950703
 40
0.6928547097
 40
0.815436648
 40
0.8656228382
 40
0.9079491042
 40
0.9422054299
 40
0.9684369742
 40
1.0
 40
1.0
 40
1.0
 40
1.0
 10
76.2573730091
 20
58.0416666667
 30
0.0
 10
76.2573730091
 20
58.0045105512
 30
0.0
 10
76.2591462086
 20
57.9358561129
 30
0.0
 10
76.265777962
 20
57.8552377913
 30
0.0
 10
76.273375593
 20
57.8071994099
 30
0.0
 10
76.2780433918
 20
57.7863770944
 30
0.0
 10
76.2814138973
 20
57.7743138863
 30
0.0
 10
76.2850169483
 20
57.7646361676
 30
0.0
 10
76.2889302239
 20
57.7567802215
 30
0.0
 10
76.2936130261
 20
57.7516666667
 30
0.0
 10
76.2967404257
 20
57.7516666667
 30
0.0
  0
SPLINE
  5
268
100
AcDbEntity
  8
00_COMPONENTS_1
100
AcDbSpline
 62
7
  6
BYLAYER
 70
0
 71
3
 72
18
 73
14
 74
0
 42
0.0000001
 43
0.0000001
 44
0.0000000001
 40
0.0
 40
0.0
 40
0.0
 40
0.0
 40
0.0314821793
 40
0.0436962663
 40
0.0578730591
 40
0.0922519492
 40
0.1346831317
 40
0.1849483248
 40
0.2427309771
 40
0.3075651126
 40
0.4561557704
 40
0.6253938694
 40
1.0
 40
1.0
 40
1.0
 40
1.0
 10
71.0889350443
 20
55.7916935849
 30
0.0
 10
71.0544672687
 20
55.791719447
 30
0.0
 10
71.0148096035
 20
55.7479156737
 30
0.0
 10
70.9831476006
 20
55.6950396361
 30
0.0
 10
70.9532868846
 20
55.6349679834
 30
0.0
 10
70.9179941781
 20
55.5419294609
 30
0.0
 10
70.8783061056
 20
55.4083905031
 30
0.0
 10
70.8399596558
 20
55.2481398591
 30
0.0
 10
70.8033536447
 20
55.0623843089
 30
0.0
 10
70.7553736242
 20
54.769323395
 30
0.0
 10
70.7047865089
 20
54.3532527656
 30
0.0
 10
70.6433571953
 20
53.5975330571
 30
0.0
 10
70.6260500427
 20
53.0017984919
 30
0.0
 10
70.6260500427
 20
52.5916666667
 30
0.0
  0
SPLINE
  5
269
100
AcDbEntity
  8
00_COMPONENTS_1
100
AcDbSpline
 62
7
  6
BYLAYER
 70
0
 71
3
 72
21
 73
17
 74
0
 42
0.0000001
 43
0.0000001
 44
0.0000000001
 40
0.0
 40
0.0
 40
0.0
 40
0.0
 40
0.0024651456
 40
0.0066815549
 40
0.0217393436
 40
0.045944607
 40
0.0791827453
 40
0.1211886097
 40
0.171566631
 40
0.22988251
 40
0.2955773544
 40
0.368041873
 40
0.4465903828
 40
0.618800768
 40
0.8057139574
 40
1.0
 40
1.0
 40
1.0
 40
1.0
 10
72.0504768806
 20
55.7916926772
 30
0.0
 10
72.0478352328
 20
55.7916964099
 30
0.0
 10
72.0414199509
 20
55.7867430134
 30
0.0
 10
72.031138395
 20
55.7661116544
 30
0.0
 10
72.0185785008
 20
55.7206428008
 30
0.0
 10
72.0043924073
 20
55.6444867328
 30
0.0
 10
71.9894819037
 20
55.5388296728
 30
0.0
 10
71.9744064582
 20
55.4050920276
 30
0.0
 10
71.9594079585
 20
55.2442774802
 30
0.0
 10
71.9448091059
 20
55.0579732782
 30
0.0
 10
71.9308568313
 20
54.8478874131
 30
0.0
 10
71.9178277755
 20
54.6160259016
 30
0.0
 10
71.9015089879
 20
54.270040314
 30
0.0
 10
71.8852678604
 20
53.8012914925
 30
0.0
 10
71.8732274914
 20
53.2083626438
 30
0.0
 10
71.8704919603
 20
52.7998636241
 30
0.0
 10
71.8704919603
 20
52.5916666667
 30
0.0
  0
SPLINE
  5
26A
100
AcDbEntity
  8
00_COMPONENTS_1
100
AcDbSpline
 62
7
  6
BYLAYER
 70
0
 71
3
 72
11
 73
7
 74
0
 42
0.0000001
 43
0.0000001
 44
0.0000000001
 40
0.0
 40
0.0
 40
0.0
 40
0.0
 40
0.1963746049
 40
0.4376566702
 40
0.7106338901
 40
1.0
 40
1.0
 40
1.0
 40
1.0
 10
56.2127245476
 20
44.5740725705
 30
0.0
 10
56.1812176923
 20
44.3891228081
 30
0.0
 10
56.1275651198
 20
43.9741462589
 30
0.0
 10
56.0706713643
 20
43.2974785155
 30
0.0
 10
56.034078339
 20
42.5304174365
 30
0.0
 10
56.0257357043
 20
41.9931239907
 30
0.0
 10
56.0257357043
 20
41.7166666667
 30
0.0
  0
SPLINE
  5
26B
100
AcDbEntity
  8
00_COMPONENTS_1
100
AcDbSpline
 62
7
  6
BYLAYER
 70
0
 71
3
 72
12
 73
8
 74
0
 42
0.0000001
 43
0.0000001
 44
0.0000000001
 40
0.0
 40
0.0
 40
0.0
 40
0.0
 40
0.3330583799
 40
0.6306635008
 40
0.8611583546
 40
0.9432069034
 40
1.0
 40
1.0
 40
1.0
 40
1.0
 10
57.0934241241
 20
41.7166666667
 30
0.0
 10
57.0934241241
 20
41.341156581
 30
0.0
 10
57.0958175879
 20
40.6301063645
 30
0.0
 10
57.1048014467
 20
39.6592225391
 30
0.0
 10
57.1139222544
 20
38.9713632071
 30
0.0
 10
57.1188665766
 20
38.5549819724
 30
0.0
 10
57.1201571818
 20
38.3984458277
 30
0.0
 10
57.1201560425
 20
38.3344138685
 30
0.0
  0
SPLINE
  5
26C
100
AcDbEntity
  8
00_COMPONENTS_1
100
AcDbSpline
 62
7
  6
BYLAYER
 70
0
 71
3
 72
21
 73
17
 74
0
 42
0.0000001
 43
0.0000001
 44
0.0000000001
 40
0.0
 40
0.0
 40
0.0
 40
0.0
 40
0.1920056353
 40
0.3767975692
 40
0.5470162882
 40
0.696325205
 40
0.7614293295
 40
0.8193897617
 40
0.8696897186
 40
0.9119103177
 40
0.9457257696
 40
0.9711341221
 40
0.9808062408
 40
0.988607447
 40
0.9948167485
 40
1.0
 40
1.0
 40
1.0
 40
1.0
 10
56.0257357043
 20
41.7166666667
 30
0.0
 10
56.0257357043
 20
41.4883940336
 30
0.0
 10
56.0315939732
 20
41.0404045221
 30
0.0
 10
56.0569906285
 20
40.3904821531
 30
0.0
 10
56.097570013
 20
39.7921946971
 30
0.0
 10
56.1435644116
 20
39.3371030879
 30
0.0
 10
56.1868756309
 20
39.0161648366
 30
0.0
 10
56.2197564979
 20
38.8126611156
 30
0.0
 10
56.2540791743
 20
38.6370489469
 30
0.0
 10
56.2892503256
 20
38.4909302862
 30
0.0
 10
56.3249116993
 20
38.3756699983
 30
0.0
 10
56.3566517429
 20
38.2997848682
 30
0.0
 10
56.3833348197
 20
38.2562027358
 30
0.0
 10
56.4015146284
 20
38.2345169418
 30
0.0
 10
56.4199732363
 20
38.2205796554
 30
0.0
 10
56.4335411671
 20
38.2169079083
 30
0.0
 10
56.4397031802
 20
38.2168494655
 30
0.0
  0
SPLINE
  5
26D
100
AcDbEntity
  8
00_COMPONENTS_1
100
AcDbSpline
 62
7
  6
BYLAYER
 70
0
 71
3
 72
9
 73
5
 74
0
 42
0.0000001
 43
0.0000001
 44
0.0000000001
 40
0.0
 40
0.0
 40
0.0
 40
0.0
 40
0.4370118527
 40
1.0
 40
1.0
 40
1.0
 40
1.0
 10
57.1151883296
 20
44.5740702742
 30
0.0
 10
57.109970584
 20
44.1578487642
 30
0.0
 10
57.0979035663
 20
43.2054222465
 30
0.0
 10
57.0934241241
 20
42.252913423
 30
0.0
 10
57.0934241241
 20
41.7166666667
 30
0.0
  0
SPLINE
  5
26E
100
AcDbEntity
  8
00_COMPONENTS_1
100
AcDbSpline
 62
7
  6
BYLAYER
 70
0
 71
3
 72
9
 73
5
 74
0
 42
0.0000001
 43
0.0000001
 44
0.0000000001
 40
0.0
 40
0.0
 40
0.0
 40
0.0
 40
0.5293336945
 40
1.0
 40
1.0
 40
1.0
 40
1.0
 10
76.1274079143
 20
58.0416666667
 30
0.0
 10
76.1274079143
 20
57.9866684362
 30
0.0
 10
76.1297473433
 20
57.8827584466
 30
0.0
 10
76.1371472673
 20
57.7790469896
 30
0.0
 10
76.1424940396
 20
57.7304375254
 30
0.0
  0
SPLINE
  5
26F
100
AcDbEntity
  8
00_COMPONENTS_1
100
AcDbSpline
 62
7
  6
BYLAYER
 70
0
 71
3
 72
13
 73
9
 74
0
 42
0.0000001
 43
0.0000001
 44
0.0000000001
 40
0.0
 40
0.0
 40
0.0
 40
0.0
 40
0.3997571138
 40
0.5649139505
 40
0.7045566973
 40
0.8172320523
 40
0.902629392
 40
1.0
 40
1.0
 40
1.0
 40
1.0
 10
76.1424940396
 20
57.7304375254
 30
0.0
 10
76.1454185215
 20
57.7038499894
 30
0.0
 10
76.1503080343
 20
57.6663611728
 30
0.0
 10
76.159127617
 20
57.6199791929
 30
0.0
 10
76.1656039784
 20
57.5929255043
 30
0.0
 10
76.1726482103
 20
57.5710428816
 30
0.0
 10
76.1801646602
 20
57.5538393051
 30
0.0
 10
76.1893255498
 20
57.5416666667
 30
0.0
 10
76.1958406519
 20
57.5416666667
 30
0.0
  0
SPLINE
  5
270
100
AcDbEntity
  8
00_COMPONENTS_1
100
AcDbSpline
 62
7
  6
BYLAYER
 70
0
 71
3
 72
11
 73
7
 74
0
 42
0.0000001
 43
0.0000001
 44
0.0000000001
 40
0.0
 40
0.0
 40
0.0
 40
0.0
 40
0.173480293
 40
0.4101763897
 40
0.6931460078
 40
1.0
 40
1.0
 40
1.0
 40
1.0
 10
76.0872454672
 20
59.0986874259
 30
0.0
 10
76.0947796096
 20
59.073505313
 30
0.0
 10
76.1063498859
 20
59.0122149848
 30
0.0
 10
76.1182278821
 20
58.9078759647
 30
0.0
 10
76.1256784168
 20
58.7827966269
 30
0.0
 10
76.1274079143
 20
58.693426723
 30
0.0
 10
76.1274079143
 20
58.6469334745
 30
0.0
  0
SPLINE
  5
271
100
AcDbEntity
  8
00_COMPONENTS_1
100
AcDbSpline
 62
7
  6
BYLAYER
 70
0
 71
3
 72
12
 73
8
 74
0
 42
0.0000001
 43
0.0000001
 44
0.0000000001
 40
0.0
 40
0.0
 40
0.0
 40
0.0
 40
0.3108941118
 40
0.5881839349
 40
0.8207854903
 40
0.9175431693
 40
1.0
 40
1.0
 40
1.0
 40
1.0
 10
75.7930567978
 20
61.3404761905
 30
0.0
 10
75.8047770436
 20
61.1060385531
 30
0.0
 10
75.8344362247
 20
60.6628104686
 30
0.0
 10
75.9002358274
 20
60.0464637822
 30
0.0
 10
75.9705280688
 20
59.5935319412
 30
0.0
 10
76.0351837891
 20
59.2893324814
 30
0.0
 10
76.0694007743
 20
59.1583315168
 30
0.0
 10
76.0872454672
 20
59.0986874259
 30
0.0
  0
SPLINE
  5
272
100
AcDbEntity
  8
00_COMPONENTS_1
100
AcDbSpline
 62
7
  6
BYLAYER
 70
0
 71
3
 72
15
 73
11
 74
0
 42
0.0000001
 43
0.0000001
 44
0.0000000001
 40
0.0
 40
0.0
 40
0.0
 40
0.0
 40
0.0388349302
 40
0.0659358505
 40
0.099623501
 40
0.1881262067
 40
0.3045830002
 40
0.4472472191
 40
0.6133445255
 40
1.0
 40
1.0
 40
1.0
 40
1.0
 10
75.7154229753
 20
61.6916666667
 30
0.0
 10
75.7201973969
 20
61.6916666667
 30
0.0
 10
75.7279422043
 20
61.6868498896
 30
0.0
 10
75.735331253
 20
61.6772400677
 30
0.0
 10
75.7444159125
 20
61.6611562546
 30
0.0
 10
75.7544011758
 20
61.6334620355
 30
0.0
 10
75.7649450711
 20
61.5920142957
 30
0.0
 10
75.7743324361
 20
61.5405525233
 30
0.0
 10
75.7856382509
 20
61.4557890907
 30
0.0
 10
75.7906832951
 20
61.3879528725
 30
0.0
 10
75.7930567978
 20
61.3404761905
 30
0.0
  0
SPLINE
  5
273
100
AcDbEntity
  8
00_COMPONENTS_1
100
AcDbSpline
 62
7
  6
BYLAYER
 70
0
 71
3
 72
15
 73
11
 74
0
 42
0.0000001
 43
0.0000001
 44
0.0000000001
 40
0.0
 40
0.0
 40
0.0
 40
0.0
 40
0.3698838377
 40
0.5369218454
 40
0.683552741
 40
0.805013001
 40
0.8979881987
 40
0.9332532637
 40
0.9613224144
 40
1.0
 40
1.0
 40
1.0
 40
1.0
 10
75.2750472139
 20
62.1916666667
 30
0.0
 10
75.2750472139
 20
62.1273611289
 30
0.0
 10
75.2782651333
 20
62.0339398238
 30
0.0
 10
75.2900194681
 20
61.9156546494
 30
0.0
 10
75.3012874342
 20
61.8408010597
 30
0.0
 10
75.3149125367
 20
61.7794681359
 30
0.0
 10
75.3282547197
 20
61.7380436
 30
0.0
 10
75.3407359349
 20
61.7136763878
 30
0.0
 10
75.3507099464
 20
61.6993390694
 30
0.0
 10
75.3615202191
 20
61.6916666667
 30
0.0
 10
75.3682444462
 20
61.6916666667
 30
0.0
  0
SPLINE
  5
274
100
AcDbEntity
  8
00_COMPONENTS_1
100
AcDbSpline
 62
7
  6
BYLAYER
 70
0
 71
3
 72
19
 73
15
 74
0
 42
0.0000001
 43
0.0000001
 44
0.0000000001
 40
0.0
 40
0.0
 40
0.0
 40
0.0
 40
0.1910008855
 40
0.3747575164
 40
0.5439617135
 40
0.6924522224
 40
0.7572739506
 40
0.8150886593
 40
0.8654222613
 40
0.9079190593
 40
0.9423214376
 40
0.9564860466
 40
0.9686744726
 40
1.0
 40
1.0
 40
1.0
 40
1.0
 10
70.6260500427
 20
52.5916666667
 30
0.0
 10
70.6260500427
 20
52.382551826
 30
0.0
 10
70.6324098627
 20
51.9722260176
 30
0.0
 10
70.6602196913
 20
51.3772213234
 30
0.0
 10
70.7047327508
 20
50.8299104515
 30
0.0
 10
70.755399063
 20
50.4140162175
 30
0.0
 10
70.8033975955
 20
50.1210468101
 30
0.0
 10
70.8400055329
 20
49.9351937792
 30
0.0
 10
70.8783205361
 20
49.7747491362
 30
0.0
 10
70.9179744409
 20
49.6410195933
 30
0.0
 10
70.9532433309
 20
49.5478817718
 30
0.0
 10
70.9831416577
 20
49.4878383308
 30
0.0
 10
71.0147173184
 20
49.4351784614
 30
0.0
 10
71.0546432153
 20
49.391705389
 30
0.0
 10
71.0889367203
 20
49.3921469083
 30
0.0
  0
SPLINE
  5
275
100
AcDbEntity
  8
00_COMPONENTS_1
100
AcDbSpline
 62
7
  6
BYLAYER
 70
0
 71
3
 72
21
 73
17
 74
0
 42
0.0000001
 43
0.0000001
 44
0.0000000001
 40
0.0
 40
0.0
 40
0.0
 40
0.0
 40
0.1943327127
 40
0.3813422714
 40
0.5535372944
 40
0.6320354513
 40
0.70446068
 40
0.7701452679
 40
0.8284957825
 40
0.8789470906
 40
0.9210272681
 40
0.9543010158
 40
0.9784710318
 40
0.9934293411
 40
0.9975768231
 40
1.0
 40
1.0
 40
1.0
 40
1.0
 10
71.8704919603
 20
52.5916666667
 30
0.0
 10
71.8704919603
 20
52.383438643
 30
0.0
 10
71.8732542213
 20
51.9748237379
 30
0.0
 10
71.8852608514
 20
51.3818116299
 30
0.0
 10
71.9014832123
 20
50.9130716367
 30
0.0
 10
71.917825549
 20
50.5672313194
 30
0.0
 10
71.9308663321
 20
50.3354988106
 30
0.0
 10
71.944826844
 20
50.125448899
 30
0.0
 10
71.959427274
 20
49.9390564952
 30
0.0
 10
71.9744153508
 20
49.7780612286
 30
0.0
 10
71.9894740992
 20
49.6441323196
 30
0.0
 10
72.0043762866
 20
49.5384138857
 30
0.0
 10
72.0185411103
 20
49.4623424016
 30
0.0
 10
72.0311147138
 20
49.4171527575
 30
0.0
 10
72.0413861837
 20
49.3967096787
 30
0.0
 10
72.0478844448
 20
49.3920292951
 30
0.0
 10
72.0504786731
 20
49.3921364555
 30
0.0
  0
SPLINE
  5
276
100
AcDbEntity
  8
00_COMPONENTS_1
100
AcDbSpline
 62
7
  6
BYLAYER
 70
0
 71
3
 72
19
 73
15
 74
0
 42
0.0000001
 43
0.0000001
 44
0.0000000001
 40
0.0
 40
0.0
 40
0.0
 40
0.0
 40
0.0308535391
 40
0.0427701246
 40
0.0566452895
 40
0.0905245807
 40
0.13271572
 40
0.1829206835
 40
0.2407015004
 40
0.305565377
 40
0.454370375
 40
0.6240899882
 40
0.8084005669
 40
1.0
 40
1.0
 40
1.0
 40
1.0
 10
71.0889367203
 20
49.3921469083
 30
0.0
 10
71.1225569991
 20
49.3925797601
 30
0.0
 10
71.1607408424
 20
49.4359825579
 30
0.0
 10
71.1897493429
 20
49.4885635743
 30
0.0
 10
71.2167406271
 20
49.5483197812
 30
0.0
 10
71.2475508191
 20
49.641280767
 30
0.0
 10
71.2808912151
 20
49.7749762977
 30
0.0
 10
71.3120574281
 20
49.9356597277
 30
0.0
 10
71.3409222564
 20
50.1218447072
 30
0.0
 10
71.3776589305
 20
50.4153990423
 30
0.0
 10
71.4145893285
 20
50.8316929278
 30
0.0
 10
71.4456726424
 20
51.3788405333
 30
0.0
 10
71.4644985193
 20
51.9732032207
 30
0.0
 10
71.4687115578
 20
52.3828685708
 30
0.0
 10
71.4687115578
 20
52.5916666667
 30
0.0
  0
SPLINE
  5
277
100
AcDbEntity
  8
00_COMPONENTS_1
100
AcDbSpline
 62
7
  6
BYLAYER
 70
0
 71
3
 72
20
 73
16
 74
0
 42
0.0000001
 43
0.0000001
 44
0.0000000001
 40
0.0
 40
0.0
 40
0.0
 40
0.0
 40
0.3753828834
 40
0.5449052091
 40
0.6936060928
 40
0.7583922857
 40
0.8160325996
 40
0.8660554073
 40
0.9081454863
 40
0.9420968188
 40
0.9679950794
 40
0.9781063233
 40
0.9865368232
 40
0.9936383642
 40
1.0
 40
1.0
 40
1.0
 40
1.0
 10
71.4687115578
 20
52.5916666667
 30
0.0
 10
71.4687115578
 20
53.0012781849
 30
0.0
 10
71.4574176516
 20
53.5960364823
 30
0.0
 10
71.4145463497
 20
54.3517352704
 30
0.0
 10
71.3776588047
 20
54.7681655797
 30
0.0
 10
71.3409454157
 20
55.0617588448
 30
0.0
 10
71.3120947035
 20
55.2477474883
 30
0.0
 10
71.2808322094
 20
55.408178265
 30
0.0
 10
71.2475179497
 20
55.5417661125
 30
0.0
 10
71.2123524748
 20
55.6473706835
 30
0.0
 10
71.1796997327
 20
55.7168873758
 30
0.0
 10
71.1514314302
 20
55.7564740364
 30
0.0
 10
71.1314460099
 20
55.7763236284
 30
0.0
 10
71.1106675123
 20
55.7887551832
 30
0.0
 10
71.0958767528
 20
55.7916883764
 30
0.0
 10
71.0889350443
 20
55.7916935849
 30
0.0
  0
SPLINE
  5
278
100
AcDbEntity
  8
00_COMPONENTS_1
100
AcDbSpline
 62
7
  6
BYLAYER
 70
0
 71
3
 72
21
 73
17
 74
0
 42
0.0000001
 43
0.0000001
 44
0.0000000001
 40
0.0
 40
0.0
 40
0.0
 40
0.0
 40
0.1945265083
 40
0.3816693086
 40
0.5540629401
 40
0.6326788624
 40
0.705190492
 40
0.7709063878
 40
0.8292061823
 40
0.8795283973
 40
0.9214369479
 40
0.9545365642
 40
0.9785747904
 40
0.9934492859
 40
0.9975817234
 40
1.0
 40
1.0
 40
1.0
 40
1.0
 10
72.1492382536
 20
52.5916666667
 30
0.0
 10
72.1492382536
 20
52.7997795221
 30
0.0
 10
72.148530326
 20
53.208106323
 30
0.0
 10
72.1451991267
 20
53.8008589001
 30
0.0
 10
72.140131217
 20
54.2695896628
 30
0.0
 10
72.1342647585
 20
54.615658187
 30
0.0
 10
72.1291313094
 20
54.8475907385
 30
0.0
 10
72.1230795879
 20
55.0577604639
 30
0.0
 10
72.1160732284
 20
55.244141747
 30
0.0
 10
72.1080658831
 20
55.405005579
 30
0.0
 10
72.0991329053
 20
55.5387619443
 30
0.0
 10
72.0892510781
 20
55.6443859332
 30
0.0
 10
72.0788371841
 20
55.720517859
 30
0.0
 10
72.0685288863
 20
55.7659493334
 30
0.0
 10
72.0593181212
 20
55.7867291959
 30
0.0
 10
72.0530640548
 20
55.7916890216
 30
0.0
 10
72.0504768806
 20
55.7916926772
 30
0.0
  0
SPLINE
  5
279
100
AcDbEntity
  8
00_COMPONENTS_1
100
AcDbSpline
 62
7
  6
BYLAYER
 70
0
 71
3
 72
23
 73
19
 74
0
 42
0.0000001
 43
0.0000001
 44
0.0000000001
 40
0.0
 40
0.0
 40
0.0
 40
0.0
 40
0.0051118629
 40
0.0111395223
 40
0.0187361097
 40
0.0282176485
 40
0.0397284881
 40
0.053334913
 40
0.0869141909
 40
0.1288992523
 40
0.17900945
 40
0.2368751285
 40
0.3019839879
 40
0.3737773309
 40
0.4515886106
 40
0.6222053903
 40
0.8074480808
 40
1.0
 40
1.0
 40
1.0
 40
1.0
 10
56.4397031802
 20
38.2168494655
 30
0.0
 10
56.4457568223
 20
38.2167920505
 30
0.0
 10
56.4590811325
 20
38.2201121354
 30
0.0
 10
56.4769298431
 20
38.2339216886
 30
0.0
 10
56.4938868477
 20
38.2555956732
 30
0.0
 10
56.5103943071
 20
38.2852583431
 30
0.0
 10
56.5265486924
 20
38.3229662942
 30
0.0
 10
56.5491998846
 20
38.3887325168
 30
0.0
 10
56.5752134191
 20
38.4912319224
 30
0.0
 10
56.6030516032
 20
38.6374785184
 30
0.0
 10
56.6289317236
 20
38.8132240146
 30
0.0
 10
56.65264616
 20
39.0168501477
 30
0.0
 10
56.6740795959
 20
39.2465297895
 30
0.0
 10
56.6930993616
 20
39.5001111138
 30
0.0
 10
56.7158508819
 20
39.8786730101
 30
0.0
 10
56.737019859
 20
40.3918723611
 30
0.0
 10
56.7518968988
 20
41.0412040043
 30
0.0
 10
56.7551906254
 20
41.4886298711
 30
0.0
 10
56.7551906254
 20
41.7166666667
 30
0.0
  0
SPLINE
  5
27A
100
AcDbEntity
  8
00_COMPONENTS_1
100
AcDbSpline
 62
7
  6
BYLAYER
 70
0
 71
3
 72
21
 73
17
 74
0
 42
0.0000001
 43
0.0000001
 44
0.0000000001
 40
0.0
 40
0.0
 40
0.0
 40
0.0
 40
0.0024561833
 40
0.0066261583
 40
0.0214332892
 40
0.0452802242
 40
0.0782534609
 40
0.120220381
 40
0.1706782241
 40
0.2290567843
 40
0.2947764455
 40
0.3672519384
 40
0.4458376887
 40
0.6182392046
 40
0.8054382597
 40
1.0
 40
1.0
 40
1.0
 40
1.0
 10
72.0504786731
 20
49.3921364555
 30
0.0
 10
72.0531036597
 20
49.3922448864
 30
0.0
 10
72.0592560318
 20
49.3973901157
 30
0.0
 10
72.0684971808
 20
49.418126139
 30
0.0
 10
72.0788200702
 20
49.4633294246
 30
0.0
 10
72.0892886458
 20
49.5390090117
 30
0.0
 10
72.0991673465
 20
49.6443425336
 30
0.0
 10
72.1080751651
 20
49.7781442151
 30
0.0
 10
72.1160655604
 20
49.9392709956
 30
0.0
 10
72.1230735886
 20
50.1258493675
 30
0.0
 10
72.1291304339
 20
50.3360282148
 30
0.0
 10
72.1342702562
 20
50.5678490132
 30
0.0
 10
72.1401405845
 20
50.9137883713
 30
0.0
 10
72.1452033902
 20
51.3824653142
 30
0.0
 10
72.1485279679
 20
51.975210119
 30
0.0
 10
72.1492382536
 20
52.3835561807
 30
0.0
 10
72.1492382536
 20
52.5916666667
 30
0.0
  0
SPLINE
  5
27B
100
AcDbEntity
  8
00_COMPONENTS_1
100
AcDbSpline
 62
7
  6
BYLAYER
 70
0
 71
3
 72
11
 73
7
 74
0
 42
0.0000001
 43
0.0000001
 44
0.0000000001
 40
0.0
 40
0.0
 40
0.0
 40
0.0
 40
0.2894172465
 40
0.5624757186
 40
0.8037923395
 40
1.0
 40
1.0
 40
1.0
 40
1.0
 10
56.7551906254
 20
41.7166666667
 30
0.0
 10
56.7551906254
 20
41.9923905833
 30
0.0
 10
56.7504510178
 20
42.5282635013
 30
0.0
 10
56.7290391957
 20
43.2937969948
 30
0.0
 10
56.6935573727
 20
43.9698728307
 30
0.0
 10
56.657245731
 20
44.3853337512
 30
0.0
 10
56.6342579244
 20
44.5708392535
 30
0.0
  0
ENDSEC
  0
SECTION
  2
OBJECTS
  0
DICTIONARY
  5
C
100
AcDbDictionary
280
0
281
1
  3
ACAD_GROUP
350
D
  3
ACAD_MLINESTYLE
350
17
  3
ACAD_LAYOUT
350
1A
  3
ACAD_PLOTSETTINGS
350
19
  3
ACAD_PLOTSTYLENAME
350
E
  0
DICTIONARY
  5
D
102
{ACAD_REACTORS
330
C
102
}
100
AcDbDictionary
280
0
281
1
  0
ACDBDICTIONARYWDFLT
  5
E
102
{ACAD_REACTORS
330
C
102
}
100
AcDbDictionary
281
1
  3
Normal
350
F
100
AcDbDictionaryWithDefault
340
F
  0
DICTIONARY
  5
17
102
{ACAD_REACTORS
330
C
102
}
100
AcDbDictionary
280
0
281
1
  3
Standard
350
18
  0
DICTIONARY
  5
19
102
{ACAD_REACTORS
330
C
102
}
100
AcDbDictionary
281
1
  0
DICTIONARY
  5
1A
102
{ACAD_REACTORS
330
C
102
}
100
AcDbDictionary
281
1
  3
Model
350
27C
  3
Layout1
350
27D
  0
ACDBPLACEHOLDER
  5
F
102
{ACAD_REACTORS
330
E
102
}
  0
MLINESTYLE
  5
18
102
{ACAD_REACTORS
330
17
102
}
100
AcDbMlineStyle
  2
STANDARD
 70
0
  3

 62
256
 51
90.0
 52
90.0
 71
2
 49
0.5
 62
256
  6
BYLAYER
 49
-0.5
 62
256
  6
BYLAYER
  0
LAYOUT
  5
27C
102
{ACAD_REACTORS
330
1A
102
}
100
AcDbPlotSettings
  1

  2
none_device
  4

  6

 40
0.0
 41
0.0
 42
0.0
 43
0.0
 44
210.0
 45
297.0
 46
0.0
 47
0.0
 48
0.0
 49
0.0
140
0.0
141
0.0
142
1.0
143
1.0
 70
1024
 72
1
 73
0
 74
0
  7

 75
0
147
1.0
148
0.0
149
0.0
100
AcDbLayout
  1
Model
 70
0
 71
0
 10
0.0
 20
0.0
 11
210.0
 21
297.0
 12
0.0
 22
0.0
 32
0.0
 14
0.0
 24
0.0
 34
0.0
 15
0.0
 25
0.0
 35
0.0
146
0.0
 13
0.0
 23
0.0
 33
0.0
 16
1.0
 26
0.0
 36
0.0
 17
0.0
 27
1.0
 37
0.0
 76
0
330
216
345
0
346
0
  0
LAYOUT
  5
27D
102
{ACAD_REACTORS
330
1A
102
}
100
AcDbPlotSettings
  1

  2
none_device
  4

  6

 40
0.0
 41
0.0
 42
0.0
 43
0.0
 44
210.0
 45
297.0
 46
0.0
 47
0.0
 48
0.0
 49
0.0
140
0.0
141
0.0
142
1.0
143
1.0
 70
0
 72
1
 73
0
 74
0
  7

 75
0
147
1.0
148
0.0
149
0.0
100
AcDbLayout
  1
Layout1
 70
0
 71
1
 10
0.0
 20
0.0
 11
210.0
 21
297.0
 12
0.0
 22
0.0
 32
0.0
 14
0.0
 24
0.0
 34
0.0
 15
0.0
 25
0.0
 35
0.0
146
0.0
 13
0.0
 23
0.0
 33
0.0
 16
1.0
 26
0.0
 36
0.0
 17
0.0
 27
1.0
 37
0.0
 76
0
330
217
345
0
346
0
  0
ENDSEC
  0
EOF
