999
DXF file: C:\Users\sesa63760\Dev\_Creo\CAD\MCADPD0003958_3D-CAD\drw0001_1.dxf
999
Pro/ENGINEER 2019471 by Parametric Technology Corporation
  0
SECTION
  2
HEADER
  9
$ACADVER
  1
AC1024
  9
$DWGCODEPAGE
  3
ANSI_1252
  9
$EXTMAX
 10
81.9094860677
 20
115.84341601
 30
0.0
  9
$EXTMIN
 10
0.0
 20
0.0
 30
0.0
  9
$LIMMIN
 10
0.0
 20
0.0
  9
$LIMMAX
 10
81.9094860677
 20
115.84341601
  9
$VIEWCTR
 10
40.9547430338
 20
57.921708005
  9
$VIEWSIZE
 40
115.84341601
  9
$CLAYER
  8
0
  9
$LTSCALE
 40
7.5512745251
  9
$CELTYPE
  6
BYLAYER
  9
$DIMSCALE
 40
1.0
  9
$DIMASZ
 40
0.9751129294
  9
$DIMEXO
 40
1.0
  9
$DIMDLI
 40
5.2172442173
  9
$DIMEXE
 40
1.0
  9
$DIMCEN
 40
1.2356631041
  9
$DIMLFAC
 40
1.0
  9
$DIMBLK
  1
_FILLED
  9
$DIMALT
 70
0
  9
$DIMALTF
 40
0.0393700787
  9
$DIMTXT
 40
1.3651581011
  9
$DIMTOL
 70
1
  9
$DIMLIM
 70
0
  9
$DIMTFAC
 40
1.0
  9
$DIMTP
 40
0.01
  9
$DIMTM
 40
0.01
  9
$DIMGAP
 40
0.625
  9
$DIMDSEP
 70
46
  9
$AUNITS
 70
0
  9
$PDMODE
 70
3
  9
$PDSIZE
 40
0.3125
  9
$HANDSEED
  5
389
  9
$TILEMODE
 70
1
  9
$MEASUREMENT
 70
1
  9
$INSUNITS
 70
4
  0
ENDSEC
  0
SECTION
  2
CLASSES
  0
CLASS
  1
ACDBDICTIONARYWDFLT
  2
AcDbDictionaryWithDefault
  3
AutoCAD 2000
 90
0
 91
1
280
0
281
0
  0
CLASS
  1
ACDBPLACEHOLDER
  2
AcDbPlaceHolder
  3
AutoCAD 2000
 90
0
 91
1
280
0
281
0
  0
CLASS
  1
LAYOUT
  2
AcDbLayout
  3
AutoCAD 2000
 90
0
 91
0
280
0
281
0
  0
ENDSEC
  0
SECTION
  2
TABLES
  0
TABLE
  2
VPORT
  5
8
100
AcDbSymbolTable
 70
2
  0
VPORT
  5
1F4
100
AcDbSymbolTableRecord
100
AcDbViewportTableRecord
  2
*ACTIVE
 70
0
 10
0.0
 20
0.0
 11
1.0
 21
1.0
 12
40.9547430338
 22
57.921708005
 13
0.0
 23
0.0
 14
1.0
 24
1.0
 15
0.0
 25
0.0
 16
0.0
 26
0.0
 36
1.0
 17
0.0
 27
0.0
 37
0.0
 40
115.84341601
 41
0.7070707071
 42
50.0
 43
0.0
 44
0.0
 50
0.0
 51
0.0
 71
0
 72
100
 73
1
 74
1
 75
0
 76
0
 77
0
 78
0
  0
ENDTAB
  0
TABLE
  2
LTYPE
  5
5
100
AcDbSymbolTable
 70
6
  0
LTYPE
  5
14
100
AcDbSymbolTableRecord
100
AcDbLinetypeTableRecord
  2
BYBLOCK
 70
0
  3

 72
65
 73
0
 40
0.0
  0
LTYPE
  5
15
100
AcDbSymbolTableRecord
100
AcDbLinetypeTableRecord
  2
BYLAYER
 70
0
  3

 72
65
 73
0
 40
0.0
  0
LTYPE
  5
16
100
AcDbSymbolTableRecord
100
AcDbLinetypeTableRecord
  2
CONTINUOUS
 70
64
  3
Solid line
 72
65
 73
0
 40
0.0
  0
LTYPE
  5
1F5
100
AcDbSymbolTableRecord
100
AcDbLinetypeTableRecord
  2
CENTER
 70
64
  3
____ _ ____ _ ____ _ ____ _ ____ _ ____ _ ____
 72
65
 73
4
 40
0.6
 49
0.375
 74
0
 49
-0.075
 74
0
 49
0.075
 74
0
 49
-0.075
 74
0
  0
LTYPE
  5
1F6
100
AcDbSymbolTableRecord
100
AcDbLinetypeTableRecord
  2
HIDDEN
 70
64
  3
- - - - - - - - - - - - - - - - - - - -
 72
65
 73
2
 40
0.2
 49
0.1
 74
0
 49
-0.1
 74
0
  0
LTYPE
  5
1F7
100
AcDbSymbolTableRecord
100
AcDbLinetypeTableRecord
  2
PHANTOM
 70
64
  3
_____ _ _ _____ _ _ _____ _ _ _____
 72
65
 73
6
 40
0.8
 49
0.45
 74
0
 49
-0.05
 74
0
 49
0.1
 74
0
 49
-0.05
 74
0
 49
0.1
 74
0
 49
-0.05
 74
0
  0
LTYPE
  5
1F8
100
AcDbSymbolTableRecord
100
AcDbLinetypeTableRecord
  2
DOT
 70
64
  3
. . . . . . . . . . . . . . . . . . . .
 72
65
 73
2
 40
0.2
 49
0.1
 74
0
 49
-0.1
 74
0
  0
LTYPE
  5
1F9
100
AcDbSymbolTableRecord
100
AcDbLinetypeTableRecord
  2
DASHED
 70
64
  3
- - - - - - - - - - - - - - - - - - - -
 72
65
 73
2
 40
0.2
 49
0.1
 74
0
 49
-0.1
 74
0
  0
ENDTAB
  0
TABLE
  2
LAYER
  5
2
100
AcDbSymbolTable
 70
36
  0
LAYER
  5
10
100
AcDbSymbolTableRecord
100
AcDbLayerTableRecord
  2
0
 70
0
 62
7
  6
CONTINUOUS
370
-3
390
F
  0
LAYER
  5
1FA
100
AcDbSymbolTableRecord
100
AcDbLayerTableRecord
  2
DEFAULT_1
 70
0
 62
7
  6
CENTER
370
-3
390
F
  0
LAYER
  5
1FB
100
AcDbSymbolTableRecord
100
AcDbLayerTableRecord
  2
DEFAULT_2
 70
0
 62
7
  6
HIDDEN
370
-3
390
F
  0
LAYER
  5
1FC
100
AcDbSymbolTableRecord
100
AcDbLayerTableRecord
  2
DEFAULT_3
 70
0
 62
7
  6
PHANTOM
370
-3
390
F
  0
LAYER
  5
1FD
100
AcDbSymbolTableRecord
100
AcDbLayerTableRecord
  2
00_COMPONENTS
 70
0
 62
7
  6
CONTINUOUS
370
-3
390
F
  0
LAYER
  5
1FE
100
AcDbSymbolTableRecord
100
AcDbLayerTableRecord
  2
01_1_DEFAULT_DATUMS
 70
0
 62
7
  6
CONTINUOUS
370
-3
390
F
  0
LAYER
  5
1FF
100
AcDbSymbolTableRecord
100
AcDbLayerTableRecord
  2
01_PLANES
 70
0
 62
7
  6
CONTINUOUS
370
-3
390
F
  0
LAYER
  5
200
100
AcDbSymbolTableRecord
100
AcDbLayerTableRecord
  2
02_COORD_SYS
 70
0
 62
7
  6
CONTINUOUS
370
-3
390
F
  0
LAYER
  5
201
100
AcDbSymbolTableRecord
100
AcDbLayerTableRecord
  2
03_AXES
 70
0
 62
7
  6
CONTINUOUS
370
-3
390
F
  0
LAYER
  5
202
100
AcDbSymbolTableRecord
100
AcDbLayerTableRecord
  2
04_POINTS
 70
0
 62
7
  6
CONTINUOUS
370
-3
390
F
  0
LAYER
  5
203
100
AcDbSymbolTableRecord
100
AcDbLayerTableRecord
  2
05_CURVES
 70
0
 62
7
  6
CONTINUOUS
370
-3
390
F
  0
LAYER
  5
204
100
AcDbSymbolTableRecord
100
AcDbLayerTableRecord
  2
06_SURFS
 70
0
 62
7
  6
CONTINUOUS
370
-3
390
F
  0
LAYER
  5
205
100
AcDbSymbolTableRecord
100
AcDbLayerTableRecord
  2
07_COSMETICS
 70
0
 62
7
  6
CONTINUOUS
370
-3
390
F
  0
LAYER
  5
206
100
AcDbSymbolTableRecord
100
AcDbLayerTableRecord
  2
10_NOTES
 70
0
 62
7
  6
CONTINUOUS
370
-3
390
F
  0
LAYER
  5
207
100
AcDbSymbolTableRecord
100
AcDbLayerTableRecord
  2
11_NOTES_PUB
 70
0
 62
7
  6
CONTINUOUS
370
-3
390
F
  0
LAYER
  5
208
100
AcDbSymbolTableRecord
100
AcDbLayerTableRecord
  2
13_REF_GTOL
 70
0
 62
7
  6
CONTINUOUS
370
-3
390
F
  0
LAYER
  5
209
100
AcDbSymbolTableRecord
100
AcDbLayerTableRecord
  2
16_MISC
 70
0
 62
7
  6
CONTINUOUS
370
-3
390
F
  0
LAYER
  5
20A
100
AcDbSymbolTableRecord
100
AcDbLayerTableRecord
  2
17_NO_PRINT
 70
0
 62
7
  6
CONTINUOUS
370
-3
390
F
  0
LAYER
  5
20B
100
AcDbSymbolTableRecord
100
AcDbLayerTableRecord
  2
18_DATUM_CAMS_JOINTS
 70
0
 62
7
  6
CONTINUOUS
370
-3
390
F
  0
LAYER
  5
20C
100
AcDbSymbolTableRecord
100
AcDbLayerTableRecord
  2
19_DATUM_FUNCTIONAL
 70
0
 62
7
  6
CONTINUOUS
370
-3
390
F
  0
LAYER
  5
20D
100
AcDbSymbolTableRecord
100
AcDbLayerTableRecord
  2
20_DATUM_KINEMATIC_SCHEME
 70
0
 62
7
  6
CONTINUOUS
370
-3
390
F
  0
ENDTAB
  0
TABLE
  2
STYLE
  5
3
100
AcDbSymbolTable
 70
1
  0
STYLE
  5
11
100
AcDbSymbolTableRecord
100
AcDbTextStyleTableRecord
  2
STANDARD
 70
0
 40
0.0
 41
1.0
 50
0.0
 71
0
 42
0.2
  3
ARIAL.TTF
  4

  0
STYLE
  5
20E
100
AcDbSymbolTableRecord
100
AcDbTextStyleTableRecord
  2
TEXTSTYLE_1
 70
0
 40
0.0
 41
0.8
 50
0.0
 71
0
 42
0.2
  3
gdt
  4

  0
ENDTAB
  0
TABLE
  2
VIEW
  5
6
100
AcDbSymbolTable
 70
0
  0
ENDTAB
  0
TABLE
  2
UCS
  5
7
100
AcDbSymbolTable
 70
0
  0
ENDTAB
  0
TABLE
  2
APPID
  5
9
100
AcDbSymbolTable
 70
1
  0
APPID
  5
20F
100
AcDbSymbolTableRecord
100
AcDbRegAppTableRecord
  2
ACAD
 70
0
  0
ENDTAB
  0
TABLE
  2
BLOCK_RECORD
  5
1
100
AcDbSymbolTable
 70
0
  0
BLOCK_RECORD
  5
210
100
AcDbSymbolTableRecord
100
AcDbBlockTableRecord
  2
*Model_Space
  0
BLOCK_RECORD
  5
211
100
AcDbSymbolTableRecord
100
AcDbBlockTableRecord
  2
*Paper_Space
  0
BLOCK_RECORD
  5
212
100
AcDbSymbolTableRecord
100
AcDbBlockTableRecord
  2
_FILLED
  0
ENDTAB
  0
TABLE
  2
DIMSTYLE
  5
A
100
AcDbSymbolTable
 70
1
100
AcDbDimStyleTable
 71
0
  0
DIMSTYLE
105
213
100
AcDbSymbolTableRecord
100
AcDbDimStyleTableRecord
  2
STANDARD
 70
0
  3

  4

 40
1.0
 41
0.9751129294
 42
1.0
 43
0.38
 44
1.0
 45
0.0
 46
0.0
 47
0.01
 48
0.01
140
1.3651581011
141
0.09
142
0.0
143
25.4
144
1.0
145
0.0
146
1.0
147
0.625
 71
1
 72
0
 73
0
 74
0
 75
0
 76
0
 77
1
 78
8
 79
2
170
0
171
1
172
0
173
0
174
0
175
0
176
0
177
0
178
0
270
2
179
2
271
2
272
2
273
2
274
2
275
0
280
0
281
0
282
0
283
1
284
8
285
0
286
0
287
3
288
0
340
11
278
46
341
212
342
212
343
212
344
212
  0
ENDTAB
  0
ENDSEC
  0
SECTION
  2
BLOCKS
  0
BLOCK
  5
20
100
AcDbEntity
  8
0
100
AcDbBlockBegin
  2
*Model_Space
 70
0
 10
0.0
 20
0.0
 30
0.0
  3
*Model_Space
  1

  0
ENDBLK
  5
21
100
AcDbEntity
  8
0
100
AcDbBlockEnd
  0
BLOCK
  5
1C
100
AcDbEntity
  8
0
100
AcDbBlockBegin
  2
*Paper_Space
 70
0
 10
0.0
 20
0.0
 30
0.0
  3
*Paper_Space
  1

  0
ENDBLK
  5
1D
100
AcDbEntity
  8
0
100
AcDbBlockEnd
  0
BLOCK
  5
214
100
AcDbEntity
  8
0
100
AcDbBlockBegin
  2
_FILLED
 70
64
 10
0.0
 20
0.0
  3
_FILLED
  1

  0
SOLID
  5
215
100
AcDbEntity
  8
0
  6
BYBLOCK
 62
0
100
AcDbTrace
 10
0.0
 20
0.0
 11
-1.0
 21
0.25
 12
-1.0
 22
-0.25
 13
-1.0
 23
-0.25
  0
ENDBLK
  5
216
100
AcDbEntity
  8
0
  6
BYBLOCK
 62
0
100
AcDbBlockEnd
  0
ENDSEC
  0
SECTION
  2
ENTITIES
  0
LINE
  5
217
100
AcDbEntity
  8
0
100
AcDbLine
 62
7
  6
BYLAYER
 10
9.5024427749
 20
45.5882779191
 11
9.5024427749
 21
46.5680808197
  0
LINE
  5
218
100
AcDbEntity
  8
0
100
AcDbLine
 62
7
  6
BYLAYER
 10
10.2095525
 20
45.1800371646
 11
10.2095525
 21
46.1598400652
  0
LINE
  5
219
100
AcDbEntity
  8
0
100
AcDbLine
 62
7
  6
BYLAYER
 10
11.623739138
 20
46.1598279198
 11
11.623739138
 21
45.1800250193
  0
LINE
  5
21A
100
AcDbEntity
  8
0
100
AcDbLine
 62
7
  6
BYLAYER
 10
14.5128616645
 20
43.9145257534
 11
14.5128616645
 21
42.9347228528
  0
LINE
  5
21B
100
AcDbEntity
  8
0
100
AcDbLine
 62
7
  6
BYLAYER
 10
14.6996092916
 20
46.9558688801
 11
14.6996092916
 21
47.9356717806
  0
LINE
  5
21C
100
AcDbEntity
  8
0
100
AcDbLine
 62
7
  6
BYLAYER
 10
14.8057657135
 20
43.5062751608
 11
14.8057657135
 21
42.5264722602
  0
LINE
  5
21D
100
AcDbEntity
  8
0
100
AcDbLine
 62
7
  6
BYLAYER
 10
14.9186997131
 20
49.695139555
 11
14.9186997131
 21
65.7932069199
  0
LINE
  5
21E
100
AcDbEntity
  8
0
100
AcDbLine
 62
7
  6
BYLAYER
 10
15.5128754386
 20
42.1182315057
 11
15.5128754386
 21
43.0980344063
  0
LINE
  5
21F
100
AcDbEntity
  8
0
100
AcDbLine
 62
7
  6
BYLAYER
 10
15.7672313833
 20
52.8257257028
 11
15.7672313833
 21
60.2558976987
  0
LINE
  5
220
100
AcDbEntity
  8
0
100
AcDbLine
 62
7
  6
BYLAYER
 10
15.7672313833
 20
61.2357005992
 11
15.7672313833
 21
64.4601106323
  0
LINE
  5
221
100
AcDbEntity
  8
0
100
AcDbLine
 62
7
  6
BYLAYER
 10
28.4950933876
 20
79.4435565063
 11
33.6385315805
 21
82.4131042057
  0
LINE
  5
222
100
AcDbEntity
  8
0
100
AcDbLine
 62
7
  6
BYLAYER
 10
9.5024427749
 20
45.5882779191
 11
10.2095525
 21
45.1800371646
  0
LINE
  5
223
100
AcDbEntity
  8
0
100
AcDbLine
 62
7
  6
BYLAYER
 10
14.8057657135
 20
42.5264722602
 11
15.5128754386
 21
42.1182315057
  0
LINE
  5
224
100
AcDbEntity
  8
0
100
AcDbLine
 62
7
  6
BYLAYER
 10
19.0484240644
 20
40.0770277331
 11
19.7555337895
 21
39.6687869786
  0
LINE
  5
225
100
AcDbEntity
  8
0
100
AcDbLine
 62
7
  6
BYLAYER
 10
24.351747003
 20
37.0152220742
 11
25.0588567281
 21
36.6069813197
  0
LINE
  5
226
100
AcDbEntity
  8
0
100
AcDbLine
 62
7
  6
BYLAYER
 10
28.5944053538
 20
34.5657775471
 11
29.301515079
 21
34.1575367926
  0
LINE
  5
227
100
AcDbEntity
  8
0
100
AcDbLine
 62
7
  6
BYLAYER
 10
33.8977282924
 20
31.5039718882
 11
34.6048380176
 21
31.0957311337
  0
LINE
  5
228
100
AcDbEntity
  8
0
100
AcDbLine
 62
7
  6
BYLAYER
 10
9.5024427749
 20
46.5680808197
 11
10.2095525
 21
46.1598400652
  0
LINE
  5
229
100
AcDbEntity
  8
0
100
AcDbLine
 62
7
  6
BYLAYER
 10
14.8057657135
 20
43.5062751608
 11
15.5128754386
 21
43.0980344063
  0
LINE
  5
22A
100
AcDbEntity
  8
0
100
AcDbLine
 62
7
  6
BYLAYER
 10
19.0484240644
 20
41.0568306337
 11
19.7555337895
 21
40.6485898791
  0
LINE
  5
22B
100
AcDbEntity
  8
0
100
AcDbLine
 62
7
  6
BYLAYER
 10
24.351747003
 20
37.9950249748
 11
25.0588567281
 21
37.5867842202
  0
LINE
  5
22C
100
AcDbEntity
  8
0
100
AcDbLine
 62
7
  6
BYLAYER
 10
28.5944053538
 20
35.5455804476
 11
29.301515079
 21
35.1373396931
  0
LINE
  5
22D
100
AcDbEntity
  8
0
100
AcDbLine
 62
7
  6
BYLAYER
 10
33.8977282924
 20
32.4837747887
 11
34.6048380176
 21
32.0755340342
  0
LINE
  5
22E
100
AcDbEntity
  8
0
100
AcDbLine
 62
7
  6
BYLAYER
 10
17.0397200586
 20
52.0910706437
 11
17.0397197611
 21
49.7739083406
  0
LINE
  5
22F
100
AcDbEntity
  8
0
100
AcDbLine
 62
7
  6
BYLAYER
 10
17.3397026119
 20
53.7335869707
 11
17.3397026119
 21
59.3480515498
  0
LINE
  5
230
100
AcDbEntity
  8
0
100
AcDbLine
 62
7
  6
BYLAYER
 10
17.4147762585
 20
53.6902441612
 11
17.4147762585
 21
59.3047087403
  0
LINE
  5
231
100
AcDbEntity
  8
0
100
AcDbLine
 62
7
  6
BYLAYER
 10
17.888187551
 20
49.9814734313
 11
17.8881878273
 21
51.4643184795
  0
LINE
  5
232
100
AcDbEntity
  8
0
100
AcDbLine
 62
7
  6
BYLAYER
 10
18.262407692
 20
54.2663078172
 11
18.2619280858
 21
58.8156164695
  0
LINE
  5
233
100
AcDbEntity
  8
0
100
AcDbLine
 62
7
  6
BYLAYER
 10
18.6121915746
 20
52.9989317458
 11
18.6121915746
 21
51.8823190792
  0
LINE
  5
234
100
AcDbEntity
  8
0
100
AcDbLine
 62
7
  6
BYLAYER
 10
19.0484240644
 20
40.0770277331
 11
19.0484240644
 21
41.0568306337
  0
LINE
  5
235
100
AcDbEntity
  8
0
100
AcDbLine
 62
7
  6
BYLAYER
 10
21.7331975951
 20
53.657413098
 11
21.734123338
 21
53.5354559843
  0
LINE
  5
236
100
AcDbEntity
  8
0
100
AcDbLine
 62
7
  6
BYLAYER
 10
19.7555337895
 20
39.6687869786
 11
19.7555337895
 21
40.6485898791
  0
LINE
  5
237
100
AcDbEntity
  8
0
100
AcDbLine
 62
7
  6
BYLAYER
 10
20.4907035629
 20
52.3137770599
 11
20.4907035629
 21
54.0423223315
  0
LINE
  5
238
100
AcDbEntity
  8
0
100
AcDbLine
 62
7
  6
BYLAYER
 10
21.1697204275
 20
40.6485777338
 11
21.1697204275
 21
39.6687748332
  0
LINE
  5
239
100
AcDbEntity
  8
0
100
AcDbLine
 62
7
  6
BYLAYER
 10
21.4453016918
 20
53.4911973129
 11
21.4453016918
 21
54.4710002135
  0
LINE
  5
23A
100
AcDbEntity
  8
0
100
AcDbLine
 62
7
  6
BYLAYER
 10
21.523029198
 20
45.5881746838
 11
21.523029198
 21
46.5679775843
  0
LINE
  5
23B
100
AcDbEntity
  8
0
100
AcDbLine
 62
7
  6
BYLAYER
 10
21.5513593187
 20
53.5524293468
 11
21.5513593187
 21
53.0727743774
  0
LINE
  5
23C
100
AcDbEntity
  8
0
100
AcDbLine
 62
7
  6
BYLAYER
 10
21.6694648163
 20
45.7922840693
 11
21.6694648163
 21
46.7720869699
  0
LINE
  5
23D
100
AcDbEntity
  8
0
100
AcDbLine
 62
7
  6
BYLAYER
 10
19.6421718927
 20
55.5120141375
 11
19.6418718138
 21
53.4705848451
  0
LINE
  5
23E
100
AcDbEntity
  8
0
100
AcDbLine
 62
7
  6
BYLAYER
 10
21.3464570828
 20
47.0782601302
 11
21.3468572292
 21
47.8951145191
  0
LINE
  5
23F
100
AcDbEntity
  8
0
100
AcDbLine
 62
7
  6
BYLAYER
 10
14.9186997131
 20
65.7932069199
 11
28.4950933876
 21
73.6314946742
  0
LINE
  5
240
100
AcDbEntity
  8
0
100
AcDbLine
 62
7
  6
BYLAYER
 10
46.0315276196
 20
30.8782905096
 11
43.9105078487
 21
32.1028341424
  0
LINE
  5
241
100
AcDbEntity
  8
0
100
AcDbLine
 62
7
  6
BYLAYER
 10
40.6149753708
 20
35.9537118941
 11
40.4381979395
 21
36.0557720828
  0
LINE
  5
242
100
AcDbEntity
  8
0
100
AcDbLine
 62
7
  6
BYLAYER
 10
35.4884298635
 20
38.9134573644
 11
35.3116524322
 21
39.015517553
  0
LINE
  5
243
100
AcDbEntity
  8
0
100
AcDbLine
 62
7
  6
BYLAYER
 10
31.0689940813
 20
41.4649620802
 11
30.89221665
 21
41.5670222688
  0
LINE
  5
244
100
AcDbEntity
  8
0
100
AcDbLine
 62
7
  6
BYLAYER
 10
25.942448574
 20
44.4247075504
 11
25.7656711427
 21
44.5267677391
  0
LINE
  5
245
100
AcDbEntity
  8
0
100
AcDbLine
 62
7
  6
BYLAYER
 10
21.5230127918
 20
46.9762122662
 11
21.3462353606
 21
47.0782724548
  0
LINE
  5
246
100
AcDbEntity
  8
0
100
AcDbLine
 62
7
  6
BYLAYER
 10
16.3964672845
 20
49.9359577365
 11
16.2196898532
 21
50.0380179251
  0
LINE
  5
247
100
AcDbEntity
  8
0
100
AcDbLine
 62
7
  6
BYLAYER
 10
23.8636377362
 20
47.034756397
 11
23.8636377362
 21
48.1513690636
  0
LINE
  5
248
100
AcDbEntity
  8
0
100
AcDbLine
 62
7
  6
BYLAYER
 10
24.0330948172
 20
48.4662076329
 11
24.0330948172
 21
48.4933598005
  0
LINE
  5
249
100
AcDbEntity
  8
0
100
AcDbLine
 62
7
  6
BYLAYER
 10
24.0588429539
 20
38.4032755674
 11
24.0588429539
 21
37.4234726668
  0
LINE
  5
24A
100
AcDbEntity
  8
0
100
AcDbLine
 62
7
  6
BYLAYER
 10
24.2455905811
 20
41.444618694
 11
24.2455905811
 21
42.4244215946
  0
LINE
  5
24B
100
AcDbEntity
  8
0
100
AcDbLine
 62
7
  6
BYLAYER
 10
24.351747003
 20
37.9950249748
 11
24.351747003
 21
37.0152220742
  0
LINE
  5
24C
100
AcDbEntity
  8
0
100
AcDbLine
 62
7
  6
BYLAYER
 10
25.0588567281
 20
36.6069813197
 11
25.0588567281
 21
37.5867842202
  0
LINE
  5
24D
100
AcDbEntity
  8
0
100
AcDbLine
 62
7
  6
BYLAYER
 10
47.5871560615
 20
32.6778738328
 11
46.8799956756
 21
33.0861438357
  0
LINE
  5
24E
100
AcDbEntity
  8
0
100
AcDbLine
 62
7
  6
BYLAYER
 10
23.8636377362
 20
47.034756397
 11
27.540608307
 21
44.9119044735
  0
LINE
  5
24F
100
AcDbEntity
  8
0
100
AcDbLine
 62
7
  6
BYLAYER
 10
33.4096190257
 20
41.523506211
 11
37.0865895965
 21
39.4006542875
  0
LINE
  5
250
100
AcDbEntity
  8
0
100
AcDbLine
 62
7
  6
BYLAYER
 10
45.1829959494
 20
35.8429103148
 11
43.9105072741
 21
36.5775653739
  0
LINE
  5
251
100
AcDbEntity
  8
0
100
AcDbLine
 62
7
  6
BYLAYER
 10
37.0865895965
 20
40.517266954
 11
35.6723701462
 21
41.3337484631
  0
LINE
  5
252
100
AcDbEntity
  8
0
100
AcDbLine
 62
7
  6
BYLAYER
 10
34.823838476
 20
41.8236373685
 11
33.4096190257
 21
42.6401188775
  0
LINE
  5
253
100
AcDbEntity
  8
0
100
AcDbLine
 62
7
  6
BYLAYER
 10
27.540608307
 20
46.02851714
 11
26.1263888567
 21
46.8449986491
  0
LINE
  5
254
100
AcDbEntity
  8
0
100
AcDbLine
 62
7
  6
BYLAYER
 10
25.2778571865
 20
47.3348875545
 11
23.8636377362
 21
48.1513690636
  0
LINE
  5
255
100
AcDbEntity
  8
0
100
AcDbLine
 62
7
  6
BYLAYER
 10
17.0397200586
 20
52.0910706437
 11
15.7672313833
 21
52.8257257028
  0
LINE
  5
256
100
AcDbEntity
  8
0
100
AcDbLine
 62
7
  6
BYLAYER
 10
21.3468903323
 20
47.8950862525
 11
17.8117983602
 21
49.9366361231
  0
LINE
  5
257
100
AcDbEntity
  8
0
100
AcDbLine
 62
7
  6
BYLAYER
 10
30.8928716218
 20
42.3838360665
 11
27.3577796497
 21
44.4253859371
  0
LINE
  5
258
100
AcDbEntity
  8
0
100
AcDbLine
 62
7
  6
BYLAYER
 10
40.4388529112
 20
36.8725858804
 11
36.9037609392
 21
38.9141357511
  0
LINE
  5
259
100
AcDbEntity
  8
0
100
AcDbLine
 62
7
  6
BYLAYER
 10
25.2778571865
 20
59.9350971351
 11
25.2778571865
 21
55.7448624509
  0
LINE
  5
25A
100
AcDbEntity
  8
0
100
AcDbLine
 62
7
  6
BYLAYER
 10
25.2778571865
 20
54.7650595504
 11
25.2778571865
 21
47.3348875545
  0
LINE
  5
25B
100
AcDbEntity
  8
0
100
AcDbLine
 62
7
  6
BYLAYER
 10
26.1263888567
 20
46.8449986491
 11
26.1263888567
 21
54.275170645
  0
LINE
  5
25C
100
AcDbEntity
  8
0
100
AcDbLine
 62
7
  6
BYLAYER
 10
26.1263888567
 20
55.2549735455
 11
26.1263888567
 21
59.486374589
  0
LINE
  5
25D
100
AcDbEntity
  8
0
100
AcDbLine
 62
7
  6
BYLAYER
 10
27.540608307
 20
44.9119044735
 11
27.540608307
 21
46.02851714
  0
LINE
  5
25E
100
AcDbEntity
  8
0
100
AcDbLine
 62
7
  6
BYLAYER
 10
18.9269794298
 20
63.059971095
 11
15.7672313833
 21
61.2357005992
  0
LINE
  5
25F
100
AcDbEntity
  8
0
100
AcDbLine
 62
7
  6
BYLAYER
 10
43.1250459037
 20
38.4505715874
 11
39.5895202628
 21
40.49176209
  0
LINE
  5
260
100
AcDbEntity
  8
0
100
AcDbLine
 62
7
  6
BYLAYER
 10
33.5790646142
 20
43.9618217734
 11
30.0435389733
 21
46.003012276
  0
LINE
  5
261
100
AcDbEntity
  8
0
100
AcDbLine
 62
7
  6
BYLAYER
 10
24.0330833248
 20
49.4730719594
 11
20.4975576838
 21
51.514262462
  0
LINE
  5
262
100
AcDbEntity
  8
0
100
AcDbLine
 62
7
  6
BYLAYER
 10
48.527604165
 20
35.677510606
 11
47.6039988482
 21
36.2107423209
  0
LINE
  5
263
100
AcDbEntity
  8
0
100
AcDbLine
 62
7
  6
BYLAYER
 10
45.1829959494
 20
37.6084773752
 11
43.9455144662
 21
38.3229214798
  0
LINE
  5
264
100
AcDbEntity
  8
0
100
AcDbLine
 62
7
  6
BYLAYER
 10
39.7671463808
 20
40.7352488446
 11
39.5826661419
 21
40.8417561506
  0
LINE
  5
265
100
AcDbEntity
  8
0
100
AcDbLine
 62
7
  6
BYLAYER
 10
25.2778571865
 20
49.100454615
 11
24.8535518872
 21
49.3454218519
  0
LINE
  5
266
100
AcDbEntity
  8
0
100
AcDbLine
 62
7
  6
BYLAYER
 10
20.6751838018
 20
51.7577492166
 11
18.6121915746
 21
52.9487913894
  0
LINE
  5
267
100
AcDbEntity
  8
0
100
AcDbLine
 62
7
  6
BYLAYER
 10
30.0366848524
 20
46.3530063367
 11
30.2211650913
 21
46.2464990306
  0
LINE
  5
268
100
AcDbEntity
  8
0
100
AcDbLine
 62
7
  6
BYLAYER
 10
34.3995331767
 20
43.8341716658
 11
34.823838476
 21
43.589204429
  0
LINE
  5
269
100
AcDbEntity
  8
0
100
AcDbLine
 62
7
  6
BYLAYER
 10
20.69630363
 20
51.7943306596
 11
24.2318522558
 21
49.753126887
  0
LINE
  5
26A
100
AcDbEntity
  8
0
100
AcDbLine
 62
7
  6
BYLAYER
 10
30.2422849195
 20
46.2830804736
 11
33.7778335453
 21
44.241876701
  0
LINE
  5
26B
100
AcDbEntity
  8
0
100
AcDbLine
 62
7
  6
BYLAYER
 10
39.788266209
 20
40.7718302876
 11
43.3238148348
 21
38.730626515
  0
LINE
  5
26C
100
AcDbEntity
  8
0
100
AcDbLine
 62
7
  6
BYLAYER
 10
17.3397026119
 20
53.7335869707
 11
18.6121915746
 21
52.9989317458
  0
LINE
  5
26D
100
AcDbEntity
  8
0
100
AcDbLine
 62
7
  6
BYLAYER
 10
20.4907035629
 20
52.3137770599
 11
20.8332124061
 21
52.1160339606
  0
LINE
  5
26E
100
AcDbEntity
  8
0
100
AcDbLine
 62
7
  6
BYLAYER
 10
25.0072278791
 20
49.706219521
 11
25.2778571865
 21
49.5499751521
  0
LINE
  5
26F
100
AcDbEntity
  8
0
100
AcDbLine
 62
7
  6
BYLAYER
 10
30.0366848524
 20
46.8025268738
 11
30.3791936956
 21
46.6047837746
  0
LINE
  5
270
100
AcDbEntity
  8
0
100
AcDbLine
 62
7
  6
BYLAYER
 10
34.5532091685
 20
44.1949693349
 11
34.823838476
 21
44.0387249661
  0
LINE
  5
271
100
AcDbEntity
  8
0
100
AcDbLine
 62
7
  6
BYLAYER
 10
39.5826661419
 20
41.2912766878
 11
39.9251749851
 21
41.0935335885
  0
LINE
  5
272
100
AcDbEntity
  8
0
100
AcDbLine
 62
7
  6
BYLAYER
 10
44.099190458
 20
38.6837191489
 11
45.1829959494
 21
38.0579979124
  0
LINE
  5
273
100
AcDbEntity
  8
0
100
AcDbLine
 62
7
  6
BYLAYER
 10
18.2633079287
 20
54.266827566
 11
19.6421718927
 21
53.4707580947
  0
LINE
  5
274
100
AcDbEntity
  8
0
100
AcDbLine
 62
7
  6
BYLAYER
 10
29.1881531822
 20
47.9595079086
 11
30.0366848524
 21
47.4696190032
  0
LINE
  5
275
100
AcDbEntity
  8
0
100
AcDbLine
 62
7
  6
BYLAYER
 10
38.7341344717
 20
42.4482577226
 11
39.5826661419
 21
41.9583688172
  0
LINE
  5
276
100
AcDbEntity
  8
0
100
AcDbLine
 62
7
  6
BYLAYER
 10
47.6039988482
 20
37.3273549874
 11
47.6790724948
 21
37.2840121779
  0
LINE
  5
277
100
AcDbEntity
  8
0
100
AcDbLine
 62
7
  6
BYLAYER
 10
44.8595588188
 20
39.469452466
 11
45.1829959494
 21
39.282720176
  0
LINE
  5
278
100
AcDbEntity
  8
0
100
AcDbLine
 62
7
  6
BYLAYER
 10
21.6900908231
 20
53.1946384727
 11
25.2256394489
 21
51.1534347001
  0
LINE
  5
279
100
AcDbEntity
  8
0
100
AcDbLine
 62
7
  6
BYLAYER
 10
31.2360721126
 20
47.6833882866
 11
34.7716207383
 21
45.642184514
  0
LINE
  5
27A
100
AcDbEntity
  8
0
100
AcDbLine
 62
7
  6
BYLAYER
 10
40.7820534021
 20
42.1721381006
 11
44.3176020278
 21
40.130934328
  0
LINE
  5
27B
100
AcDbEntity
  8
0
100
AcDbLine
 62
7
  6
BYLAYER
 10
20.4907035629
 20
54.0423223315
 11
21.4453016918
 21
53.4911973129
  0
LINE
  5
27C
100
AcDbEntity
  8
0
100
AcDbLine
 62
7
  6
BYLAYER
 10
30.0366848524
 20
48.5310721455
 11
30.9912829813
 21
47.9799471269
  0
LINE
  5
27D
100
AcDbEntity
  8
0
100
AcDbLine
 62
7
  6
BYLAYER
 10
39.5826661419
 20
43.0198219595
 11
40.5372642708
 21
42.4686969409
  0
LINE
  5
27E
100
AcDbEntity
  8
0
100
AcDbLine
 62
7
  6
BYLAYER
 10
44.4970787316
 20
40.1825487155
 11
45.1829959494
 21
39.786543184
  0
LINE
  5
27F
100
AcDbEntity
  8
0
100
AcDbLine
 62
7
  6
BYLAYER
 10
41.0555018353
 20
42.3327682336
 11
40.6786614989
 21
42.5503321813
  0
LINE
  5
280
100
AcDbEntity
  8
0
100
AcDbLine
 62
7
  6
BYLAYER
 10
31.5095205458
 20
47.8440184196
 11
31.1326802094
 21
48.0615823673
  0
LINE
  5
281
100
AcDbEntity
  8
0
100
AcDbLine
 62
7
  6
BYLAYER
 10
21.9635392563
 20
53.3552686057
 11
21.58669892
 21
53.5728325533
  0
LINE
  5
282
100
AcDbEntity
  8
0
100
AcDbLine
 62
7
  6
BYLAYER
 10
21.734123338
 20
53.5354559843
 11
22.0045236559
 21
53.3793438197
  0
LINE
  5
283
100
AcDbEntity
  8
0
100
AcDbLine
 62
7
  6
BYLAYER
 10
31.2801046274
 20
48.0242057983
 11
31.5505049454
 21
47.8680936337
  0
LINE
  5
284
100
AcDbEntity
  8
0
100
AcDbLine
 62
7
  6
BYLAYER
 10
40.8260859169
 20
42.5129556123
 11
41.0964862349
 21
42.3568434477
  0
LINE
  5
285
100
AcDbEntity
  8
0
100
AcDbLine
 62
7
  6
BYLAYER
 10
28.4950933876
 20
79.4435565063
 11
28.4950933876
 21
73.6314946742
  0
LINE
  5
286
100
AcDbEntity
  8
0
100
AcDbLine
 62
7
  6
BYLAYER
 10
28.5944053538
 20
34.5657775471
 11
28.5944053538
 21
35.5455804476
  0
LINE
  5
287
100
AcDbEntity
  8
0
100
AcDbLine
 62
7
  6
BYLAYER
 10
29.1881531822
 20
50.0007639515
 11
29.1881531822
 21
47.9595079086
  0
LINE
  5
288
100
AcDbEntity
  8
0
100
AcDbLine
 62
7
  6
BYLAYER
 10
29.301515079
 20
34.1575367926
 11
29.301515079
 21
35.1373396931
  0
LINE
  5
289
100
AcDbEntity
  8
0
100
AcDbLine
 62
7
  6
BYLAYER
 10
30.0366848524
 20
46.8025268738
 11
30.0366848524
 21
46.3530063367
  0
LINE
  5
28A
100
AcDbEntity
  8
0
100
AcDbLine
 62
7
  6
BYLAYER
 10
30.0366848524
 20
47.4696190032
 11
30.0366848524
 21
48.5310721455
  0
LINE
  5
28B
100
AcDbEntity
  8
0
100
AcDbLine
 62
7
  6
BYLAYER
 10
30.715701717
 20
35.1373275478
 11
30.715701717
 21
34.1575246472
  0
LINE
  5
28C
100
AcDbEntity
  8
0
100
AcDbLine
 62
7
  6
BYLAYER
 10
45.1829959494
 20
40.7663460846
 11
44.4970787316
 21
41.1623516161
  0
LINE
  5
28D
100
AcDbEntity
  8
0
100
AcDbLine
 62
7
  6
BYLAYER
 10
40.5372642708
 20
43.4484998414
 11
38.7341344717
 21
44.4895137654
  0
LINE
  5
28E
100
AcDbEntity
  8
0
100
AcDbLine
 62
7
  6
BYLAYER
 10
30.9912829813
 20
48.9597500274
 11
29.1881531822
 21
50.0007639515
  0
LINE
  5
28F
100
AcDbEntity
  8
0
100
AcDbLine
 62
7
  6
BYLAYER
 10
21.4453016918
 20
54.4710002135
 11
19.6421718927
 21
55.5120141375
  0
LINE
  5
290
100
AcDbEntity
  8
0
100
AcDbLine
 62
7
  6
BYLAYER
 10
22.3828351388
 20
54.0324792699
 11
22.7527876325
 21
53.81889193
  0
LINE
  5
291
100
AcDbEntity
  8
0
100
AcDbLine
 62
7
  6
BYLAYER
 10
31.9288164283
 20
48.5212290838
 11
32.298768922
 21
48.307641744
  0
LINE
  5
292
100
AcDbEntity
  8
0
100
AcDbLine
 62
7
  6
BYLAYER
 10
41.4747977178
 20
43.0099788978
 11
41.8447502115
 21
42.796391558
  0
LINE
  5
293
100
AcDbEntity
  8
0
100
AcDbLine
 62
7
  6
BYLAYER
 10
51.9480623325
 20
37.6523012618
 11
59.6079212941
 21
33.2299796747
  0
LINE
  5
294
100
AcDbEntity
  8
0
100
AcDbLine
 62
7
  6
BYLAYER
 10
15.7672313833
 20
60.2558976987
 11
25.2778571865
 21
54.7650595504
  0
LINE
  5
295
100
AcDbEntity
  8
0
100
AcDbLine
 62
7
  6
BYLAYER
 10
26.1263888567
 20
54.275170645
 11
34.823838476
 21
49.2538093644
  0
LINE
  5
296
100
AcDbEntity
  8
0
100
AcDbLine
 62
7
  6
BYLAYER
 10
35.6723701462
 20
48.7639204589
 11
45.1829959494
 21
43.2730823106
  0
LINE
  5
297
100
AcDbEntity
  8
0
100
AcDbLine
 62
7
  6
BYLAYER
 10
31.2791788846
 20
48.1461629119
 11
31.2801046274
 21
48.0242057983
  0
LINE
  5
298
100
AcDbEntity
  8
0
100
AcDbLine
 62
7
  6
BYLAYER
 10
30.9912829813
 20
47.9799471269
 11
30.9912829813
 21
48.9597500274
  0
LINE
  5
299
100
AcDbEntity
  8
0
100
AcDbLine
 62
7
  6
BYLAYER
 10
31.0690104875
 20
40.0769244978
 11
31.0690104875
 21
41.0567273983
  0
LINE
  5
29A
100
AcDbEntity
  8
0
100
AcDbLine
 62
7
  6
BYLAYER
 10
31.0973406082
 20
48.0411791608
 11
31.0973406082
 21
47.5615241913
  0
LINE
  5
29B
100
AcDbEntity
  8
0
100
AcDbLine
 62
7
  6
BYLAYER
 10
31.2154461058
 20
40.2810338833
 11
31.2154461058
 21
41.2608367839
  0
LINE
  5
29C
100
AcDbEntity
  8
0
100
AcDbLine
 62
7
  6
BYLAYER
 10
33.4096190257
 20
41.523506211
 11
33.4096190257
 21
42.6401188775
  0
LINE
  5
29D
100
AcDbEntity
  8
0
100
AcDbLine
 62
7
  6
BYLAYER
 10
30.8924383722
 20
41.5670099442
 11
30.8928385186
 21
42.3838643331
  0
LINE
  5
29E
100
AcDbEntity
  8
0
100
AcDbLine
 62
7
  6
BYLAYER
 10
21.8131001803
 20
56.765392687
 11
19.6421718927
 21
55.5120141375
  0
LINE
  5
29F
100
AcDbEntity
  8
0
100
AcDbLine
 62
7
  6
BYLAYER
 10
19.6421058713
 20
55.0628721776
 11
18.262407692
 21
54.2663078172
  0
LINE
  5
2A0
100
AcDbEntity
  8
0
100
AcDbLine
 62
7
  6
BYLAYER
 10
17.3397026119
 20
53.7335869707
 11
15.7672313833
 21
52.8257257028
  0
LINE
  5
2A1
100
AcDbEntity
  8
0
100
AcDbLine
 62
7
  6
BYLAYER
 10
45.1829959494
 20
44.2528852112
 11
35.6723701462
 21
49.7437233595
  0
LINE
  5
2A2
100
AcDbEntity
  8
0
100
AcDbLine
 62
7
  6
BYLAYER
 10
34.823838476
 20
50.2336122649
 11
26.1263888567
 21
55.2549735455
  0
LINE
  5
2A3
100
AcDbEntity
  8
0
100
AcDbLine
 62
7
  6
BYLAYER
 10
25.2778571865
 20
55.7448624509
 11
15.7672313833
 21
61.2357005992
  0
LINE
  5
2A4
100
AcDbEntity
  8
0
100
AcDbLine
 62
7
  6
BYLAYER
 10
48.0724770808
 20
42.7500389035
 11
48.527604165
 21
42.4872718955
  0
LINE
  5
2A5
100
AcDbEntity
  8
0
100
AcDbLine
 62
7
  6
BYLAYER
 10
33.5790761066
 20
42.9549574468
 11
33.5790761066
 21
42.9821096145
  0
LINE
  5
2A6
100
AcDbEntity
  8
0
100
AcDbLine
 62
7
  6
BYLAYER
 10
33.6048242434
 20
32.8920253813
 11
33.6048242434
 21
31.9122224808
  0
LINE
  5
2A7
100
AcDbEntity
  8
0
100
AcDbLine
 62
7
  6
BYLAYER
 10
33.6385315805
 20
78.842989937
 11
33.6385315805
 21
82.5667293686
  0
LINE
  5
2A8
100
AcDbEntity
  8
0
100
AcDbLine
 62
7
  6
BYLAYER
 10
33.7915718706
 20
35.933368508
 11
33.7915718706
 21
36.9131714086
  0
LINE
  5
2A9
100
AcDbEntity
  8
0
100
AcDbLine
 62
7
  6
BYLAYER
 10
33.8977282924
 20
32.4837747887
 11
33.8977282924
 21
31.5039718882
  0
LINE
  5
2AA
100
AcDbEntity
  8
0
100
AcDbLine
 62
7
  6
BYLAYER
 10
34.6048380176
 20
31.0957311337
 11
34.6048380176
 21
32.0755340342
  0
LINE
  5
2AB
100
AcDbEntity
  8
0
100
AcDbLine
 62
7
  6
BYLAYER
 10
34.823838476
 20
54.4650133084
 11
34.823838476
 21
50.2336122649
  0
LINE
  5
2AC
100
AcDbEntity
  8
0
100
AcDbLine
 62
7
  6
BYLAYER
 10
34.823838476
 20
49.2538093644
 11
34.823838476
 21
41.8236373685
  0
LINE
  5
2AD
100
AcDbEntity
  8
0
100
AcDbLine
 62
7
  6
BYLAYER
 10
35.6723701462
 20
41.3337484631
 11
35.6723701462
 21
48.7639204589
  0
LINE
  5
2AE
100
AcDbEntity
  8
0
100
AcDbLine
 62
7
  6
BYLAYER
 10
35.6723701462
 20
49.7437233595
 11
35.6723701462
 21
53.9339580437
  0
LINE
  5
2AF
100
AcDbEntity
  8
0
100
AcDbLine
 62
7
  6
BYLAYER
 10
21.6900908231
 20
53.1946384727
 11
22.7527876325
 21
53.81889193
  0
LINE
  5
2B0
100
AcDbEntity
  8
0
100
AcDbLine
 62
7
  6
BYLAYER
 10
17.0397203459
 20
52.0910704778
 11
18.6121915746
 21
52.9989317458
  0
LINE
  5
2B1
100
AcDbEntity
  8
0
100
AcDbLine
 62
7
  6
BYLAYER
 10
23.6162299794
 20
55.724378763
 11
21.4453016918
 21
54.4710002135
  0
LINE
  5
2B2
100
AcDbEntity
  8
0
100
AcDbLine
 62
7
  6
BYLAYER
 10
17.8881878273
 20
51.4643184795
 11
18.6121914309
 21
51.8823191622
  0
LINE
  5
2B3
100
AcDbEntity
  8
0
100
AcDbLine
 62
7
  6
BYLAYER
 10
24.4647763127
 20
55.234481392
 11
21.4453016918
 21
53.4911973129
  0
LINE
  5
2B4
100
AcDbEntity
  8
0
100
AcDbLine
 62
7
  6
BYLAYER
 10
15.5125965342
 20
50.0380239978
 11
9.5024427749
 21
46.5680808197
  0
LINE
  5
2B5
100
AcDbEntity
  8
0
100
AcDbLine
 62
7
  6
BYLAYER
 10
20.4907035629
 20
52.3137770599
 11
21.1442360527
 21
52.6910919665
  0
LINE
  5
2B6
100
AcDbEntity
  8
0
100
AcDbLine
 62
7
  6
BYLAYER
 10
29.8648904264
 20
57.4133855491
 11
26.1263888567
 21
55.2549735455
  0
LINE
  5
2B7
100
AcDbEntity
  8
0
100
AcDbLine
 62
7
  6
BYLAYER
 10
63.2672791691
 20
39.0737950745
 11
63.8151891255
 21
38.75746627
  0
LINE
  5
2B8
100
AcDbEntity
  8
0
100
AcDbLine
 62
7
  6
BYLAYER
 10
37.0865895965
 20
40.517266954
 11
37.0865895965
 21
39.4006542875
  0
LINE
  5
2B9
100
AcDbEntity
  8
0
100
AcDbLine
 62
7
  6
BYLAYER
 10
38.7341344717
 20
44.4895137654
 11
38.7341344717
 21
42.4482577226
  0
LINE
  5
2BA
100
AcDbEntity
  8
0
100
AcDbLine
 62
7
  6
BYLAYER
 10
20.4975461914
 20
51.514269097
 11
17.8118321337
 21
49.9366205502
  0
LINE
  5
2BB
100
AcDbEntity
  8
0
100
AcDbLine
 62
7
  6
BYLAYER
 10
11.623739138
 20
46.1598279198
 11
14.6996092916
 21
47.9356717806
  0
LINE
  5
2BC
100
AcDbEntity
  8
0
100
AcDbLine
 62
7
  6
BYLAYER
 10
11.623739138
 20
45.1800250193
 11
14.6996092951
 21
46.9558688821
  0
LINE
  5
2BD
100
AcDbEntity
  8
0
100
AcDbLine
 62
7
  6
BYLAYER
 10
40.825160174
 20
42.6349127259
 11
40.8260859169
 21
42.5129556123
  0
LINE
  5
2BE
100
AcDbEntity
  8
0
100
AcDbLine
 62
7
  6
BYLAYER
 10
39.5826661419
 20
41.9583688172
 11
39.5826661419
 21
43.0198219595
  0
LINE
  5
2BF
100
AcDbEntity
  8
0
100
AcDbLine
 62
7
  6
BYLAYER
 10
40.5372642708
 20
42.4686969409
 11
40.5372642708
 21
43.4484998414
  0
LINE
  5
2C0
100
AcDbEntity
  8
0
100
AcDbLine
 62
7
  6
BYLAYER
 10
40.6149917769
 20
34.5656743117
 11
40.6149917769
 21
35.5454772123
  0
LINE
  5
2C1
100
AcDbEntity
  8
0
100
AcDbLine
 62
7
  6
BYLAYER
 10
40.6433218977
 20
42.5299289748
 11
40.6433218977
 21
42.0502740053
  0
LINE
  5
2C2
100
AcDbEntity
  8
0
100
AcDbLine
 62
7
  6
BYLAYER
 10
40.7614273953
 20
34.7697836973
 11
40.7614273953
 21
35.7495865978
  0
LINE
  5
2C3
100
AcDbEntity
  8
0
100
AcDbLine
 62
7
  6
BYLAYER
 10
40.4384196617
 20
36.0557597582
 11
40.4388198081
 21
36.8726141471
  0
LINE
  5
2C4
100
AcDbEntity
  8
0
100
AcDbLine
 62
7
  6
BYLAYER
 10
39.5826661419
 20
41.2912766878
 11
39.582366063
 21
40.8415829011
  0
LINE
  5
2C5
100
AcDbEntity
  8
0
100
AcDbLine
 62
7
  6
BYLAYER
 10
25.2256394489
 20
51.1534347001
 11
25.2778571865
 21
51.1841086449
  0
LINE
  5
2C6
100
AcDbEntity
  8
0
100
AcDbLine
 62
7
  6
BYLAYER
 10
21.3468572292
 20
47.8951145191
 11
24.0330948172
 21
49.4730653244
  0
LINE
  5
2C7
100
AcDbEntity
  8
0
100
AcDbLine
 62
7
  6
BYLAYER
 10
24.1097923182
 20
48.5381618184
 11
24.0330948172
 21
48.4933598005
  0
LINE
  5
2C8
100
AcDbEntity
  8
0
100
AcDbLine
 62
7
  6
BYLAYER
 10
17.8816030548
 20
46.0985883853
 11
14.8057329012
 21
44.3227445245
  0
LINE
  5
2C9
100
AcDbEntity
  8
0
100
AcDbLine
 62
7
  6
BYLAYER
 10
21.4876719687
 20
46.9966158384
 11
24.0330948172
 21
48.4662076329
  0
LINE
  5
2CA
100
AcDbEntity
  8
0
100
AcDbLine
 62
7
  6
BYLAYER
 10
23.8636377362
 20
48.1513690636
 11
25.2778571865
 21
48.9678641701
  0
LINE
  5
2CB
100
AcDbEntity
  8
0
100
AcDbLine
 62
7
  6
BYLAYER
 10
15.5128754386
 20
43.0980344063
 11
21.523029198
 21
46.5679775843
  0
LINE
  5
2CC
100
AcDbEntity
  8
0
100
AcDbLine
 62
7
  6
BYLAYER
 10
42.9385315805
 20
79.4410409246
 11
42.9385315805
 21
82.5667293686
  0
LINE
  5
2CD
100
AcDbEntity
  8
0
100
AcDbLine
 62
7
  6
BYLAYER
 10
43.1250573961
 20
37.4437072608
 11
43.1250573961
 21
37.4708594284
  0
LINE
  5
2CE
100
AcDbEntity
  8
0
100
AcDbLine
 62
7
  6
BYLAYER
 10
43.18451287
 20
74.2431861739
 11
43.18451287
 21
77.0554791825
  0
LINE
  5
2CF
100
AcDbEntity
  8
0
100
AcDbLine
 62
7
  6
BYLAYER
 10
43.9105078487
 20
32.1028341424
 11
43.9105072741
 21
36.5775653739
  0
LINE
  5
2D0
100
AcDbEntity
  8
0
100
AcDbLine
 62
7
  6
BYLAYER
 10
44.4970787316
 20
41.1623516161
 11
44.4970787316
 21
40.1825487155
  0
LINE
  5
2D1
100
AcDbEntity
  8
0
100
AcDbLine
 62
7
  6
BYLAYER
 10
15.5128754386
 20
42.1182315057
 11
21.523029198
 21
45.5881746838
  0
LINE
  5
2D2
100
AcDbEntity
  8
0
100
AcDbLine
 62
7
  6
BYLAYER
 10
31.3590814698
 20
51.254142501
 11
29.1881531822
 21
50.0007639515
  0
LINE
  5
2D3
100
AcDbEntity
  8
0
100
AcDbLine
 62
7
  6
BYLAYER
 10
29.1881531822
 20
48.6126985549
 11
26.1263888567
 21
46.8449986491
  0
LINE
  5
2D4
100
AcDbEntity
  8
0
100
AcDbLine
 62
7
  6
BYLAYER
 10
33.1622112689
 20
50.213128577
 11
30.9912829813
 21
48.9597500274
  0
LINE
  5
2D5
100
AcDbEntity
  8
0
100
AcDbLine
 62
7
  6
BYLAYER
 10
45.1829959494
 20
47.4772952442
 11
45.1829959494
 21
44.2528852112
  0
LINE
  5
2D6
100
AcDbEntity
  8
0
100
AcDbLine
 62
7
  6
BYLAYER
 10
45.1829959494
 20
43.2730823106
 11
45.1829959494
 21
35.8429103148
  0
LINE
  5
2D7
100
AcDbEntity
  8
0
100
AcDbLine
 62
7
  6
BYLAYER
 10
46.0315276196
 20
47.830613721
 11
46.0315276196
 21
30.8782905096
  0
LINE
  5
2D8
100
AcDbEntity
  8
0
100
AcDbLine
 62
7
  6
BYLAYER
 10
46.8799956756
 20
32.4135168027
 11
46.8799956756
 21
34.7262690793
  0
LINE
  5
2D9
100
AcDbEntity
  8
0
100
AcDbLine
 62
7
  6
BYLAYER
 10
31.2360721126
 20
47.6833882866
 11
32.298768922
 21
48.307641744
  0
LINE
  5
2DA
100
AcDbEntity
  8
0
100
AcDbLine
 62
7
  6
BYLAYER
 10
30.0435274809
 20
46.003018911
 11
27.3578134231
 21
44.4253703642
  0
LINE
  5
2DB
100
AcDbEntity
  8
0
100
AcDbLine
 62
7
  6
BYLAYER
 10
27.540608307
 20
46.02851714
 11
30.0366848524
 21
47.4696190032
  0
LINE
  5
2DC
100
AcDbEntity
  8
0
100
AcDbLine
 62
7
  6
BYLAYER
 10
34.0107576022
 20
49.723231206
 11
30.9912829813
 21
47.9799471269
  0
LINE
  5
2DD
100
AcDbEntity
  8
0
100
AcDbLine
 62
7
  6
BYLAYER
 10
25.0585778237
 20
44.5267738117
 11
19.0484240644
 21
41.0568306337
  0
LINE
  5
2DE
100
AcDbEntity
  8
0
100
AcDbLine
 62
7
  6
BYLAYER
 10
30.0366848524
 20
46.8025268738
 11
30.6902173422
 21
47.1798417805
  0
LINE
  5
2DF
100
AcDbEntity
  8
0
100
AcDbLine
 62
7
  6
BYLAYER
 10
39.0901422908
 20
51.7169632485
 11
35.6723701462
 21
49.7437233595
  0
LINE
  5
2E0
100
AcDbEntity
  8
0
100
AcDbLine
 62
7
  6
BYLAYER
 10
27.540608307
 20
44.9119044735
 11
30.0366848524
 21
46.3530063367
  0
LINE
  5
2E1
100
AcDbEntity
  8
0
100
AcDbLine
 62
7
  6
BYLAYER
 10
21.1697204275
 20
40.6485777338
 11
24.2455905811
 21
42.4244215946
  0
LINE
  5
2E2
100
AcDbEntity
  8
0
100
AcDbLine
 62
7
  6
BYLAYER
 10
21.1697204275
 20
39.6687748332
 11
24.2455905846
 21
41.4446186961
  0
LINE
  5
2E3
100
AcDbEntity
  8
0
100
AcDbLine
 62
7
  6
BYLAYER
 10
47.5871560615
 20
32.4329262648
 11
47.5871560615
 21
32.6778738328
  0
LINE
  5
2E4
100
AcDbEntity
  8
0
100
AcDbLine
 62
7
  6
BYLAYER
 10
47.6039988482
 20
41.9559870368
 11
47.6039988482
 21
35.1442700107
  0
LINE
  5
2E5
100
AcDbEntity
  8
0
100
AcDbLine
 62
7
  6
BYLAYER
 10
47.6790724948
 20
37.2840121779
 11
47.6790724948
 21
42.237172025
  0
LINE
  5
2E6
100
AcDbEntity
  8
0
100
AcDbLine
 62
7
  6
BYLAYER
 10
48.5267039283
 20
35.6769908572
 11
48.5261037705
 21
42.4864056475
  0
LINE
  5
2E7
100
AcDbEntity
  8
0
100
AcDbLine
 62
7
  6
BYLAYER
 10
34.7716207383
 20
45.642184514
 11
34.823838476
 21
45.6728584589
  0
LINE
  5
2E8
100
AcDbEntity
  8
0
100
AcDbLine
 62
7
  6
BYLAYER
 10
30.8928385186
 20
42.3838643331
 11
33.5790761066
 21
43.9618151384
  0
LINE
  5
2E9
100
AcDbEntity
  8
0
100
AcDbLine
 62
7
  6
BYLAYER
 10
67.1739323523
 20
65.8491757538
 11
59.6079212941
 21
61.4809633074
  0
LINE
  5
2EA
100
AcDbEntity
  8
0
100
AcDbLine
 62
7
  6
BYLAYER
 10
27.4275843442
 20
40.5873381993
 11
24.3517141907
 21
38.8114943385
  0
LINE
  5
2EB
100
AcDbEntity
  8
0
100
AcDbLine
 62
7
  6
BYLAYER
 10
52.48451287
 20
74.2431861739
 11
52.48451287
 21
77.0554791825
  0
LINE
  5
2EC
100
AcDbEntity
  8
0
100
AcDbLine
 62
7
  6
BYLAYER
 10
52.7304941595
 20
68.4185405525
 11
52.7304941595
 21
71.5442289965
  0
LINE
  5
2ED
100
AcDbEntity
  8
0
100
AcDbLine
 62
7
  6
BYLAYER
 10
33.6557736077
 20
43.0269116324
 11
33.5790761066
 21
42.9821096145
  0
LINE
  5
2EE
100
AcDbEntity
  8
0
100
AcDbLine
 62
7
  6
BYLAYER
 10
31.0336532582
 20
41.4853656523
 11
33.5790761066
 21
42.9549574468
  0
LINE
  5
2EF
100
AcDbEntity
  8
0
100
AcDbLine
 62
7
  6
BYLAYER
 10
33.4096190257
 20
42.6401188775
 11
34.823838476
 21
43.456613984
  0
LINE
  5
2F0
100
AcDbEntity
  8
0
100
AcDbLine
 62
7
  6
BYLAYER
 10
25.0588567281
 20
37.5867842202
 11
31.0690104875
 21
41.0567273983
  0
LINE
  5
2F1
100
AcDbEntity
  8
0
100
AcDbLine
 62
7
  6
BYLAYER
 10
25.0588567281
 20
36.6069813197
 11
31.0690104875
 21
40.0769244978
  0
LINE
  5
2F2
100
AcDbEntity
  8
0
100
AcDbLine
 62
7
  6
BYLAYER
 10
40.9050627593
 20
45.742892315
 11
38.7341344717
 21
44.4895137654
  0
LINE
  5
2F3
100
AcDbEntity
  8
0
100
AcDbLine
 62
7
  6
BYLAYER
 10
59.6079212941
 20
55.6689014753
 11
46.0315276196
 21
47.830613721
  0
LINE
  5
2F4
100
AcDbEntity
  8
0
100
AcDbLine
 62
7
  6
BYLAYER
 10
38.7341344717
 20
43.1014483688
 11
35.6723701462
 21
41.3337484631
  0
LINE
  5
2F5
100
AcDbEntity
  8
0
100
AcDbLine
 62
7
  6
BYLAYER
 10
40.7820534021
 20
42.1721381006
 11
41.8447502115
 21
42.796391558
  0
LINE
  5
2F6
100
AcDbEntity
  8
0
100
AcDbLine
 62
7
  6
BYLAYER
 10
39.5895087704
 20
40.491768725
 11
36.9037947126
 21
38.9141201782
  0
LINE
  5
2F7
100
AcDbEntity
  8
0
100
AcDbLine
 62
7
  6
BYLAYER
 10
42.7081925584
 20
44.701878391
 11
40.5372642708
 21
43.4484998414
  0
LINE
  5
2F8
100
AcDbEntity
  8
0
100
AcDbLine
 62
7
  6
BYLAYER
 10
37.0865895965
 20
40.517266954
 11
39.5826661419
 21
41.9583688172
  0
LINE
  5
2F9
100
AcDbEntity
  8
0
100
AcDbLine
 62
7
  6
BYLAYER
 10
43.5567388916
 20
44.21198102
 11
40.5372642708
 21
42.4686969409
  0
LINE
  5
2FA
100
AcDbEntity
  8
0
100
AcDbLine
 62
7
  6
BYLAYER
 10
34.6045591132
 20
39.0155236257
 11
28.5944053538
 21
35.5455804476
  0
LINE
  5
2FB
100
AcDbEntity
  8
0
100
AcDbLine
 62
7
  6
BYLAYER
 10
39.5826661419
 20
41.2912766878
 11
40.2361986317
 21
41.6685915945
  0
LINE
  5
2FC
100
AcDbEntity
  8
0
100
AcDbLine
 62
7
  6
BYLAYER
 10
37.0865895965
 20
39.4006542875
 11
39.582366063
 21
40.8415829011
  0
LINE
  5
2FD
100
AcDbEntity
  8
0
100
AcDbLine
 62
7
  6
BYLAYER
 10
44.3176020278
 20
40.130934328
 11
44.4970787316
 21
40.2363632254
  0
LINE
  5
2FE
100
AcDbEntity
  8
0
100
AcDbLine
 62
7
  6
BYLAYER
 10
30.715701717
 20
35.1373275478
 11
33.7915718706
 21
36.9131714086
  0
LINE
  5
2FF
100
AcDbEntity
  8
0
100
AcDbLine
 62
7
  6
BYLAYER
 10
30.715701717
 20
34.1575246472
 11
33.7915718741
 21
35.9333685101
  0
LINE
  5
300
100
AcDbEntity
  8
0
100
AcDbLine
 62
7
  6
BYLAYER
 10
73.6792711685
 20
58.7454907971
 11
67.1739323523
 21
54.9896540998
  0
LINE
  5
301
100
AcDbEntity
  8
0
100
AcDbLine
 62
7
  6
BYLAYER
 10
45.1829959494
 20
41.5583637426
 11
44.4970787316
 21
41.1623516161
  0
LINE
  5
302
100
AcDbEntity
  8
0
100
AcDbLine
 62
7
  6
BYLAYER
 10
67.1739323523
 20
62.5012649468
 11
73.6792711685
 21
58.7454907971
  0
LINE
  5
303
100
AcDbEntity
  8
0
100
AcDbLine
 62
7
  6
BYLAYER
 10
63.3912318146
 20
39.1453587406
 11
63.1694278071
 21
39.9442558281
  0
LINE
  5
304
100
AcDbEntity
  8
0
100
AcDbLine
 62
7
  6
BYLAYER
 10
59.6079212941
 20
33.2299796747
 11
59.6079212941
 21
42.0746964971
  0
LINE
  5
305
100
AcDbEntity
  8
0
100
AcDbLine
 62
7
  6
BYLAYER
 10
59.6079212941
 20
55.6689014753
 11
59.6079212941
 21
61.4809633074
  0
LINE
  5
306
100
AcDbEntity
  8
0
100
AcDbLine
 62
7
  6
BYLAYER
 10
47.5871560615
 20
32.4329262648
 11
47.0100783301
 21
31.4333927656
  0
LINE
  5
307
100
AcDbEntity
  8
0
100
AcDbLine
 62
7
  6
BYLAYER
 10
45.1829959494
 20
39.6594471524
 11
44.3977958393
 21
39.1982018761
  0
LINE
  5
308
100
AcDbEntity
  8
0
100
AcDbLine
 62
7
  6
BYLAYER
 10
40.4388198081
 20
36.8726141471
 11
43.1250573961
 21
38.4505649524
  0
LINE
  5
309
100
AcDbEntity
  8
0
100
AcDbLine
 62
7
  6
BYLAYER
 10
43.2017548971
 20
37.5156614463
 11
43.1250573961
 21
37.4708594284
  0
LINE
  5
30A
100
AcDbEntity
  8
0
100
AcDbLine
 62
7
  6
BYLAYER
 10
36.9735656337
 20
35.0760880132
 11
33.8976954802
 21
33.3002441524
  0
LINE
  5
30B
100
AcDbEntity
  8
0
100
AcDbLine
 62
7
  6
BYLAYER
 10
47.6790724948
 20
40.9174204209
 11
47.6039988482
 21
40.8740768896
  0
LINE
  5
30C
100
AcDbEntity
  8
0
100
AcDbLine
 62
7
  6
BYLAYER
 10
40.5796345476
 20
35.9741154663
 11
43.1250573961
 21
37.4437072608
  0
LINE
  5
30D
100
AcDbEntity
  8
0
100
AcDbLine
 62
7
  6
BYLAYER
 10
34.6048380176
 20
32.0755340342
 11
40.6149917769
 21
35.5454772123
  0
LINE
  5
30E
100
AcDbEntity
  8
0
100
AcDbLine
 62
7
  6
BYLAYER
 10
47.6790724948
 20
38.8761643781
 11
47.6039988482
 21
38.8328208468
  0
LINE
  5
30F
100
AcDbEntity
  8
0
100
AcDbLine
 62
7
  6
BYLAYER
 10
43.9105072741
 20
36.5775653739
 11
45.1829959494
 21
37.3122329362
  0
LINE
  5
310
100
AcDbEntity
  8
0
100
AcDbLine
 62
7
  6
BYLAYER
 10
34.6048380176
 20
31.0957311337
 11
40.6149917769
 21
34.5656743117
  0
LINE
  5
311
100
AcDbEntity
  8
0
100
AcDbLine
 62
7
  6
BYLAYER
 10
62.0304941595
 20
67.820489565
 11
62.0304941595
 21
71.5442289965
  0
LINE
  5
312
100
AcDbEntity
  8
0
100
AcDbLine
 62
7
  6
BYLAYER
 10
62.0474295325
 20
37.7368558854
 11
62.0474295325
 21
39.2964736889
  0
LINE
  5
313
100
AcDbEntity
  8
0
100
AcDbLine
 62
7
  6
BYLAYER
 10
63.8151891255
 20
38.75746627
 11
63.8151891255
 21
40.3170840736
  0
LINE
  5
314
100
AcDbEntity
  8
0
100
AcDbLine
 62
7
  6
BYLAYER
 10
46.0092258201
 20
79.4637149775
 11
42.9385315805
 21
80.8058321264
  0
LINE
  5
315
100
AcDbEntity
  8
0
100
AcDbLine
 62
7
  6
BYLAYER
 10
55.6249912735
 20
73.9679237272
 11
52.48451287
 21
75.7810387607
  0
LINE
  5
316
100
AcDbEntity
  8
0
100
AcDbLine
 62
7
  6
BYLAYER
 10
67.1739323523
 20
65.8491757538
 11
62.0304941595
 21
69.5401149458
  0
LINE
  5
317
100
AcDbEntity
  8
0
100
AcDbLine
 62
7
  6
BYLAYER
 10
67.1739323523
 20
37.5981921211
 11
67.1739323523
 21
65.8491757538
  0
LINE
  5
318
100
AcDbEntity
  8
0
100
AcDbLine
 62
7
  6
BYLAYER
 10
59.6079212941
 20
42.0746964971
 11
48.5267039283
 21
35.6769908572
  0
LINE
  5
319
100
AcDbEntity
  8
0
100
AcDbLine
 62
7
  6
BYLAYER
 10
47.6039988482
 20
35.1442700107
 11
46.8799956756
 21
34.7262690792
  0
LINE
  5
31A
100
AcDbEntity
  8
0
100
AcDbLine
 62
7
  6
BYLAYER
 10
73.6792711685
 20
49.5190134836
 11
67.1739323523
 21
45.7631767862
  0
LINE
  5
31B
100
AcDbEntity
  8
0
100
AcDbLine
 62
7
  6
BYLAYER
 10
63.8151891255
 20
40.3170840736
 11
62.0474295325
 21
39.2964736889
  0
LINE
  5
31C
100
AcDbEntity
  8
0
100
AcDbLine
 62
7
  6
BYLAYER
 10
63.3912318146
 20
39.1453587406
 11
62.0474295325
 21
38.3695187624
  0
LINE
  5
31D
100
AcDbEntity
  8
0
100
AcDbLine
 62
7
  6
BYLAYER
 10
63.8151891255
 20
38.75746627
 11
62.0474295325
 21
37.7368558854
  0
LINE
  5
31E
100
AcDbEntity
  8
0
100
AcDbLine
 62
7
  6
BYLAYER
 10
46.0315276196
 20
30.8782905096
 11
47.0100783301
 21
31.4333927656
  0
LINE
  5
31F
100
AcDbEntity
  8
0
100
AcDbLine
 62
7
  6
BYLAYER
 10
46.8799956756
 20
32.4135168027
 11
47.5871560615
 21
32.6778738328
  0
LINE
  5
320
100
AcDbEntity
  8
0
100
AcDbLine
 62
7
  6
BYLAYER
 10
67.1739323523
 20
37.5981921211
 11
59.6079212941
 21
33.2299796747
  0
LINE
  5
321
100
AcDbEntity
  8
0
100
AcDbLine
 62
7
  6
BYLAYER
 10
73.6792711685
 20
58.7454907971
 11
73.6792711685
 21
49.5190134836
  0
ARC
  5
322
100
AcDbEntity
  8
0
100
AcDbCircle
 62
7
  6
BYLAYER
 10
29.8354999564
 20
46.3864619526
 40
0.419716257
100
AcDbArc
 50
344.3342215761
 51
345.7405716745
  0
ARC
  5
323
100
AcDbEntity
  8
0
100
AcDbCircle
 62
7
  6
BYLAYER
 10
39.3814812458
 20
40.8752117666
 40
0.4197162572
100
AcDbArc
 50
344.3342215762
 51
345.7405716743
  0
SPLINE
  5
324
100
AcDbEntity
  8
0
100
AcDbSpline
 62
7
  6
BYLAYER
 70
0
 71
3
 72
22
 73
18
 74
0
 42
0.0000001
 43
0.0000001
 44
0.0000000001
 40
0.0
 40
0.0
 40
0.0
 40
0.0
 40
0.0428175212
 40
0.0874049284
 40
0.1351943872
 40
0.1871091133
 40
0.2435636091
 40
0.3045291906
 40
0.3696343356
 40
0.4382520709
 40
0.5095593441
 40
0.5826040786
 40
0.7296231509
 40
0.8016214105
 40
0.8712287755
 40
0.9376188067
 40
1.0
 40
1.0
 40
1.0
 40
1.0
 10
34.6885563927
 20
82.5667293687
 30
0.0
 10
34.6885571879
 20
82.464251547
 30
0.0
 10
34.7159418822
 20
82.2541681259
 30
0.0
 10
34.8364282243
 20
81.9508209462
 30
0.0
 10
35.0319575088
 20
81.6632698424
 30
0.0
 10
35.2969204314
 20
81.3971453569
 30
0.0
 10
35.6252833325
 20
81.1572201222
 30
0.0
 10
36.0100171604
 20
80.9479835382
 30
0.0
 10
36.4430560292
 20
80.7734965199
 30
0.0
 10
36.9153161988
 20
80.6374026256
 30
0.0
 10
37.4168661092
 20
80.5424841593
 30
0.0
 10
38.1114290108
 20
80.4734216794
 30
0.0
 10
38.8142611982
 20
80.4928307776
 30
0.0
 10
39.4972126347
 20
80.6010262269
 30
0.0
 10
39.9805041786
 20
80.7237003978
 30
0.0
 10
40.4276016681
 20
80.8857853849
 30
0.0
 10
40.70482814
 20
81.0224126024
 30
0.0
 10
40.834126591
 20
81.0970626523
 30
0.0
  0
SPLINE
  5
325
100
AcDbEntity
  8
0
100
AcDbSpline
 62
7
  6
BYLAYER
 70
0
 71
3
 72
14
 73
10
 74
0
 42
0.0000001
 43
0.0000001
 44
0.0000000001
 40
0.0
 40
0.0
 40
0.0
 40
0.0
 40
0.1080438987
 40
0.2181284597
 40
0.3321078643
 40
0.4514903637
 40
0.577436241
 40
0.7107375031
 40
1.0
 40
1.0
 40
1.0
 40
1.0
 10
33.6385500815
 20
82.5667293679
 30
0.0
 10
33.6385588557
 20
82.6547565285
 30
0.0
 10
33.6538310969
 20
82.8328305678
 30
0.0
 10
33.7220697284
 20
83.0958593935
 30
0.0
 10
33.8347244974
 20
83.3531993833
 30
0.0
 10
33.9902618707
 20
83.6022928782
 30
0.0
 10
34.1871114409
 20
83.8408741134
 30
0.0
 10
34.5105189133
 20
84.1503893221
 30
0.0
 10
34.7963728368
 20
84.3472132442
 30
0.0
 10
35.0004713586
 20
84.4650488771
 30
0.0
  0
SPLINE
  5
326
100
AcDbEntity
  8
0
100
AcDbSpline
 62
7
  6
BYLAYER
 70
0
 71
3
 72
22
 73
18
 74
0
 42
0.0000001
 43
0.0000001
 44
0.0000000001
 40
0.0
 40
0.0
 40
0.0
 40
0.0
 40
0.0428175212
 40
0.0874049284
 40
0.1351943872
 40
0.1871091133
 40
0.2435636091
 40
0.3045291906
 40
0.3696343356
 40
0.4382520709
 40
0.5095593441
 40
0.5826040786
 40
0.7296231509
 40
0.8016214105
 40
0.8712287755
 40
0.9376188067
 40
1.0
 40
1.0
 40
1.0
 40
1.0
 10
44.2345376822
 20
77.0554791827
 30
0.0
 10
44.2345384773
 20
76.9530013609
 30
0.0
 10
44.2619231717
 20
76.7429179399
 30
0.0
 10
44.3824095137
 20
76.4395707602
 30
0.0
 10
44.5779387983
 20
76.1520196564
 30
0.0
 10
44.8429017208
 20
75.8858951709
 30
0.0
 10
45.171264622
 20
75.6459699362
 30
0.0
 10
45.5559984499
 20
75.4367333522
 30
0.0
 10
45.9890373187
 20
75.2622463339
 30
0.0
 10
46.4612974882
 20
75.1261524396
 30
0.0
 10
46.9628473987
 20
75.0312339733
 30
0.0
 10
47.6574103002
 20
74.9621714933
 30
0.0
 10
48.3602424877
 20
74.9815805915
 30
0.0
 10
49.0431939242
 20
75.0897760409
 30
0.0
 10
49.5264854681
 20
75.2124502118
 30
0.0
 10
49.9735829576
 20
75.3745351988
 30
0.0
 10
50.2508094295
 20
75.5111624164
 30
0.0
 10
50.3801078805
 20
75.5858124663
 30
0.0
  0
SPLINE
  5
327
100
AcDbEntity
  8
0
100
AcDbSpline
 62
7
  6
BYLAYER
 70
0
 71
3
 72
14
 73
10
 74
0
 42
0.0000001
 43
0.0000001
 44
0.0000000001
 40
0.0
 40
0.0
 40
0.0
 40
0.0
 40
0.1080438987
 40
0.2181284597
 40
0.3321078643
 40
0.4514903637
 40
0.577436241
 40
0.7107375031
 40
1.0
 40
1.0
 40
1.0
 40
1.0
 10
43.184531371
 20
77.0554791819
 30
0.0
 10
43.1845401452
 20
77.1435063425
 30
0.0
 10
43.1998123863
 20
77.3215803818
 30
0.0
 10
43.2680510179
 20
77.5846092075
 30
0.0
 10
43.3807057869
 20
77.8419491973
 30
0.0
 10
43.5362431602
 20
78.0910426922
 30
0.0
 10
43.7330927304
 20
78.3296239274
 30
0.0
 10
44.0565002028
 20
78.6391391361
 30
0.0
 10
44.3423541262
 20
78.8359630584
 30
0.0
 10
44.546452648
 20
78.9537986911
 30
0.0
  0
SPLINE
  5
328
100
AcDbEntity
  8
0
100
AcDbSpline
 62
7
  6
BYLAYER
 70
0
 71
3
 72
9
 73
5
 74
0
 42
0.0000001
 43
0.0000001
 44
0.0000000001
 40
0.0
 40
0.0
 40
0.0
 40
0.0
 40
0.2535905689
 40
1.0
 40
1.0
 40
1.0
 40
1.0
 10
34.823838476
 20
54.4650133084
 30
0.0
 10
34.1027544165
 20
54.913190604
 30
0.0
 10
31.2452843686
 20
56.6578972957
 30
0.0
 10
28.3315272725
 20
58.3107232276
 30
0.0
 10
26.1263888567
 20
59.486374589
 30
0.0
  0
SPLINE
  5
329
100
AcDbEntity
  8
0
100
AcDbSpline
 62
7
  6
BYLAYER
 70
0
 71
3
 72
9
 73
5
 74
0
 42
0.0000001
 43
0.0000001
 44
0.0000000001
 40
0.0
 40
0.0
 40
0.0
 40
0.0
 40
0.2535611579
 40
1.0
 40
1.0
 40
1.0
 40
1.0
 10
45.1829959494
 20
47.4772952442
 30
0.0
 10
44.3974205569
 20
48.0491685284
 30
0.0
 10
41.2812254124
 20
50.2796281478
 30
0.0
 10
38.0923936822
 20
52.4089251702
 30
0.0
 10
35.6723701462
 20
53.9339580437
 30
0.0
  0
SPLINE
  5
32A
100
AcDbEntity
  8
0
100
AcDbSpline
 62
7
  6
BYLAYER
 70
0
 71
3
 72
9
 73
5
 74
0
 42
0.0000001
 43
0.0000001
 44
0.0000000001
 40
0.0
 40
0.0
 40
0.0
 40
0.0
 40
0.2542641642
 40
1.0
 40
1.0
 40
1.0
 40
1.0
 10
25.2778571865
 20
59.9350971351
 30
0.0
 10
24.4872232043
 20
60.3497859804
 30
0.0
 10
21.3623736841
 20
61.9512068828
 30
0.0
 10
18.1756089431
 20
63.432439055
 30
0.0
 10
15.7672313833
 20
64.4601106323
 30
0.0
  0
SPLINE
  5
32B
100
AcDbEntity
  8
0
100
AcDbSpline
 62
7
  6
BYLAYER
 70
0
 71
3
 72
22
 73
18
 74
0
 42
0.0000001
 43
0.0000001
 44
0.0000000001
 40
0.0
 40
0.0
 40
0.0
 40
0.0
 40
0.0428175212
 40
0.0874049284
 40
0.1351943872
 40
0.1871091133
 40
0.2435636091
 40
0.3045291906
 40
0.3696343356
 40
0.4382520709
 40
0.5095593441
 40
0.5826040786
 40
0.7296231509
 40
0.8016214105
 40
0.8712287755
 40
0.9376188067
 40
1.0
 40
1.0
 40
1.0
 40
1.0
 10
53.7805189717
 20
71.5442289967
 30
0.0
 10
53.7805197668
 20
71.4417511749
 30
0.0
 10
53.8079044612
 20
71.2316677539
 30
0.0
 10
53.9283908032
 20
70.9283205742
 30
0.0
 10
54.1239200878
 20
70.6407694704
 30
0.0
 10
54.3888830103
 20
70.3746449849
 30
0.0
 10
54.7172459115
 20
70.1347197501
 30
0.0
 10
55.1019797394
 20
69.9254831662
 30
0.0
 10
55.5350186082
 20
69.7509961478
 30
0.0
 10
56.0072787777
 20
69.6149022536
 30
0.0
 10
56.5088286882
 20
69.5199837873
 30
0.0
 10
57.2033915897
 20
69.4509213073
 30
0.0
 10
57.9062237771
 20
69.4703304055
 30
0.0
 10
58.5891752137
 20
69.5785258549
 30
0.0
 10
59.0724667576
 20
69.7012000257
 30
0.0
 10
59.519564247
 20
69.8632850128
 30
0.0
 10
59.796790719
 20
69.9999122304
 30
0.0
 10
59.92608917
 20
70.0745622802
 30
0.0
  0
SPLINE
  5
32C
100
AcDbEntity
  8
0
100
AcDbSpline
 62
7
  6
BYLAYER
 70
0
 71
3
 72
14
 73
10
 74
0
 42
0.0000001
 43
0.0000001
 44
0.0000000001
 40
0.0
 40
0.0
 40
0.0
 40
0.0
 40
0.1080438987
 40
0.2181284597
 40
0.3321078643
 40
0.4514903637
 40
0.577436241
 40
0.7107375031
 40
1.0
 40
1.0
 40
1.0
 40
1.0
 10
52.7305126605
 20
71.5442289959
 30
0.0
 10
52.7305214347
 20
71.6322561565
 30
0.0
 10
52.7457936758
 20
71.8103301957
 30
0.0
 10
52.8140323074
 20
72.0733590214
 30
0.0
 10
52.9266870764
 20
72.3306990112
 30
0.0
 10
53.0822244496
 20
72.5797925061
 30
0.0
 10
53.2790740199
 20
72.8183737414
 30
0.0
 10
53.6024814923
 20
73.12788895
 30
0.0
 10
53.8883354158
 20
73.3247128722
 30
0.0
 10
54.0924339375
 20
73.442548505
 30
0.0
  0
SPLINE
  5
32D
100
AcDbEntity
  8
0
100
AcDbSpline
 62
7
  6
BYLAYER
 70
0
 71
3
 72
11
 73
7
 74
0
 42
0.0000001
 43
0.0000001
 44
0.0000000001
 40
0.0
 40
0.0
 40
0.0
 40
0.0
 40
0.2177400931
 40
0.4508757811
 40
0.710456212
 40
1.0
 40
1.0
 40
1.0
 40
1.0
 10
40.1453543285
 20
36.4640226731
 30
0.0
 10
40.1453519479
 20
36.4259397493
 30
0.0
 10
40.1593342303
 20
36.3465390933
 30
0.0
 10
40.2195672057
 20
36.2358913892
 30
0.0
 10
40.3147741267
 20
36.1359534706
 30
0.0
 10
40.3943620864
 20
36.0810801518
 30
0.0
 10
40.4382191167
 20
36.0557598564
 30
0.0
  0
SPLINE
  5
32E
100
AcDbEntity
  8
0
100
AcDbSpline
 62
7
  6
BYLAYER
 70
0
 71
3
 72
17
 73
13
 74
0
 42
0.0000001
 43
0.0000001
 44
0.0000000001
 40
0.0
 40
0.0
 40
0.0
 40
0.0
 40
0.0428603445
 40
0.0875010056
 40
0.13534339
 40
0.1872938031
 40
0.3045597345
 40
0.4382312369
 40
0.5825759362
 40
0.7296963968
 40
0.8713400166
 40
1.0
 40
1.0
 40
1.0
 40
1.0
 10
48.3900358606
 20
42.7857696308
 30
0.0
 10
48.3739804795
 20
42.7950351663
 30
0.0
 10
48.3385825975
 20
42.8097282044
 30
0.0
 10
48.2801596185
 20
42.818297765
 30
0.0
 10
48.2174301421
 20
42.813630522
 30
0.0
 10
48.1262754938
 20
42.7894304461
 30
0.0
 10
48.0097800862
 20
42.7256718763
 30
0.0
 10
47.8810207165
 20
42.611697349
 30
0.0
 10
47.7672818843
 20
42.4660177247
 30
0.0
 10
47.6776898669
 20
42.3005034113
 30
0.0
 10
47.6195850252
 20
42.1286696452
 30
0.0
 10
47.6039988482
 20
42.0116325905
 30
0.0
 10
47.6039988482
 20
41.9559870368
 30
0.0
  0
SPLINE
  5
32F
100
AcDbEntity
  8
0
100
AcDbSpline
 62
7
  6
BYLAYER
 70
0
 71
3
 72
11
 73
7
 74
0
 42
0.0000001
 43
0.0000001
 44
0.0000000001
 40
0.0
 40
0.0
 40
0.0
 40
0.0
 40
0.2177400931
 40
0.4508757811
 40
0.710456212
 40
1.0
 40
1.0
 40
1.0
 40
1.0
 10
30.5993730391
 20
41.9752728591
 30
0.0
 10
30.5993706584
 20
41.9371899353
 30
0.0
 10
30.6133529408
 20
41.8577892793
 30
0.0
 10
30.6735859162
 20
41.7471415752
 30
0.0
 10
30.7687928372
 20
41.6472036566
 30
0.0
 10
30.8483807969
 20
41.5923303379
 30
0.0
 10
30.8922378272
 20
41.5670100424
 30
0.0
  0
SPLINE
  5
330
100
AcDbEntity
  8
0
100
AcDbSpline
 62
7
  6
BYLAYER
 70
0
 71
3
 72
11
 73
7
 74
0
 42
0.0000001
 43
0.0000001
 44
0.0000000001
 40
0.0
 40
0.0
 40
0.0
 40
0.0
 40
0.2303757073
 40
0.4838113825
 40
0.7457615626
 40
1.0
 40
1.0
 40
1.0
 40
1.0
 10
21.6900908231
 20
53.1946384727
 30
0.0
 10
21.5738824686
 20
53.126374913
 30
0.0
 10
21.3493348398
 20
52.9491863137
 30
0.0
 10
21.0657308835
 20
52.6147368453
 30
0.0
 10
20.8378158724
 20
52.2239184821
 30
0.0
 10
20.7329253474
 20
51.9384868735
 30
0.0
 10
20.6963036301
 20
51.7943306597
 30
0.0
  0
SPLINE
  5
331
100
AcDbEntity
  8
0
100
AcDbSpline
 62
7
  6
BYLAYER
 70
0
 71
3
 72
11
 73
7
 74
0
 42
0.0000001
 43
0.0000001
 44
0.0000000001
 40
0.0
 40
0.0
 40
0.0
 40
0.0
 40
0.2540669419
 40
0.5161954759
 40
0.769760534
 40
1.0
 40
1.0
 40
1.0
 40
1.0
 10
20.6963036301
 20
51.7943306597
 30
0.0
 10
20.6889844087
 20
51.7655195794
 30
0.0
 10
20.667956943
 20
51.7084575555
 30
0.0
 10
20.622461264
 20
51.6302230302
 30
0.0
 10
20.5656427761
 20
51.5633913585
 30
0.0
 10
20.5207735415
 20
51.5279133966
 30
0.0
 10
20.4975461914
 20
51.514269097
 30
0.0
  0
SPLINE
  5
332
100
AcDbEntity
  8
0
100
AcDbSpline
 62
7
  6
BYLAYER
 70
0
 71
3
 72
11
 73
7
 74
0
 42
0.0000001
 43
0.0000001
 44
0.0000000001
 40
0.0
 40
0.0
 40
0.0
 40
0.0
 40
0.2177400931
 40
0.4508757811
 40
0.710456212
 40
1.0
 40
1.0
 40
1.0
 40
1.0
 10
21.0533917496
 20
47.4865230452
 30
0.0
 10
21.0533893689
 20
47.4484401213
 30
0.0
 10
21.0673716513
 20
47.3690394654
 30
0.0
 10
21.1276046268
 20
47.2583917612
 30
0.0
 10
21.2228115477
 20
47.1584538426
 30
0.0
 10
21.3023995074
 20
47.1035805239
 30
0.0
 10
21.3462565377
 20
47.0782602285
 30
0.0
  0
SPLINE
  5
333
100
AcDbEntity
  8
0
100
AcDbSpline
 62
7
  6
BYLAYER
 70
0
 71
3
 72
10
 73
6
 74
0
 42
0.0000001
 43
0.0000001
 44
0.0000000001
 40
0.0
 40
0.0
 40
0.0
 40
0.0
 40
0.4907838623
 40
0.749840709
 40
1.0
 40
1.0
 40
1.0
 40
1.0
 10
25.277290563
 20
50.2016702624
 30
0.0
 10
25.2358170823
 20
50.1707326839
 30
0.0
 10
25.1821243429
 20
50.1098223527
 30
0.0
 10
25.1316945762
 20
50.0171016981
 30
0.0
 10
25.1135694934
 20
49.9662021061
 30
0.0
 10
25.1070758217
 20
49.9406406856
 30
0.0
  0
SPLINE
  5
334
100
AcDbEntity
  8
0
100
AcDbSpline
 62
7
  6
BYLAYER
 70
0
 71
3
 72
11
 73
7
 74
0
 42
0.0000001
 43
0.0000001
 44
0.0000000001
 40
0.0
 40
0.0
 40
0.0
 40
0.0
 40
0.2543428825
 40
0.5163740867
 40
0.7697914163
 40
1.0
 40
1.0
 40
1.0
 40
1.0
 10
25.1070758217
 20
49.9406406856
 30
0.0
 10
25.0703534366
 20
49.7960882072
 30
0.0
 10
24.9651041119
 20
49.5098966979
 30
0.0
 10
24.7363025046
 20
49.1182690087
 30
0.0
 10
24.4517440775
 20
48.7832830921
 30
0.0
 10
24.2262363942
 20
48.6064524221
 30
0.0
 10
24.1097923182
 20
48.5381618184
 30
0.0
  0
SPLINE
  5
335
100
AcDbEntity
  8
0
100
AcDbSpline
 62
7
  6
BYLAYER
 70
0
 71
3
 72
13
 73
9
 74
0
 42
0.0000001
 43
0.0000001
 44
0.0000000001
 40
0.0
 40
0.0
 40
0.0
 40
0.0
 40
0.1141957844
 40
0.2376173658
 40
0.5001029728
 40
0.7625328418
 40
0.8858887762
 40
1.0
 40
1.0
 40
1.0
 40
1.0
 10
16.3964347331
 20
49.9359765296
 30
0.0
 10
16.4448597611
 20
49.9080189592
 30
0.0
 10
16.5508727661
 20
49.8587193637
 30
0.0
 10
16.7857208643
 20
49.7873106005
 30
0.0
 10
17.1043377515
 20
49.7529018411
 30
0.0
 10
17.4228949105
 20
49.7875971949
 30
0.0
 10
17.6575701789
 20
49.8592309128
 30
0.0
 10
17.7634549394
 20
49.9086352745
 30
0.0
 10
17.8118035049
 20
49.9366423551
 30
0.0
  0
SPLINE
  5
336
100
AcDbEntity
  8
0
100
AcDbSpline
 62
7
  6
BYLAYER
 70
0
 71
3
 72
10
 73
6
 74
0
 42
0.0000001
 43
0.0000001
 44
0.0000000001
 40
0.0
 40
0.0
 40
0.0
 40
0.0
 40
0.4907838623
 40
0.749840709
 40
1.0
 40
1.0
 40
1.0
 40
1.0
 10
34.8232718524
 20
44.6904200764
 30
0.0
 10
34.7817983718
 20
44.6594824978
 30
0.0
 10
34.7281056324
 20
44.5985721667
 30
0.0
 10
34.6776758657
 20
44.505851512
 30
0.0
 10
34.6595507828
 20
44.45495192
 30
0.0
 10
34.6530571112
 20
44.4293904996
 30
0.0
  0
SPLINE
  5
337
100
AcDbEntity
  8
0
100
AcDbSpline
 62
7
  6
BYLAYER
 70
0
 71
3
 72
11
 73
7
 74
0
 42
0.0000001
 43
0.0000001
 44
0.0000000001
 40
0.0
 40
0.0
 40
0.0
 40
0.0
 40
0.2543428825
 40
0.5163740867
 40
0.7697914163
 40
1.0
 40
1.0
 40
1.0
 40
1.0
 10
34.6530571112
 20
44.4293904996
 30
0.0
 10
34.6163347261
 20
44.2848380212
 30
0.0
 10
34.5110854014
 20
43.9986465119
 30
0.0
 10
34.2822837941
 20
43.6070188226
 30
0.0
 10
33.997725367
 20
43.272032906
 30
0.0
 10
33.7722176836
 20
43.095202236
 30
0.0
 10
33.6557736077
 20
43.0269116324
 30
0.0
  0
SPLINE
  5
338
100
AcDbEntity
  8
0
100
AcDbSpline
 62
7
  6
BYLAYER
 70
0
 71
3
 72
11
 73
7
 74
0
 42
0.0000001
 43
0.0000001
 44
0.0000000001
 40
0.0
 40
0.0
 40
0.0
 40
0.0
 40
0.2303757073
 40
0.4838113825
 40
0.7457615626
 40
1.0
 40
1.0
 40
1.0
 40
1.0
 10
31.2360721126
 20
47.6833882866
 30
0.0
 10
31.1198637581
 20
47.615124727
 30
0.0
 10
30.8953161293
 20
47.4379361277
 30
0.0
 10
30.611712173
 20
47.1034866593
 30
0.0
 10
30.3837971618
 20
46.7126682961
 30
0.0
 10
30.2789066369
 20
46.4272366874
 30
0.0
 10
30.2422849196
 20
46.2830804737
 30
0.0
  0
SPLINE
  5
339
100
AcDbEntity
  8
0
100
AcDbSpline
 62
7
  6
BYLAYER
 70
0
 71
3
 72
9
 73
5
 74
0
 42
0.0000001
 43
0.0000001
 44
0.0000000001
 40
0.0
 40
0.0
 40
0.0
 40
0.0
 40
0.2433784389
 40
1.0
 40
1.0
 40
1.0
 40
1.0
 10
30.239625097
 20
46.2731279015
 30
0.0
 10
30.2372182496
 20
46.2645424948
 30
0.0
 10
30.2262300731
 20
46.2295811583
 30
0.0
 10
30.2112337613
 20
46.1959022093
 30
0.0
 10
30.197990097
 20
46.1715510674
 30
0.0
  0
SPLINE
  5
33A
100
AcDbEntity
  8
0
100
AcDbSpline
 62
7
  6
BYLAYER
 70
0
 71
3
 72
9
 73
5
 74
0
 42
0.0000001
 43
0.0000001
 44
0.0000000001
 40
0.0
 40
0.0
 40
0.0
 40
0.0
 40
0.5249123369
 40
1.0
 40
1.0
 40
1.0
 40
1.0
 10
30.197990097
 20
46.1715510674
 30
0.0
 10
30.1787149617
 20
46.1361098522
 30
0.0
 10
30.1341285928
 20
46.0726390359
 30
0.0
 10
30.0750115096
 20
46.0215133805
 30
0.0
 10
30.0435274809
 20
46.003018911
 30
0.0
  0
SPLINE
  5
33B
100
AcDbEntity
  8
0
100
AcDbSpline
 62
7
  6
BYLAYER
 70
0
 71
3
 72
13
 73
9
 74
0
 42
0.0000001
 43
0.0000001
 44
0.0000000001
 40
0.0
 40
0.0
 40
0.0
 40
0.0
 40
0.1141957844
 40
0.2376173658
 40
0.5001029728
 40
0.7625328418
 40
0.8858887762
 40
1.0
 40
1.0
 40
1.0
 40
1.0
 10
25.9424160226
 20
44.4247263436
 30
0.0
 10
25.9908410505
 20
44.3967687731
 30
0.0
 10
26.0968540556
 20
44.3474691776
 30
0.0
 10
26.3317021537
 20
44.2760604145
 30
0.0
 10
26.650319041
 20
44.241651655
 30
0.0
 10
26.9688762
 20
44.2763470089
 30
0.0
 10
27.2035514684
 20
44.3479807267
 30
0.0
 10
27.3094362289
 20
44.3973850885
 30
0.0
 10
27.3577847944
 20
44.4253921691
 30
0.0
  0
SPLINE
  5
33C
100
AcDbEntity
  8
0
100
AcDbSpline
 62
7
  6
BYLAYER
 70
0
 71
3
 72
11
 73
7
 74
0
 42
0.0000001
 43
0.0000001
 44
0.0000000001
 40
0.0
 40
0.0
 40
0.0
 40
0.0
 40
0.2303757073
 40
0.4838113825
 40
0.7457615626
 40
1.0
 40
1.0
 40
1.0
 40
1.0
 10
40.7820534021
 20
42.1721381006
 30
0.0
 10
40.6658450476
 20
42.1038745409
 30
0.0
 10
40.4412974188
 20
41.9266859416
 30
0.0
 10
40.1576934625
 20
41.5922364733
 30
0.0
 10
39.9297784513
 20
41.20141811
 30
0.0
 10
39.8248879264
 20
40.9159865014
 30
0.0
 10
39.7882662091
 20
40.7718302877
 30
0.0
  0
SPLINE
  5
33D
100
AcDbEntity
  8
0
100
AcDbSpline
 62
7
  6
BYLAYER
 70
0
 71
3
 72
9
 73
5
 74
0
 42
0.0000001
 43
0.0000001
 44
0.0000000001
 40
0.0
 40
0.0
 40
0.0
 40
0.0
 40
0.2433784389
 40
1.0
 40
1.0
 40
1.0
 40
1.0
 10
39.7856063865
 20
40.7618777155
 30
0.0
 10
39.783199539
 20
40.7532923087
 30
0.0
 10
39.7722113626
 20
40.7183309723
 30
0.0
 10
39.7572150508
 20
40.6846520233
 30
0.0
 10
39.7439713865
 20
40.6603008814
 30
0.0
  0
SPLINE
  5
33E
100
AcDbEntity
  8
0
100
AcDbSpline
 62
7
  6
BYLAYER
 70
0
 71
3
 72
9
 73
5
 74
0
 42
0.0000001
 43
0.0000001
 44
0.0000000001
 40
0.0
 40
0.0
 40
0.0
 40
0.0
 40
0.5249123369
 40
1.0
 40
1.0
 40
1.0
 40
1.0
 10
39.7439713865
 20
40.6603008814
 30
0.0
 10
39.7246962512
 20
40.6248596662
 30
0.0
 10
39.6801098823
 20
40.5613888498
 30
0.0
 10
39.6209927991
 20
40.5102631945
 30
0.0
 10
39.5895087704
 20
40.491768725
 30
0.0
  0
SPLINE
  5
33F
100
AcDbEntity
  8
0
100
AcDbSpline
 62
7
  6
BYLAYER
 70
0
 71
3
 72
13
 73
9
 74
0
 42
0.0000001
 43
0.0000001
 44
0.0000000001
 40
0.0
 40
0.0
 40
0.0
 40
0.0
 40
0.2893766504
 40
0.5483135573
 40
0.6677433155
 40
0.7817682046
 40
0.8919069975
 40
1.0
 40
1.0
 40
1.0
 40
1.0
 10
40.834126591
 20
81.0970626523
 30
0.0
 10
40.9921293785
 20
81.1882850597
 30
0.0
 10
41.278660869
 20
81.3854686108
 30
0.0
 10
41.5716912092
 20
81.6937317706
 30
0.0
 10
41.7366570864
 20
81.9578366948
 30
0.0
 10
41.8238202871
 20
82.1570900942
 30
0.0
 10
41.8767100223
 20
82.3607063076
 30
0.0
 10
41.8885072971
 20
82.498579101
 30
0.0
 10
41.8885067683
 20
82.5667293684
 30
0.0
  0
SPLINE
  5
340
100
AcDbEntity
  8
0
100
AcDbSpline
 62
7
  6
BYLAYER
 70
0
 71
3
 72
23
 73
19
 74
0
 42
0.0000001
 43
0.0000001
 44
0.0000000001
 40
0.0
 40
0.0
 40
0.0
 40
0.0
 40
0.0623787993
 40
0.1287507555
 40
0.1983469677
 40
0.2703364615
 40
0.3437254543
 40
0.4174673772
 40
0.4905048622
 40
0.5618035757
 40
0.6304122403
 40
0.6955113505
 40
0.756468273
 40
0.8129137665
 40
0.8648231237
 40
0.9126057428
 40
0.9571867522
 40
1.0
 40
1.0
 40
1.0
 40
1.0
 10
35.0004713586
 20
84.4650488771
 30
0.0
 10
35.1674979419
 20
84.5614811441
 30
0.0
 10
35.5255607748
 20
84.7379741902
 30
0.0
 10
36.103072837
 20
84.9473026993
 30
0.0
 10
36.7272433713
 20
85.1057251441
 30
0.0
 10
37.3845623934
 20
85.2099563961
 30
0.0
 10
38.0611862184
 20
85.2577829248
 30
0.0
 10
38.7426558969
 20
85.2481961766
 30
0.0
 10
39.4144432951
 20
85.1814051453
 30
0.0
 10
40.0622289005
 20
85.0587830175
 30
0.0
 10
40.6722510243
 20
84.8829750279
 30
0.0
 10
41.2316189973
 20
84.6576485222
 30
0.0
 10
41.7285566777
 20
84.3873507607
 30
0.0
 10
42.1526709554
 20
84.0774280189
 30
0.0
 10
42.4949609515
 20
83.7337312774
 30
0.0
 10
42.7475057509
 20
83.3622887737
 30
0.0
 10
42.9030887689
 20
82.970456298
 30
0.0
 10
42.9385262737
 20
82.6991011705
 30
0.0
 10
42.9385130794
 20
82.5667293692
 30
0.0
  0
SPLINE
  5
341
100
AcDbEntity
  8
0
100
AcDbSpline
 62
7
  6
BYLAYER
 70
0
 71
3
 72
11
 73
7
 74
0
 42
0.0000001
 43
0.0000001
 44
0.0000000001
 40
0.0
 40
0.0
 40
0.0
 40
0.0
 40
0.2302387877
 40
0.4838031081
 40
0.7459323754
 40
1.0
 40
1.0
 40
1.0
 40
1.0
 10
44.3977958393
 20
39.1982018761
 30
0.0
 10
44.3745685575
 20
39.1845576167
 30
0.0
 10
44.3296993933
 20
39.14907984
 30
0.0
 10
44.2728809601
 20
39.082248213
 30
0.0
 10
44.2273852497
 20
39.0040136235
 30
0.0
 10
44.2063576418
 20
38.9469514714
 30
0.0
 10
44.1990384007
 20
38.9181403136
 30
0.0
  0
SPLINE
  5
342
100
AcDbEntity
  8
0
100
AcDbSpline
 62
7
  6
BYLAYER
 70
0
 71
3
 72
11
 73
7
 74
0
 42
0.0000001
 43
0.0000001
 44
0.0000000001
 40
0.0
 40
0.0
 40
0.0
 40
0.0
 40
0.2543428825
 40
0.5163740867
 40
0.7697914163
 40
1.0
 40
1.0
 40
1.0
 40
1.0
 10
44.1990384007
 20
38.9181403136
 30
0.0
 10
44.1623160156
 20
38.7735878352
 30
0.0
 10
44.0570666909
 20
38.4873963259
 30
0.0
 10
43.8282650836
 20
38.0957686366
 30
0.0
 10
43.5437066564
 20
37.76078272
 30
0.0
 10
43.3181989731
 20
37.58395205
 30
0.0
 10
43.2017548971
 20
37.5156614463
 30
0.0
  0
SPLINE
  5
343
100
AcDbEntity
  8
0
100
AcDbSpline
 62
7
  6
BYLAYER
 70
0
 71
3
 72
13
 73
9
 74
0
 42
0.0000001
 43
0.0000001
 44
0.0000000001
 40
0.0
 40
0.0
 40
0.0
 40
0.0
 40
0.2893766504
 40
0.5483135573
 40
0.6677433155
 40
0.7817682046
 40
0.8919069975
 40
1.0
 40
1.0
 40
1.0
 40
1.0
 10
50.3801078805
 20
75.5858124663
 30
0.0
 10
50.538110668
 20
75.6770348736
 30
0.0
 10
50.8246421584
 20
75.8742184247
 30
0.0
 10
51.1176724987
 20
76.1824815846
 30
0.0
 10
51.2826383759
 20
76.4465865088
 30
0.0
 10
51.3698015766
 20
76.6458399082
 30
0.0
 10
51.4226913117
 20
76.8494561215
 30
0.0
 10
51.4344885865
 20
76.9873289149
 30
0.0
 10
51.4344880577
 20
77.0554791824
 30
0.0
  0
SPLINE
  5
344
100
AcDbEntity
  8
0
100
AcDbSpline
 62
7
  6
BYLAYER
 70
0
 71
3
 72
13
 73
9
 74
0
 42
0.0000001
 43
0.0000001
 44
0.0000000001
 40
0.0
 40
0.0
 40
0.0
 40
0.0
 40
0.1141957844
 40
0.2376173658
 40
0.5001029728
 40
0.7625328418
 40
0.8858887762
 40
1.0
 40
1.0
 40
1.0
 40
1.0
 10
35.4883973121
 20
38.9134761576
 30
0.0
 10
35.53682234
 20
38.8855185871
 30
0.0
 10
35.6428353451
 20
38.8362189916
 30
0.0
 10
35.8776834432
 20
38.7648102285
 30
0.0
 10
36.1963003305
 20
38.730401469
 30
0.0
 10
36.5148574895
 20
38.7650968229
 30
0.0
 10
36.7495327579
 20
38.8367305407
 30
0.0
 10
36.8554175183
 20
38.8861349025
 30
0.0
 10
36.9037660839
 20
38.9141419831
 30
0.0
  0
SPLINE
  5
345
100
AcDbEntity
  8
0
100
AcDbSpline
 62
7
  6
BYLAYER
 70
0
 71
3
 72
23
 73
19
 74
0
 42
0.0000001
 43
0.0000001
 44
0.0000000001
 40
0.0
 40
0.0
 40
0.0
 40
0.0
 40
0.0623787993
 40
0.1287507555
 40
0.1983469677
 40
0.2703364615
 40
0.3437254543
 40
0.4174673772
 40
0.4905048622
 40
0.5618035757
 40
0.6304122403
 40
0.6955113505
 40
0.756468273
 40
0.8129137665
 40
0.8648231237
 40
0.9126057428
 40
0.9571867522
 40
1.0
 40
1.0
 40
1.0
 40
1.0
 10
44.546452648
 20
78.9537986911
 30
0.0
 10
44.7134792314
 20
79.0502309579
 30
0.0
 10
45.0715420643
 20
79.2267240041
 30
0.0
 10
45.6490541265
 20
79.4360525133
 30
0.0
 10
46.2732246608
 20
79.594474958
 30
0.0
 10
46.9305436829
 20
79.6987062101
 30
0.0
 10
47.6071675079
 20
79.7465327388
 30
0.0
 10
48.2886371863
 20
79.7369459905
 30
0.0
 10
48.9604245846
 20
79.6701549593
 30
0.0
 10
49.60821019
 20
79.5475328315
 30
0.0
 10
50.2182323138
 20
79.3717248419
 30
0.0
 10
50.7776002868
 20
79.1463983362
 30
0.0
 10
51.2745379672
 20
78.8761005746
 30
0.0
 10
51.6986522449
 20
78.5661778329
 30
0.0
 10
52.040942241
 20
78.2224810913
 30
0.0
 10
52.2934870403
 20
77.8510385877
 30
0.0
 10
52.4490700584
 20
77.459206112
 30
0.0
 10
52.4845075631
 20
77.1878509844
 30
0.0
 10
52.4844943689
 20
77.0554791832
 30
0.0
  0
SPLINE
  5
346
100
AcDbEntity
  8
0
100
AcDbSpline
 62
7
  6
BYLAYER
 70
0
 71
3
 72
13
 73
9
 74
0
 42
0.0000001
 43
0.0000001
 44
0.0000000001
 40
0.0
 40
0.0
 40
0.0
 40
0.0
 40
0.2893766504
 40
0.5483135573
 40
0.6677433155
 40
0.7817682046
 40
0.8919069975
 40
1.0
 40
1.0
 40
1.0
 40
1.0
 10
59.92608917
 20
70.0745622802
 30
0.0
 10
60.0840919575
 20
70.1657846876
 30
0.0
 10
60.3706234479
 20
70.3629682387
 30
0.0
 10
60.6636537882
 20
70.6712313986
 30
0.0
 10
60.8286196653
 20
70.9353363228
 30
0.0
 10
60.9157828661
 20
71.1345897222
 30
0.0
 10
60.9686726012
 20
71.3382059355
 30
0.0
 10
60.980469876
 20
71.4760787289
 30
0.0
 10
60.9804693472
 20
71.5442289963
 30
0.0
  0
SPLINE
  5
347
100
AcDbEntity
  8
0
100
AcDbSpline
 62
7
  6
BYLAYER
 70
0
 71
3
 72
23
 73
19
 74
0
 42
0.0000001
 43
0.0000001
 44
0.0000000001
 40
0.0
 40
0.0
 40
0.0
 40
0.0
 40
0.0623787993
 40
0.1287507555
 40
0.1983469677
 40
0.2703364615
 40
0.3437254543
 40
0.4174673772
 40
0.4905048622
 40
0.5618035757
 40
0.6304122403
 40
0.6955113505
 40
0.756468273
 40
0.8129137665
 40
0.8648231237
 40
0.9126057428
 40
0.9571867522
 40
1.0
 40
1.0
 40
1.0
 40
1.0
 10
54.0924339375
 20
73.442548505
 30
0.0
 10
54.2594605208
 20
73.5389807721
 30
0.0
 10
54.6175233538
 20
73.7154738181
 30
0.0
 10
55.195035416
 20
73.9248023272
 30
0.0
 10
55.8192059503
 20
74.083224772
 30
0.0
 10
56.4765249724
 20
74.1874560241
 30
0.0
 10
57.1531487974
 20
74.2352825528
 30
0.0
 10
57.8346184758
 20
74.2256958045
 30
0.0
 10
58.5064058741
 20
74.1589047732
 30
0.0
 10
59.1541914795
 20
74.0362826455
 30
0.0
 10
59.7642136032
 20
73.8604746558
 30
0.0
 10
60.3235815763
 20
73.6351481501
 30
0.0
 10
60.8205192567
 20
73.3648503886
 30
0.0
 10
61.2446335343
 20
73.0549276469
 30
0.0
 10
61.5869235305
 20
72.7112309053
 30
0.0
 10
61.8394683298
 20
72.3397884016
 30
0.0
 10
61.9950513479
 20
71.9479559259
 30
0.0
 10
62.0304888526
 20
71.6766007984
 30
0.0
 10
62.0304756584
 20
71.5442289971
 30
0.0
  0
SPLINE
  5
348
100
AcDbEntity
  8
0
100
AcDbSpline
 62
7
  6
BYLAYER
 70
0
 71
3
 72
14
 73
10
 74
0
 42
0.0000001
 43
0.0000001
 44
0.0000000001
 40
0.0
 40
0.0
 40
0.0
 40
0.0
 40
0.1080438987
 40
0.2181284597
 40
0.3321078643
 40
0.4514903637
 40
0.577436241
 40
0.7107375031
 40
1.0
 40
1.0
 40
1.0
 40
1.0
 10
52.4844943689
 20
77.0554791832
 30
0.0
 10
52.4844855948
 20
76.9674520226
 30
0.0
 10
52.4692133536
 20
76.7893779833
 30
0.0
 10
52.400974722
 20
76.5263491576
 30
0.0
 10
52.2883199531
 20
76.2690091678
 30
0.0
 10
52.1327825798
 20
76.0199156729
 30
0.0
 10
51.9359330096
 20
75.7813344376
 30
0.0
 10
51.6125255371
 20
75.471819229
 30
0.0
 10
51.3266716135
 20
75.274995307
 30
0.0
 10
51.1225730919
 20
75.157159674
 30
0.0
  0
SPLINE
  5
349
100
AcDbEntity
  8
0
100
AcDbSpline
 62
7
  6
BYLAYER
 70
0
 71
3
 72
14
 73
10
 74
0
 42
0.0000001
 43
0.0000001
 44
0.0000000001
 40
0.0
 40
0.0
 40
0.0
 40
0.0
 40
0.1080438987
 40
0.2181284597
 40
0.3321078643
 40
0.4514903637
 40
0.577436241
 40
0.7107375031
 40
1.0
 40
1.0
 40
1.0
 40
1.0
 10
62.0304756584
 20
71.5442289971
 30
0.0
 10
62.0304668843
 20
71.4562018366
 30
0.0
 10
62.0151946431
 20
71.2781277973
 30
0.0
 10
61.9469560115
 20
71.0150989716
 30
0.0
 10
61.8343012425
 20
70.7577589818
 30
0.0
 10
61.6787638693
 20
70.5086654869
 30
0.0
 10
61.4819142991
 20
70.2700842516
 30
0.0
 10
61.1585068266
 20
69.960569043
 30
0.0
 10
60.872652903
 20
69.763745121
 30
0.0
 10
60.6685543814
 20
69.645909488
 30
0.0
  0
SPLINE
  5
34A
100
AcDbEntity
  8
0
100
AcDbSpline
 62
7
  6
BYLAYER
 70
0
 71
3
 72
11
 73
7
 74
0
 42
0.0000001
 43
0.0000001
 44
0.0000000001
 40
0.0
 40
0.0
 40
0.0
 40
0.0
 40
0.2371485392
 40
0.4830332957
 40
0.7374333503
 40
1.0
 40
1.0
 40
1.0
 40
1.0
 10
14.9186997131
 20
65.7932069199
 30
0.0
 10
17.5436732767
 20
64.6932326561
 30
0.0
 10
22.8139717895
 20
62.266748169
 30
0.0
 10
30.6079280616
 20
58.0627902182
 30
0.0
 10
38.4002580506
 20
53.2473847927
 30
0.0
 10
43.4931865609
 20
49.6978995983
 30
0.0
 10
46.0315276196
 20
47.830613721
 30
0.0
  0
SPLINE
  5
34B
100
AcDbEntity
  8
0
100
AcDbSpline
 62
7
  6
BYLAYER
 70
0
 71
3
 72
11
 73
7
 74
0
 42
0.0000001
 43
0.0000001
 44
0.0000000001
 40
0.0
 40
0.0
 40
0.0
 40
0.0
 40
0.2302387877
 40
0.4838031081
 40
0.7459323754
 40
1.0
 40
1.0
 40
1.0
 40
1.0
 10
33.5790761066
 20
43.9618151384
 30
0.0
 10
33.6023033884
 20
43.9754593978
 30
0.0
 10
33.6471725526
 20
44.0109371745
 30
0.0
 10
33.7039909859
 20
44.0777688016
 30
0.0
 10
33.7494866963
 20
44.1560033911
 30
0.0
 10
33.7705143042
 20
44.2130655432
 30
0.0
 10
33.7778335453
 20
44.2418767011
 30
0.0
  0
SPLINE
  5
34C
100
AcDbEntity
  8
0
100
AcDbSpline
 62
7
  6
BYLAYER
 70
0
 71
3
 72
11
 73
7
 74
0
 42
0.0000001
 43
0.0000001
 44
0.0000000001
 40
0.0
 40
0.0
 40
0.0
 40
0.0
 40
0.2542385326
 40
0.5161887399
 40
0.7696243817
 40
1.0
 40
1.0
 40
1.0
 40
1.0
 10
33.7778335453
 20
44.2418767011
 30
0.0
 10
33.8144552763
 20
44.3860329688
 30
0.0
 10
33.9193458374
 20
44.6714646428
 30
0.0
 10
34.1472609031
 20
45.062283035
 30
0.0
 10
34.4308648495
 20
45.3967324387
 30
0.0
 10
34.6554124287
 20
45.5739209807
 30
0.0
 10
34.7716207383
 20
45.642184514
 30
0.0
  0
SPLINE
  5
34D
100
AcDbEntity
  8
0
100
AcDbSpline
 62
7
  6
BYLAYER
 70
0
 71
3
 72
11
 73
7
 74
0
 42
0.0000001
 43
0.0000001
 44
0.0000000001
 40
0.0
 40
0.0
 40
0.0
 40
0.0
 40
0.2895947364
 40
0.5491936519
 40
0.7823093863
 40
1.0
 40
1.0
 40
1.0
 40
1.0
 10
30.892864592
 20
42.3838545585
 30
0.0
 10
30.8489229789
 20
42.3585319475
 30
0.0
 10
30.7691791109
 20
42.3036422765
 30
0.0
 10
30.6737714597
 20
42.2036358813
 30
0.0
 10
30.6133985354
 20
42.0928865125
 30
0.0
 10
30.5993754223
 20
42.0133963765
 30
0.0
 10
30.5993730391
 20
41.9752728591
 30
0.0
  0
SPLINE
  5
34E
100
AcDbEntity
  8
0
100
AcDbSpline
 62
7
  6
BYLAYER
 70
0
 71
3
 72
25
 73
21
 74
0
 42
0.0000001
 43
0.0000001
 44
0.0000000001
 40
0.0
 40
0.0
 40
0.0
 40
0.0
 40
0.0188796894
 40
0.0378943468
 40
0.0573557475
 40
0.077545256
 40
0.1209321871
 40
0.1694254589
 40
0.2235632842
 40
0.2833173457
 40
0.3482469432
 40
0.4176054356
 40
0.4904344275
 40
0.5656289458
 40
0.6419924134
 40
0.7183009703
 40
0.793341784
 40
0.8659566563
 40
0.9351533333
 40
1.0
 40
1.0
 40
1.0
 40
1.0
 10
33.6385365544
 20
78.8429904889
 30
0.0
 10
33.6385296898
 20
78.7864988319
 30
0.0
 10
33.6469593971
 20
78.6729240205
 30
0.0
 10
33.6851468451
 20
78.50500395
 30
0.0
 10
33.7483928966
 20
78.3406265819
 30
0.0
 10
33.8683674678
 20
78.1223018555
 30
0.0
 10
34.0842984936
 20
77.86165499
 30
0.0
 10
34.4254044261
 20
77.5853254064
 30
0.0
 10
34.8472314154
 20
77.3409641034
 30
0.0
 10
35.3414243227
 20
77.132833969
 30
0.0
 10
35.8982133741
 20
76.9649708878
 30
0.0
 10
36.5062398685
 20
76.8411245587
 30
0.0
 10
37.15284763
 20
76.7644280941
 30
0.0
 10
37.8243560077
 20
76.7372613033
 30
0.0
 10
38.5064032196
 20
76.7609707748
 30
0.0
 10
39.184300877
 20
76.8358852555
 30
0.0
 10
39.8433471281
 20
76.9611805442
 30
0.0
 10
40.4694156277
 20
77.1347737074
 30
0.0
 10
41.0487294442
 20
77.3534798785
 30
0.0
 10
41.4085534488
 20
77.532847272
 30
0.0
 10
41.5765917991
 20
77.6298636797
 30
0.0
  0
SPLINE
  5
34F
100
AcDbEntity
  8
0
100
AcDbSpline
 62
7
  6
BYLAYER
 70
0
 71
3
 72
11
 73
7
 74
0
 42
0.0000001
 43
0.0000001
 44
0.0000000001
 40
0.0
 40
0.0
 40
0.0
 40
0.0
 40
0.2302387877
 40
0.4838031081
 40
0.7459323754
 40
1.0
 40
1.0
 40
1.0
 40
1.0
 10
24.0330948172
 20
49.4730653244
 30
0.0
 10
24.056322099
 20
49.4867095838
 30
0.0
 10
24.1011912632
 20
49.5221873605
 30
0.0
 10
24.1580096964
 20
49.5890189876
 30
0.0
 10
24.2035054068
 20
49.6672535771
 30
0.0
 10
24.2245330148
 20
49.7243157293
 30
0.0
 10
24.2318522558
 20
49.7531268871
 30
0.0
  0
SPLINE
  5
350
100
AcDbEntity
  8
0
100
AcDbSpline
 62
7
  6
BYLAYER
 70
0
 71
3
 72
11
 73
7
 74
0
 42
0.0000001
 43
0.0000001
 44
0.0000000001
 40
0.0
 40
0.0
 40
0.0
 40
0.0
 40
0.2542385326
 40
0.5161887399
 40
0.7696243817
 40
1.0
 40
1.0
 40
1.0
 40
1.0
 10
24.2318522558
 20
49.7531268871
 30
0.0
 10
24.2684739868
 20
49.8972831549
 30
0.0
 10
24.3733645479
 20
50.1827148288
 30
0.0
 10
24.6012796136
 20
50.573533221
 30
0.0
 10
24.88488356
 20
50.9079826248
 30
0.0
 10
25.1094311393
 20
51.0851711668
 30
0.0
 10
25.2256394489
 20
51.1534347001
 30
0.0
  0
SPLINE
  5
351
100
AcDbEntity
  8
0
100
AcDbSpline
 62
7
  6
BYLAYER
 70
0
 71
3
 72
11
 73
7
 74
0
 42
0.0000001
 43
0.0000001
 44
0.0000000001
 40
0.0
 40
0.0
 40
0.0
 40
0.0
 40
0.2891557709
 40
0.5486626681
 40
0.7822064143
 40
1.0
 40
1.0
 40
1.0
 40
1.0
 10
48.5261037705
 20
42.4864056475
 30
0.0
 10
48.5262083935
 20
42.5194771678
 30
0.0
 10
48.520855572
 20
42.5824739572
 30
0.0
 10
48.4946459279
 20
42.6687906234
 30
0.0
 10
48.451895489
 20
42.7391756991
 30
0.0
 10
48.4116106983
 20
42.7733188255
 30
0.0
 10
48.3900358606
 20
42.7857696308
 30
0.0
  0
SPLINE
  5
352
100
AcDbEntity
  8
0
100
AcDbSpline
 62
7
  6
BYLAYER
 70
0
 71
3
 72
14
 73
10
 74
0
 42
0.0000001
 43
0.0000001
 44
0.0000000001
 40
0.0
 40
0.0
 40
0.0
 40
0.0
 40
0.1080438987
 40
0.2181284597
 40
0.3321078643
 40
0.4514903637
 40
0.577436241
 40
0.7107375031
 40
1.0
 40
1.0
 40
1.0
 40
1.0
 10
42.9385130794
 20
82.5667293692
 30
0.0
 10
42.9385043053
 20
82.4787022086
 30
0.0
 10
42.9232320641
 20
82.3006281693
 30
0.0
 10
42.8549934325
 20
82.0375993436
 30
0.0
 10
42.7423386636
 20
81.7802593538
 30
0.0
 10
42.5868012903
 20
81.5311658589
 30
0.0
 10
42.3899517201
 20
81.2925846237
 30
0.0
 10
42.0665442477
 20
80.983069415
 30
0.0
 10
41.780690324
 20
80.7862454931
 30
0.0
 10
41.5765918024
 20
80.66840986
 30
0.0
  0
SPLINE
  5
353
100
AcDbEntity
  8
0
100
AcDbSpline
 62
7
  6
BYLAYER
 70
0
 71
3
 72
22
 73
18
 74
0
 42
0.0000001
 43
0.0000001
 44
0.0000000001
 40
0.0
 40
0.0
 40
0.0
 40
0.0
 40
0.0428175212
 40
0.0874049284
 40
0.1351943872
 40
0.1871091133
 40
0.2435636091
 40
0.3045291906
 40
0.3696343356
 40
0.4382520709
 40
0.5095593441
 40
0.5826040786
 40
0.7296231509
 40
0.8016214105
 40
0.8712287755
 40
0.9376188067
 40
1.0
 40
1.0
 40
1.0
 40
1.0
 10
51.4344880577
 20
77.0554791824
 30
0.0
 10
51.4344872626
 20
77.1579570041
 30
0.0
 10
51.4071025683
 20
77.3680404252
 30
0.0
 10
51.2866162262
 20
77.6713876049
 30
0.0
 10
51.0910869416
 20
77.9589387087
 30
0.0
 10
50.8261240191
 20
78.2250631942
 30
0.0
 10
50.497761118
 20
78.4649884289
 30
0.0
 10
50.11302729
 20
78.6742250129
 30
0.0
 10
49.6799884212
 20
78.8487120312
 30
0.0
 10
49.2077282517
 20
78.9848059254
 30
0.0
 10
48.7061783412
 20
79.0797243918
 30
0.0
 10
48.0116154397
 20
79.1487868717
 30
0.0
 10
47.3087832523
 20
79.1293777735
 30
0.0
 10
46.6258318158
 20
79.0211823242
 30
0.0
 10
46.1425402718
 20
78.8985081533
 30
0.0
 10
45.6954427824
 20
78.7364231662
 30
0.0
 10
45.4182163104
 20
78.5997959487
 30
0.0
 10
45.2889178594
 20
78.5251458988
 30
0.0
  0
SPLINE
  5
354
100
AcDbEntity
  8
0
100
AcDbSpline
 62
7
  6
BYLAYER
 70
0
 71
3
 72
11
 73
7
 74
0
 42
0.0000001
 43
0.0000001
 44
0.0000000001
 40
0.0
 40
0.0
 40
0.0
 40
0.0
 40
0.2895947364
 40
0.5491936519
 40
0.7823093863
 40
1.0
 40
1.0
 40
1.0
 40
1.0
 10
21.3468833025
 20
47.8951047445
 30
0.0
 10
21.3029416894
 20
47.8697821336
 30
0.0
 10
21.2231978214
 20
47.8148924625
 30
0.0
 10
21.1277901702
 20
47.7148860673
 30
0.0
 10
21.0674172459
 20
47.6041366986
 30
0.0
 10
21.0533941328
 20
47.5246465625
 30
0.0
 10
21.0533917496
 20
47.4865230452
 30
0.0
  0
SPLINE
  5
355
100
AcDbEntity
  8
0
100
AcDbSpline
 62
7
  6
BYLAYER
 70
0
 71
3
 72
10
 73
6
 74
0
 42
0.0000001
 43
0.0000001
 44
0.0000000001
 40
0.0
 40
0.0
 40
0.0
 40
0.0
 40
0.4999528508
 40
0.7523166539
 40
1.0
 40
1.0
 40
1.0
 40
1.0
 10
37.1335303398
 20
80.6568954583
 30
0.0
 10
37.5183688024
 20
80.7321338057
 30
0.0
 10
38.1109728904
 20
80.7858040986
 30
0.0
 10
38.894956862
 20
80.7465976689
 30
0.0
 10
39.2837854824
 20
80.689154866
 30
0.0
 10
39.4742254599
 20
80.6508016196
 30
0.0
  0
SPLINE
  5
356
100
AcDbEntity
  8
0
100
AcDbSpline
 62
7
  6
BYLAYER
 70
0
 71
3
 72
13
 73
9
 74
0
 42
0.0000001
 43
0.0000001
 44
0.0000000001
 40
0.0
 40
0.0
 40
0.0
 40
0.0
 40
0.2893766504
 40
0.5483135573
 40
0.6677433155
 40
0.7817682046
 40
0.8919069975
 40
1.0
 40
1.0
 40
1.0
 40
1.0
 10
35.74293657
 20
84.0363960848
 30
0.0
 10
35.5849337824
 20
83.9451736774
 30
0.0
 10
35.298402292
 20
83.7479901263
 30
0.0
 10
35.0053719517
 20
83.4397269665
 30
0.0
 10
34.8404060746
 20
83.1756220423
 30
0.0
 10
34.7532428738
 20
82.9763686429
 30
0.0
 10
34.7003531387
 20
82.7727524296
 30
0.0
 10
34.6885558639
 20
82.6348796362
 30
0.0
 10
34.6885563927
 20
82.5667293687
 30
0.0
  0
SPLINE
  5
357
100
AcDbEntity
  8
0
100
AcDbSpline
 62
7
  6
BYLAYER
 70
0
 71
3
 72
23
 73
19
 74
0
 42
0.0000001
 43
0.0000001
 44
0.0000000001
 40
0.0
 40
0.0
 40
0.0
 40
0.0
 40
0.0623787993
 40
0.1287507555
 40
0.1983469677
 40
0.2703364615
 40
0.3437254543
 40
0.4174673772
 40
0.4905048622
 40
0.5618035757
 40
0.6304122403
 40
0.6955113505
 40
0.756468273
 40
0.8129137665
 40
0.8648231237
 40
0.9126057428
 40
0.9571867522
 40
1.0
 40
1.0
 40
1.0
 40
1.0
 10
41.5765918024
 20
80.66840986
 30
0.0
 10
41.4095652192
 20
80.5719775929
 30
0.0
 10
41.0515023862
 20
80.3954845469
 30
0.0
 10
40.473990324
 20
80.1861560379
 30
0.0
 10
39.8498197896
 20
80.027733593
 30
0.0
 10
39.1925007675
 20
79.923502341
 30
0.0
 10
38.5158769426
 20
79.8756758123
 30
0.0
 10
37.8344072641
 20
79.8852625606
 30
0.0
 10
37.1626198659
 20
79.9520535918
 30
0.0
 10
36.5148342605
 20
80.0746757196
 30
0.0
 10
35.9048121367
 20
80.2504837092
 30
0.0
 10
35.3454441636
 20
80.4758102149
 30
0.0
 10
34.8485064832
 20
80.7461079765
 30
0.0
 10
34.4243922056
 20
81.0560307182
 30
0.0
 10
34.0821022095
 20
81.3997274597
 30
0.0
 10
33.8295574101
 20
81.7711699634
 30
0.0
 10
33.6739743921
 20
82.1630024391
 30
0.0
 10
33.6385368873
 20
82.4343575667
 30
0.0
 10
33.6385500815
 20
82.5667293679
 30
0.0
  0
SPLINE
  5
358
100
AcDbEntity
  8
0
100
AcDbSpline
 62
7
  6
BYLAYER
 70
0
 71
3
 72
22
 73
18
 74
0
 42
0.0000001
 43
0.0000001
 44
0.0000000001
 40
0.0
 40
0.0
 40
0.0
 40
0.0
 40
0.0428175212
 40
0.0874049284
 40
0.1351943872
 40
0.1871091133
 40
0.2435636091
 40
0.3045291906
 40
0.3696343356
 40
0.4382520709
 40
0.5095593441
 40
0.5826040786
 40
0.7296231509
 40
0.8016214105
 40
0.8712287755
 40
0.9376188067
 40
1.0
 40
1.0
 40
1.0
 40
1.0
 10
41.8885067683
 20
82.5667293684
 30
0.0
 10
41.8885059731
 20
82.6692071902
 30
0.0
 10
41.8611212788
 20
82.8792906112
 30
0.0
 10
41.7406349367
 20
83.1826377909
 30
0.0
 10
41.5451056521
 20
83.4701888947
 30
0.0
 10
41.2801427296
 20
83.7363133802
 30
0.0
 10
40.9517798285
 20
83.9762386149
 30
0.0
 10
40.5670460005
 20
84.1854751989
 30
0.0
 10
40.1340071318
 20
84.3599622172
 30
0.0
 10
39.6617469622
 20
84.4960561115
 30
0.0
 10
39.1601970517
 20
84.5909745778
 30
0.0
 10
38.4656341502
 20
84.6600370578
 30
0.0
 10
37.7628019628
 20
84.6406279596
 30
0.0
 10
37.0798505263
 20
84.5324325102
 30
0.0
 10
36.5965589823
 20
84.4097583393
 30
0.0
 10
36.1494614929
 20
84.2476733523
 30
0.0
 10
35.8722350209
 20
84.1110461347
 30
0.0
 10
35.74293657
 20
84.0363960848
 30
0.0
  0
SPLINE
  5
359
100
AcDbEntity
  8
0
100
AcDbSpline
 62
7
  6
BYLAYER
 70
0
 71
3
 72
11
 73
7
 74
0
 42
0.0000001
 43
0.0000001
 44
0.0000000001
 40
0.0
 40
0.0
 40
0.0
 40
0.0
 40
0.2302387877
 40
0.4838031081
 40
0.7459323754
 40
1.0
 40
1.0
 40
1.0
 40
1.0
 10
43.1250573961
 20
38.4505649524
 30
0.0
 10
43.1482846779
 20
38.4642092118
 30
0.0
 10
43.1931538421
 20
38.4996869885
 30
0.0
 10
43.2499722754
 20
38.5665186156
 30
0.0
 10
43.2954679858
 20
38.6447532051
 30
0.0
 10
43.3164955937
 20
38.7018153572
 30
0.0
 10
43.3238148348
 20
38.7306265151
 30
0.0
  0
SPLINE
  5
35A
100
AcDbEntity
  8
0
100
AcDbSpline
 62
7
  6
BYLAYER
 70
0
 71
3
 72
11
 73
7
 74
0
 42
0.0000001
 43
0.0000001
 44
0.0000000001
 40
0.0
 40
0.0
 40
0.0
 40
0.0
 40
0.2542385326
 40
0.5161887399
 40
0.7696243817
 40
1.0
 40
1.0
 40
1.0
 40
1.0
 10
43.3238148348
 20
38.7306265151
 30
0.0
 10
43.3604365658
 20
38.8747827828
 30
0.0
 10
43.4653271268
 20
39.1602144568
 30
0.0
 10
43.6932421926
 20
39.551032849
 30
0.0
 10
43.976846139
 20
39.8854822527
 30
0.0
 10
44.2013937182
 20
40.0626707947
 30
0.0
 10
44.3176020278
 20
40.130934328
 30
0.0
  0
SPLINE
  5
35B
100
AcDbEntity
  8
0
100
AcDbSpline
 62
7
  6
BYLAYER
 70
0
 71
3
 72
22
 73
18
 74
0
 42
0.0000001
 43
0.0000001
 44
0.0000000001
 40
0.0
 40
0.0
 40
0.0
 40
0.0
 40
0.0428175212
 40
0.0874049284
 40
0.1351943872
 40
0.1871091133
 40
0.2435636091
 40
0.3045291906
 40
0.3696343356
 40
0.4382520709
 40
0.5095593441
 40
0.5826040786
 40
0.7296231509
 40
0.8016214105
 40
0.8712287755
 40
0.9376188067
 40
1.0
 40
1.0
 40
1.0
 40
1.0
 10
60.9804693472
 20
71.5442289963
 30
0.0
 10
60.9804685521
 20
71.6467068181
 30
0.0
 10
60.9530838578
 20
71.8567902391
 30
0.0
 10
60.8325975157
 20
72.1601374189
 30
0.0
 10
60.6370682311
 20
72.4476885227
 30
0.0
 10
60.3721053086
 20
72.7138130082
 30
0.0
 10
60.0437424074
 20
72.9537382429
 30
0.0
 10
59.6590085795
 20
73.1629748268
 30
0.0
 10
59.2259697107
 20
73.3374618452
 30
0.0
 10
58.7537095412
 20
73.4735557394
 30
0.0
 10
58.2521596307
 20
73.5684742058
 30
0.0
 10
57.5575967292
 20
73.6375366857
 30
0.0
 10
56.8547645418
 20
73.6181275875
 30
0.0
 10
56.1718131053
 20
73.5099321381
 30
0.0
 10
55.6885215613
 20
73.3872579673
 30
0.0
 10
55.2414240719
 20
73.2251729802
 30
0.0
 10
54.9641975999
 20
73.0885457627
 30
0.0
 10
54.8348991489
 20
73.0138957128
 30
0.0
  0
SPLINE
  5
35C
100
AcDbEntity
  8
0
100
AcDbSpline
 62
7
  6
BYLAYER
 70
0
 71
3
 72
10
 73
6
 74
0
 42
0.0000001
 43
0.0000001
 44
0.0000000001
 40
0.0
 40
0.0
 40
0.0
 40
0.0
 40
0.4999528508
 40
0.7523166539
 40
1.0
 40
1.0
 40
1.0
 40
1.0
 10
46.6795116293
 20
75.1456452722
 30
0.0
 10
47.0643500919
 20
75.2208836197
 30
0.0
 10
47.6569541798
 20
75.2745539126
 30
0.0
 10
48.4409381515
 20
75.2353474828
 30
0.0
 10
48.8297667719
 20
75.17790468
 30
0.0
 10
49.0202067494
 20
75.1395514336
 30
0.0
  0
SPLINE
  5
35D
100
AcDbEntity
  8
0
100
AcDbSpline
 62
7
  6
BYLAYER
 70
0
 71
3
 72
13
 73
9
 74
0
 42
0.0000001
 43
0.0000001
 44
0.0000000001
 40
0.0
 40
0.0
 40
0.0
 40
0.0
 40
0.2893766504
 40
0.5483135573
 40
0.6677433155
 40
0.7817682046
 40
0.8919069975
 40
1.0
 40
1.0
 40
1.0
 40
1.0
 10
45.2889178594
 20
78.5251458988
 30
0.0
 10
45.1309150719
 20
78.4339234914
 30
0.0
 10
44.8443835815
 20
78.2367399403
 30
0.0
 10
44.5513532412
 20
77.9284767805
 30
0.0
 10
44.3863873641
 20
77.6643718563
 30
0.0
 10
44.2992241633
 20
77.4651184569
 30
0.0
 10
44.2463344282
 20
77.2615022435
 30
0.0
 10
44.2345371534
 20
77.1236294501
 30
0.0
 10
44.2345376822
 20
77.0554791827
 30
0.0
  0
SPLINE
  5
35E
100
AcDbEntity
  8
0
100
AcDbSpline
 62
7
  6
BYLAYER
 70
0
 71
3
 72
23
 73
19
 74
0
 42
0.0000001
 43
0.0000001
 44
0.0000000001
 40
0.0
 40
0.0
 40
0.0
 40
0.0
 40
0.0623787993
 40
0.1287507555
 40
0.1983469677
 40
0.2703364615
 40
0.3437254543
 40
0.4174673772
 40
0.4905048622
 40
0.5618035757
 40
0.6304122403
 40
0.6955113505
 40
0.756468273
 40
0.8129137665
 40
0.8648231237
 40
0.9126057428
 40
0.9571867522
 40
1.0
 40
1.0
 40
1.0
 40
1.0
 10
51.1225730919
 20
75.157159674
 30
0.0
 10
50.9555465087
 20
75.0607274069
 30
0.0
 10
50.5974836757
 20
74.8842343609
 30
0.0
 10
50.0199716134
 20
74.6749058519
 30
0.0
 10
49.3958010791
 20
74.516483407
 30
0.0
 10
48.738482057
 20
74.4122521549
 30
0.0
 10
48.061858232
 20
74.3644256263
 30
0.0
 10
47.3803885536
 20
74.3740123745
 30
0.0
 10
46.7086011553
 20
74.4408034058
 30
0.0
 10
46.06081555
 20
74.5634255336
 30
0.0
 10
45.4507934262
 20
74.7392335232
 30
0.0
 10
44.8914254531
 20
74.9645600289
 30
0.0
 10
44.3944877727
 20
75.2348577904
 30
0.0
 10
43.9703734951
 20
75.5447805321
 30
0.0
 10
43.6280834989
 20
75.8884772737
 30
0.0
 10
43.3755386996
 20
76.2599197774
 30
0.0
 10
43.2199556815
 20
76.6517522531
 30
0.0
 10
43.1845181768
 20
76.9231073806
 30
0.0
 10
43.184531371
 20
77.0554791819
 30
0.0
  0
SPLINE
  5
35F
100
AcDbEntity
  8
0
100
AcDbSpline
 62
7
  6
BYLAYER
 70
0
 71
3
 72
11
 73
7
 74
0
 42
0.0000001
 43
0.0000001
 44
0.0000000001
 40
0.0
 40
0.0
 40
0.0
 40
0.0
 40
0.2895947364
 40
0.5491936519
 40
0.7823093863
 40
1.0
 40
1.0
 40
1.0
 40
1.0
 10
40.4388458815
 20
36.8726043725
 30
0.0
 10
40.3949042684
 20
36.8472817615
 30
0.0
 10
40.3151604004
 20
36.7923920905
 30
0.0
 10
40.2197527492
 20
36.6923856952
 30
0.0
 10
40.1593798248
 20
36.5816363265
 30
0.0
 10
40.1453567118
 20
36.5021461905
 30
0.0
 10
40.1453543285
 20
36.4640226731
 30
0.0
  0
SPLINE
  5
360
100
AcDbEntity
  8
0
100
AcDbSpline
 62
7
  6
BYLAYER
 70
0
 71
3
 72
16
 73
12
 74
0
 42
0.0000001
 43
0.0000001
 44
0.0000000001
 40
0.0
 40
0.0
 40
0.0
 40
0.0
 40
0.0468518008
 40
0.0943432938
 40
0.1933637142
 40
0.3010723155
 40
0.4196269208
 40
0.5497144308
 40
0.690844189
 40
0.8416169285
 40
1.0
 40
1.0
 40
1.0
 40
1.0
 10
43.18452341
 20
74.2431864539
 30
0.0
 10
43.1845133411
 20
74.1748598128
 30
0.0
 10
43.1941867841
 20
74.0370738038
 30
0.0
 10
43.2526531147
 20
73.760440199
 30
0.0
 10
43.4024561893
 20
73.4166082593
 30
0.0
 10
43.6883309766
 20
73.0339473657
 30
0.0
 10
44.0733255349
 20
72.6811450238
 30
0.0
 10
44.5481120212
 20
72.3652132282
 30
0.0
 10
45.1015295327
 20
72.0926621844
 30
0.0
 10
45.7204103437
 20
71.8696413304
 30
0.0
 10
46.1585075633
 20
71.7597131584
 30
0.0
 10
46.3848796704
 20
71.7138113024
 30
0.0
  0
SPLINE
  5
361
100
AcDbEntity
  8
0
100
AcDbSpline
 62
7
  6
BYLAYER
 70
0
 71
3
 72
10
 73
6
 74
0
 42
0.0000001
 43
0.0000001
 44
0.0000000001
 40
0.0
 40
0.0
 40
0.0
 40
0.0
 40
0.2485921247
 40
0.5010710331
 40
1.0
 40
1.0
 40
1.0
 40
1.0
 10
46.3848796704
 20
71.7138113024
 30
0.0
 10
46.623461074
 20
71.6654337466
 30
0.0
 10
47.1094542212
 20
71.59120844
 30
0.0
 10
48.0876610437
 20
71.5326170428
 30
0.0
 10
48.8273088996
 20
71.5887664437
 30
0.0
 10
49.3081862545
 20
71.6751925191
 30
0.0
  0
SPLINE
  5
362
100
AcDbEntity
  8
0
100
AcDbSpline
 62
7
  6
BYLAYER
 70
0
 71
3
 72
9
 73
5
 74
0
 42
0.0000001
 43
0.0000001
 44
0.0000000001
 40
0.0
 40
0.0
 40
0.0
 40
0.0
 40
0.5208469065
 40
1.0
 40
1.0
 40
1.0
 40
1.0
 10
49.3081862545
 20
71.6751925191
 30
0.0
 10
49.6377800006
 20
71.7344290244
 30
0.0
 10
50.2636290296
 20
71.8930903398
 30
0.0
 10
50.8557780756
 20
72.1546360702
 30
0.0
 10
51.1225730849
 20
72.3086693212
 30
0.0
  0
SPLINE
  5
363
100
AcDbEntity
  8
0
100
AcDbSpline
 62
7
  6
BYLAYER
 70
0
 71
3
 72
10
 73
6
 74
0
 42
0.0000001
 43
0.0000001
 44
0.0000000001
 40
0.0
 40
0.0
 40
0.0
 40
0.0
 40
0.4999528508
 40
0.7523166539
 40
1.0
 40
1.0
 40
1.0
 40
1.0
 10
56.2254929188
 20
69.6343950862
 30
0.0
 10
56.6103313813
 20
69.7096334336
 30
0.0
 10
57.2029354693
 20
69.7633037266
 30
0.0
 10
57.986919441
 20
69.7240972968
 30
0.0
 10
58.3757480614
 20
69.666654494
 30
0.0
 10
58.5661880389
 20
69.6283012475
 30
0.0
  0
SPLINE
  5
364
100
AcDbEntity
  8
0
100
AcDbSpline
 62
7
  6
BYLAYER
 70
0
 71
3
 72
13
 73
9
 74
0
 42
0.0000001
 43
0.0000001
 44
0.0000000001
 40
0.0
 40
0.0
 40
0.0
 40
0.0
 40
0.2893766504
 40
0.5483135573
 40
0.6677433155
 40
0.7817682046
 40
0.8919069975
 40
1.0
 40
1.0
 40
1.0
 40
1.0
 10
54.8348991489
 20
73.0138957128
 30
0.0
 10
54.6768963614
 20
72.9226733054
 30
0.0
 10
54.390364871
 20
72.7254897543
 30
0.0
 10
54.0973345307
 20
72.4172265944
 30
0.0
 10
53.9323686536
 20
72.1531216702
 30
0.0
 10
53.8452054528
 20
71.9538682708
 30
0.0
 10
53.7923157177
 20
71.7502520575
 30
0.0
 10
53.7805184429
 20
71.6123792641
 30
0.0
 10
53.7805189717
 20
71.5442289967
 30
0.0
  0
SPLINE
  5
365
100
AcDbEntity
  8
0
100
AcDbSpline
 62
7
  6
BYLAYER
 70
0
 71
3
 72
23
 73
19
 74
0
 42
0.0000001
 43
0.0000001
 44
0.0000000001
 40
0.0
 40
0.0
 40
0.0
 40
0.0
 40
0.0623787993
 40
0.1287507555
 40
0.1983469677
 40
0.2703364615
 40
0.3437254543
 40
0.4174673772
 40
0.4905048622
 40
0.5618035757
 40
0.6304122403
 40
0.6955113505
 40
0.756468273
 40
0.8129137665
 40
0.8648231237
 40
0.9126057428
 40
0.9571867522
 40
1.0
 40
1.0
 40
1.0
 40
1.0
 10
60.6685543814
 20
69.645909488
 30
0.0
 10
60.5015277982
 20
69.5494772208
 30
0.0
 10
60.1434649652
 20
69.3729841749
 30
0.0
 10
59.5659529029
 20
69.1636556659
 30
0.0
 10
58.9417823686
 20
69.005233221
 30
0.0
 10
58.2844633465
 20
68.9010019689
 30
0.0
 10
57.6078395215
 20
68.8531754403
 30
0.0
 10
56.9263698431
 20
68.8627621885
 30
0.0
 10
56.2545824448
 20
68.9295532198
 30
0.0
 10
55.6067968395
 20
69.0521753475
 30
0.0
 10
54.9967747157
 20
69.2279833372
 30
0.0
 10
54.4374067426
 20
69.4533098429
 30
0.0
 10
53.9404690622
 20
69.7236076044
 30
0.0
 10
53.5163547846
 20
70.0335303461
 30
0.0
 10
53.1740647884
 20
70.3772270877
 30
0.0
 10
52.9215199891
 20
70.7486695914
 30
0.0
 10
52.765936971
 20
71.1405020671
 30
0.0
 10
52.7304994663
 20
71.4118571946
 30
0.0
 10
52.7305126605
 20
71.5442289959
 30
0.0
  0
SPLINE
  5
366
100
AcDbEntity
  8
0
100
AcDbSpline
 62
7
  6
BYLAYER
 70
0
 71
3
 72
11
 73
7
 74
0
 42
0.0000001
 43
0.0000001
 44
0.0000000001
 40
0.0
 40
0.0
 40
0.0
 40
0.0
 40
0.2329000749
 40
0.4774837626
 40
0.7334014178
 40
1.0
 40
1.0
 40
1.0
 40
1.0
 10
28.4950933876
 20
79.4435565063
 30
0.0
 10
31.1247075267
 20
78.482060507
 30
0.0
 10
36.4219504766
 20
76.2465789465
 30
0.0
 10
44.2286430901
 20
72.1288934741
 30
0.0
 10
52.0314761903
 20
67.1977587848
 30
0.0
 10
57.0918324123
 20
63.4662403115
 30
0.0
 10
59.6079212941
 20
61.4809633074
 30
0.0
  0
SPLINE
  5
367
100
AcDbEntity
  8
0
100
AcDbSpline
 62
7
  6
BYLAYER
 70
0
 71
3
 72
11
 73
7
 74
0
 42
0.0000001
 43
0.0000001
 44
0.0000000001
 40
0.0
 40
0.0
 40
0.0
 40
0.0
 40
0.2625666497
 40
0.5169667043
 40
0.7628514608
 40
1.0
 40
1.0
 40
1.0
 40
1.0
 10
59.6079212941
 20
55.6689014753
 30
0.0
 10
57.0695802354
 20
57.5361873526
 30
0.0
 10
51.9766517251
 20
61.085672547
 30
0.0
 10
44.1843217361
 20
65.9010779725
 30
0.0
 10
36.390365464
 20
70.1050359234
 30
0.0
 10
31.1200669512
 20
72.5315204105
 30
0.0
 10
28.4950933876
 20
73.6314946742
 30
0.0
  0
SPLINE
  5
368
100
AcDbEntity
  8
0
100
AcDbSpline
 62
7
  6
BYLAYER
 70
0
 71
3
 72
13
 73
9
 74
0
 42
0.0000001
 43
0.0000001
 44
0.0000000001
 40
0.0
 40
0.0
 40
0.0
 40
0.0
 40
0.2976147799
 40
0.5600147127
 40
0.678965097
 40
0.7908706178
 40
0.8972221482
 40
1.0
 40
1.0
 40
1.0
 40
1.0
 10
41.5765917991
 20
77.6298636797
 30
0.0
 10
41.7799086023
 20
77.7472479901
 30
0.0
 10
42.1472782373
 20
77.996702302
 30
0.0
 10
42.5271467078
 20
78.3814626954
 30
0.0
 10
42.7415770209
 20
78.7075355001
 30
0.0
 10
42.8543933759
 20
78.9496230568
 30
0.0
 10
42.9229251511
 20
79.1946382057
 30
0.0
 10
42.9385155867
 20
79.3599657243
 30
0.0
 10
42.9385241671
 20
79.4410407381
 30
0.0
  0
SPLINE
  5
369
100
AcDbEntity
  8
0
100
AcDbSpline
 62
7
  6
BYLAYER
 70
0
 71
3
 72
14
 73
10
 74
0
 42
0.0000001
 43
0.0000001
 44
0.0000000001
 40
0.0
 40
0.0
 40
0.0
 40
0.0
 40
0.2862382272
 40
0.4187876703
 40
0.544548819
 40
0.6643057498
 40
0.7791580412
 40
0.890495396
 40
1.0
 40
1.0
 40
1.0
 40
1.0
 10
51.1225730849
 20
72.3086693212
 30
0.0
 10
51.3271367599
 20
72.426773509
 30
0.0
 10
51.6135441754
 20
72.6254440305
 30
0.0
 10
51.9363900037
 20
72.9391633159
 30
0.0
 10
52.1332032145
 20
73.1823396118
 30
0.0
 10
52.2886303524
 20
73.436974892
 30
0.0
 10
52.4011454453
 20
73.700540747
 30
0.0
 10
52.4692528804
 20
73.9702298579
 30
0.0
 10
52.484488383
 20
74.1528211185
 30
0.0
 10
52.4845011765
 20
74.2431864776
 30
0.0
  0
SPLINE
  5
36A
100
AcDbEntity
  8
0
100
AcDbSpline
 62
7
  6
BYLAYER
 70
0
 71
3
 72
13
 73
9
 74
0
 42
0.0000001
 43
0.0000001
 44
0.0000000001
 40
0.0
 40
0.0
 40
0.0
 40
0.0
 40
0.276433345
 40
0.5305864193
 40
0.651221394
 40
0.7688058054
 40
0.8846000685
 40
1.0
 40
1.0
 40
1.0
 40
1.0
 10
60.6685543765
 20
65.7612797636
 30
0.0
 10
60.8748247342
 20
65.8803692993
 30
0.0
 10
61.2509835662
 20
66.1468022918
 30
0.0
 10
61.6263036302
 20
66.5725524627
 30
0.0
 10
61.8363737388
 20
66.9425847058
 30
0.0
 10
61.9482096371
 20
67.2275626793
 30
0.0
 10
62.015602739
 20
67.5215268919
 30
0.0
 10
62.0304800508
 20
67.7210594003
 30
0.0
 10
62.0304891856
 20
67.8204901381
 30
0.0
  0
SPLINE
  5
36B
100
AcDbEntity
  8
0
100
AcDbSpline
 62
7
  6
BYLAYER
 70
0
 71
3
 72
21
 73
17
 74
0
 42
0.0000001
 43
0.0000001
 44
0.0000000001
 40
0.0
 40
0.0
 40
0.0
 40
0.0
 40
0.0454467172
 40
0.0929993031
 40
0.1437525478
 40
0.1983417282
 40
0.2569597081
 40
0.3194371674
 40
0.3853258344
 40
0.4539710956
 40
0.5961235339
 40
0.6679861591
 40
0.7391009146
 40
0.8085948981
 40
0.8756744159
 40
1.0
 40
1.0
 40
1.0
 40
1.0
 10
52.7305015728
 20
68.4185403529
 30
0.0
 10
52.7304886311
 20
68.2738307755
 30
0.0
 10
52.7664677751
 20
67.9767322941
 30
0.0
 10
52.9217966765
 20
67.5427766604
 30
0.0
 10
53.1735979348
 20
67.1229020759
 30
0.0
 10
53.5149968995
 20
66.7251463858
 30
0.0
 10
53.9380077916
 20
66.3565129318
 30
0.0
 10
54.4335094487
 20
66.0239560028
 30
0.0
 10
54.9912063636
 20
65.7340366517
 30
0.0
 10
55.8112431587
 20
65.4089149875
 30
0.0
 10
56.6929486894
 20
65.1991327102
 30
0.0
 10
57.5975034403
 20
65.1109658377
 30
0.0
 10
58.2751023893
 20
65.1089915473
 30
0.0
 10
58.9347269106
 20
65.1725509208
 30
0.0
 10
59.7491787772
 20
65.339289097
 30
0.0
 10
60.3257182753
 20
65.5633444298
 30
0.0
 10
60.6685543765
 20
65.7612797636
 30
0.0
  0
ELLIPSE
  5
36C
100
AcDbEntity
  8
0
100
AcDbEllipse
 62
7
  6
BYLAYER
 10
34.6048052053
 20
31.9122004974
 30
0.0
 11
0.9999809617
 21
-0.0000329747
 31
0.0
 40
0.5773420144
 41
-3.1415736142
 42
-2.3561522499
  0
ELLIPSE
  5
36D
100
AcDbEntity
  8
0
100
AcDbEllipse
 62
7
  6
BYLAYER
 10
25.0588239158
 20
37.4234506834
 30
0.0
 11
0.9999809617
 21
-0.0000329747
 31
0.0
 40
0.5773420144
 41
-3.1415736142
 42
-2.3561522499
  0
ELLIPSE
  5
36E
100
AcDbEntity
  8
0
100
AcDbEllipse
 62
7
  6
BYLAYER
 10
15.5128426263
 20
42.9347008694
 30
0.0
 11
0.9999809617
 21
-0.0000329747
 31
0.0
 40
0.5773420144
 41
-3.1415736142
 42
-2.3561522499
  0
ELLIPSE
  5
36F
100
AcDbEntity
  8
0
100
AcDbEllipse
 62
7
  6
BYLAYER
 10
10.9166294129
 20
45.5882657738
 30
0.0
 11
0.9999809617
 21
-0.0000329747
 31
0.0
 40
0.5773420144
 41
-2.3561522499
 42
-0.7853559232
  0
ELLIPSE
  5
370
100
AcDbEntity
  8
0
100
AcDbEllipse
 62
7
  6
BYLAYER
 10
16.2906061725
 20
46.037327182
 30
0.0
 11
2.2499571638
 21
-0.000074193
 31
0.0
 40
0.5773420144
 41
0.3871213191
 42
2.3562367278
  0
ELLIPSE
  5
371
100
AcDbEntity
  8
0
100
AcDbEllipse
 62
7
  6
BYLAYER
 10
21.1694743354
 20
45.792295061
 30
0.0
 11
0.4999904808
 21
-0.0000164873
 31
0.0
 40
0.5773420144
 41
-0.7853559232
 42
0.0000190394
  0
ELLIPSE
  5
372
100
AcDbEntity
  8
0
100
AcDbEllipse
 62
7
  6
BYLAYER
 10
15.8661513968
 20
49.8339036205
 30
0.0
 11
0.4999904808
 21
-0.0000164873
 31
0.0
 40
0.5773420144
 41
0.7854404035
 42
2.3562367304
  0
ELLIPSE
  5
373
100
AcDbEntity
  8
0
100
AcDbEllipse
 62
7
  6
BYLAYER
 10
25.4121326863
 20
44.3226534345
 30
0.0
 11
0.4999904808
 21
-0.0000164873
 31
0.0
 40
0.5773420144
 41
0.7854404035
 42
2.3562367304
  0
ELLIPSE
  5
374
100
AcDbEntity
  8
0
100
AcDbEllipse
 62
7
  6
BYLAYER
 10
20.4626107024
 20
40.0770155878
 30
0.0
 11
0.9999809617
 21
-0.0000329747
 31
0.0
 40
0.5773420144
 41
-2.35615225
 42
-0.7853559232
  0
ELLIPSE
  5
375
100
AcDbEntity
  8
0
100
AcDbEllipse
 62
7
  6
BYLAYER
 10
25.8365874619
 20
40.526076996
 30
0.0
 11
2.2499571638
 21
-0.000074193
 31
0.0
 40
0.5773420144
 41
0.3871213191
 42
2.3562367278
  0
ELLIPSE
  5
376
100
AcDbEntity
  8
0
100
AcDbEllipse
 62
7
  6
BYLAYER
 10
30.7154556249
 20
40.281044875
 30
0.0
 11
0.4999904808
 21
-0.0000164873
 31
0.0
 40
0.5773420144
 41
-0.7853559232
 42
0.0000190394
  0
ELLIPSE
  5
377
100
AcDbEntity
  8
0
100
AcDbEllipse
 62
7
  6
BYLAYER
 10
30.0085919918
 20
34.5657654017
 30
0.0
 11
0.9999809617
 21
-0.0000329747
 31
0.0
 40
0.5773420144
 41
-2.35615225
 42
-0.7853559232
  0
ELLIPSE
  5
378
100
AcDbEntity
  8
0
100
AcDbEllipse
 62
7
  6
BYLAYER
 10
35.3825687514
 20
35.0148268099
 30
0.0
 11
2.2499571638
 21
-0.000074193
 31
0.0
 40
0.5773420144
 41
0.3871213191
 42
2.3562367278
  0
ELLIPSE
  5
379
100
AcDbEntity
  8
0
100
AcDbEllipse
 62
7
  6
BYLAYER
 10
40.2614369144
 20
34.769794689
 30
0.0
 11
0.4999904808
 21
-0.0000164873
 31
0.0
 40
0.5773420144
 41
-0.7853559232
 42
0.0000190394
  0
ELLIPSE
  5
37A
100
AcDbEntity
  8
0
100
AcDbEllipse
 62
7
  6
BYLAYER
 10
34.9581139758
 20
38.8114032484
 30
0.0
 11
0.4999904808
 21
-0.0000164873
 31
0.0
 40
0.5773420144
 41
0.7854404035
 42
2.3562367304
  0
ELLIPSE
  5
37B
100
AcDbEntity
  8
0
100
AcDbEllipse
 62
7
  6
BYLAYER
 10
30.7154556249
 20
41.2608477756
 30
0.0
 11
0.4999904808
 21
-0.0000164873
 31
0.0
 40
0.5773420144
 41
-0.7853559232
 42
0.7854404037
  0
ELLIPSE
  5
37C
100
AcDbEntity
  8
0
100
AcDbEllipse
 62
7
  6
BYLAYER
 10
25.0588239158
 20
38.4032535839
 30
0.0
 11
0.9999809617
 21
-0.0000329747
 31
0.0
 40
0.5773420144
 41
2.3562367304
 42
3.9270330572
  0
ELLIPSE
  5
37D
100
AcDbEntity
  8
0
100
AcDbEllipse
 62
7
  6
BYLAYER
 10
25.8365874619
 20
41.5058798965
 30
0.0
 11
2.2499571638
 21
-0.000074193
 31
0.0
 40
0.5773420144
 41
5.4978293867
 42
8.639422035
  0
ELLIPSE
  5
37E
100
AcDbEntity
  8
0
100
AcDbEllipse
 62
7
  6
BYLAYER
 10
20.4626107024
 20
41.0568184883
 30
0.0
 11
0.9999809617
 21
-0.0000329747
 31
0.0
 40
0.5773420144
 41
-2.35615225
 42
-0.7853559232
  0
ELLIPSE
  5
37F
100
AcDbEntity
  8
0
100
AcDbEllipse
 62
7
  6
BYLAYER
 10
35.3825687514
 20
35.9946297105
 30
0.0
 11
2.2499571638
 21
-0.000074193
 31
0.0
 40
0.5773420144
 41
5.4978293867
 42
8.639422035
  0
ELLIPSE
  5
380
100
AcDbEntity
  8
0
100
AcDbEllipse
 62
7
  6
BYLAYER
 10
16.2906061725
 20
47.0171300825
 30
0.0
 11
2.2499571638
 21
-0.000074193
 31
0.0
 40
0.5773420144
 41
5.4978293867
 42
8.639422035
  0
ELLIPSE
  5
381
100
AcDbEntity
  8
0
100
AcDbEllipse
 62
7
  6
BYLAYER
 10
15.5128426263
 20
43.91450377
 30
0.0
 11
0.9999809617
 21
-0.0000329747
 31
0.0
 40
0.5773420144
 41
2.3562367304
 42
3.9270330572
  0
ELLIPSE
  5
382
100
AcDbEntity
  8
0
100
AcDbEllipse
 62
7
  6
BYLAYER
 10
10.9166294129
 20
46.5680686743
 30
0.0
 11
0.9999809617
 21
-0.0000329747
 31
0.0
 40
0.5773420144
 41
-2.3561522499
 42
-0.7853559232
  0
ELLIPSE
  5
383
100
AcDbEntity
  8
0
100
AcDbEllipse
 62
7
  6
BYLAYER
 10
21.1694743354
 20
46.7720979616
 30
0.0
 11
0.4999904808
 21
-0.0000164873
 31
0.0
 40
0.5773420144
 41
-0.7853559232
 42
0.7854404037
  0
ELLIPSE
  5
384
100
AcDbEntity
  8
0
100
AcDbEllipse
 62
7
  6
BYLAYER
 10
40.2614369144
 20
35.7495975895
 30
0.0
 11
0.4999904808
 21
-0.0000164873
 31
0.0
 40
0.5773420144
 41
-0.7853559232
 42
0.7854404037
  0
ELLIPSE
  5
385
100
AcDbEntity
  8
0
100
AcDbEllipse
 62
7
  6
BYLAYER
 10
34.6048052053
 20
32.8920033979
 30
0.0
 11
0.9999809617
 21
-0.0000329747
 31
0.0
 40
0.5773420144
 41
2.3562367304
 42
3.9270330572
  0
ELLIPSE
  5
386
100
AcDbEntity
  8
0
100
AcDbEllipse
 62
7
  6
BYLAYER
 10
30.0085919918
 20
35.5455683023
 30
0.0
 11
0.9999809617
 21
-0.0000329747
 31
0.0
 40
0.5773420144
 41
-2.35615225
 42
-0.7853559232
  0
ENDSEC
  0
SECTION
  2
OBJECTS
  0
DICTIONARY
  5
C
100
AcDbDictionary
280
0
281
1
  3
ACAD_GROUP
350
D
  3
ACAD_MLINESTYLE
350
17
  3
ACAD_LAYOUT
350
1A
  3
ACAD_PLOTSETTINGS
350
19
  3
ACAD_PLOTSTYLENAME
350
E
  0
DICTIONARY
  5
D
102
{ACAD_REACTORS
330
C
102
}
100
AcDbDictionary
280
0
281
1
  0
ACDBDICTIONARYWDFLT
  5
E
102
{ACAD_REACTORS
330
C
102
}
100
AcDbDictionary
281
1
  3
Normal
350
F
100
AcDbDictionaryWithDefault
340
F
  0
DICTIONARY
  5
17
102
{ACAD_REACTORS
330
C
102
}
100
AcDbDictionary
280
0
281
1
  3
Standard
350
18
  0
DICTIONARY
  5
19
102
{ACAD_REACTORS
330
C
102
}
100
AcDbDictionary
281
1
  0
DICTIONARY
  5
1A
102
{ACAD_REACTORS
330
C
102
}
100
AcDbDictionary
281
1
  3
Model
350
387
  3
Layout1
350
388
  0
ACDBPLACEHOLDER
  5
F
102
{ACAD_REACTORS
330
E
102
}
  0
MLINESTYLE
  5
18
102
{ACAD_REACTORS
330
17
102
}
100
AcDbMlineStyle
  2
STANDARD
 70
0
  3

 62
256
 51
90.0
 52
90.0
 71
2
 49
0.5
 62
256
  6
BYLAYER
 49
-0.5
 62
256
  6
BYLAYER
  0
LAYOUT
  5
387
102
{ACAD_REACTORS
330
1A
102
}
100
AcDbPlotSettings
  1

  2
none_device
  4

  6

 40
0.0
 41
0.0
 42
0.0
 43
0.0
 44
210.0
 45
297.0
 46
0.0
 47
0.0
 48
0.0
 49
0.0
140
0.0
141
0.0
142
1.0
143
1.0
 70
1024
 72
1
 73
0
 74
0
  7

 75
0
147
1.0
148
0.0
149
0.0
100
AcDbLayout
  1
Model
 70
0
 71
0
 10
0.0
 20
0.0
 11
210.0
 21
297.0
 12
0.0
 22
0.0
 32
0.0
 14
0.0
 24
0.0
 34
0.0
 15
0.0
 25
0.0
 35
0.0
146
0.0
 13
0.0
 23
0.0
 33
0.0
 16
1.0
 26
0.0
 36
0.0
 17
0.0
 27
1.0
 37
0.0
 76
0
330
210
345
0
346
0
  0
LAYOUT
  5
388
102
{ACAD_REACTORS
330
1A
102
}
100
AcDbPlotSettings
  1

  2
none_device
  4

  6

 40
0.0
 41
0.0
 42
0.0
 43
0.0
 44
210.0
 45
297.0
 46
0.0
 47
0.0
 48
0.0
 49
0.0
140
0.0
141
0.0
142
1.0
143
1.0
 70
0
 72
1
 73
0
 74
0
  7

 75
0
147
1.0
148
0.0
149
0.0
100
AcDbLayout
  1
Layout1
 70
0
 71
1
 10
0.0
 20
0.0
 11
210.0
 21
297.0
 12
0.0
 22
0.0
 32
0.0
 14
0.0
 24
0.0
 34
0.0
 15
0.0
 25
0.0
 35
0.0
146
0.0
 13
0.0
 23
0.0
 33
0.0
 16
1.0
 26
0.0
 36
0.0
 17
0.0
 27
1.0
 37
0.0
 76
0
330
211
345
0
346
0
  0
ENDSEC
  0
EOF
