999
DXF file: C:\Users\sesa63760\Dev\_Creo\CAD\MCADID0003393_3D-CAD\drw0001_7.dxf
999
Pro/ENGINEER 2019471 by Parametric Technology Corporation
  0
SECTION
  2
HEADER
  9
$ACADVER
  1
AC1024
  9
$DWGCODEPAGE
  3
ANSI_1252
  9
$EXTMAX
 10
39.1859514179
 20
55.420131291
 30
0.0
  9
$EXTMIN
 10
0.0
 20
0.0
 30
0.0
  9
$LIMMIN
 10
0.0
 20
0.0
  9
$LIMMAX
 10
39.1859514179
 20
55.420131291
  9
$VIEWCTR
 10
19.5929757089
 20
27.7100656455
  9
$VIEWSIZE
 40
55.420131291
  9
$CLAYER
  8
0
  9
$LTSCALE
 40
3.6125715212
  9
$CELTYPE
  6
BYLAYER
  9
$DIMSCALE
 40
1.0
  9
$DIMASZ
 40
0.4664994216
  9
$DIMEXO
 40
1.0
  9
$DIMDLI
 40
2.4959585056
  9
$DIMEXE
 40
1.0
  9
$DIMCEN
 40
0.5911480671
  9
$DIMLFAC
 40
1.0
  9
$DIMBLK
  1
_FILLED
  9
$DIMALT
 70
0
  9
$DIMALTF
 40
0.0393700787
  9
$DIMTXT
 40
0.6530991903
  9
$DIMTOL
 70
1
  9
$DIMLIM
 70
0
  9
$DIMTFAC
 40
1.0
  9
$DIMTP
 40
0.01
  9
$DIMTM
 40
0.01
  9
$DIMGAP
 40
0.625
  9
$DIMDSEP
 70
46
  9
$AUNITS
 70
0
  9
$PDMODE
 70
3
  9
$PDSIZE
 40
0.3125
  9
$HANDSEED
  5
270
  9
$TILEMODE
 70
1
  9
$MEASUREMENT
 70
1
  9
$INSUNITS
 70
4
  0
ENDSEC
  0
SECTION
  2
CLASSES
  0
CLASS
  1
ACDBDICTIONARYWDFLT
  2
AcDbDictionaryWithDefault
  3
AutoCAD 2000
 90
0
 91
1
280
0
281
0
  0
CLASS
  1
ACDBPLACEHOLDER
  2
AcDbPlaceHolder
  3
AutoCAD 2000
 90
0
 91
1
280
0
281
0
  0
CLASS
  1
LAYOUT
  2
AcDbLayout
  3
AutoCAD 2000
 90
0
 91
0
280
0
281
0
  0
ENDSEC
  0
SECTION
  2
TABLES
  0
TABLE
  2
VPORT
  5
8
100
AcDbSymbolTable
 70
2
  0
VPORT
  5
1F4
100
AcDbSymbolTableRecord
100
AcDbViewportTableRecord
  2
*ACTIVE
 70
0
 10
0.0
 20
0.0
 11
1.0
 21
1.0
 12
19.5929757089
 22
27.7100656455
 13
0.0
 23
0.0
 14
1.0
 24
1.0
 15
0.0
 25
0.0
 16
0.0
 26
0.0
 36
1.0
 17
0.0
 27
0.0
 37
0.0
 40
55.420131291
 41
0.7070707071
 42
50.0
 43
0.0
 44
0.0
 50
0.0
 51
0.0
 71
0
 72
100
 73
1
 74
1
 75
0
 76
0
 77
0
 78
0
  0
ENDTAB
  0
TABLE
  2
LTYPE
  5
5
100
AcDbSymbolTable
 70
6
  0
LTYPE
  5
14
100
AcDbSymbolTableRecord
100
AcDbLinetypeTableRecord
  2
BYBLOCK
 70
0
  3

 72
65
 73
0
 40
0.0
  0
LTYPE
  5
15
100
AcDbSymbolTableRecord
100
AcDbLinetypeTableRecord
  2
BYLAYER
 70
0
  3

 72
65
 73
0
 40
0.0
  0
LTYPE
  5
16
100
AcDbSymbolTableRecord
100
AcDbLinetypeTableRecord
  2
CONTINUOUS
 70
64
  3
Solid line
 72
65
 73
0
 40
0.0
  0
LTYPE
  5
1F5
100
AcDbSymbolTableRecord
100
AcDbLinetypeTableRecord
  2
CENTER
 70
64
  3
____ _ ____ _ ____ _ ____ _ ____ _ ____ _ ____
 72
65
 73
4
 40
0.6
 49
0.375
 74
0
 49
-0.075
 74
0
 49
0.075
 74
0
 49
-0.075
 74
0
  0
LTYPE
  5
1F6
100
AcDbSymbolTableRecord
100
AcDbLinetypeTableRecord
  2
HIDDEN
 70
64
  3
- - - - - - - - - - - - - - - - - - - -
 72
65
 73
2
 40
0.2
 49
0.1
 74
0
 49
-0.1
 74
0
  0
LTYPE
  5
1F7
100
AcDbSymbolTableRecord
100
AcDbLinetypeTableRecord
  2
PHANTOM
 70
64
  3
_____ _ _ _____ _ _ _____ _ _ _____
 72
65
 73
6
 40
0.8
 49
0.45
 74
0
 49
-0.05
 74
0
 49
0.1
 74
0
 49
-0.05
 74
0
 49
0.1
 74
0
 49
-0.05
 74
0
  0
LTYPE
  5
1F8
100
AcDbSymbolTableRecord
100
AcDbLinetypeTableRecord
  2
DOT
 70
64
  3
. . . . . . . . . . . . . . . . . . . .
 72
65
 73
2
 40
0.2
 49
0.1
 74
0
 49
-0.1
 74
0
  0
LTYPE
  5
1F9
100
AcDbSymbolTableRecord
100
AcDbLinetypeTableRecord
  2
DASHED
 70
64
  3
- - - - - - - - - - - - - - - - - - - -
 72
65
 73
2
 40
0.2
 49
0.1
 74
0
 49
-0.1
 74
0
  0
ENDTAB
  0
TABLE
  2
LAYER
  5
2
100
AcDbSymbolTable
 70
36
  0
LAYER
  5
10
100
AcDbSymbolTableRecord
100
AcDbLayerTableRecord
  2
0
 70
0
 62
7
  6
CONTINUOUS
370
-3
390
F
  0
LAYER
  5
1FA
100
AcDbSymbolTableRecord
100
AcDbLayerTableRecord
  2
DEFAULT_1
 70
0
 62
7
  6
CENTER
370
-3
390
F
  0
LAYER
  5
1FB
100
AcDbSymbolTableRecord
100
AcDbLayerTableRecord
  2
DEFAULT_2
 70
0
 62
7
  6
HIDDEN
370
-3
390
F
  0
LAYER
  5
1FC
100
AcDbSymbolTableRecord
100
AcDbLayerTableRecord
  2
DEFAULT_3
 70
0
 62
7
  6
PHANTOM
370
-3
390
F
  0
LAYER
  5
1FD
100
AcDbSymbolTableRecord
100
AcDbLayerTableRecord
  2
00_COMPONENTS
 70
0
 62
7
  6
CONTINUOUS
370
-3
390
F
  0
LAYER
  5
1FE
100
AcDbSymbolTableRecord
100
AcDbLayerTableRecord
  2
01_1_DEFAULT_DATUMS
 70
0
 62
7
  6
CONTINUOUS
370
-3
390
F
  0
LAYER
  5
1FF
100
AcDbSymbolTableRecord
100
AcDbLayerTableRecord
  2
01_PLANES
 70
0
 62
7
  6
CONTINUOUS
370
-3
390
F
  0
LAYER
  5
200
100
AcDbSymbolTableRecord
100
AcDbLayerTableRecord
  2
02_COORD_SYS
 70
0
 62
7
  6
CONTINUOUS
370
-3
390
F
  0
LAYER
  5
201
100
AcDbSymbolTableRecord
100
AcDbLayerTableRecord
  2
03_AXES
 70
0
 62
7
  6
CONTINUOUS
370
-3
390
F
  0
LAYER
  5
202
100
AcDbSymbolTableRecord
100
AcDbLayerTableRecord
  2
04_POINTS
 70
0
 62
7
  6
CONTINUOUS
370
-3
390
F
  0
LAYER
  5
203
100
AcDbSymbolTableRecord
100
AcDbLayerTableRecord
  2
05_CURVES
 70
0
 62
7
  6
CONTINUOUS
370
-3
390
F
  0
LAYER
  5
204
100
AcDbSymbolTableRecord
100
AcDbLayerTableRecord
  2
06_SURFS
 70
0
 62
7
  6
CONTINUOUS
370
-3
390
F
  0
LAYER
  5
205
100
AcDbSymbolTableRecord
100
AcDbLayerTableRecord
  2
07_COSMETICS
 70
0
 62
7
  6
CONTINUOUS
370
-3
390
F
  0
LAYER
  5
206
100
AcDbSymbolTableRecord
100
AcDbLayerTableRecord
  2
10_NOTES
 70
0
 62
7
  6
CONTINUOUS
370
-3
390
F
  0
LAYER
  5
207
100
AcDbSymbolTableRecord
100
AcDbLayerTableRecord
  2
11_NOTES_PUB
 70
0
 62
7
  6
CONTINUOUS
370
-3
390
F
  0
LAYER
  5
208
100
AcDbSymbolTableRecord
100
AcDbLayerTableRecord
  2
13_REF_GTOL
 70
0
 62
7
  6
CONTINUOUS
370
-3
390
F
  0
LAYER
  5
209
100
AcDbSymbolTableRecord
100
AcDbLayerTableRecord
  2
16_MISC
 70
0
 62
7
  6
CONTINUOUS
370
-3
390
F
  0
LAYER
  5
20A
100
AcDbSymbolTableRecord
100
AcDbLayerTableRecord
  2
17_NO_PRINT
 70
0
 62
7
  6
CONTINUOUS
370
-3
390
F
  0
LAYER
  5
20B
100
AcDbSymbolTableRecord
100
AcDbLayerTableRecord
  2
18_DATUM_CAMS_JOINTS
 70
0
 62
7
  6
CONTINUOUS
370
-3
390
F
  0
LAYER
  5
20C
100
AcDbSymbolTableRecord
100
AcDbLayerTableRecord
  2
19_DATUM_FUNCTIONAL
 70
0
 62
7
  6
CONTINUOUS
370
-3
390
F
  0
LAYER
  5
20D
100
AcDbSymbolTableRecord
100
AcDbLayerTableRecord
  2
20_DATUM_KINEMATIC_SCHEME
 70
0
 62
7
  6
CONTINUOUS
370
-3
390
F
  0
ENDTAB
  0
TABLE
  2
STYLE
  5
3
100
AcDbSymbolTable
 70
1
  0
STYLE
  5
11
100
AcDbSymbolTableRecord
100
AcDbTextStyleTableRecord
  2
STANDARD
 70
0
 40
0.0
 41
1.0
 50
0.0
 71
0
 42
0.2
  3
ARIAL.TTF
  4

  0
STYLE
  5
20E
100
AcDbSymbolTableRecord
100
AcDbTextStyleTableRecord
  2
TEXTSTYLE_1
 70
0
 40
0.0
 41
0.8
 50
0.0
 71
0
 42
0.2
  3
gdt
  4

  0
ENDTAB
  0
TABLE
  2
VIEW
  5
6
100
AcDbSymbolTable
 70
0
  0
ENDTAB
  0
TABLE
  2
UCS
  5
7
100
AcDbSymbolTable
 70
0
  0
ENDTAB
  0
TABLE
  2
APPID
  5
9
100
AcDbSymbolTable
 70
1
  0
APPID
  5
20F
100
AcDbSymbolTableRecord
100
AcDbRegAppTableRecord
  2
ACAD
 70
0
  0
ENDTAB
  0
TABLE
  2
BLOCK_RECORD
  5
1
100
AcDbSymbolTable
 70
0
  0
BLOCK_RECORD
  5
210
100
AcDbSymbolTableRecord
100
AcDbBlockTableRecord
  2
*Model_Space
  0
BLOCK_RECORD
  5
211
100
AcDbSymbolTableRecord
100
AcDbBlockTableRecord
  2
*Paper_Space
  0
BLOCK_RECORD
  5
212
100
AcDbSymbolTableRecord
100
AcDbBlockTableRecord
  2
_FILLED
  0
ENDTAB
  0
TABLE
  2
DIMSTYLE
  5
A
100
AcDbSymbolTable
 70
1
100
AcDbDimStyleTable
 71
0
  0
DIMSTYLE
105
213
100
AcDbSymbolTableRecord
100
AcDbDimStyleTableRecord
  2
STANDARD
 70
0
  3

  4

 40
1.0
 41
0.4664994216
 42
1.0
 43
0.38
 44
1.0
 45
0.0
 46
0.0
 47
0.01
 48
0.01
140
0.6530991903
141
0.09
142
0.0
143
25.4
144
1.0
145
0.0
146
1.0
147
0.625
 71
1
 72
0
 73
0
 74
0
 75
0
 76
0
 77
1
 78
8
 79
2
170
0
171
1
172
0
173
0
174
0
175
0
176
0
177
0
178
0
270
2
179
2
271
2
272
2
273
2
274
2
275
0
280
0
281
0
282
0
283
1
284
8
285
0
286
0
287
3
288
0
340
11
278
46
341
212
342
212
343
212
344
212
  0
ENDTAB
  0
ENDSEC
  0
SECTION
  2
BLOCKS
  0
BLOCK
  5
20
100
AcDbEntity
  8
0
100
AcDbBlockBegin
  2
*Model_Space
 70
0
 10
0.0
 20
0.0
 30
0.0
  3
*Model_Space
  1

  0
ENDBLK
  5
21
100
AcDbEntity
  8
0
100
AcDbBlockEnd
  0
BLOCK
  5
1C
100
AcDbEntity
  8
0
100
AcDbBlockBegin
  2
*Paper_Space
 70
0
 10
0.0
 20
0.0
 30
0.0
  3
*Paper_Space
  1

  0
ENDBLK
  5
1D
100
AcDbEntity
  8
0
100
AcDbBlockEnd
  0
BLOCK
  5
214
100
AcDbEntity
  8
0
100
AcDbBlockBegin
  2
_FILLED
 70
64
 10
0.0
 20
0.0
  3
_FILLED
  1

  0
SOLID
  5
215
100
AcDbEntity
  8
0
  6
BYBLOCK
 62
0
100
AcDbTrace
 10
0.0
 20
0.0
 11
-1.0
 21
0.25
 12
-1.0
 22
-0.25
 13
-1.0
 23
-0.25
  0
ENDBLK
  5
216
100
AcDbEntity
  8
0
  6
BYBLOCK
 62
0
100
AcDbBlockEnd
  0
ENDSEC
  0
SECTION
  2
ENTITIES
  0
LINE
  5
217
100
AcDbEntity
  8
0
100
AcDbLine
 62
7
  6
BYLAYER
 10
20.660809407
 20
5.5707330416
 11
18.660809407
 21
5.5707330416
  0
LINE
  5
218
100
AcDbEntity
  8
0
100
AcDbLine
 62
7
  6
BYLAYER
 10
23.810809407
 20
5.8107330416
 11
15.510809407
 21
5.8107330416
  0
LINE
  5
219
100
AcDbEntity
  8
0
100
AcDbLine
 62
7
  6
BYLAYER
 10
23.910809407
 20
5.8615030568
 11
15.410809407
 21
5.8615030568
  0
LINE
  5
21A
100
AcDbEntity
  8
0
100
AcDbLine
 62
7
  6
BYLAYER
 10
29.185809407
 20
6.6707330416
 11
10.135809407
 21
6.6707330416
  0
LINE
  5
21B
100
AcDbEntity
  8
0
100
AcDbLine
 62
7
  6
BYLAYER
 10
4.160809407
 20
50.1207330416
 11
4.160809407
 21
25.1207330416
  0
LINE
  5
21C
100
AcDbEntity
  8
0
100
AcDbLine
 62
7
  6
BYLAYER
 10
4.160809407
 20
25.1107330416
 11
4.160809407
 21
20.1107330416
  0
LINE
  5
21D
100
AcDbEntity
  8
0
100
AcDbLine
 62
7
  6
BYLAYER
 10
4.6201851831
 20
25.1207330416
 11
4.6201851831
 21
50.1207330416
  0
LINE
  5
21E
100
AcDbEntity
  8
0
100
AcDbLine
 62
7
  6
BYLAYER
 10
4.779646249
 20
20.1107330416
 11
4.779646249
 21
24.8502725137
  0
LINE
  5
21F
100
AcDbEntity
  8
0
100
AcDbLine
 62
7
  6
BYLAYER
 10
10.1358198263
 20
12.1707330416
 11
29.1857989876
 21
12.1707330416
  0
LINE
  5
220
100
AcDbEntity
  8
0
100
AcDbLine
 62
7
  6
BYLAYER
 10
25.1284389629
 20
12.4707330416
 11
14.193179851
 21
12.4707330416
  0
LINE
  5
221
100
AcDbEntity
  8
0
100
AcDbLine
 62
7
  6
BYLAYER
 10
14.193179851
 20
14.4707330416
 11
25.1284389629
 21
14.4707330416
  0
LINE
  5
222
100
AcDbEntity
  8
0
100
AcDbLine
 62
7
  6
BYLAYER
 10
17.6108156231
 20
15.9707330416
 11
21.7108031909
 21
15.9707330416
  0
LINE
  5
223
100
AcDbEntity
  8
0
100
AcDbLine
 62
7
  6
BYLAYER
 10
27.6608094069
 20
16.4207330416
 11
26.3689232349
 21
16.4207330416
  0
LINE
  5
224
100
AcDbEntity
  8
0
100
AcDbLine
 62
7
  6
BYLAYER
 10
12.9526955789
 20
16.4207330416
 11
11.660809407
 21
16.4207330416
  0
LINE
  5
225
100
AcDbEntity
  8
0
100
AcDbLine
 62
7
  6
BYLAYER
 10
10.135809407
 20
6.6707330416
 11
10.135809407
 21
12.1707330416
  0
LINE
  5
226
100
AcDbEntity
  8
0
100
AcDbLine
 62
7
  6
BYLAYER
 10
13.1415806095
 20
17.8907599256
 11
26.1901916938
 21
17.8907599256
  0
LINE
  5
227
100
AcDbEntity
  8
0
100
AcDbLine
 62
7
  6
BYLAYER
 10
11.6642501968
 20
18.4207330416
 11
27.6630062761
 21
18.4207330416
  0
LINE
  5
228
100
AcDbEntity
  8
0
100
AcDbLine
 62
7
  6
BYLAYER
 10
13.909412784
 20
12.8947115344
 11
13.2847912963
 21
14.7650057147
  0
LINE
  5
229
100
AcDbEntity
  8
0
100
AcDbLine
 62
7
  6
BYLAYER
 10
13.2847912963
 20
17.3030421448
 11
14.1657192493
 21
14.6652935943
  0
LINE
  5
22A
100
AcDbEntity
  8
0
100
AcDbLine
 62
7
  6
BYLAYER
 10
13.2847912963
 20
14.7650057147
 11
13.1091638314
 21
15.4857576799
  0
LINE
  5
22B
100
AcDbEntity
  8
0
100
AcDbLine
 62
7
  6
BYLAYER
 10
11.4801269228
 20
20.1107330416
 11
11.4801269228
 21
24.3428621695
  0
LINE
  5
22C
100
AcDbEntity
  8
0
100
AcDbLine
 62
7
  6
BYLAYER
 10
11.660809407
 20
18.4207330416
 11
11.660809407
 21
16.4207330416
  0
LINE
  5
22D
100
AcDbEntity
  8
0
100
AcDbLine
 62
7
  6
BYLAYER
 10
11.6642501968
 20
18.4207330416
 11
11.6642501968
 21
37.8553407969
  0
LINE
  5
22E
100
AcDbEntity
  8
0
100
AcDbLine
 62
7
  6
BYLAYER
 10
11.709009885
 20
16.4207330416
 11
11.709009885
 21
18.4207330416
  0
LINE
  5
22F
100
AcDbEntity
  8
0
100
AcDbLine
 62
7
  6
BYLAYER
 10
12.0553072648
 20
40.101929762
 11
12.0553072648
 21
18.4207330416
  0
LINE
  5
230
100
AcDbEntity
  8
0
100
AcDbLine
 62
7
  6
BYLAYER
 10
35.160809407
 20
20.1107330416
 11
27.6630062761
 21
20.1107330416
  0
LINE
  5
231
100
AcDbEntity
  8
0
100
AcDbLine
 62
7
  6
BYLAYER
 10
11.6642501968
 20
20.1107330416
 11
4.160809407
 21
20.1107330416
  0
LINE
  5
232
100
AcDbEntity
  8
0
100
AcDbLine
 62
7
  6
BYLAYER
 10
13.1415806095
 20
17.8907599256
 11
13.2847912963
 21
17.3030421448
  0
LINE
  5
233
100
AcDbEntity
  8
0
100
AcDbLine
 62
7
  6
BYLAYER
 10
13.1091638314
 20
15.4857576799
 11
12.9526955789
 21
16.4207330416
  0
LINE
  5
234
100
AcDbEntity
  8
0
100
AcDbLine
 62
7
  6
BYLAYER
 10
14.1657192493
 20
14.6652935943
 11
14.193179851
 21
14.4707330416
  0
LINE
  5
235
100
AcDbEntity
  8
0
100
AcDbLine
 62
7
  6
BYLAYER
 10
12.9335363664
 20
18.4206016723
 11
12.9335363664
 21
16.4207330416
  0
LINE
  5
236
100
AcDbEntity
  8
0
100
AcDbLine
 62
7
  6
BYLAYER
 10
13.1091638314
 20
18.012663693
 11
13.1091638314
 21
15.4857576799
  0
LINE
  5
237
100
AcDbEntity
  8
0
100
AcDbLine
 62
7
  6
BYLAYER
 10
13.2847912963
 20
17.3030421448
 11
13.2847912963
 21
14.7650057147
  0
LINE
  5
238
100
AcDbEntity
  8
0
100
AcDbLine
 62
7
  6
BYLAYER
 10
14.1657192493
 20
14.6652935943
 11
14.1657192493
 21
12.4862971076
  0
LINE
  5
239
100
AcDbEntity
  8
0
100
AcDbLine
 62
7
  6
BYLAYER
 10
14.910809407
 20
12.1707330416
 11
14.910809407
 21
12.4707330416
  0
LINE
  5
23A
100
AcDbEntity
  8
0
100
AcDbLine
 62
7
  6
BYLAYER
 10
15.1799038939
 20
14.4707330416
 11
15.1799038939
 21
12.4707330416
  0
LINE
  5
23B
100
AcDbEntity
  8
0
100
AcDbLine
 62
7
  6
BYLAYER
 10
15.510809407
 20
5.8107330416
 11
15.510809407
 21
5.8615030568
  0
LINE
  5
23C
100
AcDbEntity
  8
0
100
AcDbLine
 62
7
  6
BYLAYER
 10
17.610809407
 20
14.4707330416
 11
17.610809407
 21
15.9707330416
  0
LINE
  5
23D
100
AcDbEntity
  8
0
100
AcDbLine
 62
7
  6
BYLAYER
 10
35.160809407
 20
25.1207330416
 11
27.6630062761
 21
25.1207330416
  0
LINE
  5
23E
100
AcDbEntity
  8
0
100
AcDbLine
 62
7
  6
BYLAYER
 10
11.6642501968
 20
25.1207330416
 11
4.160809407
 21
25.1207330416
  0
LINE
  5
23F
100
AcDbEntity
  8
0
100
AcDbLine
 62
7
  6
BYLAYER
 10
21.710809407
 20
14.4707330416
 11
21.710809407
 21
15.9707330416
  0
LINE
  5
240
100
AcDbEntity
  8
0
100
AcDbLine
 62
7
  6
BYLAYER
 10
23.810809407
 20
5.8107330416
 11
23.810809407
 21
5.8615030568
  0
LINE
  5
241
100
AcDbEntity
  8
0
100
AcDbLine
 62
7
  6
BYLAYER
 10
24.1417149206
 20
12.4707330416
 11
24.1417149206
 21
14.4707330416
  0
LINE
  5
242
100
AcDbEntity
  8
0
100
AcDbLine
 62
7
  6
BYLAYER
 10
24.410809407
 20
12.1707330416
 11
24.410809407
 21
12.4707330416
  0
LINE
  5
243
100
AcDbEntity
  8
0
100
AcDbLine
 62
7
  6
BYLAYER
 10
25.1558995645
 20
14.6652935943
 11
25.1558995645
 21
12.4862971076
  0
LINE
  5
244
100
AcDbEntity
  8
0
100
AcDbLine
 62
7
  6
BYLAYER
 10
26.147087786
 20
17.6331927117
 11
26.147087786
 21
15.0951562816
  0
LINE
  5
245
100
AcDbEntity
  8
0
100
AcDbLine
 62
7
  6
BYLAYER
 10
26.3880824475
 20
18.4206016723
 11
26.3880824475
 21
16.4207330416
  0
LINE
  5
246
100
AcDbEntity
  8
0
100
AcDbLine
 62
7
  6
BYLAYER
 10
25.1284389629
 20
14.4707330416
 11
25.1558995645
 21
14.6652935943
  0
LINE
  5
247
100
AcDbEntity
  8
0
100
AcDbLine
 62
7
  6
BYLAYER
 10
27.2675260628
 20
18.4207330416
 11
27.2675260628
 21
40.0982038726
  0
LINE
  5
248
100
AcDbEntity
  8
0
100
AcDbLine
 62
7
  6
BYLAYER
 10
27.6126089289
 20
18.4207330416
 11
27.6126089289
 21
16.4207330416
  0
LINE
  5
249
100
AcDbEntity
  8
0
100
AcDbLine
 62
7
  6
BYLAYER
 10
27.6608094069
 20
16.4207330416
 11
27.6608094069
 21
18.4207330416
  0
LINE
  5
24A
100
AcDbEntity
  8
0
100
AcDbLine
 62
7
  6
BYLAYER
 10
27.6630062761
 20
18.4207330416
 11
27.6630062761
 21
37.6207330416
  0
LINE
  5
24B
100
AcDbEntity
  8
0
100
AcDbLine
 62
7
  6
BYLAYER
 10
27.8418585079
 20
20.1107330416
 11
27.8418585079
 21
24.3429613603
  0
LINE
  5
24C
100
AcDbEntity
  8
0
100
AcDbLine
 62
7
  6
BYLAYER
 10
26.147087786
 20
17.6331927117
 11
26.1901916938
 21
17.8907599256
  0
LINE
  5
24D
100
AcDbEntity
  8
0
100
AcDbLine
 62
7
  6
BYLAYER
 10
26.3689232349
 20
16.4207330416
 11
26.147087786
 21
15.0951562816
  0
LINE
  5
24E
100
AcDbEntity
  8
0
100
AcDbLine
 62
7
  6
BYLAYER
 10
29.185809407
 20
6.6707330416
 11
29.185809407
 21
12.1707330416
  0
LINE
  5
24F
100
AcDbEntity
  8
0
100
AcDbLine
 62
7
  6
BYLAYER
 10
25.1558995645
 20
14.6652935943
 11
26.147087786
 21
17.6331927117
  0
LINE
  5
250
100
AcDbEntity
  8
0
100
AcDbLine
 62
7
  6
BYLAYER
 10
26.147087786
 20
15.0951562816
 11
25.4122060299
 21
12.8947115344
  0
LINE
  5
251
100
AcDbEntity
  8
0
100
AcDbLine
 62
7
  6
BYLAYER
 10
27.660809407
 20
37.6207330416
 11
27.6630062761
 21
37.6207330416
  0
LINE
  5
252
100
AcDbEntity
  8
0
100
AcDbLine
 62
7
  6
BYLAYER
 10
34.5414230041
 20
20.1107330416
 11
34.5414230041
 21
24.8502548254
  0
LINE
  5
253
100
AcDbEntity
  8
0
100
AcDbLine
 62
7
  6
BYLAYER
 10
34.7014336308
 20
25.1207330416
 11
34.7014336308
 21
50.1207330416
  0
LINE
  5
254
100
AcDbEntity
  8
0
100
AcDbLine
 62
7
  6
BYLAYER
 10
35.160809407
 20
20.1107330416
 11
35.160809407
 21
25.1107330416
  0
LINE
  5
255
100
AcDbEntity
  8
0
100
AcDbLine
 62
7
  6
BYLAYER
 10
35.160809407
 20
25.1207330416
 11
35.160809407
 21
50.1207330416
  0
LINE
  5
256
100
AcDbEntity
  8
0
100
AcDbLine
 62
7
  6
BYLAYER
 10
19.660809407
 20
43.6207330416
 11
19.6763499759
 21
43.6207330416
  0
LINE
  5
257
100
AcDbEntity
  8
0
100
AcDbLine
 62
7
  6
BYLAYER
 10
4.160809407
 20
50.1207330416
 11
35.160809407
 21
50.1207330416
  0
ARC
  5
258
100
AcDbEntity
  8
0
100
AcDbCircle
 62
7
  6
BYLAYER
 10
19.8426207356
 20
179.2824012136
 40
155.1650254096
100
AcDbArc
 50
264.4292509764
 51
266.9105861565
  0
ARC
  5
259
100
AcDbEntity
  8
0
100
AcDbCircle
 62
7
  6
BYLAYER
 10
19.5351978668
 20
178.5380436032
 40
154.418659807
100
AcDbArc
 50
273.0836296602
 51
275.5766677092
  0
ARC
  5
25A
100
AcDbEntity
  8
0
100
AcDbCircle
 62
7
  6
BYLAYER
 10
19.660809407
 20
51.1625792077
 40
45.5000000032
100
AcDbArc
 50
275.3596165229
 51
282.0837160051
  0
ARC
  5
25B
100
AcDbEntity
  8
0
100
AcDbCircle
 62
7
  6
BYLAYER
 10
19.660809407
 20
51.1625792077
 40
45.5000000032
100
AcDbArc
 50
257.9162839949
 51
264.6403834771
  0
ARC
  5
25C
100
AcDbEntity
  8
0
100
AcDbCircle
 62
7
  6
BYLAYER
 10
19.9218249289
 20
36.0617793166
 40
30.5000000165
100
AcDbArc
 50
271.3883552602
 51
277.3255947515
  0
ARC
  5
25D
100
AcDbEntity
  8
0
100
AcDbCircle
 62
7
  6
BYLAYER
 10
19.3997938851
 20
36.0617793166
 40
30.5000000165
100
AcDbArc
 50
262.6744052485
 51
268.6116447398
  0
ARC
  5
25E
100
AcDbEntity
  8
0
100
AcDbCircle
 62
7
  6
BYLAYER
 10
10.1311578629
 20
14.3005129127
 40
10.1325670526
100
AcDbArc
 50
81.2889430095
 51
82.3494945915
  0
ARC
  5
25F
100
AcDbEntity
  8
0
100
AcDbCircle
 62
7
  6
BYLAYER
 10
29.1795174986
 20
14.3959455814
 40
10.0365558245
100
AcDbArc
 50
97.6587424178
 51
98.6993491172
  0
ARC
  5
260
100
AcDbEntity
  8
0
100
AcDbCircle
 62
7
  6
BYLAYER
 10
19.660809407
 20
37.6207330416
 40
8.0
100
AcDbArc
 50
0.0
 51
178.3195047893
  0
SPLINE
  5
261
100
AcDbEntity
  8
0
100
AcDbSpline
 62
7
  6
BYLAYER
 70
0
 71
3
 72
39
 73
35
 74
0
 42
0.0000001
 43
0.0000001
 44
0.0000000001
 40
0.0
 40
0.0
 40
0.0
 40
0.0
 40
0.1238840817
 40
0.2482208799
 40
0.3105374804
 40
0.3729415413
 40
0.4354248008
 40
0.4979790512
 40
0.5605960912
 40
0.6232680516
 40
0.6859869672
 40
0.7173615671
 40
0.7487449566
 40
0.7801361572
 40
0.8115341924
 40
0.8429380912
 40
0.8586419361
 40
0.8743468826
 40
0.8900528097
 40
0.9057595965
 40
0.9214671223
 40
0.9371752663
 40
0.9450295324
 40
0.9528839077
 40
0.9607383774
 40
0.9685929255
 40
0.9764475398
 40
0.9803748589
 40
0.9843022043
 40
0.9882295197
 40
0.9921570175
 40
0.994120708
 40
0.9960837437
 40
1.0
 40
1.0
 40
1.0
 40
1.0
 10
16.0139857955
 20
44.7411015254
 30
0.0
 10
16.1657068758
 20
44.6986196876
 30
0.0
 10
16.4692592057
 20
44.61191087
 30
0.0
 10
16.8481557436
 20
44.5004665218
 30
0.0
 10
17.1515751394
 20
44.4095322897
 30
0.0
 10
17.3794304027
 20
44.3404855656
 30
0.0
 10
17.6073849113
 20
44.2707275138
 30
0.0
 10
17.8354269433
 20
44.2003324152
 30
0.0
 10
18.0635445565
 20
44.1293706122
 30
0.0
 10
18.2917302438
 20
44.0579241355
 30
0.0
 10
18.4819013544
 20
43.9980461208
 30
0.0
 10
18.6340678836
 20
43.9499650578
 30
0.0
 10
18.7482220387
 20
43.9138216956
 30
0.0
 10
18.8623856973
 20
43.8776096676
 30
0.0
 10
18.9765569733
 20
43.8413354325
 30
0.0
 10
19.0717017607
 20
43.8110651058
 30
0.0
 10
19.1478215371
 20
43.7868274204
 30
0.0
 10
19.2049147198
 20
43.7686378802
 30
0.0
 10
19.262008712
 20
43.7504385581
 30
0.0
 10
19.3191033241
 20
43.7322303813
 30
0.0
 10
19.3761983293
 20
43.7140141596
 30
0.0
 10
19.4237772763
 20
43.6988281594
 30
0.0
 10
19.4618403768
 20
43.6866756839
 30
0.0
 10
19.4903871943
 20
43.6775575463
 30
0.0
 10
19.5189335153
 20
43.6684367063
 30
0.0
 10
19.5474799672
 20
43.6593151657
 30
0.0
 10
19.5712648802
 20
43.6517018398
 30
0.0
 10
19.5902914997
 20
43.6456059402
 30
0.0
 10
19.6045553033
 20
43.6410167723
 30
0.0
 10
19.6188255061
 20
43.6364390271
 30
0.0
 10
19.6306934848
 20
43.6325740037
 30
0.0
 10
19.6401776783
 20
43.6294003742
 30
0.0
 10
19.6496619018
 20
43.6264660113
 30
0.0
 10
19.6568910161
 20
43.6238077293
 30
0.0
 10
19.660809407
 20
43.6207330416
 30
0.0
  0
SPLINE
  5
262
100
AcDbEntity
  8
0
100
AcDbSpline
 62
7
  6
BYLAYER
 70
0
 71
3
 72
39
 73
35
 74
0
 42
0.0000001
 43
0.0000001
 44
0.0000000001
 40
0.0
 40
0.0
 40
0.0
 40
0.0
 40
0.0039161406
 40
0.0058791151
 40
0.0078427442
 40
0.011770125
 40
0.0156973217
 40
0.019624549
 40
0.0235517497
 40
0.0314061277
 40
0.0392604398
 40
0.047114674
 40
0.0549688143
 40
0.0628228459
 40
0.0785305232
 40
0.0942375856
 40
0.1099439132
 40
0.1256493857
 40
0.141353883
 40
0.1570572849
 40
0.1884603185
 40
0.2198575211
 40
0.2512479268
 40
0.282630565
 40
0.3140044623
 40
0.3767221411
 40
0.4393931272
 40
0.5020095005
 40
0.5645634331
 40
0.6270467789
 40
0.6894513728
 40
0.7517690017
 40
0.8761095472
 40
1.0
 40
1.0
 40
1.0
 40
1.0
 10
19.6763499759
 20
43.6207330416
 30
0.0
 10
19.6802563258
 20
43.6238007764
 30
0.0
 10
19.687464469
 20
43.6264549496
 30
0.0
 10
19.6969225099
 20
43.629381055
 30
0.0
 10
19.7063805424
 20
43.632545742
 30
0.0
 10
19.7182154156
 20
43.6364009911
 30
0.0
 10
19.7324462243
 20
43.6409659349
 30
0.0
 10
19.7466705306
 20
43.6455426325
 30
0.0
 10
19.7656445309
 20
43.6516217676
 30
0.0
 10
19.7893636493
 20
43.6592142071
 30
0.0
 10
19.8178311764
 20
43.6683105987
 30
0.0
 10
19.8462985918
 20
43.6774062381
 30
0.0
 10
19.8747664853
 20
43.6864992422
 30
0.0
 10
19.9127243626
 20
43.6986182028
 30
0.0
 10
19.9601717999
 20
43.7137622853
 30
0.0
 10
20.0171089876
 20
43.7319282741
 30
0.0
 10
20.0740457902
 20
43.7500862688
 30
0.0
 10
20.1309819794
 20
43.7682354778
 30
0.0
 10
20.1879173683
 20
43.7863749774
 30
0.0
 10
20.2638267971
 20
43.8105460431
 30
0.0
 10
20.3587087059
 20
43.8407332689
 30
0.0
 10
20.4725645247
 20
43.8769082714
 30
0.0
 10
20.5864127987
 20
43.913021552
 30
0.0
 10
20.7002516631
 20
43.9490666886
 30
0.0
 10
20.851998106
 20
43.9970177686
 30
0.0
 10
21.0416444024
 20
44.0567352123
 30
0.0
 10
21.2692005482
 20
44.1279921901
 30
0.0
 10
21.4966891543
 20
44.1987686656
 30
0.0
 10
21.7241027905
 20
44.2689833066
 30
0.0
 10
21.951429732
 20
44.3385660209
 30
0.0
 10
22.1786582204
 20
44.4074436694
 30
0.0
 10
22.4812452826
 20
44.4981618766
 30
0.0
 10
22.8591044515
 20
44.6093563446
 30
0.0
 10
23.1618241188
 20
44.6958840519
 30
0.0
 10
23.3131289368
 20
44.7382848358
 30
0.0
  0
SPLINE
  5
263
100
AcDbEntity
  8
0
100
AcDbSpline
 62
7
  6
BYLAYER
 70
0
 71
3
 72
14
 73
10
 74
0
 42
0.0000001
 43
0.0000001
 44
0.0000000001
 40
0.0
 40
0.0
 40
0.0
 40
0.0
 40
0.3383220345
 40
0.487365915
 40
0.6211903334
 40
0.7391703069
 40
0.841026542
 40
0.9272833665
 40
1.0
 40
1.0
 40
1.0
 40
1.0
 10
34.5412341516
 20
24.8502387142
 30
0.0
 10
34.6179473305
 20
24.862170669
 30
0.0
 10
34.7279252629
 20
24.8839593502
 30
0.0
 10
34.8647314461
 20
24.9242955958
 30
0.0
 10
34.9510089964
 20
24.9564576031
 30
0.0
 10
35.0244677908
 20
24.9912289359
 30
0.0
 10
35.0844192021
 20
25.0282234021
 30
0.0
 10
35.1302139386
 20
25.0671730595
 30
0.0
 10
35.1527608047
 20
25.0964261765
 30
0.0
 10
35.160809407
 20
25.1110432228
 30
0.0
  0
SPLINE
  5
264
100
AcDbEntity
  8
0
100
AcDbSpline
 62
7
  6
BYLAYER
 70
0
 71
3
 72
14
 73
10
 74
0
 42
0.0000001
 43
0.0000001
 44
0.0000000001
 40
0.0
 40
0.0
 40
0.0
 40
0.0
 40
0.0725812362
 40
0.1587144072
 40
0.2605020532
 40
0.3784654052
 40
0.5123064807
 40
0.6614122695
 40
1.0
 40
1.0
 40
1.0
 40
1.0
 10
4.160809407
 20
25.1110473854
 30
0.0
 10
4.1687760717
 20
25.0964264369
 30
0.0
 10
4.1911834718
 20
25.0671477306
 30
0.0
 10
4.2368401985
 20
25.028172978
 30
0.0
 10
4.2967071847
 20
24.9911682075
 30
0.0
 10
4.3701187959
 20
24.9563885699
 30
0.0
 10
4.4563785021
 20
24.9242139091
 30
0.0
 10
4.5932227139
 20
24.8838717514
 30
0.0
 10
4.7032522117
 20
24.862117923
 30
0.0
 10
4.7800072758
 20
24.8502064286
 30
0.0
  0
ELLIPSE
  5
265
100
AcDbEntity
  8
0
100
AcDbEllipse
 62
7
  6
BYLAYER
 10
25.1284389629
 20
14.4707330416
 30
0.0
 11
0.0
 21
2.0
 31
0.0
 40
0.1102719595
 41
-3.1415926536
 42
-3.0167555808
  0
ELLIPSE
  5
266
100
AcDbEntity
  8
0
100
AcDbEllipse
 62
7
  6
BYLAYER
 10
25.0909222454
 20
14.4707330416
 30
0.0
 11
0.0
 21
2.0
 31
0.0
 40
0.2609256851
 41
-3.0167555808
 42
-2.4783675377
  0
ELLIPSE
  5
267
100
AcDbEntity
  8
0
100
AcDbEllipse
 62
7
  6
BYLAYER
 10
14.2306965685
 20
14.4707330416
 30
0.0
 11
0.0
 21
2.0
 31
0.0
 40
0.2609256851
 41
-3.8048177695
 42
-3.2664297263
  0
ELLIPSE
  5
268
100
AcDbEntity
  8
0
100
AcDbEllipse
 62
7
  6
BYLAYER
 10
14.193179851
 20
14.4707330416
 30
0.0
 11
0.0
 21
2.0
 31
0.0
 40
0.1102719595
 41
-3.2664297263
 42
-3.1415926536
  0
ELLIPSE
  5
269
100
AcDbEntity
  8
0
100
AcDbEllipse
 62
7
  6
BYLAYER
 10
26.3914333522
 20
15.9207330416
 30
0.0
 11
0.0
 21
2.5
 31
0.0
 40
0.1307482546
 41
0.0102516501
 42
0.6632251157
  0
ELLIPSE
  5
26A
100
AcDbEntity
  8
0
100
AcDbEllipse
 62
7
  6
BYLAYER
 10
12.8485598301
 20
15.9207330416
 30
0.0
 11
0.0
 21
2.5
 31
0.0
 40
0.1903778561
 41
-0.6632251151
 42
-0.5794347979
  0
ELLIPSE
  5
26B
100
AcDbEntity
  8
0
100
AcDbEllipse
 62
7
  6
BYLAYER
 10
12.9301854617
 20
15.9207330416
 30
0.0
 11
0.0
 21
2.5
 31
0.0
 40
0.1307482546
 41
-0.5794347979
 42
-0.0102516501
  0
ELLIPSE
  5
26C
100
AcDbEntity
  8
0
100
AcDbEllipse
 62
7
  6
BYLAYER
 10
12.930710242
 20
15.9207330416
 30
0.0
 11
0.0
 21
2.5
 31
0.0
 40
0.1102719595
 41
-0.0102516501
 42
0.0
  0
ELLIPSE
  5
26D
100
AcDbEntity
  8
0
100
AcDbEllipse
 62
7
  6
BYLAYER
 10
26.3909085718
 20
15.9207330416
 30
0.0
 11
0.0
 21
2.5
 31
0.0
 40
0.1102719595
 41
-0.0
 42
0.0102516501
  0
ENDSEC
  0
SECTION
  2
OBJECTS
  0
DICTIONARY
  5
C
100
AcDbDictionary
280
0
281
1
  3
ACAD_GROUP
350
D
  3
ACAD_MLINESTYLE
350
17
  3
ACAD_LAYOUT
350
1A
  3
ACAD_PLOTSETTINGS
350
19
  3
ACAD_PLOTSTYLENAME
350
E
  0
DICTIONARY
  5
D
102
{ACAD_REACTORS
330
C
102
}
100
AcDbDictionary
280
0
281
1
  0
ACDBDICTIONARYWDFLT
  5
E
102
{ACAD_REACTORS
330
C
102
}
100
AcDbDictionary
281
1
  3
Normal
350
F
100
AcDbDictionaryWithDefault
340
F
  0
DICTIONARY
  5
17
102
{ACAD_REACTORS
330
C
102
}
100
AcDbDictionary
280
0
281
1
  3
Standard
350
18
  0
DICTIONARY
  5
19
102
{ACAD_REACTORS
330
C
102
}
100
AcDbDictionary
281
1
  0
DICTIONARY
  5
1A
102
{ACAD_REACTORS
330
C
102
}
100
AcDbDictionary
281
1
  3
Model
350
26E
  3
Layout1
350
26F
  0
ACDBPLACEHOLDER
  5
F
102
{ACAD_REACTORS
330
E
102
}
  0
MLINESTYLE
  5
18
102
{ACAD_REACTORS
330
17
102
}
100
AcDbMlineStyle
  2
STANDARD
 70
0
  3

 62
256
 51
90.0
 52
90.0
 71
2
 49
0.5
 62
256
  6
BYLAYER
 49
-0.5
 62
256
  6
BYLAYER
  0
LAYOUT
  5
26E
102
{ACAD_REACTORS
330
1A
102
}
100
AcDbPlotSettings
  1

  2
none_device
  4

  6

 40
0.0
 41
0.0
 42
0.0
 43
0.0
 44
210.0
 45
297.0
 46
0.0
 47
0.0
 48
0.0
 49
0.0
140
0.0
141
0.0
142
1.0
143
1.0
 70
1024
 72
1
 73
0
 74
0
  7

 75
0
147
1.0
148
0.0
149
0.0
100
AcDbLayout
  1
Model
 70
0
 71
0
 10
0.0
 20
0.0
 11
210.0
 21
297.0
 12
0.0
 22
0.0
 32
0.0
 14
0.0
 24
0.0
 34
0.0
 15
0.0
 25
0.0
 35
0.0
146
0.0
 13
0.0
 23
0.0
 33
0.0
 16
1.0
 26
0.0
 36
0.0
 17
0.0
 27
1.0
 37
0.0
 76
0
330
210
345
0
346
0
  0
LAYOUT
  5
26F
102
{ACAD_REACTORS
330
1A
102
}
100
AcDbPlotSettings
  1

  2
none_device
  4

  6

 40
0.0
 41
0.0
 42
0.0
 43
0.0
 44
210.0
 45
297.0
 46
0.0
 47
0.0
 48
0.0
 49
0.0
140
0.0
141
0.0
142
1.0
143
1.0
 70
0
 72
1
 73
0
 74
0
  7

 75
0
147
1.0
148
0.0
149
0.0
100
AcDbLayout
  1
Layout1
 70
0
 71
1
 10
0.0
 20
0.0
 11
210.0
 21
297.0
 12
0.0
 22
0.0
 32
0.0
 14
0.0
 24
0.0
 34
0.0
 15
0.0
 25
0.0
 35
0.0
146
0.0
 13
0.0
 23
0.0
 33
0.0
 16
1.0
 26
0.0
 36
0.0
 17
0.0
 27
1.0
 37
0.0
 76
0
330
211
345
0
346
0
  0
ENDSEC
  0
EOF
