999
DXF file: C:\Users\sesa63760\Dev\_Creo\CAD\MCADID0001239_3D-CAD\drw0001_2.dxf
999
Pro/ENGINEER 2019471 by Parametric Technology Corporation
  0
SECTION
  2
HEADER
  9
$ACADVER
  1
AC1024
  9
$DWGCODEPAGE
  3
ANSI_1252
  9
$EXTMAX
 10
147.5026517902
 20
208.6108932462
 30
0.0
  9
$EXTMIN
 10
0.0
 20
0.0
 30
0.0
  9
$LIMMIN
 10
0.0
 20
0.0
  9
$LIMMAX
 10
147.5026517902
 20
208.6108932462
  9
$VIEWCTR
 10
73.7513258951
 20
104.3054466231
  9
$VIEWSIZE
 40
208.6108932462
  9
$CLAYER
  8
0
  9
$LTSCALE
 40
13.5983397079
  9
$CELTYPE
  6
BYLAYER
  9
$DIMSCALE
 40
1.0
  9
$DIMASZ
 40
1.7559839499
  9
$DIMEXO
 40
1.0
  9
$DIMDLI
 40
9.3952165255
  9
$DIMEXE
 40
1.0
  9
$DIMCEN
 40
2.2251828613
  9
$DIMLFAC
 40
1.0
  9
$DIMBLK
  1
_FILLED
  9
$DIMALT
 70
0
  9
$DIMALTF
 40
0.0393700787
  9
$DIMTXT
 40
2.4583775298
  9
$DIMTOL
 70
1
  9
$DIMLIM
 70
0
  9
$DIMTFAC
 40
1.0
  9
$DIMTP
 40
0.01
  9
$DIMTM
 40
0.01
  9
$DIMGAP
 40
0.625
  9
$DIMDSEP
 70
46
  9
$AUNITS
 70
0
  9
$PDMODE
 70
3
  9
$PDSIZE
 40
0.3125
  9
$HANDSEED
  5
312
  9
$TILEMODE
 70
1
  9
$MEASUREMENT
 70
1
  9
$INSUNITS
 70
4
  0
ENDSEC
  0
SECTION
  2
CLASSES
  0
CLASS
  1
ACDBDICTIONARYWDFLT
  2
AcDbDictionaryWithDefault
  3
AutoCAD 2000
 90
0
 91
1
280
0
281
0
  0
CLASS
  1
ACDBPLACEHOLDER
  2
AcDbPlaceHolder
  3
AutoCAD 2000
 90
0
 91
1
280
0
281
0
  0
CLASS
  1
LAYOUT
  2
AcDbLayout
  3
AutoCAD 2000
 90
0
 91
0
280
0
281
0
  0
ENDSEC
  0
SECTION
  2
TABLES
  0
TABLE
  2
VPORT
  5
8
100
AcDbSymbolTable
 70
2
  0
VPORT
  5
1F4
100
AcDbSymbolTableRecord
100
AcDbViewportTableRecord
  2
*ACTIVE
 70
0
 10
0.0
 20
0.0
 11
1.0
 21
1.0
 12
73.7513258951
 22
104.3054466231
 13
0.0
 23
0.0
 14
1.0
 24
1.0
 15
0.0
 25
0.0
 16
0.0
 26
0.0
 36
1.0
 17
0.0
 27
0.0
 37
0.0
 40
208.6108932462
 41
0.7070707071
 42
50.0
 43
0.0
 44
0.0
 50
0.0
 51
0.0
 71
0
 72
100
 73
1
 74
1
 75
0
 76
0
 77
0
 78
0
  0
ENDTAB
  0
TABLE
  2
LTYPE
  5
5
100
AcDbSymbolTable
 70
6
  0
LTYPE
  5
14
100
AcDbSymbolTableRecord
100
AcDbLinetypeTableRecord
  2
BYBLOCK
 70
0
  3

 72
65
 73
0
 40
0.0
  0
LTYPE
  5
15
100
AcDbSymbolTableRecord
100
AcDbLinetypeTableRecord
  2
BYLAYER
 70
0
  3

 72
65
 73
0
 40
0.0
  0
LTYPE
  5
16
100
AcDbSymbolTableRecord
100
AcDbLinetypeTableRecord
  2
CONTINUOUS
 70
64
  3
Solid line
 72
65
 73
0
 40
0.0
  0
LTYPE
  5
1F5
100
AcDbSymbolTableRecord
100
AcDbLinetypeTableRecord
  2
CENTER
 70
64
  3
____ _ ____ _ ____ _ ____ _ ____ _ ____ _ ____
 72
65
 73
4
 40
0.6
 49
0.375
 74
0
 49
-0.075
 74
0
 49
0.075
 74
0
 49
-0.075
 74
0
  0
LTYPE
  5
1F6
100
AcDbSymbolTableRecord
100
AcDbLinetypeTableRecord
  2
HIDDEN
 70
64
  3
- - - - - - - - - - - - - - - - - - - -
 72
65
 73
2
 40
0.2
 49
0.1
 74
0
 49
-0.1
 74
0
  0
LTYPE
  5
1F7
100
AcDbSymbolTableRecord
100
AcDbLinetypeTableRecord
  2
PHANTOM
 70
64
  3
_____ _ _ _____ _ _ _____ _ _ _____
 72
65
 73
6
 40
0.8
 49
0.45
 74
0
 49
-0.05
 74
0
 49
0.1
 74
0
 49
-0.05
 74
0
 49
0.1
 74
0
 49
-0.05
 74
0
  0
LTYPE
  5
1F8
100
AcDbSymbolTableRecord
100
AcDbLinetypeTableRecord
  2
DOT
 70
64
  3
. . . . . . . . . . . . . . . . . . . .
 72
65
 73
2
 40
0.2
 49
0.1
 74
0
 49
-0.1
 74
0
  0
LTYPE
  5
1F9
100
AcDbSymbolTableRecord
100
AcDbLinetypeTableRecord
  2
DASHED
 70
64
  3
- - - - - - - - - - - - - - - - - - - -
 72
65
 73
2
 40
0.2
 49
0.1
 74
0
 49
-0.1
 74
0
  0
ENDTAB
  0
TABLE
  2
LAYER
  5
2
100
AcDbSymbolTable
 70
36
  0
LAYER
  5
10
100
AcDbSymbolTableRecord
100
AcDbLayerTableRecord
  2
0
 70
0
 62
7
  6
CONTINUOUS
370
-3
390
F
  0
LAYER
  5
1FA
100
AcDbSymbolTableRecord
100
AcDbLayerTableRecord
  2
DEFAULT_1
 70
0
 62
7
  6
CENTER
370
-3
390
F
  0
LAYER
  5
1FB
100
AcDbSymbolTableRecord
100
AcDbLayerTableRecord
  2
DEFAULT_2
 70
0
 62
8
  6
HIDDEN
370
-3
390
F
  0
LAYER
  5
1FC
100
AcDbSymbolTableRecord
100
AcDbLayerTableRecord
  2
DEFAULT_3
 70
0
 62
7
  6
PHANTOM
370
-3
390
F
  0
LAYER
  5
1FD
100
AcDbSymbolTableRecord
100
AcDbLayerTableRecord
  2
00_COMPONENTS
 70
0
 62
7
  6
CONTINUOUS
370
-3
390
F
  0
LAYER
  5
1FE
100
AcDbSymbolTableRecord
100
AcDbLayerTableRecord
  2
01_1_DEFAULT_DATUMS
 70
0
 62
7
  6
CONTINUOUS
370
-3
390
F
  0
LAYER
  5
1FF
100
AcDbSymbolTableRecord
100
AcDbLayerTableRecord
  2
01_PLANES
 70
0
 62
7
  6
CONTINUOUS
370
-3
390
F
  0
LAYER
  5
200
100
AcDbSymbolTableRecord
100
AcDbLayerTableRecord
  2
02_COORD_SYS
 70
0
 62
7
  6
CONTINUOUS
370
-3
390
F
  0
LAYER
  5
201
100
AcDbSymbolTableRecord
100
AcDbLayerTableRecord
  2
03_AXES
 70
0
 62
7
  6
CONTINUOUS
370
-3
390
F
  0
LAYER
  5
202
100
AcDbSymbolTableRecord
100
AcDbLayerTableRecord
  2
04_POINTS
 70
0
 62
7
  6
CONTINUOUS
370
-3
390
F
  0
LAYER
  5
203
100
AcDbSymbolTableRecord
100
AcDbLayerTableRecord
  2
05_CURVES
 70
0
 62
7
  6
CONTINUOUS
370
-3
390
F
  0
LAYER
  5
204
100
AcDbSymbolTableRecord
100
AcDbLayerTableRecord
  2
06_SURFS
 70
0
 62
7
  6
CONTINUOUS
370
-3
390
F
  0
LAYER
  5
205
100
AcDbSymbolTableRecord
100
AcDbLayerTableRecord
  2
07_COSMETICS
 70
0
 62
7
  6
CONTINUOUS
370
-3
390
F
  0
LAYER
  5
206
100
AcDbSymbolTableRecord
100
AcDbLayerTableRecord
  2
10_NOTES
 70
0
 62
7
  6
CONTINUOUS
370
-3
390
F
  0
LAYER
  5
207
100
AcDbSymbolTableRecord
100
AcDbLayerTableRecord
  2
11_NOTES_PUB
 70
0
 62
7
  6
CONTINUOUS
370
-3
390
F
  0
LAYER
  5
208
100
AcDbSymbolTableRecord
100
AcDbLayerTableRecord
  2
13_REF_GTOL
 70
0
 62
7
  6
CONTINUOUS
370
-3
390
F
  0
LAYER
  5
209
100
AcDbSymbolTableRecord
100
AcDbLayerTableRecord
  2
16_MISC
 70
0
 62
7
  6
CONTINUOUS
370
-3
390
F
  0
LAYER
  5
20A
100
AcDbSymbolTableRecord
100
AcDbLayerTableRecord
  2
17_NO_PRINT
 70
0
 62
7
  6
CONTINUOUS
370
-3
390
F
  0
LAYER
  5
20B
100
AcDbSymbolTableRecord
100
AcDbLayerTableRecord
  2
18_DATUM_CAMS_JOINTS
 70
0
 62
7
  6
CONTINUOUS
370
-3
390
F
  0
LAYER
  5
20C
100
AcDbSymbolTableRecord
100
AcDbLayerTableRecord
  2
19_DATUM_FUNCTIONAL
 70
0
 62
7
  6
CONTINUOUS
370
-3
390
F
  0
LAYER
  5
20D
100
AcDbSymbolTableRecord
100
AcDbLayerTableRecord
  2
20_DATUM_KINEMATIC_SCHEME
 70
0
 62
7
  6
CONTINUOUS
370
-3
390
F
  0
ENDTAB
  0
TABLE
  2
STYLE
  5
3
100
AcDbSymbolTable
 70
1
  0
STYLE
  5
11
100
AcDbSymbolTableRecord
100
AcDbTextStyleTableRecord
  2
STANDARD
 70
0
 40
0.0
 41
0.8
 50
0.0
 71
0
 42
0.2
  3
txt
  4

  0
STYLE
  5
20E
100
AcDbSymbolTableRecord
100
AcDbTextStyleTableRecord
  2
TEXTSTYLE_1
 70
0
 40
0.0
 41
0.8
 50
0.0
 71
0
 42
0.2
  3
gdt
  4

  0
ENDTAB
  0
TABLE
  2
VIEW
  5
6
100
AcDbSymbolTable
 70
0
  0
ENDTAB
  0
TABLE
  2
UCS
  5
7
100
AcDbSymbolTable
 70
0
  0
ENDTAB
  0
TABLE
  2
APPID
  5
9
100
AcDbSymbolTable
 70
1
  0
APPID
  5
20F
100
AcDbSymbolTableRecord
100
AcDbRegAppTableRecord
  2
ACAD
 70
0
  0
ENDTAB
  0
TABLE
  2
BLOCK_RECORD
  5
1
100
AcDbSymbolTable
 70
0
  0
BLOCK_RECORD
  5
210
100
AcDbSymbolTableRecord
100
AcDbBlockTableRecord
  2
*Model_Space
  0
BLOCK_RECORD
  5
211
100
AcDbSymbolTableRecord
100
AcDbBlockTableRecord
  2
*Paper_Space
  0
BLOCK_RECORD
  5
212
100
AcDbSymbolTableRecord
100
AcDbBlockTableRecord
  2
_FILLED
  0
ENDTAB
  0
TABLE
  2
DIMSTYLE
  5
A
100
AcDbSymbolTable
 70
1
100
AcDbDimStyleTable
 71
0
  0
DIMSTYLE
105
213
100
AcDbSymbolTableRecord
100
AcDbDimStyleTableRecord
  2
STANDARD
 70
0
  3

  4

 40
1.0
 41
1.7559839499
 42
1.0
 43
0.38
 44
1.0
 45
0.0
 46
0.0
 47
0.01
 48
0.01
140
2.4583775298
141
0.09
142
0.0
143
25.4
144
1.0
145
0.0
146
1.0
147
0.625
 71
1
 72
0
 73
0
 74
0
 75
0
 76
0
 77
1
 78
8
 79
2
170
0
171
1
172
0
173
0
174
0
175
0
176
0
177
0
178
0
270
2
179
2
271
2
272
2
273
2
274
2
275
0
280
0
281
0
282
0
283
1
284
8
285
0
286
0
287
3
288
0
340
11
278
46
341
212
342
212
343
212
344
212
  0
ENDTAB
  0
ENDSEC
  0
SECTION
  2
BLOCKS
  0
BLOCK
  5
20
100
AcDbEntity
  8
0
100
AcDbBlockBegin
  2
*Model_Space
 70
0
 10
0.0
 20
0.0
 30
0.0
  3
*Model_Space
  1

  0
ENDBLK
  5
21
100
AcDbEntity
  8
0
100
AcDbBlockEnd
  0
BLOCK
  5
1C
100
AcDbEntity
  8
0
100
AcDbBlockBegin
  2
*Paper_Space
 70
0
 10
0.0
 20
0.0
 30
0.0
  3
*Paper_Space
  1

  0
ENDBLK
  5
1D
100
AcDbEntity
  8
0
100
AcDbBlockEnd
  0
BLOCK
  5
214
100
AcDbEntity
  8
0
100
AcDbBlockBegin
  2
_FILLED
 70
64
 10
0.0
 20
0.0
  3
_FILLED
  1

  0
SOLID
  5
215
100
AcDbEntity
  8
0
  6
BYBLOCK
 62
0
100
AcDbTrace
 10
0.0
 20
0.0
 11
-1.0
 21
0.25
 12
-1.0
 22
-0.25
 13
-1.0
 23
-0.25
  0
ENDBLK
  5
216
100
AcDbEntity
  8
0
  6
BYBLOCK
 62
0
100
AcDbBlockEnd
  0
ENDSEC
  0
SECTION
  2
ENTITIES
  0
LINE
  5
217
100
AcDbEntity
  8
0
100
AcDbLine
 62
7
  6
CONTINUOUS
 10
16.1726766576
 20
92.6724400871
 11
16.1726766576
 21
98.1224400871
  0
LINE
  5
218
100
AcDbEntity
  8
0
100
AcDbLine
 62
7
  6
CONTINUOUS
 10
16.1726766576
 20
109.6724400871
 11
16.1726766576
 21
115.1724400871
  0
LINE
  5
219
100
AcDbEntity
  8
0
100
AcDbLine
 62
7
  6
CONTINUOUS
 10
17.2726766576
 20
111.1456378015
 11
17.2726766576
 21
96.6992423728
  0
LINE
  5
21A
100
AcDbEntity
  8
0
100
AcDbLine
 62
7
  6
CONTINUOUS
 10
18.1726766576
 20
94.6724400871
 11
18.1726766576
 21
96.6835328144
  0
LINE
  5
21B
100
AcDbEntity
  8
0
100
AcDbLine
 62
7
  6
CONTINUOUS
 10
18.1726766576
 20
111.1613473599
 11
18.1726766576
 21
113.1724400871
  0
LINE
  5
21C
100
AcDbEntity
  8
0
100
AcDbLine
 62
7
  6
CONTINUOUS
 10
21.6726766576
 20
94.6724400871
 11
21.7075867875
 21
92.6724400871
  0
LINE
  5
21D
100
AcDbEntity
  8
0
100
AcDbLine
 62
7
  6
CONTINUOUS
 10
21.7726766576
 20
96.6206945807
 11
21.7726766576
 21
111.2241855936
  0
LINE
  5
21E
100
AcDbEntity
  8
0
100
AcDbLine
 62
7
  6
CONTINUOUS
 10
21.7075867875
 20
115.1724400871
 11
21.6726766576
 21
113.1724400871
  0
LINE
  5
21F
100
AcDbEntity
  8
0
100
AcDbLine
 62
7
  6
CONTINUOUS
 10
98.9693520622
 20
94.4324400507
 11
100.54656712
 21
94.7216843924
  0
LINE
  5
220
100
AcDbEntity
  8
0
100
AcDbLine
 62
7
  6
CONTINUOUS
 10
126.8726766576
 20
92.8724400871
 11
133.3726766576
 21
93.0426485773
  0
LINE
  5
221
100
AcDbEntity
  8
0
100
AcDbLine
 62
7
  6
CONTINUOUS
 10
126.8726766576
 20
92.7597154118
 11
121.8726766576
 21
92.6724400871
  0
LINE
  5
222
100
AcDbEntity
  8
0
100
AcDbLine
 62
7
  6
CONTINUOUS
 10
77.3693520622
 20
94.4324400507
 11
78.94656712
 21
94.7216843924
  0
LINE
  5
223
100
AcDbEntity
  8
0
100
AcDbLine
 62
7
  6
CONTINUOUS
 10
103.084109037
 20
94.5286661223
 11
98.9694417383
 21
94.4324401173
  0
LINE
  5
224
100
AcDbEntity
  8
0
100
AcDbLine
 62
7
  6
CONTINUOUS
 10
81.484109037
 20
94.5286661223
 11
77.3694417383
 21
94.4324401173
  0
LINE
  5
225
100
AcDbEntity
  8
0
100
AcDbLine
 62
7
  6
CONTINUOUS
 10
121.8726766576
 20
92.6724400871
 11
16.1726766576
 21
92.6724400871
  0
LINE
  5
226
100
AcDbEntity
  8
0
100
AcDbLine
 62
7
  6
CONTINUOUS
 10
117.6000548025
 20
93.5324400871
 11
72.6000548025
 21
93.5324400871
  0
LINE
  5
227
100
AcDbEntity
  8
0
100
AcDbLine
 62
7
  6
CONTINUOUS
 10
103.373276582
 20
94.5286665022
 11
103.0841099572
 21
94.5286665022
  0
LINE
  5
228
100
AcDbEntity
  8
0
100
AcDbLine
 62
7
  6
CONTINUOUS
 10
81.773276582
 20
94.5286665022
 11
81.4841099572
 21
94.5286665022
  0
LINE
  5
229
100
AcDbEntity
  8
0
100
AcDbLine
 62
7
  6
CONTINUOUS
 10
21.6726766576
 20
94.6724400871
 11
18.1726766576
 21
94.6724400871
  0
LINE
  5
22A
100
AcDbEntity
  8
0
100
AcDbLine
 62
7
  6
CONTINUOUS
 10
102.692667485
 20
94.7216843761
 11
100.5465669529
 21
94.7216843761
  0
LINE
  5
22B
100
AcDbEntity
  8
0
100
AcDbLine
 62
7
  6
CONTINUOUS
 10
81.092667485
 20
94.7216843761
 11
78.9465669529
 21
94.7216843761
  0
LINE
  5
22C
100
AcDbEntity
  8
0
100
AcDbLine
 62
7
  6
CONTINUOUS
 10
17.2726766576
 20
96.6992423728
 11
21.7726766576
 21
96.6206945807
  0
LINE
  5
22D
100
AcDbEntity
  8
0
100
AcDbLine
 62
7
  6
CONTINUOUS
 10
103.0841036434
 20
99.3211177994
 11
98.9694417383
 21
99.0324400871
  0
LINE
  5
22E
100
AcDbEntity
  8
0
100
AcDbLine
 62
7
  6
CONTINUOUS
 10
81.4841036434
 20
99.3211177994
 11
77.3694417383
 21
99.0324400871
  0
LINE
  5
22F
100
AcDbEntity
  8
0
100
AcDbLine
 62
7
  6
CONTINUOUS
 10
133.3726766576
 20
96.8724400871
 11
126.8726766576
 21
96.8724400871
  0
LINE
  5
230
100
AcDbEntity
  8
0
100
AcDbLine
 62
7
  6
CONTINUOUS
 10
78.94656712
 20
97.1647072203
 11
81.092667485
 21
97.1647072203
  0
LINE
  5
231
100
AcDbEntity
  8
0
100
AcDbLine
 62
7
  6
CONTINUOUS
 10
100.54656712
 20
97.1647072203
 11
102.692667485
 21
97.1647072203
  0
LINE
  5
232
100
AcDbEntity
  8
0
100
AcDbLine
 62
7
  6
CONTINUOUS
 10
103.373276582
 20
97.7437608419
 11
103.0841254945
 21
97.7437608419
  0
LINE
  5
233
100
AcDbEntity
  8
0
100
AcDbLine
 62
7
  6
CONTINUOUS
 10
81.773276582
 20
97.7437608419
 11
81.4841254945
 21
97.7437608419
  0
LINE
  5
234
100
AcDbEntity
  8
0
100
AcDbLine
 62
7
  6
CONTINUOUS
 10
16.1726766576
 20
98.1224400871
 11
17.2726766576
 21
98.1224400871
  0
LINE
  5
235
100
AcDbEntity
  8
0
100
AcDbLine
 62
7
  6
CONTINUOUS
 10
121.8726766576
 20
98.9224400871
 11
126.8726766576
 21
98.9224400871
  0
LINE
  5
236
100
AcDbEntity
  8
0
100
AcDbLine
 62
7
  6
CONTINUOUS
 10
133.289399259
 20
99.0624400871
 11
124.2369249298
 21
99.0624400871
  0
LINE
  5
237
100
AcDbEntity
  8
0
100
AcDbLine
 62
7
  6
CONTINUOUS
 10
123.8726766576
 20
99.0624400871
 11
122.757814552
 21
99.0624400871
  0
LINE
  5
238
100
AcDbEntity
  8
0
100
AcDbLine
 62
7
  6
CONTINUOUS
 10
103.373276582
 20
99.3211193324
 11
103.0841051185
 21
99.3211193324
  0
LINE
  5
239
100
AcDbEntity
  8
0
100
AcDbLine
 62
7
  6
CONTINUOUS
 10
81.773276582
 20
99.3211193324
 11
81.4841051185
 21
99.3211193324
  0
LINE
  5
23A
100
AcDbEntity
  8
0
100
AcDbLine
 62
7
  6
CONTINUOUS
 10
102.692667485
 20
99.900172954
 11
100.54656712
 21
99.900172954
  0
LINE
  5
23B
100
AcDbEntity
  8
0
100
AcDbLine
 62
7
  6
CONTINUOUS
 10
81.092667485
 20
99.900172954
 11
78.94656712
 21
99.900172954
  0
LINE
  5
23C
100
AcDbEntity
  8
0
100
AcDbLine
 62
7
  6
CONTINUOUS
 10
77.3694417383
 20
98.0324400871
 11
81.4841036434
 21
97.7437623749
  0
LINE
  5
23D
100
AcDbEntity
  8
0
100
AcDbLine
 62
7
  6
CONTINUOUS
 10
98.9694417383
 20
98.0324400871
 11
103.0841036434
 21
97.7437623749
  0
LINE
  5
23E
100
AcDbEntity
  8
0
100
AcDbLine
 62
7
  6
CONTINUOUS
 10
81.092667485
 20
94.7216843761
 11
81.773276582
 21
94.5286665022
  0
LINE
  5
23F
100
AcDbEntity
  8
0
100
AcDbLine
 62
7
  6
CONTINUOUS
 10
78.94656712
 20
97.1647072203
 11
77.3693520622
 21
98.0324400871
  0
LINE
  5
240
100
AcDbEntity
  8
0
100
AcDbLine
 62
7
  6
CONTINUOUS
 10
72.6000548025
 20
93.5324400871
 11
72.6026766576
 21
114.3124400871
  0
LINE
  5
241
100
AcDbEntity
  8
0
100
AcDbLine
 62
7
  6
CONTINUOUS
 10
74.5887615837
 20
114.3124400871
 11
74.5861397285
 21
93.5324400871
  0
LINE
  5
242
100
AcDbEntity
  8
0
100
AcDbLine
 62
7
  6
CONTINUOUS
 10
77.3693520622
 20
109.0324400871
 11
78.94656712
 21
109.900172954
  0
LINE
  5
243
100
AcDbEntity
  8
0
100
AcDbLine
 62
7
  6
CONTINUOUS
 10
103.373276582
 20
112.5362136721
 11
102.692667485
 21
112.3431957982
  0
LINE
  5
244
100
AcDbEntity
  8
0
100
AcDbLine
 62
7
  6
CONTINUOUS
 10
103.0841036434
 20
104.3211177994
 11
98.9694417383
 21
104.0324400871
  0
LINE
  5
245
100
AcDbEntity
  8
0
100
AcDbLine
 62
7
  6
CONTINUOUS
 10
81.4841036434
 20
104.3211177994
 11
77.3694417383
 21
104.0324400871
  0
LINE
  5
246
100
AcDbEntity
  8
0
100
AcDbLine
 62
7
  6
CONTINUOUS
 10
122.7578137952
 20
100.4824400871
 11
123.8726766576
 21
100.4824400871
  0
LINE
  5
247
100
AcDbEntity
  8
0
100
AcDbLine
 62
7
  6
CONTINUOUS
 10
124.2369249298
 20
100.4824400871
 11
133.289399259
 21
100.4824400871
  0
LINE
  5
248
100
AcDbEntity
  8
0
100
AcDbLine
 62
7
  6
CONTINUOUS
 10
123.8726766576
 20
100.9224400871
 11
125.8726766577
 21
100.9224400871
  0
LINE
  5
249
100
AcDbEntity
  8
0
100
AcDbLine
 62
7
  6
CONTINUOUS
 10
78.94656712
 20
102.1647072203
 11
81.092667485
 21
102.1647072203
  0
LINE
  5
24A
100
AcDbEntity
  8
0
100
AcDbLine
 62
7
  6
CONTINUOUS
 10
100.54656712
 20
102.1647072203
 11
102.692667485
 21
102.1647072203
  0
LINE
  5
24B
100
AcDbEntity
  8
0
100
AcDbLine
 62
7
  6
CONTINUOUS
 10
103.373276582
 20
102.7437608419
 11
103.0841254945
 21
102.7437608419
  0
LINE
  5
24C
100
AcDbEntity
  8
0
100
AcDbLine
 62
7
  6
CONTINUOUS
 10
81.773276582
 20
102.7437608419
 11
81.4841254945
 21
102.7437608419
  0
LINE
  5
24D
100
AcDbEntity
  8
0
100
AcDbLine
 62
7
  6
CONTINUOUS
 10
103.373276582
 20
104.3211193324
 11
103.0841051185
 21
104.3211193324
  0
LINE
  5
24E
100
AcDbEntity
  8
0
100
AcDbLine
 62
7
  6
CONTINUOUS
 10
81.773276582
 20
104.3211193324
 11
81.4841051185
 21
104.3211193324
  0
LINE
  5
24F
100
AcDbEntity
  8
0
100
AcDbLine
 62
7
  6
CONTINUOUS
 10
77.3694417383
 20
103.0324400871
 11
81.4841036434
 21
102.7437623749
  0
LINE
  5
250
100
AcDbEntity
  8
0
100
AcDbLine
 62
7
  6
CONTINUOUS
 10
102.692667485
 20
94.7216843761
 11
103.373276582
 21
94.5286665022
  0
LINE
  5
251
100
AcDbEntity
  8
0
100
AcDbLine
 62
7
  6
CONTINUOUS
 10
78.94656712
 20
102.1647072203
 11
77.3693520622
 21
103.0324400871
  0
LINE
  5
252
100
AcDbEntity
  8
0
100
AcDbLine
 62
7
  6
CONTINUOUS
 10
75.9027218709
 20
93.5324400871
 11
75.9027218709
 21
113.5324400871
  0
LINE
  5
253
100
AcDbEntity
  8
0
100
AcDbLine
 62
7
  6
CONTINUOUS
 10
76.9331571505
 20
113.5324400871
 11
76.9331571505
 21
93.5324400871
  0
LINE
  5
254
100
AcDbEntity
  8
0
100
AcDbLine
 62
7
  6
CONTINUOUS
 10
77.0716868445
 20
113.5324400871
 11
77.0716868445
 21
93.5324400871
  0
LINE
  5
255
100
AcDbEntity
  8
0
100
AcDbLine
 62
7
  6
CONTINUOUS
 10
77.3694417383
 20
113.5324400871
 11
77.3694417383
 21
93.5324400871
  0
LINE
  5
256
100
AcDbEntity
  8
0
100
AcDbLine
 62
7
  6
CONTINUOUS
 10
78.94656712
 20
112.3431957982
 11
78.94656712
 21
109.900172954
  0
LINE
  5
257
100
AcDbEntity
  8
0
100
AcDbLine
 62
7
  6
CONTINUOUS
 10
78.94656712
 20
94.7216843924
 11
78.94656712
 21
97.1647072203
  0
LINE
  5
258
100
AcDbEntity
  8
0
100
AcDbLine
 62
7
  6
CONTINUOUS
 10
78.94656712
 20
99.900172954
 11
78.94656712
 21
102.1647072203
  0
LINE
  5
259
100
AcDbEntity
  8
0
100
AcDbLine
 62
7
  6
CONTINUOUS
 10
78.94656712
 20
104.900172954
 11
78.94656712
 21
107.1647072203
  0
LINE
  5
25A
100
AcDbEntity
  8
0
100
AcDbLine
 62
7
  6
CONTINUOUS
 10
81.773276582
 20
107.7437608419
 11
81.092667485
 21
107.1647072203
  0
LINE
  5
25B
100
AcDbEntity
  8
0
100
AcDbLine
 62
7
  6
CONTINUOUS
 10
77.3693520622
 20
104.0324400871
 11
78.94656712
 21
104.900172954
  0
LINE
  5
25C
100
AcDbEntity
  8
0
100
AcDbLine
 62
7
  6
CONTINUOUS
 10
103.0841039718
 20
109.3211178224
 11
98.9694417383
 21
109.0324400871
  0
LINE
  5
25D
100
AcDbEntity
  8
0
100
AcDbLine
 62
7
  6
CONTINUOUS
 10
102.692667485
 20
104.900172954
 11
100.54656712
 21
104.900172954
  0
LINE
  5
25E
100
AcDbEntity
  8
0
100
AcDbLine
 62
7
  6
CONTINUOUS
 10
81.092667485
 20
104.900172954
 11
78.94656712
 21
104.900172954
  0
LINE
  5
25F
100
AcDbEntity
  8
0
100
AcDbLine
 62
7
  6
CONTINUOUS
 10
125.8726766576
 20
106.9224400871
 11
123.8726766577
 21
106.9224400871
  0
LINE
  5
260
100
AcDbEntity
  8
0
100
AcDbLine
 62
7
  6
CONTINUOUS
 10
78.94656712
 20
107.1647072203
 11
81.092667485
 21
107.1647072203
  0
LINE
  5
261
100
AcDbEntity
  8
0
100
AcDbLine
 62
7
  6
CONTINUOUS
 10
100.54656712
 20
107.1647072203
 11
102.692667485
 21
107.1647072203
  0
LINE
  5
262
100
AcDbEntity
  8
0
100
AcDbLine
 62
7
  6
CONTINUOUS
 10
133.289399259
 20
107.3624400871
 11
124.2369249298
 21
107.3624400871
  0
LINE
  5
263
100
AcDbEntity
  8
0
100
AcDbLine
 62
7
  6
CONTINUOUS
 10
123.8726766576
 20
107.3624400871
 11
122.757814552
 21
107.3624400871
  0
LINE
  5
264
100
AcDbEntity
  8
0
100
AcDbLine
 62
7
  6
CONTINUOUS
 10
103.373276582
 20
107.7437608419
 11
103.0841254945
 21
107.7437608419
  0
LINE
  5
265
100
AcDbEntity
  8
0
100
AcDbLine
 62
7
  6
CONTINUOUS
 10
81.773276582
 20
107.7437608419
 11
81.4841254945
 21
107.7437608419
  0
LINE
  5
266
100
AcDbEntity
  8
0
100
AcDbLine
 62
7
  6
CONTINUOUS
 10
98.9694417383
 20
103.0324400871
 11
103.0841036434
 21
102.7437623749
  0
LINE
  5
267
100
AcDbEntity
  8
0
100
AcDbLine
 62
7
  6
CONTINUOUS
 10
77.3694417383
 20
108.0324400871
 11
81.4841039718
 21
107.7437623519
  0
LINE
  5
268
100
AcDbEntity
  8
0
100
AcDbLine
 62
7
  6
CONTINUOUS
 10
81.092667485
 20
99.900172954
 11
81.773276582
 21
99.3211193324
  0
LINE
  5
269
100
AcDbEntity
  8
0
100
AcDbLine
 62
7
  6
CONTINUOUS
 10
81.092667485
 20
112.3431957982
 11
81.092667485
 21
109.900172954
  0
LINE
  5
26A
100
AcDbEntity
  8
0
100
AcDbLine
 62
7
  6
CONTINUOUS
 10
81.092667485
 20
107.1647072203
 11
81.092667485
 21
104.900172954
  0
LINE
  5
26B
100
AcDbEntity
  8
0
100
AcDbLine
 62
7
  6
CONTINUOUS
 10
81.092667485
 20
102.1647072203
 11
81.092667485
 21
99.900172954
  0
LINE
  5
26C
100
AcDbEntity
  8
0
100
AcDbLine
 62
7
  6
CONTINUOUS
 10
81.092667485
 20
97.1647072203
 11
81.092667485
 21
94.7216843761
  0
LINE
  5
26D
100
AcDbEntity
  8
0
100
AcDbLine
 62
7
  6
CONTINUOUS
 10
81.4841213338
 20
93.5324400871
 11
81.484109037
 21
94.5286661223
  0
LINE
  5
26E
100
AcDbEntity
  8
0
100
AcDbLine
 62
7
  6
CONTINUOUS
 10
81.4841089482
 20
112.5362140541
 11
81.4841213081
 21
113.5324400871
  0
LINE
  5
26F
100
AcDbEntity
  8
0
100
AcDbLine
 62
7
  6
CONTINUOUS
 10
81.4841036434
 20
97.7437623749
 11
81.4841036434
 21
99.3211177994
  0
LINE
  5
270
100
AcDbEntity
  8
0
100
AcDbLine
 62
7
  6
CONTINUOUS
 10
81.4841036434
 20
102.7437623749
 11
81.4841036434
 21
104.3211177994
  0
LINE
  5
271
100
AcDbEntity
  8
0
100
AcDbLine
 62
7
  6
CONTINUOUS
 10
81.4841039718
 20
107.7437623519
 11
81.4841039718
 21
109.3211178224
  0
LINE
  5
272
100
AcDbEntity
  8
0
100
AcDbLine
 62
7
  6
CONTINUOUS
 10
81.773276582
 20
112.5362136721
 11
81.773276582
 21
109.3211193324
  0
LINE
  5
273
100
AcDbEntity
  8
0
100
AcDbLine
 62
7
  6
CONTINUOUS
 10
81.773276582
 20
94.5286665022
 11
81.773276582
 21
97.7437608419
  0
LINE
  5
274
100
AcDbEntity
  8
0
100
AcDbLine
 62
7
  6
CONTINUOUS
 10
81.773276582
 20
99.3211193324
 11
81.773276582
 21
102.7437608419
  0
LINE
  5
275
100
AcDbEntity
  8
0
100
AcDbLine
 62
7
  6
CONTINUOUS
 10
81.773276582
 20
104.3211193324
 11
81.773276582
 21
107.7437608419
  0
LINE
  5
276
100
AcDbEntity
  8
0
100
AcDbLine
 62
7
  6
CONTINUOUS
 10
81.773276582
 20
102.7437608419
 11
81.092667485
 21
102.1647072203
  0
LINE
  5
277
100
AcDbEntity
  8
0
100
AcDbLine
 62
7
  6
CONTINUOUS
 10
77.3693520622
 20
99.0324400871
 11
78.94656712
 21
99.900172954
  0
LINE
  5
278
100
AcDbEntity
  8
0
100
AcDbLine
 62
7
  6
CONTINUOUS
 10
98.9693520622
 20
109.0324400871
 11
100.54656712
 21
109.900172954
  0
LINE
  5
279
100
AcDbEntity
  8
0
100
AcDbLine
 62
7
  6
CONTINUOUS
 10
81.773276582
 20
112.5362136721
 11
81.092667485
 21
112.3431957982
  0
LINE
  5
27A
100
AcDbEntity
  8
0
100
AcDbLine
 62
7
  6
CONTINUOUS
 10
81.4841039718
 20
109.3211178224
 11
77.3694417383
 21
109.0324400871
  0
LINE
  5
27B
100
AcDbEntity
  8
0
100
AcDbLine
 62
7
  6
CONTINUOUS
 10
21.7726766576
 20
111.2241855936
 11
17.2726766576
 21
111.1456378015
  0
LINE
  5
27C
100
AcDbEntity
  8
0
100
AcDbLine
 62
7
  6
CONTINUOUS
 10
122.7578137952
 20
108.7824400871
 11
123.8726766576
 21
108.7824400871
  0
LINE
  5
27D
100
AcDbEntity
  8
0
100
AcDbLine
 62
7
  6
CONTINUOUS
 10
124.2369249298
 20
108.7824400871
 11
133.289399259
 21
108.7824400871
  0
LINE
  5
27E
100
AcDbEntity
  8
0
100
AcDbLine
 62
7
  6
CONTINUOUS
 10
126.8726766576
 20
108.9224400871
 11
121.8726766576
 21
108.9224400871
  0
LINE
  5
27F
100
AcDbEntity
  8
0
100
AcDbLine
 62
7
  6
CONTINUOUS
 10
103.373276582
 20
109.3211193324
 11
103.0841054247
 21
109.3211193324
  0
LINE
  5
280
100
AcDbEntity
  8
0
100
AcDbLine
 62
7
  6
CONTINUOUS
 10
81.773276582
 20
109.3211193324
 11
81.4841054247
 21
109.3211193324
  0
LINE
  5
281
100
AcDbEntity
  8
0
100
AcDbLine
 62
7
  6
CONTINUOUS
 10
17.2726766576
 20
109.6724400871
 11
16.1726766576
 21
109.6724400871
  0
LINE
  5
282
100
AcDbEntity
  8
0
100
AcDbLine
 62
7
  6
CONTINUOUS
 10
102.692667485
 20
109.900172954
 11
100.54656712
 21
109.900172954
  0
LINE
  5
283
100
AcDbEntity
  8
0
100
AcDbLine
 62
7
  6
CONTINUOUS
 10
81.092667485
 20
109.900172954
 11
78.94656712
 21
109.900172954
  0
LINE
  5
284
100
AcDbEntity
  8
0
100
AcDbLine
 62
7
  6
CONTINUOUS
 10
126.8726766576
 20
110.9724400871
 11
133.3726766576
 21
110.9724400871
  0
LINE
  5
285
100
AcDbEntity
  8
0
100
AcDbLine
 62
7
  6
CONTINUOUS
 10
78.9465669529
 20
112.3431957982
 11
81.092667485
 21
112.3431957982
  0
LINE
  5
286
100
AcDbEntity
  8
0
100
AcDbLine
 62
7
  6
CONTINUOUS
 10
100.5465669529
 20
112.3431957982
 11
102.692667485
 21
112.3431957982
  0
LINE
  5
287
100
AcDbEntity
  8
0
100
AcDbLine
 62
7
  6
CONTINUOUS
 10
98.9694417383
 20
108.0324400871
 11
103.0841039718
 21
107.7437623519
  0
LINE
  5
288
100
AcDbEntity
  8
0
100
AcDbLine
 62
7
  6
CONTINUOUS
 10
78.94656712
 20
107.1647072203
 11
77.3693520622
 21
108.0324400871
  0
LINE
  5
289
100
AcDbEntity
  8
0
100
AcDbLine
 62
7
  6
CONTINUOUS
 10
100.54656712
 20
97.1647072203
 11
98.9693520622
 21
98.0324400871
  0
LINE
  5
28A
100
AcDbEntity
  8
0
100
AcDbLine
 62
7
  6
CONTINUOUS
 10
81.092667485
 20
104.900172954
 11
81.773276582
 21
104.3211193324
  0
LINE
  5
28B
100
AcDbEntity
  8
0
100
AcDbLine
 62
7
  6
CONTINUOUS
 10
86.3148411237
 20
113.5324400871
 11
86.3148411237
 21
93.5324400871
  0
LINE
  5
28C
100
AcDbEntity
  8
0
100
AcDbLine
 62
7
  6
CONTINUOUS
 10
86.7713332927
 20
113.5324400871
 11
86.7713332927
 21
93.5324400871
  0
LINE
  5
28D
100
AcDbEntity
  8
0
100
AcDbLine
 62
7
  6
CONTINUOUS
 10
81.773276582
 20
97.7437608419
 11
81.092667485
 21
97.1647072203
  0
LINE
  5
28E
100
AcDbEntity
  8
0
100
AcDbLine
 62
7
  6
CONTINUOUS
 10
98.9693520622
 20
104.0324400871
 11
100.54656712
 21
104.900172954
  0
LINE
  5
28F
100
AcDbEntity
  8
0
100
AcDbLine
 62
7
  6
CONTINUOUS
 10
103.373276582
 20
112.5362136721
 11
103.084125296
 21
112.5362136721
  0
LINE
  5
290
100
AcDbEntity
  8
0
100
AcDbLine
 62
7
  6
CONTINUOUS
 10
81.773276582
 20
112.5362136721
 11
81.484125296
 21
112.5362136721
  0
LINE
  5
291
100
AcDbEntity
  8
0
100
AcDbLine
 62
7
  6
CONTINUOUS
 10
18.1726766576
 20
113.1724400871
 11
21.6726766576
 21
113.1724400871
  0
LINE
  5
292
100
AcDbEntity
  8
0
100
AcDbLine
 62
7
  6
CONTINUOUS
 10
75.9027218709
 20
113.5324400871
 11
93.6709443152
 21
113.5324400871
  0
LINE
  5
293
100
AcDbEntity
  8
0
100
AcDbLine
 62
7
  6
CONTINUOUS
 10
97.5027218709
 20
113.5324400871
 11
115.2709443152
 21
113.5324400871
  0
LINE
  5
294
100
AcDbEntity
  8
0
100
AcDbLine
 62
7
  6
CONTINUOUS
 10
117.6026766576
 20
114.3124400871
 11
72.6026766576
 21
114.3124400871
  0
LINE
  5
295
100
AcDbEntity
  8
0
100
AcDbLine
 62
7
  6
CONTINUOUS
 10
121.8726766576
 20
115.1724400871
 11
16.1726766576
 21
115.1724400871
  0
LINE
  5
296
100
AcDbEntity
  8
0
100
AcDbLine
 62
7
  6
CONTINUOUS
 10
126.8726766576
 20
115.0851647625
 11
121.8726766576
 21
115.1724400871
  0
LINE
  5
297
100
AcDbEntity
  8
0
100
AcDbLine
 62
7
  6
CONTINUOUS
 10
77.3694417383
 20
112.632440057
 11
81.4841089482
 21
112.5362140541
  0
LINE
  5
298
100
AcDbEntity
  8
0
100
AcDbLine
 62
7
  6
CONTINUOUS
 10
98.9694417383
 20
112.632440057
 11
103.0841089482
 21
112.5362140541
  0
LINE
  5
299
100
AcDbEntity
  8
0
100
AcDbLine
 62
7
  6
CONTINUOUS
 10
133.3726766576
 20
114.8022315969
 11
126.8726766576
 21
114.9724400871
  0
LINE
  5
29A
100
AcDbEntity
  8
0
100
AcDbLine
 62
7
  6
CONTINUOUS
 10
78.94656712
 20
112.3431957819
 11
77.3693520622
 21
112.6324401236
  0
LINE
  5
29B
100
AcDbEntity
  8
0
100
AcDbLine
 62
7
  6
CONTINUOUS
 10
100.54656712
 20
102.1647072203
 11
98.9693520622
 21
103.0324400871
  0
LINE
  5
29C
100
AcDbEntity
  8
0
100
AcDbLine
 62
7
  6
CONTINUOUS
 10
81.092667485
 20
109.900172954
 11
81.773276582
 21
109.3211193324
  0
LINE
  5
29D
100
AcDbEntity
  8
0
100
AcDbLine
 62
7
  6
CONTINUOUS
 10
87.6483641056
 20
93.5324400871
 11
87.6483641056
 21
113.5324400871
  0
LINE
  5
29E
100
AcDbEntity
  8
0
100
AcDbLine
 62
7
  6
CONTINUOUS
 10
88.5038080849
 20
93.5324400871
 11
88.5038080849
 21
113.5324400871
  0
LINE
  5
29F
100
AcDbEntity
  8
0
100
AcDbLine
 62
7
  6
CONTINUOUS
 10
103.373276582
 20
107.7437608419
 11
102.692667485
 21
107.1647072203
  0
LINE
  5
2A0
100
AcDbEntity
  8
0
100
AcDbLine
 62
7
  6
CONTINUOUS
 10
98.9693520622
 20
99.0324400871
 11
100.54656712
 21
99.900172954
  0
LINE
  5
2A1
100
AcDbEntity
  8
0
100
AcDbLine
 62
7
  6
CONTINUOUS
 10
100.54656712
 20
112.3431957819
 11
98.9693520622
 21
112.6324401236
  0
LINE
  5
2A2
100
AcDbEntity
  8
0
100
AcDbLine
 62
7
  6
CONTINUOUS
 10
100.54656712
 20
107.1647072203
 11
98.9693520622
 21
108.0324400871
  0
LINE
  5
2A3
100
AcDbEntity
  8
0
100
AcDbLine
 62
7
  6
CONTINUOUS
 10
102.692667485
 20
99.900172954
 11
103.373276582
 21
99.3211193324
  0
LINE
  5
2A4
100
AcDbEntity
  8
0
100
AcDbLine
 62
7
  6
CONTINUOUS
 10
93.6709443152
 20
113.5324400871
 11
93.6709443152
 21
93.5324400871
  0
LINE
  5
2A5
100
AcDbEntity
  8
0
100
AcDbLine
 62
7
  6
CONTINUOUS
 10
103.373276582
 20
102.7437608419
 11
102.692667485
 21
102.1647072203
  0
LINE
  5
2A6
100
AcDbEntity
  8
0
100
AcDbLine
 62
7
  6
CONTINUOUS
 10
102.692667485
 20
104.900172954
 11
103.373276582
 21
104.3211193324
  0
LINE
  5
2A7
100
AcDbEntity
  8
0
100
AcDbLine
 62
7
  6
CONTINUOUS
 10
97.5027218709
 20
113.5324400871
 11
97.5027218709
 21
93.5324400871
  0
LINE
  5
2A8
100
AcDbEntity
  8
0
100
AcDbLine
 62
7
  6
CONTINUOUS
 10
98.5331571505
 20
113.5324400871
 11
98.5331571505
 21
93.5324400871
  0
LINE
  5
2A9
100
AcDbEntity
  8
0
100
AcDbLine
 62
7
  6
CONTINUOUS
 10
98.6716868445
 20
113.5324400871
 11
98.6716868445
 21
93.5324400871
  0
LINE
  5
2AA
100
AcDbEntity
  8
0
100
AcDbLine
 62
7
  6
CONTINUOUS
 10
98.9694417383
 20
113.5324400871
 11
98.9694417383
 21
93.5324400871
  0
LINE
  5
2AB
100
AcDbEntity
  8
0
100
AcDbLine
 62
7
  6
CONTINUOUS
 10
103.373276582
 20
97.7437608419
 11
102.692667485
 21
97.1647072203
  0
LINE
  5
2AC
100
AcDbEntity
  8
0
100
AcDbLine
 62
7
  6
CONTINUOUS
 10
102.692667485
 20
109.900172954
 11
103.373276582
 21
109.3211193324
  0
LINE
  5
2AD
100
AcDbEntity
  8
0
100
AcDbLine
 62
7
  6
CONTINUOUS
 10
100.54656712
 20
112.3431957982
 11
100.54656712
 21
109.900172954
  0
LINE
  5
2AE
100
AcDbEntity
  8
0
100
AcDbLine
 62
7
  6
CONTINUOUS
 10
100.54656712
 20
94.7216843924
 11
100.54656712
 21
97.1647072203
  0
LINE
  5
2AF
100
AcDbEntity
  8
0
100
AcDbLine
 62
7
  6
CONTINUOUS
 10
100.54656712
 20
99.900172954
 11
100.54656712
 21
102.1647072203
  0
LINE
  5
2B0
100
AcDbEntity
  8
0
100
AcDbLine
 62
7
  6
CONTINUOUS
 10
100.54656712
 20
104.900172954
 11
100.54656712
 21
107.1647072203
  0
LINE
  5
2B1
100
AcDbEntity
  8
0
100
AcDbLine
 62
7
  6
CONTINUOUS
 10
102.692667485
 20
112.3431957982
 11
102.692667485
 21
109.900172954
  0
LINE
  5
2B2
100
AcDbEntity
  8
0
100
AcDbLine
 62
7
  6
CONTINUOUS
 10
102.692667485
 20
107.1647072203
 11
102.692667485
 21
104.900172954
  0
LINE
  5
2B3
100
AcDbEntity
  8
0
100
AcDbLine
 62
7
  6
CONTINUOUS
 10
102.692667485
 20
102.1647072203
 11
102.692667485
 21
99.900172954
  0
LINE
  5
2B4
100
AcDbEntity
  8
0
100
AcDbLine
 62
7
  6
CONTINUOUS
 10
102.692667485
 20
97.1647072203
 11
102.692667485
 21
94.7216843761
  0
LINE
  5
2B5
100
AcDbEntity
  8
0
100
AcDbLine
 62
7
  6
CONTINUOUS
 10
103.0841213338
 20
93.5324400871
 11
103.084109037
 21
94.5286661223
  0
LINE
  5
2B6
100
AcDbEntity
  8
0
100
AcDbLine
 62
7
  6
CONTINUOUS
 10
103.0841089482
 20
112.5362140541
 11
103.0841213081
 21
113.5324400871
  0
LINE
  5
2B7
100
AcDbEntity
  8
0
100
AcDbLine
 62
7
  6
CONTINUOUS
 10
103.0841036434
 20
97.7437623749
 11
103.0841036434
 21
99.3211177994
  0
LINE
  5
2B8
100
AcDbEntity
  8
0
100
AcDbLine
 62
7
  6
CONTINUOUS
 10
103.0841036434
 20
102.7437623749
 11
103.0841036434
 21
104.3211177994
  0
LINE
  5
2B9
100
AcDbEntity
  8
0
100
AcDbLine
 62
7
  6
CONTINUOUS
 10
103.0841039718
 20
107.7437623519
 11
103.0841039718
 21
109.3211178224
  0
LINE
  5
2BA
100
AcDbEntity
  8
0
100
AcDbLine
 62
7
  6
CONTINUOUS
 10
103.373276582
 20
112.5362136721
 11
103.373276582
 21
109.3211193324
  0
LINE
  5
2BB
100
AcDbEntity
  8
0
100
AcDbLine
 62
7
  6
CONTINUOUS
 10
103.373276582
 20
94.5286665022
 11
103.373276582
 21
97.7437608419
  0
LINE
  5
2BC
100
AcDbEntity
  8
0
100
AcDbLine
 62
7
  6
CONTINUOUS
 10
103.373276582
 20
99.3211193324
 11
103.373276582
 21
102.7437608419
  0
LINE
  5
2BD
100
AcDbEntity
  8
0
100
AcDbLine
 62
7
  6
CONTINUOUS
 10
103.373276582
 20
104.3211193324
 11
103.373276582
 21
107.7437608419
  0
LINE
  5
2BE
100
AcDbEntity
  8
0
100
AcDbLine
 62
7
  6
CONTINUOUS
 10
107.9148411237
 20
113.5324400871
 11
107.9148411237
 21
93.5324400871
  0
LINE
  5
2BF
100
AcDbEntity
  8
0
100
AcDbLine
 62
7
  6
CONTINUOUS
 10
108.3713332927
 20
113.5324400871
 11
108.3713332927
 21
93.5324400871
  0
LINE
  5
2C0
100
AcDbEntity
  8
0
100
AcDbLine
 62
7
  6
CONTINUOUS
 10
109.2483641056
 20
93.5324400871
 11
109.2483641056
 21
113.5324400871
  0
LINE
  5
2C1
100
AcDbEntity
  8
0
100
AcDbLine
 62
7
  6
CONTINUOUS
 10
110.1038080849
 20
93.5324400871
 11
110.1038080849
 21
113.5324400871
  0
LINE
  5
2C2
100
AcDbEntity
  8
0
100
AcDbLine
 62
7
  6
CONTINUOUS
 10
121.7726766576
 20
92.6137906404
 11
121.8419328088
 21
92.6719034513
  0
LINE
  5
2C3
100
AcDbEntity
  8
0
100
AcDbLine
 62
7
  6
CONTINUOUS
 10
121.8425723465
 20
115.1724400871
 11
121.7726766576
 21
115.2310895339
  0
LINE
  5
2C4
100
AcDbEntity
  8
0
100
AcDbLine
 62
7
  6
CONTINUOUS
 10
115.2709443152
 20
93.5324400871
 11
115.2709443152
 21
113.5324400871
  0
LINE
  5
2C5
100
AcDbEntity
  8
0
100
AcDbLine
 62
7
  6
CONTINUOUS
 10
115.6139698765
 20
93.5324400871
 11
115.6165917316
 21
114.3124400871
  0
LINE
  5
2C6
100
AcDbEntity
  8
0
100
AcDbLine
 62
7
  6
CONTINUOUS
 10
117.6026766576
 20
114.3124400871
 11
117.6000548025
 21
93.5324400871
  0
LINE
  5
2C7
100
AcDbEntity
  8
0
100
AcDbLine
 62
7
  6
CONTINUOUS
 10
121.7726766576
 20
115.2310895339
 11
121.7726766576
 21
115.1724400871
  0
LINE
  5
2C8
100
AcDbEntity
  8
0
100
AcDbLine
 62
7
  6
CONTINUOUS
 10
121.7726766576
 20
92.6724400871
 11
121.7726766576
 21
92.6137906404
  0
LINE
  5
2C9
100
AcDbEntity
  8
0
100
AcDbLine
 62
7
  6
CONTINUOUS
 10
121.8726766576
 20
92.6724400871
 11
121.8726766576
 21
115.1724400871
  0
LINE
  5
2CA
100
AcDbEntity
  8
0
100
AcDbLine
 62
7
  6
CONTINUOUS
 10
122.7575985543
 20
100.4824400871
 11
122.7575985543
 21
99.0624400871
  0
LINE
  5
2CB
100
AcDbEntity
  8
0
100
AcDbLine
 62
7
  6
CONTINUOUS
 10
122.7575985543
 20
107.3624400871
 11
122.7575985543
 21
108.7824400871
  0
LINE
  5
2CC
100
AcDbEntity
  8
0
100
AcDbLine
 62
7
  6
CONTINUOUS
 10
123.8726766576
 20
108.9224400871
 11
123.8726766576
 21
106.9224400871
  0
LINE
  5
2CD
100
AcDbEntity
  8
0
100
AcDbLine
 62
7
  6
CONTINUOUS
 10
123.8726766576
 20
100.9224400871
 11
123.8726766576
 21
98.9224400871
  0
LINE
  5
2CE
100
AcDbEntity
  8
0
100
AcDbLine
 62
7
  6
CONTINUOUS
 10
124.236907052
 20
100.4824400871
 11
124.236907052
 21
99.0624400871
  0
LINE
  5
2CF
100
AcDbEntity
  8
0
100
AcDbLine
 62
7
  6
CONTINUOUS
 10
124.236907052
 20
107.3624400871
 11
124.236907052
 21
108.7824400871
  0
LINE
  5
2D0
100
AcDbEntity
  8
0
100
AcDbLine
 62
7
  6
CONTINUOUS
 10
124.8923468071
 20
108.7824400871
 11
124.8923468071
 21
107.3624400871
  0
LINE
  5
2D1
100
AcDbEntity
  8
0
100
AcDbLine
 62
7
  6
CONTINUOUS
 10
124.8923468071
 20
100.4824400871
 11
124.8923468071
 21
99.0624400871
  0
LINE
  5
2D2
100
AcDbEntity
  8
0
100
AcDbLine
 62
7
  6
CONTINUOUS
 10
125.8137222043
 20
100.4824400871
 11
125.8137222043
 21
99.0624400871
  0
LINE
  5
2D3
100
AcDbEntity
  8
0
100
AcDbLine
 62
7
  6
CONTINUOUS
 10
125.8137222043
 20
107.3624400871
 11
125.8137222043
 21
108.7824400871
  0
LINE
  5
2D4
100
AcDbEntity
  8
0
100
AcDbLine
 62
7
  6
CONTINUOUS
 10
125.8726766576
 20
108.9224400871
 11
125.8726766576
 21
108.7824400871
  0
LINE
  5
2D5
100
AcDbEntity
  8
0
100
AcDbLine
 62
7
  6
CONTINUOUS
 10
125.8726766576
 20
107.3624400871
 11
125.8726766576
 21
106.9224400871
  0
LINE
  5
2D6
100
AcDbEntity
  8
0
100
AcDbLine
 62
7
  6
CONTINUOUS
 10
125.8726766576
 20
100.9224400871
 11
125.8726766576
 21
100.4824400871
  0
LINE
  5
2D7
100
AcDbEntity
  8
0
100
AcDbLine
 62
7
  6
CONTINUOUS
 10
125.8726766576
 20
99.0624400871
 11
125.8726766576
 21
98.9224400871
  0
LINE
  5
2D8
100
AcDbEntity
  8
0
100
AcDbLine
 62
7
  6
CONTINUOUS
 10
126.8726766576
 20
107.3624400871
 11
126.8726766576
 21
100.4824400871
  0
LINE
  5
2D9
100
AcDbEntity
  8
0
100
AcDbLine
 62
7
  6
CONTINUOUS
 10
126.8726766576
 20
92.7597154118
 11
126.8726766576
 21
99.0624400871
  0
LINE
  5
2DA
100
AcDbEntity
  8
0
100
AcDbLine
 62
7
  6
CONTINUOUS
 10
126.8726766576
 20
108.7824400871
 11
126.8726766576
 21
115.0851647625
  0
LINE
  5
2DB
100
AcDbEntity
  8
0
100
AcDbLine
 62
7
  6
CONTINUOUS
 10
132.8930347931
 20
100.4824400871
 11
132.8930347931
 21
99.0624400871
  0
LINE
  5
2DC
100
AcDbEntity
  8
0
100
AcDbLine
 62
7
  6
CONTINUOUS
 10
132.8930347931
 20
107.3624400871
 11
132.8930347931
 21
108.7824400871
  0
LINE
  5
2DD
100
AcDbEntity
  8
0
100
AcDbLine
 62
7
  6
CONTINUOUS
 10
133.2893927624
 20
100.4824400871
 11
133.2893927624
 21
99.0624400871
  0
LINE
  5
2DE
100
AcDbEntity
  8
0
100
AcDbLine
 62
7
  6
CONTINUOUS
 10
133.2893929162
 20
107.3624400871
 11
133.2893929162
 21
108.7824400871
  0
LINE
  5
2DF
100
AcDbEntity
  8
0
100
AcDbLine
 62
7
  6
CONTINUOUS
 10
133.3726766576
 20
114.8022315969
 11
133.3726766576
 21
93.0426485773
  0
SPLINE
  5
2E0
100
AcDbEntity
  8
0
100
AcDbSpline
 62
7
  6
CONTINUOUS
 70
0
 71
3
 72
11
 73
7
 74
0
 42
0.0000001
 43
0.0000001
 44
0.0000000001
 40
0.0
 40
0.0
 40
0.0
 40
0.0
 40
0.2409310374
 40
0.4999854144
 40
0.7590474729
 40
1.0
 40
1.0
 40
1.0
 40
1.0
 10
90.5271828072
 20
94.8507658185
 30
0.0
 10
90.6001462413
 20
95.0302107844
 30
0.0
 10
90.7068303708
 20
95.4212944908
 30
0.0
 10
90.7586408625
 20
96.0321861516
 30
0.0
 10
90.7069144167
 20
96.6431022244
 30
0.0
 10
90.6002872591
 20
97.034224697
 30
0.0
 10
90.5273514198
 20
97.213699531
 30
0.0
  0
SPLINE
  5
2E1
100
AcDbEntity
  8
0
100
AcDbSpline
 62
7
  6
CONTINUOUS
 70
0
 71
3
 72
9
 73
5
 74
0
 42
0.0000001
 43
0.0000001
 44
0.0000000001
 40
0.0
 40
0.0
 40
0.0
 40
0.0
 40
0.2384327469
 40
1.0
 40
1.0
 40
1.0
 40
1.0
 10
90.8810160063
 20
94.2836620282
 30
0.0
 10
90.8969973462
 20
94.2971668051
 30
0.0
 10
90.9621701951
 20
94.3559928052
 30
0.0
 10
91.0199398412
 20
94.422787307
 30
0.0
 10
91.0599586885
 20
94.4763105725
 30
0.0
  0
SPLINE
  5
2E2
100
AcDbEntity
  8
0
100
AcDbSpline
 62
7
  6
CONTINUOUS
 70
0
 71
3
 72
13
 73
9
 74
0
 42
0.0000001
 43
0.0000001
 44
0.0000000001
 40
0.0
 40
0.0
 40
0.0
 40
0.0
 40
0.1087423957
 40
0.2307967136
 40
0.4994627626
 40
0.7684309301
 40
0.8908329075
 40
1.0
 40
1.0
 40
1.0
 40
1.0
 10
91.0599586885
 20
94.4763105725
 30
0.0
 10
91.1308055296
 20
94.5710647833
 30
0.0
 10
91.2563853629
 20
94.7910011995
 30
0.0
 10
91.4387527817
 20
95.304918109
 30
0.0
 10
91.5264039867
 20
96.02617176
 30
0.0
 10
91.44127063
 20
96.7480487855
 30
0.0
 10
91.2608752203
 20
97.2638828891
 30
0.0
 10
91.1361599977
 20
97.4852463634
 30
0.0
 10
91.0656865461
 20
97.5808532558
 30
0.0
  0
SPLINE
  5
2E3
100
AcDbEntity
  8
0
100
AcDbSpline
 62
7
  6
CONTINUOUS
 70
0
 71
3
 72
9
 73
5
 74
0
 42
0.0000001
 43
0.0000001
 44
0.0000000001
 40
0.0
 40
0.0
 40
0.0
 40
0.0
 40
0.2625767765
 40
1.0
 40
1.0
 40
1.0
 40
1.0
 10
91.0656865461
 20
97.5808532558
 30
0.0
 10
91.0515469317
 20
97.6000355801
 30
0.0
 10
90.9958733618
 20
97.6716980791
 30
0.0
 10
90.9325335293
 20
97.7376299016
 30
0.0
 10
90.8814407195
 20
97.7808568574
 30
0.0
  0
SPLINE
  5
2E4
100
AcDbEntity
  8
0
100
AcDbSpline
 62
7
  6
CONTINUOUS
 70
0
 71
3
 72
11
 73
7
 74
0
 42
0.0000001
 43
0.0000001
 44
0.0000000001
 40
0.0
 40
0.0
 40
0.0
 40
0.0
 40
0.2409310374
 40
0.4999854144
 40
0.7590474729
 40
1.0
 40
1.0
 40
1.0
 40
1.0
 10
90.5271828072
 20
99.8507658185
 30
0.0
 10
90.6001462413
 20
100.0302107844
 30
0.0
 10
90.7068303708
 20
100.4212944908
 30
0.0
 10
90.7586408625
 20
101.0321861516
 30
0.0
 10
90.7069144167
 20
101.6431022244
 30
0.0
 10
90.6002872591
 20
102.034224697
 30
0.0
 10
90.5273514198
 20
102.213699531
 30
0.0
  0
SPLINE
  5
2E5
100
AcDbEntity
  8
0
100
AcDbSpline
 62
7
  6
CONTINUOUS
 70
0
 71
3
 72
9
 73
5
 74
0
 42
0.0000001
 43
0.0000001
 44
0.0000000001
 40
0.0
 40
0.0
 40
0.0
 40
0.0
 40
0.2384327469
 40
1.0
 40
1.0
 40
1.0
 40
1.0
 10
90.8810160063
 20
99.2836620282
 30
0.0
 10
90.8969973462
 20
99.2971668051
 30
0.0
 10
90.9621701951
 20
99.3559928052
 30
0.0
 10
91.0199398412
 20
99.422787307
 30
0.0
 10
91.0599586885
 20
99.4763105725
 30
0.0
  0
SPLINE
  5
2E6
100
AcDbEntity
  8
0
100
AcDbSpline
 62
7
  6
CONTINUOUS
 70
0
 71
3
 72
13
 73
9
 74
0
 42
0.0000001
 43
0.0000001
 44
0.0000000001
 40
0.0
 40
0.0
 40
0.0
 40
0.0
 40
0.1087423957
 40
0.2307967136
 40
0.4994627626
 40
0.7684309301
 40
0.8908329075
 40
1.0
 40
1.0
 40
1.0
 40
1.0
 10
91.0599586885
 20
99.4763105725
 30
0.0
 10
91.1308055296
 20
99.5710647833
 30
0.0
 10
91.2563853629
 20
99.7910011995
 30
0.0
 10
91.4387527817
 20
100.304918109
 30
0.0
 10
91.5264039867
 20
101.02617176
 30
0.0
 10
91.44127063
 20
101.7480487855
 30
0.0
 10
91.2608752203
 20
102.2638828891
 30
0.0
 10
91.1361599977
 20
102.4852463634
 30
0.0
 10
91.0656865461
 20
102.5808532558
 30
0.0
  0
SPLINE
  5
2E7
100
AcDbEntity
  8
0
100
AcDbSpline
 62
7
  6
CONTINUOUS
 70
0
 71
3
 72
9
 73
5
 74
0
 42
0.0000001
 43
0.0000001
 44
0.0000000001
 40
0.0
 40
0.0
 40
0.0
 40
0.0
 40
0.2625767765
 40
1.0
 40
1.0
 40
1.0
 40
1.0
 10
91.0656865461
 20
102.5808532558
 30
0.0
 10
91.0515469317
 20
102.6000355801
 30
0.0
 10
90.9958733618
 20
102.6716980791
 30
0.0
 10
90.9325335293
 20
102.7376299016
 30
0.0
 10
90.8814407195
 20
102.7808568574
 30
0.0
  0
SPLINE
  5
2E8
100
AcDbEntity
  8
0
100
AcDbSpline
 62
7
  6
CONTINUOUS
 70
0
 71
3
 72
11
 73
7
 74
0
 42
0.0000001
 43
0.0000001
 44
0.0000000001
 40
0.0
 40
0.0
 40
0.0
 40
0.0
 40
0.2409310374
 40
0.4999854144
 40
0.7590474729
 40
1.0
 40
1.0
 40
1.0
 40
1.0
 10
90.5271828072
 20
104.8507658185
 30
0.0
 10
90.6001462413
 20
105.0302107844
 30
0.0
 10
90.7068303708
 20
105.4212944908
 30
0.0
 10
90.7586408625
 20
106.0321861516
 30
0.0
 10
90.7069144167
 20
106.6431022244
 30
0.0
 10
90.6002872591
 20
107.034224697
 30
0.0
 10
90.5273514198
 20
107.213699531
 30
0.0
  0
SPLINE
  5
2E9
100
AcDbEntity
  8
0
100
AcDbSpline
 62
7
  6
CONTINUOUS
 70
0
 71
3
 72
9
 73
5
 74
0
 42
0.0000001
 43
0.0000001
 44
0.0000000001
 40
0.0
 40
0.0
 40
0.0
 40
0.0
 40
0.2384327469
 40
1.0
 40
1.0
 40
1.0
 40
1.0
 10
90.8810160063
 20
104.2836620282
 30
0.0
 10
90.8969973462
 20
104.2971668051
 30
0.0
 10
90.9621701951
 20
104.3559928052
 30
0.0
 10
91.0199398412
 20
104.422787307
 30
0.0
 10
91.0599586885
 20
104.4763105725
 30
0.0
  0
SPLINE
  5
2EA
100
AcDbEntity
  8
0
100
AcDbSpline
 62
7
  6
CONTINUOUS
 70
0
 71
3
 72
13
 73
9
 74
0
 42
0.0000001
 43
0.0000001
 44
0.0000000001
 40
0.0
 40
0.0
 40
0.0
 40
0.0
 40
0.1087423957
 40
0.2307967136
 40
0.4994627626
 40
0.7684309301
 40
0.8908329075
 40
1.0
 40
1.0
 40
1.0
 40
1.0
 10
91.0599586885
 20
104.4763105725
 30
0.0
 10
91.1308055296
 20
104.5710647833
 30
0.0
 10
91.2563853629
 20
104.7910011995
 30
0.0
 10
91.4387527817
 20
105.304918109
 30
0.0
 10
91.5264039867
 20
106.02617176
 30
0.0
 10
91.44127063
 20
106.7480487855
 30
0.0
 10
91.2608752203
 20
107.2638828891
 30
0.0
 10
91.1361599977
 20
107.4852463634
 30
0.0
 10
91.0656865461
 20
107.5808532558
 30
0.0
  0
SPLINE
  5
2EB
100
AcDbEntity
  8
0
100
AcDbSpline
 62
7
  6
CONTINUOUS
 70
0
 71
3
 72
9
 73
5
 74
0
 42
0.0000001
 43
0.0000001
 44
0.0000000001
 40
0.0
 40
0.0
 40
0.0
 40
0.0
 40
0.2625767765
 40
1.0
 40
1.0
 40
1.0
 40
1.0
 10
91.0656865461
 20
107.5808532558
 30
0.0
 10
91.0515469317
 20
107.6000355801
 30
0.0
 10
90.9958733618
 20
107.6716980791
 30
0.0
 10
90.9325335293
 20
107.7376299016
 30
0.0
 10
90.8814407195
 20
107.7808568574
 30
0.0
  0
SPLINE
  5
2EC
100
AcDbEntity
  8
0
100
AcDbSpline
 62
7
  6
CONTINUOUS
 70
0
 71
3
 72
11
 73
7
 74
0
 42
0.0000001
 43
0.0000001
 44
0.0000000001
 40
0.0
 40
0.0
 40
0.0
 40
0.0
 40
0.2409310374
 40
0.4999854144
 40
0.7590474729
 40
1.0
 40
1.0
 40
1.0
 40
1.0
 10
90.5271828072
 20
109.8507658185
 30
0.0
 10
90.6001462413
 20
110.0302107844
 30
0.0
 10
90.7068303708
 20
110.4212944908
 30
0.0
 10
90.7586408625
 20
111.0321861516
 30
0.0
 10
90.7069144167
 20
111.6431022244
 30
0.0
 10
90.6002872591
 20
112.034224697
 30
0.0
 10
90.5273514198
 20
112.213699531
 30
0.0
  0
SPLINE
  5
2ED
100
AcDbEntity
  8
0
100
AcDbSpline
 62
7
  6
CONTINUOUS
 70
0
 71
3
 72
9
 73
5
 74
0
 42
0.0000001
 43
0.0000001
 44
0.0000000001
 40
0.0
 40
0.0
 40
0.0
 40
0.0
 40
0.2384327469
 40
1.0
 40
1.0
 40
1.0
 40
1.0
 10
90.8810160063
 20
109.2836620282
 30
0.0
 10
90.8969973462
 20
109.2971668051
 30
0.0
 10
90.9621701951
 20
109.3559928052
 30
0.0
 10
91.0199398412
 20
109.422787307
 30
0.0
 10
91.0599586885
 20
109.4763105725
 30
0.0
  0
SPLINE
  5
2EE
100
AcDbEntity
  8
0
100
AcDbSpline
 62
7
  6
CONTINUOUS
 70
0
 71
3
 72
13
 73
9
 74
0
 42
0.0000001
 43
0.0000001
 44
0.0000000001
 40
0.0
 40
0.0
 40
0.0
 40
0.0
 40
0.1087423957
 40
0.2307967136
 40
0.4994627626
 40
0.7684309301
 40
0.8908329075
 40
1.0
 40
1.0
 40
1.0
 40
1.0
 10
91.0599586885
 20
109.4763105725
 30
0.0
 10
91.1308055296
 20
109.5710647833
 30
0.0
 10
91.2563853629
 20
109.7910011995
 30
0.0
 10
91.4387527817
 20
110.304918109
 30
0.0
 10
91.5264039867
 20
111.02617176
 30
0.0
 10
91.44127063
 20
111.7480487855
 30
0.0
 10
91.2608752203
 20
112.2638828891
 30
0.0
 10
91.1361599977
 20
112.4852463634
 30
0.0
 10
91.0656865461
 20
112.5808532558
 30
0.0
  0
SPLINE
  5
2EF
100
AcDbEntity
  8
0
100
AcDbSpline
 62
7
  6
CONTINUOUS
 70
0
 71
3
 72
9
 73
5
 74
0
 42
0.0000001
 43
0.0000001
 44
0.0000000001
 40
0.0
 40
0.0
 40
0.0
 40
0.0
 40
0.2625767765
 40
1.0
 40
1.0
 40
1.0
 40
1.0
 10
91.0656865461
 20
112.5808532558
 30
0.0
 10
91.0515469317
 20
112.6000355801
 30
0.0
 10
90.9958733618
 20
112.6716980791
 30
0.0
 10
90.9325335293
 20
112.7376299016
 30
0.0
 10
90.8814407195
 20
112.7808568574
 30
0.0
  0
SPLINE
  5
2F0
100
AcDbEntity
  8
0
100
AcDbSpline
 62
7
  6
CONTINUOUS
 70
0
 71
3
 72
11
 73
7
 74
0
 42
0.0000001
 43
0.0000001
 44
0.0000000001
 40
0.0
 40
0.0
 40
0.0
 40
0.0
 40
0.2409310374
 40
0.4999854144
 40
0.7590474729
 40
1.0
 40
1.0
 40
1.0
 40
1.0
 10
112.1271828072
 20
109.8507658185
 30
0.0
 10
112.2001462413
 20
110.0302107844
 30
0.0
 10
112.3068303708
 20
110.4212944908
 30
0.0
 10
112.3586408625
 20
111.0321861516
 30
0.0
 10
112.3069144167
 20
111.6431022244
 30
0.0
 10
112.2002872591
 20
112.034224697
 30
0.0
 10
112.1273514198
 20
112.213699531
 30
0.0
  0
SPLINE
  5
2F1
100
AcDbEntity
  8
0
100
AcDbSpline
 62
7
  6
CONTINUOUS
 70
0
 71
3
 72
9
 73
5
 74
0
 42
0.0000001
 43
0.0000001
 44
0.0000000001
 40
0.0
 40
0.0
 40
0.0
 40
0.0
 40
0.2384327469
 40
1.0
 40
1.0
 40
1.0
 40
1.0
 10
112.4810160063
 20
109.2836620282
 30
0.0
 10
112.4969973462
 20
109.2971668051
 30
0.0
 10
112.5621701951
 20
109.3559928052
 30
0.0
 10
112.6199398412
 20
109.422787307
 30
0.0
 10
112.6599586885
 20
109.4763105725
 30
0.0
  0
SPLINE
  5
2F2
100
AcDbEntity
  8
0
100
AcDbSpline
 62
7
  6
CONTINUOUS
 70
0
 71
3
 72
13
 73
9
 74
0
 42
0.0000001
 43
0.0000001
 44
0.0000000001
 40
0.0
 40
0.0
 40
0.0
 40
0.0
 40
0.1087423957
 40
0.2307967136
 40
0.4994627626
 40
0.7684309301
 40
0.8908329075
 40
1.0
 40
1.0
 40
1.0
 40
1.0
 10
112.6599586885
 20
109.4763105725
 30
0.0
 10
112.7308055296
 20
109.5710647833
 30
0.0
 10
112.8563853629
 20
109.7910011995
 30
0.0
 10
113.0387527817
 20
110.304918109
 30
0.0
 10
113.1264039867
 20
111.02617176
 30
0.0
 10
113.04127063
 20
111.7480487855
 30
0.0
 10
112.8608752203
 20
112.2638828891
 30
0.0
 10
112.7361599977
 20
112.4852463634
 30
0.0
 10
112.6656865461
 20
112.5808532558
 30
0.0
  0
SPLINE
  5
2F3
100
AcDbEntity
  8
0
100
AcDbSpline
 62
7
  6
CONTINUOUS
 70
0
 71
3
 72
9
 73
5
 74
0
 42
0.0000001
 43
0.0000001
 44
0.0000000001
 40
0.0
 40
0.0
 40
0.0
 40
0.0
 40
0.2625767765
 40
1.0
 40
1.0
 40
1.0
 40
1.0
 10
112.6656865461
 20
112.5808532558
 30
0.0
 10
112.6515469317
 20
112.6000355801
 30
0.0
 10
112.5958733618
 20
112.6716980791
 30
0.0
 10
112.5325335293
 20
112.7376299016
 30
0.0
 10
112.4814407195
 20
112.7808568574
 30
0.0
  0
SPLINE
  5
2F4
100
AcDbEntity
  8
0
100
AcDbSpline
 62
7
  6
CONTINUOUS
 70
0
 71
3
 72
11
 73
7
 74
0
 42
0.0000001
 43
0.0000001
 44
0.0000000001
 40
0.0
 40
0.0
 40
0.0
 40
0.0
 40
0.2409310374
 40
0.4999854144
 40
0.7590474729
 40
1.0
 40
1.0
 40
1.0
 40
1.0
 10
112.1271828072
 20
104.8507658185
 30
0.0
 10
112.2001462413
 20
105.0302107844
 30
0.0
 10
112.3068303708
 20
105.4212944908
 30
0.0
 10
112.3586408625
 20
106.0321861516
 30
0.0
 10
112.3069144167
 20
106.6431022244
 30
0.0
 10
112.2002872591
 20
107.034224697
 30
0.0
 10
112.1273514198
 20
107.213699531
 30
0.0
  0
SPLINE
  5
2F5
100
AcDbEntity
  8
0
100
AcDbSpline
 62
7
  6
CONTINUOUS
 70
0
 71
3
 72
9
 73
5
 74
0
 42
0.0000001
 43
0.0000001
 44
0.0000000001
 40
0.0
 40
0.0
 40
0.0
 40
0.0
 40
0.2384327469
 40
1.0
 40
1.0
 40
1.0
 40
1.0
 10
112.4810160063
 20
104.2836620282
 30
0.0
 10
112.4969973462
 20
104.2971668051
 30
0.0
 10
112.5621701951
 20
104.3559928052
 30
0.0
 10
112.6199398412
 20
104.422787307
 30
0.0
 10
112.6599586885
 20
104.4763105725
 30
0.0
  0
SPLINE
  5
2F6
100
AcDbEntity
  8
0
100
AcDbSpline
 62
7
  6
CONTINUOUS
 70
0
 71
3
 72
13
 73
9
 74
0
 42
0.0000001
 43
0.0000001
 44
0.0000000001
 40
0.0
 40
0.0
 40
0.0
 40
0.0
 40
0.1087423957
 40
0.2307967136
 40
0.4994627626
 40
0.7684309301
 40
0.8908329075
 40
1.0
 40
1.0
 40
1.0
 40
1.0
 10
112.6599586885
 20
104.4763105725
 30
0.0
 10
112.7308055296
 20
104.5710647833
 30
0.0
 10
112.8563853629
 20
104.7910011995
 30
0.0
 10
113.0387527817
 20
105.304918109
 30
0.0
 10
113.1264039867
 20
106.02617176
 30
0.0
 10
113.04127063
 20
106.7480487855
 30
0.0
 10
112.8608752203
 20
107.2638828891
 30
0.0
 10
112.7361599977
 20
107.4852463634
 30
0.0
 10
112.6656865461
 20
107.5808532558
 30
0.0
  0
SPLINE
  5
2F7
100
AcDbEntity
  8
0
100
AcDbSpline
 62
7
  6
CONTINUOUS
 70
0
 71
3
 72
9
 73
5
 74
0
 42
0.0000001
 43
0.0000001
 44
0.0000000001
 40
0.0
 40
0.0
 40
0.0
 40
0.0
 40
0.2625767765
 40
1.0
 40
1.0
 40
1.0
 40
1.0
 10
112.6656865461
 20
107.5808532558
 30
0.0
 10
112.6515469317
 20
107.6000355801
 30
0.0
 10
112.5958733618
 20
107.6716980791
 30
0.0
 10
112.5325335293
 20
107.7376299016
 30
0.0
 10
112.4814407195
 20
107.7808568574
 30
0.0
  0
SPLINE
  5
2F8
100
AcDbEntity
  8
0
100
AcDbSpline
 62
7
  6
CONTINUOUS
 70
0
 71
3
 72
11
 73
7
 74
0
 42
0.0000001
 43
0.0000001
 44
0.0000000001
 40
0.0
 40
0.0
 40
0.0
 40
0.0
 40
0.2409310374
 40
0.4999854144
 40
0.7590474729
 40
1.0
 40
1.0
 40
1.0
 40
1.0
 10
112.1271828072
 20
99.8507658185
 30
0.0
 10
112.2001462413
 20
100.0302107844
 30
0.0
 10
112.3068303708
 20
100.4212944908
 30
0.0
 10
112.3586408625
 20
101.0321861516
 30
0.0
 10
112.3069144167
 20
101.6431022244
 30
0.0
 10
112.2002872591
 20
102.034224697
 30
0.0
 10
112.1273514198
 20
102.213699531
 30
0.0
  0
SPLINE
  5
2F9
100
AcDbEntity
  8
0
100
AcDbSpline
 62
7
  6
CONTINUOUS
 70
0
 71
3
 72
9
 73
5
 74
0
 42
0.0000001
 43
0.0000001
 44
0.0000000001
 40
0.0
 40
0.0
 40
0.0
 40
0.0
 40
0.2384327469
 40
1.0
 40
1.0
 40
1.0
 40
1.0
 10
112.4810160063
 20
99.2836620282
 30
0.0
 10
112.4969973462
 20
99.2971668051
 30
0.0
 10
112.5621701951
 20
99.3559928052
 30
0.0
 10
112.6199398412
 20
99.422787307
 30
0.0
 10
112.6599586885
 20
99.4763105725
 30
0.0
  0
SPLINE
  5
2FA
100
AcDbEntity
  8
0
100
AcDbSpline
 62
7
  6
CONTINUOUS
 70
0
 71
3
 72
13
 73
9
 74
0
 42
0.0000001
 43
0.0000001
 44
0.0000000001
 40
0.0
 40
0.0
 40
0.0
 40
0.0
 40
0.1087423957
 40
0.2307967136
 40
0.4994627626
 40
0.7684309301
 40
0.8908329075
 40
1.0
 40
1.0
 40
1.0
 40
1.0
 10
112.6599586885
 20
99.4763105725
 30
0.0
 10
112.7308055296
 20
99.5710647833
 30
0.0
 10
112.8563853629
 20
99.7910011995
 30
0.0
 10
113.0387527817
 20
100.304918109
 30
0.0
 10
113.1264039867
 20
101.02617176
 30
0.0
 10
113.04127063
 20
101.7480487855
 30
0.0
 10
112.8608752203
 20
102.2638828891
 30
0.0
 10
112.7361599977
 20
102.4852463634
 30
0.0
 10
112.6656865461
 20
102.5808532558
 30
0.0
  0
SPLINE
  5
2FB
100
AcDbEntity
  8
0
100
AcDbSpline
 62
7
  6
CONTINUOUS
 70
0
 71
3
 72
9
 73
5
 74
0
 42
0.0000001
 43
0.0000001
 44
0.0000000001
 40
0.0
 40
0.0
 40
0.0
 40
0.0
 40
0.2625767765
 40
1.0
 40
1.0
 40
1.0
 40
1.0
 10
112.6656865461
 20
102.5808532558
 30
0.0
 10
112.6515469317
 20
102.6000355801
 30
0.0
 10
112.5958733618
 20
102.6716980791
 30
0.0
 10
112.5325335293
 20
102.7376299016
 30
0.0
 10
112.4814407195
 20
102.7808568574
 30
0.0
  0
SPLINE
  5
2FC
100
AcDbEntity
  8
0
100
AcDbSpline
 62
7
  6
CONTINUOUS
 70
0
 71
3
 72
11
 73
7
 74
0
 42
0.0000001
 43
0.0000001
 44
0.0000000001
 40
0.0
 40
0.0
 40
0.0
 40
0.0
 40
0.2409310374
 40
0.4999854144
 40
0.7590474729
 40
1.0
 40
1.0
 40
1.0
 40
1.0
 10
112.1271828072
 20
94.8507658185
 30
0.0
 10
112.2001462413
 20
95.0302107844
 30
0.0
 10
112.3068303708
 20
95.4212944908
 30
0.0
 10
112.3586408625
 20
96.0321861516
 30
0.0
 10
112.3069144167
 20
96.6431022244
 30
0.0
 10
112.2002872591
 20
97.034224697
 30
0.0
 10
112.1273514198
 20
97.213699531
 30
0.0
  0
SPLINE
  5
2FD
100
AcDbEntity
  8
0
100
AcDbSpline
 62
7
  6
CONTINUOUS
 70
0
 71
3
 72
9
 73
5
 74
0
 42
0.0000001
 43
0.0000001
 44
0.0000000001
 40
0.0
 40
0.0
 40
0.0
 40
0.0
 40
0.2384327469
 40
1.0
 40
1.0
 40
1.0
 40
1.0
 10
112.4810160063
 20
94.2836620282
 30
0.0
 10
112.4969973462
 20
94.2971668051
 30
0.0
 10
112.5621701951
 20
94.3559928052
 30
0.0
 10
112.6199398412
 20
94.422787307
 30
0.0
 10
112.6599586885
 20
94.4763105725
 30
0.0
  0
SPLINE
  5
2FE
100
AcDbEntity
  8
0
100
AcDbSpline
 62
7
  6
CONTINUOUS
 70
0
 71
3
 72
13
 73
9
 74
0
 42
0.0000001
 43
0.0000001
 44
0.0000000001
 40
0.0
 40
0.0
 40
0.0
 40
0.0
 40
0.1087423957
 40
0.2307967136
 40
0.4994627626
 40
0.7684309301
 40
0.8908329075
 40
1.0
 40
1.0
 40
1.0
 40
1.0
 10
112.6599586885
 20
94.4763105725
 30
0.0
 10
112.7308055296
 20
94.5710647833
 30
0.0
 10
112.8563853629
 20
94.7910011995
 30
0.0
 10
113.0387527817
 20
95.304918109
 30
0.0
 10
113.1264039867
 20
96.02617176
 30
0.0
 10
113.04127063
 20
96.7480487855
 30
0.0
 10
112.8608752203
 20
97.2638828891
 30
0.0
 10
112.7361599977
 20
97.4852463634
 30
0.0
 10
112.6656865461
 20
97.5808532558
 30
0.0
  0
SPLINE
  5
2FF
100
AcDbEntity
  8
0
100
AcDbSpline
 62
7
  6
CONTINUOUS
 70
0
 71
3
 72
9
 73
5
 74
0
 42
0.0000001
 43
0.0000001
 44
0.0000000001
 40
0.0
 40
0.0
 40
0.0
 40
0.0
 40
0.2625767765
 40
1.0
 40
1.0
 40
1.0
 40
1.0
 10
112.6656865461
 20
97.5808532558
 30
0.0
 10
112.6515469317
 20
97.6000355801
 30
0.0
 10
112.5958733618
 20
97.6716980791
 30
0.0
 10
112.5325335293
 20
97.7376299016
 30
0.0
 10
112.4814407195
 20
97.7808568574
 30
0.0
  0
SPLINE
  5
300
100
AcDbEntity
  8
0
100
AcDbSpline
 62
7
  6
CONTINUOUS
 70
0
 71
3
 72
19
 73
15
 74
0
 42
0.0000001
 43
0.0000001
 44
0.0000000001
 40
0.0
 40
0.0
 40
0.0
 40
0.0
 40
0.0436391956
 40
0.0909816002
 40
0.1443359007
 40
0.2046973766
 40
0.3443128649
 40
0.4999868022
 40
0.6556614356
 40
0.7952859033
 40
0.8556535045
 40
0.9090139773
 40
0.9563600681
 40
1.0
 40
1.0
 40
1.0
 40
1.0
 10
91.2814671635
 20
109.1074400871
 30
0.0
 10
91.2122328378
 20
109.1074400871
 30
0.0
 10
91.0668961383
 20
109.135093493
 30
0.0
 10
90.8658575778
 20
109.2514628689
 30
0.0
 10
90.6845797641
 20
109.434879841
 30
0.0
 10
90.465132048
 20
109.7740662205
 30
0.0
 10
90.2811865945
 20
110.3159107582
 30
0.0
 10
90.2076775926
 20
111.0323764038
 30
0.0
 10
90.28116582
 20
111.7488582809
 30
0.0
 10
90.4650980629
 20
112.290733574
 30
0.0
 10
90.68454743
 20
112.6299591131
 30
0.0
 10
90.8658362379
 20
112.8134021338
 30
0.0
 10
91.0668884269
 20
112.9297822262
 30
0.0
 10
91.2122316697
 20
112.9574400871
 30
0.0
 10
91.2814671635
 20
112.9574400871
 30
0.0
  0
SPLINE
  5
301
100
AcDbEntity
  8
0
100
AcDbSpline
 62
7
  6
CONTINUOUS
 70
0
 71
3
 72
19
 73
15
 74
0
 42
0.0000001
 43
0.0000001
 44
0.0000000001
 40
0.0
 40
0.0
 40
0.0
 40
0.0
 40
0.0436391956
 40
0.0909816002
 40
0.1443359007
 40
0.2046973766
 40
0.3443128649
 40
0.4999868022
 40
0.6556614356
 40
0.7952859033
 40
0.8556535045
 40
0.9090139773
 40
0.9563600681
 40
1.0
 40
1.0
 40
1.0
 40
1.0
 10
91.2814671635
 20
104.1074400871
 30
0.0
 10
91.2122328378
 20
104.1074400871
 30
0.0
 10
91.0668961383
 20
104.135093493
 30
0.0
 10
90.8658575778
 20
104.2514628689
 30
0.0
 10
90.6845797641
 20
104.434879841
 30
0.0
 10
90.465132048
 20
104.7740662205
 30
0.0
 10
90.2811865945
 20
105.3159107582
 30
0.0
 10
90.2076775926
 20
106.0323764038
 30
0.0
 10
90.28116582
 20
106.7488582809
 30
0.0
 10
90.4650980629
 20
107.290733574
 30
0.0
 10
90.68454743
 20
107.6299591131
 30
0.0
 10
90.8658362379
 20
107.8134021338
 30
0.0
 10
91.0668884269
 20
107.9297822262
 30
0.0
 10
91.2122316697
 20
107.9574400871
 30
0.0
 10
91.2814671635
 20
107.9574400871
 30
0.0
  0
SPLINE
  5
302
100
AcDbEntity
  8
0
100
AcDbSpline
 62
7
  6
CONTINUOUS
 70
0
 71
3
 72
19
 73
15
 74
0
 42
0.0000001
 43
0.0000001
 44
0.0000000001
 40
0.0
 40
0.0
 40
0.0
 40
0.0
 40
0.0436391956
 40
0.0909816002
 40
0.1443359007
 40
0.2046973766
 40
0.3443128649
 40
0.4999868022
 40
0.6556614356
 40
0.7952859033
 40
0.8556535045
 40
0.9090139773
 40
0.9563600681
 40
1.0
 40
1.0
 40
1.0
 40
1.0
 10
91.2814671635
 20
99.1074400871
 30
0.0
 10
91.2122328378
 20
99.1074400871
 30
0.0
 10
91.0668961383
 20
99.135093493
 30
0.0
 10
90.8658575778
 20
99.2514628689
 30
0.0
 10
90.6845797641
 20
99.434879841
 30
0.0
 10
90.465132048
 20
99.7740662205
 30
0.0
 10
90.2811865945
 20
100.3159107582
 30
0.0
 10
90.2076775926
 20
101.0323764038
 30
0.0
 10
90.28116582
 20
101.7488582809
 30
0.0
 10
90.4650980629
 20
102.290733574
 30
0.0
 10
90.68454743
 20
102.6299591131
 30
0.0
 10
90.8658362379
 20
102.8134021338
 30
0.0
 10
91.0668884269
 20
102.9297822262
 30
0.0
 10
91.2122316697
 20
102.9574400871
 30
0.0
 10
91.2814671635
 20
102.9574400871
 30
0.0
  0
SPLINE
  5
303
100
AcDbEntity
  8
0
100
AcDbSpline
 62
7
  6
CONTINUOUS
 70
0
 71
3
 72
19
 73
15
 74
0
 42
0.0000001
 43
0.0000001
 44
0.0000000001
 40
0.0
 40
0.0
 40
0.0
 40
0.0
 40
0.0436391956
 40
0.0909816002
 40
0.1443359007
 40
0.2046973766
 40
0.3443128649
 40
0.4999868022
 40
0.6556614356
 40
0.7952859033
 40
0.8556535045
 40
0.9090139773
 40
0.9563600681
 40
1.0
 40
1.0
 40
1.0
 40
1.0
 10
91.2814671635
 20
94.1074400871
 30
0.0
 10
91.2122328378
 20
94.1074400871
 30
0.0
 10
91.0668961383
 20
94.135093493
 30
0.0
 10
90.8658575778
 20
94.2514628689
 30
0.0
 10
90.6845797641
 20
94.434879841
 30
0.0
 10
90.465132048
 20
94.7740662205
 30
0.0
 10
90.2811865945
 20
95.3159107582
 30
0.0
 10
90.2076775926
 20
96.0323764038
 30
0.0
 10
90.28116582
 20
96.7488582809
 30
0.0
 10
90.4650980629
 20
97.290733574
 30
0.0
 10
90.68454743
 20
97.6299591131
 30
0.0
 10
90.8658362379
 20
97.8134021338
 30
0.0
 10
91.0668884269
 20
97.9297822262
 30
0.0
 10
91.2122316697
 20
97.9574400871
 30
0.0
 10
91.2814671635
 20
97.9574400871
 30
0.0
  0
SPLINE
  5
304
100
AcDbEntity
  8
0
100
AcDbSpline
 62
7
  6
CONTINUOUS
 70
0
 71
3
 72
19
 73
15
 74
0
 42
0.0000001
 43
0.0000001
 44
0.0000000001
 40
0.0
 40
0.0
 40
0.0
 40
0.0
 40
0.0436391956
 40
0.0909816002
 40
0.1443359007
 40
0.2046973766
 40
0.3443128649
 40
0.4999868022
 40
0.6556614356
 40
0.7952859033
 40
0.8556535045
 40
0.9090139773
 40
0.9563600681
 40
1.0
 40
1.0
 40
1.0
 40
1.0
 10
112.8814671635
 20
94.1074400871
 30
0.0
 10
112.8122328378
 20
94.1074400871
 30
0.0
 10
112.6668961383
 20
94.135093493
 30
0.0
 10
112.4658575778
 20
94.2514628689
 30
0.0
 10
112.2845797641
 20
94.434879841
 30
0.0
 10
112.065132048
 20
94.7740662205
 30
0.0
 10
111.8811865945
 20
95.3159107582
 30
0.0
 10
111.8076775926
 20
96.0323764038
 30
0.0
 10
111.88116582
 20
96.7488582809
 30
0.0
 10
112.0650980629
 20
97.290733574
 30
0.0
 10
112.28454743
 20
97.6299591131
 30
0.0
 10
112.4658362379
 20
97.8134021338
 30
0.0
 10
112.6668884269
 20
97.9297822262
 30
0.0
 10
112.8122316697
 20
97.9574400871
 30
0.0
 10
112.8814671635
 20
97.9574400871
 30
0.0
  0
SPLINE
  5
305
100
AcDbEntity
  8
0
100
AcDbSpline
 62
7
  6
CONTINUOUS
 70
0
 71
3
 72
19
 73
15
 74
0
 42
0.0000001
 43
0.0000001
 44
0.0000000001
 40
0.0
 40
0.0
 40
0.0
 40
0.0
 40
0.0436391956
 40
0.0909816002
 40
0.1443359007
 40
0.2046973766
 40
0.3443128649
 40
0.4999868022
 40
0.6556614356
 40
0.7952859033
 40
0.8556535045
 40
0.9090139773
 40
0.9563600681
 40
1.0
 40
1.0
 40
1.0
 40
1.0
 10
112.8814671635
 20
99.1074400871
 30
0.0
 10
112.8122328378
 20
99.1074400871
 30
0.0
 10
112.6668961383
 20
99.135093493
 30
0.0
 10
112.4658575778
 20
99.2514628689
 30
0.0
 10
112.2845797641
 20
99.434879841
 30
0.0
 10
112.065132048
 20
99.7740662205
 30
0.0
 10
111.8811865945
 20
100.3159107582
 30
0.0
 10
111.8076775926
 20
101.0323764038
 30
0.0
 10
111.88116582
 20
101.7488582809
 30
0.0
 10
112.0650980629
 20
102.290733574
 30
0.0
 10
112.28454743
 20
102.6299591131
 30
0.0
 10
112.4658362379
 20
102.8134021338
 30
0.0
 10
112.6668884269
 20
102.9297822262
 30
0.0
 10
112.8122316697
 20
102.9574400871
 30
0.0
 10
112.8814671635
 20
102.9574400871
 30
0.0
  0
SPLINE
  5
306
100
AcDbEntity
  8
0
100
AcDbSpline
 62
7
  6
CONTINUOUS
 70
0
 71
3
 72
19
 73
15
 74
0
 42
0.0000001
 43
0.0000001
 44
0.0000000001
 40
0.0
 40
0.0
 40
0.0
 40
0.0
 40
0.0436391956
 40
0.0909816002
 40
0.1443359007
 40
0.2046973766
 40
0.3443128649
 40
0.4999868022
 40
0.6556614356
 40
0.7952859033
 40
0.8556535045
 40
0.9090139773
 40
0.9563600681
 40
1.0
 40
1.0
 40
1.0
 40
1.0
 10
112.8814671635
 20
104.1074400871
 30
0.0
 10
112.8122328378
 20
104.1074400871
 30
0.0
 10
112.6668961383
 20
104.135093493
 30
0.0
 10
112.4658575778
 20
104.2514628689
 30
0.0
 10
112.2845797641
 20
104.434879841
 30
0.0
 10
112.065132048
 20
104.7740662205
 30
0.0
 10
111.8811865945
 20
105.3159107582
 30
0.0
 10
111.8076775926
 20
106.0323764038
 30
0.0
 10
111.88116582
 20
106.7488582809
 30
0.0
 10
112.0650980629
 20
107.290733574
 30
0.0
 10
112.28454743
 20
107.6299591131
 30
0.0
 10
112.4658362379
 20
107.8134021338
 30
0.0
 10
112.6668884269
 20
107.9297822262
 30
0.0
 10
112.8122316697
 20
107.9574400871
 30
0.0
 10
112.8814671635
 20
107.9574400871
 30
0.0
  0
SPLINE
  5
307
100
AcDbEntity
  8
0
100
AcDbSpline
 62
7
  6
CONTINUOUS
 70
0
 71
3
 72
19
 73
15
 74
0
 42
0.0000001
 43
0.0000001
 44
0.0000000001
 40
0.0
 40
0.0
 40
0.0
 40
0.0
 40
0.0436391956
 40
0.0909816002
 40
0.1443359007
 40
0.2046973766
 40
0.3443128649
 40
0.4999868022
 40
0.6556614356
 40
0.7952859033
 40
0.8556535045
 40
0.9090139773
 40
0.9563600681
 40
1.0
 40
1.0
 40
1.0
 40
1.0
 10
112.8814671635
 20
109.1074400871
 30
0.0
 10
112.8122328378
 20
109.1074400871
 30
0.0
 10
112.6668961383
 20
109.135093493
 30
0.0
 10
112.4658575778
 20
109.2514628689
 30
0.0
 10
112.2845797641
 20
109.434879841
 30
0.0
 10
112.065132048
 20
109.7740662205
 30
0.0
 10
111.8811865945
 20
110.3159107582
 30
0.0
 10
111.8076775926
 20
111.0323764038
 30
0.0
 10
111.88116582
 20
111.7488582809
 30
0.0
 10
112.0650980629
 20
112.290733574
 30
0.0
 10
112.28454743
 20
112.6299591131
 30
0.0
 10
112.4658362379
 20
112.8134021338
 30
0.0
 10
112.6668884269
 20
112.9297822262
 30
0.0
 10
112.8122316697
 20
112.9574400871
 30
0.0
 10
112.8814671635
 20
112.9574400871
 30
0.0
  0
SPLINE
  5
308
100
AcDbEntity
  8
0
100
AcDbSpline
 62
7
  6
CONTINUOUS
 70
0
 71
3
 72
19
 73
15
 74
0
 42
0.0000001
 43
0.0000001
 44
0.0000000001
 40
0.0
 40
0.0
 40
0.0
 40
0.0
 40
0.0436391956
 40
0.0909816002
 40
0.1443359007
 40
0.2046973766
 40
0.3443128649
 40
0.4999868022
 40
0.6556614356
 40
0.7952859033
 40
0.8556535045
 40
0.9090139773
 40
0.9563600681
 40
1.0
 40
1.0
 40
1.0
 40
1.0
 10
91.2814671635
 20
112.9574400871
 30
0.0
 10
91.3507014892
 20
112.9574400871
 30
0.0
 10
91.4960381887
 20
112.9297866813
 30
0.0
 10
91.6970767493
 20
112.8134173054
 30
0.0
 10
91.878354563
 20
112.6300003333
 30
0.0
 10
92.097802279
 20
112.2908139538
 30
0.0
 10
92.2817477325
 20
111.7489694161
 30
0.0
 10
92.3552567344
 20
111.0325037705
 30
0.0
 10
92.281768507
 20
110.3160218934
 30
0.0
 10
92.0978362641
 20
109.7741466003
 30
0.0
 10
91.878386897
 20
109.4349210612
 30
0.0
 10
91.6970980891
 20
109.2514780405
 30
0.0
 10
91.4960459001
 20
109.1350979481
 30
0.0
 10
91.3507026573
 20
109.1074400871
 30
0.0
 10
91.2814671635
 20
109.1074400871
 30
0.0
  0
SPLINE
  5
309
100
AcDbEntity
  8
0
100
AcDbSpline
 62
7
  6
CONTINUOUS
 70
0
 71
3
 72
19
 73
15
 74
0
 42
0.0000001
 43
0.0000001
 44
0.0000000001
 40
0.0
 40
0.0
 40
0.0
 40
0.0
 40
0.0436391956
 40
0.0909816002
 40
0.1443359007
 40
0.2046973766
 40
0.3443128649
 40
0.4999868022
 40
0.6556614356
 40
0.7952859033
 40
0.8556535045
 40
0.9090139773
 40
0.9563600681
 40
1.0
 40
1.0
 40
1.0
 40
1.0
 10
91.2814671635
 20
107.9574400871
 30
0.0
 10
91.3507014892
 20
107.9574400871
 30
0.0
 10
91.4960381887
 20
107.9297866813
 30
0.0
 10
91.6970767493
 20
107.8134173054
 30
0.0
 10
91.878354563
 20
107.6300003333
 30
0.0
 10
92.097802279
 20
107.2908139538
 30
0.0
 10
92.2817477325
 20
106.7489694161
 30
0.0
 10
92.3552567344
 20
106.0325037705
 30
0.0
 10
92.281768507
 20
105.3160218934
 30
0.0
 10
92.0978362641
 20
104.7741466003
 30
0.0
 10
91.878386897
 20
104.4349210612
 30
0.0
 10
91.6970980891
 20
104.2514780405
 30
0.0
 10
91.4960459001
 20
104.1350979481
 30
0.0
 10
91.3507026573
 20
104.1074400871
 30
0.0
 10
91.2814671635
 20
104.1074400871
 30
0.0
  0
SPLINE
  5
30A
100
AcDbEntity
  8
0
100
AcDbSpline
 62
7
  6
CONTINUOUS
 70
0
 71
3
 72
19
 73
15
 74
0
 42
0.0000001
 43
0.0000001
 44
0.0000000001
 40
0.0
 40
0.0
 40
0.0
 40
0.0
 40
0.0436391956
 40
0.0909816002
 40
0.1443359007
 40
0.2046973766
 40
0.3443128649
 40
0.4999868022
 40
0.6556614356
 40
0.7952859033
 40
0.8556535045
 40
0.9090139773
 40
0.9563600681
 40
1.0
 40
1.0
 40
1.0
 40
1.0
 10
91.2814671635
 20
102.9574400871
 30
0.0
 10
91.3507014892
 20
102.9574400871
 30
0.0
 10
91.4960381887
 20
102.9297866813
 30
0.0
 10
91.6970767493
 20
102.8134173054
 30
0.0
 10
91.878354563
 20
102.6300003333
 30
0.0
 10
92.097802279
 20
102.2908139538
 30
0.0
 10
92.2817477325
 20
101.7489694161
 30
0.0
 10
92.3552567344
 20
101.0325037705
 30
0.0
 10
92.281768507
 20
100.3160218934
 30
0.0
 10
92.0978362641
 20
99.7741466003
 30
0.0
 10
91.878386897
 20
99.4349210612
 30
0.0
 10
91.6970980891
 20
99.2514780405
 30
0.0
 10
91.4960459001
 20
99.1350979481
 30
0.0
 10
91.3507026573
 20
99.1074400871
 30
0.0
 10
91.2814671635
 20
99.1074400871
 30
0.0
  0
SPLINE
  5
30B
100
AcDbEntity
  8
0
100
AcDbSpline
 62
7
  6
CONTINUOUS
 70
0
 71
3
 72
19
 73
15
 74
0
 42
0.0000001
 43
0.0000001
 44
0.0000000001
 40
0.0
 40
0.0
 40
0.0
 40
0.0
 40
0.0436391956
 40
0.0909816002
 40
0.1443359007
 40
0.2046973766
 40
0.3443128649
 40
0.4999868022
 40
0.6556614356
 40
0.7952859033
 40
0.8556535045
 40
0.9090139773
 40
0.9563600681
 40
1.0
 40
1.0
 40
1.0
 40
1.0
 10
91.2814671635
 20
97.9574400871
 30
0.0
 10
91.3507014892
 20
97.9574400871
 30
0.0
 10
91.4960381887
 20
97.9297866813
 30
0.0
 10
91.6970767493
 20
97.8134173054
 30
0.0
 10
91.878354563
 20
97.6300003333
 30
0.0
 10
92.097802279
 20
97.2908139538
 30
0.0
 10
92.2817477325
 20
96.7489694161
 30
0.0
 10
92.3552567344
 20
96.0325037705
 30
0.0
 10
92.281768507
 20
95.3160218934
 30
0.0
 10
92.0978362641
 20
94.7741466003
 30
0.0
 10
91.878386897
 20
94.4349210612
 30
0.0
 10
91.6970980891
 20
94.2514780405
 30
0.0
 10
91.4960459001
 20
94.1350979481
 30
0.0
 10
91.3507026573
 20
94.1074400871
 30
0.0
 10
91.2814671635
 20
94.1074400871
 30
0.0
  0
SPLINE
  5
30C
100
AcDbEntity
  8
0
100
AcDbSpline
 62
7
  6
CONTINUOUS
 70
0
 71
3
 72
19
 73
15
 74
0
 42
0.0000001
 43
0.0000001
 44
0.0000000001
 40
0.0
 40
0.0
 40
0.0
 40
0.0
 40
0.0436391956
 40
0.0909816002
 40
0.1443359007
 40
0.2046973766
 40
0.3443128649
 40
0.4999868022
 40
0.6556614356
 40
0.7952859033
 40
0.8556535045
 40
0.9090139773
 40
0.9563600681
 40
1.0
 40
1.0
 40
1.0
 40
1.0
 10
112.8814671635
 20
97.9574400871
 30
0.0
 10
112.9507014892
 20
97.9574400871
 30
0.0
 10
113.0960381887
 20
97.9297866813
 30
0.0
 10
113.2970767493
 20
97.8134173054
 30
0.0
 10
113.478354563
 20
97.6300003333
 30
0.0
 10
113.697802279
 20
97.2908139538
 30
0.0
 10
113.8817477325
 20
96.7489694161
 30
0.0
 10
113.9552567344
 20
96.0325037705
 30
0.0
 10
113.881768507
 20
95.3160218934
 30
0.0
 10
113.6978362641
 20
94.7741466003
 30
0.0
 10
113.478386897
 20
94.4349210612
 30
0.0
 10
113.2970980891
 20
94.2514780405
 30
0.0
 10
113.0960459001
 20
94.1350979481
 30
0.0
 10
112.9507026573
 20
94.1074400871
 30
0.0
 10
112.8814671635
 20
94.1074400871
 30
0.0
  0
SPLINE
  5
30D
100
AcDbEntity
  8
0
100
AcDbSpline
 62
7
  6
CONTINUOUS
 70
0
 71
3
 72
19
 73
15
 74
0
 42
0.0000001
 43
0.0000001
 44
0.0000000001
 40
0.0
 40
0.0
 40
0.0
 40
0.0
 40
0.0436391956
 40
0.0909816002
 40
0.1443359007
 40
0.2046973766
 40
0.3443128649
 40
0.4999868022
 40
0.6556614356
 40
0.7952859033
 40
0.8556535045
 40
0.9090139773
 40
0.9563600681
 40
1.0
 40
1.0
 40
1.0
 40
1.0
 10
112.8814671635
 20
102.9574400871
 30
0.0
 10
112.9507014892
 20
102.9574400871
 30
0.0
 10
113.0960381887
 20
102.9297866813
 30
0.0
 10
113.2970767493
 20
102.8134173054
 30
0.0
 10
113.478354563
 20
102.6300003333
 30
0.0
 10
113.697802279
 20
102.2908139538
 30
0.0
 10
113.8817477325
 20
101.7489694161
 30
0.0
 10
113.9552567344
 20
101.0325037705
 30
0.0
 10
113.881768507
 20
100.3160218934
 30
0.0
 10
113.6978362641
 20
99.7741466003
 30
0.0
 10
113.478386897
 20
99.4349210612
 30
0.0
 10
113.2970980891
 20
99.2514780405
 30
0.0
 10
113.0960459001
 20
99.1350979481
 30
0.0
 10
112.9507026573
 20
99.1074400871
 30
0.0
 10
112.8814671635
 20
99.1074400871
 30
0.0
  0
SPLINE
  5
30E
100
AcDbEntity
  8
0
100
AcDbSpline
 62
7
  6
CONTINUOUS
 70
0
 71
3
 72
19
 73
15
 74
0
 42
0.0000001
 43
0.0000001
 44
0.0000000001
 40
0.0
 40
0.0
 40
0.0
 40
0.0
 40
0.0436391956
 40
0.0909816002
 40
0.1443359007
 40
0.2046973766
 40
0.3443128649
 40
0.4999868022
 40
0.6556614356
 40
0.7952859033
 40
0.8556535045
 40
0.9090139773
 40
0.9563600681
 40
1.0
 40
1.0
 40
1.0
 40
1.0
 10
112.8814671635
 20
107.9574400871
 30
0.0
 10
112.9507014892
 20
107.9574400871
 30
0.0
 10
113.0960381887
 20
107.9297866813
 30
0.0
 10
113.2970767493
 20
107.8134173054
 30
0.0
 10
113.478354563
 20
107.6300003333
 30
0.0
 10
113.697802279
 20
107.2908139538
 30
0.0
 10
113.8817477325
 20
106.7489694161
 30
0.0
 10
113.9552567344
 20
106.0325037705
 30
0.0
 10
113.881768507
 20
105.3160218934
 30
0.0
 10
113.6978362641
 20
104.7741466003
 30
0.0
 10
113.478386897
 20
104.4349210612
 30
0.0
 10
113.2970980891
 20
104.2514780405
 30
0.0
 10
113.0960459001
 20
104.1350979481
 30
0.0
 10
112.9507026573
 20
104.1074400871
 30
0.0
 10
112.8814671635
 20
104.1074400871
 30
0.0
  0
SPLINE
  5
30F
100
AcDbEntity
  8
0
100
AcDbSpline
 62
7
  6
CONTINUOUS
 70
0
 71
3
 72
19
 73
15
 74
0
 42
0.0000001
 43
0.0000001
 44
0.0000000001
 40
0.0
 40
0.0
 40
0.0
 40
0.0
 40
0.0436391956
 40
0.0909816002
 40
0.1443359007
 40
0.2046973766
 40
0.3443128649
 40
0.4999868022
 40
0.6556614356
 40
0.7952859033
 40
0.8556535045
 40
0.9090139773
 40
0.9563600681
 40
1.0
 40
1.0
 40
1.0
 40
1.0
 10
112.8814671635
 20
112.9574400871
 30
0.0
 10
112.9507014892
 20
112.9574400871
 30
0.0
 10
113.0960381887
 20
112.9297866813
 30
0.0
 10
113.2970767493
 20
112.8134173054
 30
0.0
 10
113.478354563
 20
112.6300003333
 30
0.0
 10
113.697802279
 20
112.2908139538
 30
0.0
 10
113.8817477325
 20
111.7489694161
 30
0.0
 10
113.9552567344
 20
111.0325037705
 30
0.0
 10
113.881768507
 20
110.3160218934
 30
0.0
 10
113.6978362641
 20
109.7741466003
 30
0.0
 10
113.478386897
 20
109.4349210612
 30
0.0
 10
113.2970980891
 20
109.2514780405
 30
0.0
 10
113.0960459001
 20
109.1350979481
 30
0.0
 10
112.9507026573
 20
109.1074400871
 30
0.0
 10
112.8814671635
 20
109.1074400871
 30
0.0
  0
ENDSEC
  0
SECTION
  2
OBJECTS
  0
DICTIONARY
  5
C
100
AcDbDictionary
280
0
281
1
  3
ACAD_GROUP
350
D
  3
ACAD_MLINESTYLE
350
17
  3
ACAD_LAYOUT
350
1A
  3
ACAD_PLOTSETTINGS
350
19
  3
ACAD_PLOTSTYLENAME
350
E
  0
DICTIONARY
  5
D
102
{ACAD_REACTORS
330
C
102
}
100
AcDbDictionary
280
0
281
1
  0
ACDBDICTIONARYWDFLT
  5
E
102
{ACAD_REACTORS
330
C
102
}
100
AcDbDictionary
281
1
  3
Normal
350
F
100
AcDbDictionaryWithDefault
340
F
  0
DICTIONARY
  5
17
102
{ACAD_REACTORS
330
C
102
}
100
AcDbDictionary
280
0
281
1
  3
Standard
350
18
  0
DICTIONARY
  5
19
102
{ACAD_REACTORS
330
C
102
}
100
AcDbDictionary
281
1
  0
DICTIONARY
  5
1A
102
{ACAD_REACTORS
330
C
102
}
100
AcDbDictionary
281
1
  3
Model
350
310
  3
Layout1
350
311
  0
ACDBPLACEHOLDER
  5
F
102
{ACAD_REACTORS
330
E
102
}
  0
MLINESTYLE
  5
18
102
{ACAD_REACTORS
330
17
102
}
100
AcDbMlineStyle
  2
STANDARD
 70
0
  3

 62
256
 51
90.0
 52
90.0
 71
2
 49
0.5
 62
256
  6
BYLAYER
 49
-0.5
 62
256
  6
BYLAYER
  0
LAYOUT
  5
310
102
{ACAD_REACTORS
330
1A
102
}
100
AcDbPlotSettings
  1

  2
none_device
  4

  6

 40
0.0
 41
0.0
 42
0.0
 43
0.0
 44
210.0
 45
297.0
 46
0.0
 47
0.0
 48
0.0
 49
0.0
140
0.0
141
0.0
142
1.0
143
1.0
 70
1024
 72
1
 73
0
 74
0
  7

 75
0
147
1.0
148
0.0
149
0.0
100
AcDbLayout
  1
Model
 70
0
 71
0
 10
0.0
 20
0.0
 11
210.0
 21
297.0
 12
0.0
 22
0.0
 32
0.0
 14
0.0
 24
0.0
 34
0.0
 15
0.0
 25
0.0
 35
0.0
146
0.0
 13
0.0
 23
0.0
 33
0.0
 16
1.0
 26
0.0
 36
0.0
 17
0.0
 27
1.0
 37
0.0
 76
0
330
210
345
0
346
0
  0
LAYOUT
  5
311
102
{ACAD_REACTORS
330
1A
102
}
100
AcDbPlotSettings
  1

  2
none_device
  4

  6

 40
0.0
 41
0.0
 42
0.0
 43
0.0
 44
210.0
 45
297.0
 46
0.0
 47
0.0
 48
0.0
 49
0.0
140
0.0
141
0.0
142
1.0
143
1.0
 70
0
 72
1
 73
0
 74
0
  7

 75
0
147
1.0
148
0.0
149
0.0
100
AcDbLayout
  1
Layout1
 70
0
 71
1
 10
0.0
 20
0.0
 11
210.0
 21
297.0
 12
0.0
 22
0.0
 32
0.0
 14
0.0
 24
0.0
 34
0.0
 15
0.0
 25
0.0
 35
0.0
146
0.0
 13
0.0
 23
0.0
 33
0.0
 16
1.0
 26
0.0
 36
0.0
 17
0.0
 27
1.0
 37
0.0
 76
0
330
211
345
0
346
0
  0
ENDSEC
  0
EOF
