999
DXF file: C:\Users\sesa63760\Dev\_Creo\CAD\MCADID0003711_3D-CAD\drw0001_1.dxf
999
Pro/ENGINEER 2019471 by Parametric Technology Corporation
  0
SECTION
  2
HEADER
  9
$ACADVER
  1
AC1024
  9
$DWGCODEPAGE
  3
ANSI_1252
  9
$EXTMAX
 10
41.0499463204
 20
58.0563526532
 30
0.0
  9
$EXTMIN
 10
0.0
 20
0.0
 30
0.0
  9
$LIMMIN
 10
0.0
 20
0.0
  9
$LIMMAX
 10
41.0499463204
 20
58.0563526532
  9
$VIEWCTR
 10
20.5249731602
 20
29.0281763266
  9
$VIEWSIZE
 40
58.0563526532
  9
$CLAYER
  8
0
  9
$LTSCALE
 40
3.7844140989
  9
$CELTYPE
  6
BYLAYER
  9
$DIMSCALE
 40
1.0
  9
$DIMASZ
 40
0.4886898371
  9
$DIMEXO
 40
1.0
  9
$DIMDLI
 40
2.6146861047
  9
$DIMEXE
 40
1.0
  9
$DIMCEN
 40
0.6192677616
  9
$DIMLFAC
 40
1.0
  9
$DIMBLK
  1
_FILLED
  9
$DIMALT
 70
0
  9
$DIMALTF
 40
0.0393700787
  9
$DIMTXT
 40
0.684165772
  9
$DIMTOL
 70
1
  9
$DIMLIM
 70
0
  9
$DIMTFAC
 40
1.0
  9
$DIMTP
 40
0.01
  9
$DIMTM
 40
0.01
  9
$DIMGAP
 40
0.625
  9
$DIMDSEP
 70
46
  9
$AUNITS
 70
0
  9
$PDMODE
 70
3
  9
$PDSIZE
 40
0.3125
  9
$HANDSEED
  5
3A4
  9
$TILEMODE
 70
1
  9
$MEASUREMENT
 70
1
  9
$INSUNITS
 70
4
  0
ENDSEC
  0
SECTION
  2
CLASSES
  0
CLASS
  1
ACDBDICTIONARYWDFLT
  2
AcDbDictionaryWithDefault
  3
AutoCAD 2000
 90
0
 91
1
280
0
281
0
  0
CLASS
  1
ACDBPLACEHOLDER
  2
AcDbPlaceHolder
  3
AutoCAD 2000
 90
0
 91
1
280
0
281
0
  0
CLASS
  1
LAYOUT
  2
AcDbLayout
  3
AutoCAD 2000
 90
0
 91
0
280
0
281
0
  0
ENDSEC
  0
SECTION
  2
TABLES
  0
TABLE
  2
VPORT
  5
8
100
AcDbSymbolTable
 70
2
  0
VPORT
  5
1F4
100
AcDbSymbolTableRecord
100
AcDbViewportTableRecord
  2
*ACTIVE
 70
0
 10
0.0
 20
0.0
 11
1.0
 21
1.0
 12
20.5249731602
 22
29.0281763266
 13
0.0
 23
0.0
 14
1.0
 24
1.0
 15
0.0
 25
0.0
 16
0.0
 26
0.0
 36
1.0
 17
0.0
 27
0.0
 37
0.0
 40
58.0563526532
 41
0.7070707071
 42
50.0
 43
0.0
 44
0.0
 50
0.0
 51
0.0
 71
0
 72
100
 73
1
 74
1
 75
0
 76
0
 77
0
 78
0
  0
ENDTAB
  0
TABLE
  2
LTYPE
  5
5
100
AcDbSymbolTable
 70
6
  0
LTYPE
  5
14
100
AcDbSymbolTableRecord
100
AcDbLinetypeTableRecord
  2
BYBLOCK
 70
0
  3

 72
65
 73
0
 40
0.0
  0
LTYPE
  5
15
100
AcDbSymbolTableRecord
100
AcDbLinetypeTableRecord
  2
BYLAYER
 70
0
  3

 72
65
 73
0
 40
0.0
  0
LTYPE
  5
16
100
AcDbSymbolTableRecord
100
AcDbLinetypeTableRecord
  2
CONTINUOUS
 70
64
  3
Solid line
 72
65
 73
0
 40
0.0
  0
LTYPE
  5
1F5
100
AcDbSymbolTableRecord
100
AcDbLinetypeTableRecord
  2
CENTER
 70
64
  3
____ _ ____ _ ____ _ ____ _ ____ _ ____ _ ____
 72
65
 73
4
 40
0.6
 49
0.375
 74
0
 49
-0.075
 74
0
 49
0.075
 74
0
 49
-0.075
 74
0
  0
LTYPE
  5
1F6
100
AcDbSymbolTableRecord
100
AcDbLinetypeTableRecord
  2
HIDDEN
 70
64
  3
- - - - - - - - - - - - - - - - - - - -
 72
65
 73
2
 40
0.2
 49
0.1
 74
0
 49
-0.1
 74
0
  0
LTYPE
  5
1F7
100
AcDbSymbolTableRecord
100
AcDbLinetypeTableRecord
  2
PHANTOM
 70
64
  3
_____ _ _ _____ _ _ _____ _ _ _____
 72
65
 73
6
 40
0.8
 49
0.45
 74
0
 49
-0.05
 74
0
 49
0.1
 74
0
 49
-0.05
 74
0
 49
0.1
 74
0
 49
-0.05
 74
0
  0
LTYPE
  5
1F8
100
AcDbSymbolTableRecord
100
AcDbLinetypeTableRecord
  2
DOT
 70
64
  3
. . . . . . . . . . . . . . . . . . . .
 72
65
 73
2
 40
0.2
 49
0.1
 74
0
 49
-0.1
 74
0
  0
LTYPE
  5
1F9
100
AcDbSymbolTableRecord
100
AcDbLinetypeTableRecord
  2
DASHED
 70
64
  3
- - - - - - - - - - - - - - - - - - - -
 72
65
 73
2
 40
0.2
 49
0.1
 74
0
 49
-0.1
 74
0
  0
ENDTAB
  0
TABLE
  2
LAYER
  5
2
100
AcDbSymbolTable
 70
36
  0
LAYER
  5
10
100
AcDbSymbolTableRecord
100
AcDbLayerTableRecord
  2
0
 70
0
 62
7
  6
CONTINUOUS
370
-3
390
F
  0
LAYER
  5
1FA
100
AcDbSymbolTableRecord
100
AcDbLayerTableRecord
  2
DEFAULT_1
 70
0
 62
7
  6
CENTER
370
-3
390
F
  0
LAYER
  5
1FB
100
AcDbSymbolTableRecord
100
AcDbLayerTableRecord
  2
DEFAULT_2
 70
0
 62
7
  6
HIDDEN
370
-3
390
F
  0
LAYER
  5
1FC
100
AcDbSymbolTableRecord
100
AcDbLayerTableRecord
  2
DEFAULT_3
 70
0
 62
7
  6
PHANTOM
370
-3
390
F
  0
LAYER
  5
1FD
100
AcDbSymbolTableRecord
100
AcDbLayerTableRecord
  2
00_COMPONENTS
 70
0
 62
7
  6
CONTINUOUS
370
-3
390
F
  0
LAYER
  5
1FE
100
AcDbSymbolTableRecord
100
AcDbLayerTableRecord
  2
01_1_DEFAULT_DATUMS
 70
0
 62
7
  6
CONTINUOUS
370
-3
390
F
  0
LAYER
  5
1FF
100
AcDbSymbolTableRecord
100
AcDbLayerTableRecord
  2
01_PLANES
 70
0
 62
7
  6
CONTINUOUS
370
-3
390
F
  0
LAYER
  5
200
100
AcDbSymbolTableRecord
100
AcDbLayerTableRecord
  2
02_COORD_SYS
 70
0
 62
7
  6
CONTINUOUS
370
-3
390
F
  0
LAYER
  5
201
100
AcDbSymbolTableRecord
100
AcDbLayerTableRecord
  2
03_AXES
 70
0
 62
7
  6
CONTINUOUS
370
-3
390
F
  0
LAYER
  5
202
100
AcDbSymbolTableRecord
100
AcDbLayerTableRecord
  2
04_POINTS
 70
0
 62
7
  6
CONTINUOUS
370
-3
390
F
  0
LAYER
  5
203
100
AcDbSymbolTableRecord
100
AcDbLayerTableRecord
  2
05_CURVES
 70
0
 62
7
  6
CONTINUOUS
370
-3
390
F
  0
LAYER
  5
204
100
AcDbSymbolTableRecord
100
AcDbLayerTableRecord
  2
06_SURFS
 70
0
 62
7
  6
CONTINUOUS
370
-3
390
F
  0
LAYER
  5
205
100
AcDbSymbolTableRecord
100
AcDbLayerTableRecord
  2
07_COSMETICS
 70
0
 62
7
  6
CONTINUOUS
370
-3
390
F
  0
LAYER
  5
206
100
AcDbSymbolTableRecord
100
AcDbLayerTableRecord
  2
10_NOTES
 70
0
 62
7
  6
CONTINUOUS
370
-3
390
F
  0
LAYER
  5
207
100
AcDbSymbolTableRecord
100
AcDbLayerTableRecord
  2
11_NOTES_PUB
 70
0
 62
7
  6
CONTINUOUS
370
-3
390
F
  0
LAYER
  5
208
100
AcDbSymbolTableRecord
100
AcDbLayerTableRecord
  2
13_REF_GTOL
 70
0
 62
7
  6
CONTINUOUS
370
-3
390
F
  0
LAYER
  5
209
100
AcDbSymbolTableRecord
100
AcDbLayerTableRecord
  2
16_MISC
 70
0
 62
7
  6
CONTINUOUS
370
-3
390
F
  0
LAYER
  5
20A
100
AcDbSymbolTableRecord
100
AcDbLayerTableRecord
  2
17_NO_PRINT
 70
0
 62
7
  6
CONTINUOUS
370
-3
390
F
  0
LAYER
  5
20B
100
AcDbSymbolTableRecord
100
AcDbLayerTableRecord
  2
18_DATUM_CAMS_JOINTS
 70
0
 62
7
  6
CONTINUOUS
370
-3
390
F
  0
LAYER
  5
20C
100
AcDbSymbolTableRecord
100
AcDbLayerTableRecord
  2
19_DATUM_FUNCTIONAL
 70
0
 62
7
  6
CONTINUOUS
370
-3
390
F
  0
LAYER
  5
20D
100
AcDbSymbolTableRecord
100
AcDbLayerTableRecord
  2
20_DATUM_KINEMATIC_SCHEME
 70
0
 62
7
  6
CONTINUOUS
370
-3
390
F
  0
ENDTAB
  0
TABLE
  2
STYLE
  5
3
100
AcDbSymbolTable
 70
1
  0
STYLE
  5
11
100
AcDbSymbolTableRecord
100
AcDbTextStyleTableRecord
  2
STANDARD
 70
0
 40
0.0
 41
1.0
 50
0.0
 71
0
 42
0.2
  3
ARIAL.TTF
  4

  0
STYLE
  5
20E
100
AcDbSymbolTableRecord
100
AcDbTextStyleTableRecord
  2
TEXTSTYLE_1
 70
0
 40
0.0
 41
0.8
 50
0.0
 71
0
 42
0.2
  3
gdt
  4

  0
ENDTAB
  0
TABLE
  2
VIEW
  5
6
100
AcDbSymbolTable
 70
0
  0
ENDTAB
  0
TABLE
  2
UCS
  5
7
100
AcDbSymbolTable
 70
0
  0
ENDTAB
  0
TABLE
  2
APPID
  5
9
100
AcDbSymbolTable
 70
1
  0
APPID
  5
20F
100
AcDbSymbolTableRecord
100
AcDbRegAppTableRecord
  2
ACAD
 70
0
  0
ENDTAB
  0
TABLE
  2
BLOCK_RECORD
  5
1
100
AcDbSymbolTable
 70
0
  0
BLOCK_RECORD
  5
210
100
AcDbSymbolTableRecord
100
AcDbBlockTableRecord
  2
*Model_Space
  0
BLOCK_RECORD
  5
211
100
AcDbSymbolTableRecord
100
AcDbBlockTableRecord
  2
*Paper_Space
  0
BLOCK_RECORD
  5
212
100
AcDbSymbolTableRecord
100
AcDbBlockTableRecord
  2
_FILLED
  0
ENDTAB
  0
TABLE
  2
DIMSTYLE
  5
A
100
AcDbSymbolTable
 70
1
100
AcDbDimStyleTable
 71
0
  0
DIMSTYLE
105
213
100
AcDbSymbolTableRecord
100
AcDbDimStyleTableRecord
  2
STANDARD
 70
0
  3

  4

 40
1.0
 41
0.4886898371
 42
1.0
 43
0.38
 44
1.0
 45
0.0
 46
0.0
 47
0.01
 48
0.01
140
0.684165772
141
0.09
142
0.0
143
25.4
144
1.0
145
0.0
146
1.0
147
0.625
 71
1
 72
0
 73
0
 74
0
 75
0
 76
0
 77
1
 78
8
 79
2
170
0
171
1
172
0
173
0
174
0
175
0
176
0
177
0
178
0
270
2
179
2
271
2
272
2
273
2
274
2
275
0
280
0
281
0
282
0
283
1
284
8
285
0
286
0
287
3
288
0
340
11
278
46
341
212
342
212
343
212
344
212
  0
ENDTAB
  0
ENDSEC
  0
SECTION
  2
BLOCKS
  0
BLOCK
  5
20
100
AcDbEntity
  8
0
100
AcDbBlockBegin
  2
*Model_Space
 70
0
 10
0.0
 20
0.0
 30
0.0
  3
*Model_Space
  1

  0
ENDBLK
  5
21
100
AcDbEntity
  8
0
100
AcDbBlockEnd
  0
BLOCK
  5
1C
100
AcDbEntity
  8
0
100
AcDbBlockBegin
  2
*Paper_Space
 70
0
 10
0.0
 20
0.0
 30
0.0
  3
*Paper_Space
  1

  0
ENDBLK
  5
1D
100
AcDbEntity
  8
0
100
AcDbBlockEnd
  0
BLOCK
  5
214
100
AcDbEntity
  8
0
100
AcDbBlockBegin
  2
_FILLED
 70
64
 10
0.0
 20
0.0
  3
_FILLED
  1

  0
SOLID
  5
215
100
AcDbEntity
  8
0
  6
BYBLOCK
 62
0
100
AcDbTrace
 10
0.0
 20
0.0
 11
-1.0
 21
0.25
 12
-1.0
 22
-0.25
 13
-1.0
 23
-0.25
  0
ENDBLK
  5
216
100
AcDbEntity
  8
0
  6
BYBLOCK
 62
0
100
AcDbBlockEnd
  0
ENDSEC
  0
SECTION
  2
ENTITIES
  0
LINE
  5
217
100
AcDbEntity
  8
0
100
AcDbLine
 62
7
  6
BYLAYER
 10
22.7794943233
 20
51.2626902225
 11
22.7794586945
 21
51.2626778762
  0
LINE
  5
218
100
AcDbEntity
  8
0
100
AcDbLine
 62
7
  6
BYLAYER
 10
22.7793366772
 20
51.2626331912
 11
22.7359509272
 21
51.2329413505
  0
LINE
  5
219
100
AcDbEntity
  8
0
100
AcDbLine
 62
7
  6
BYLAYER
 10
25.2278256373
 20
50.7194516029
 11
24.5207217984
 21
50.3112074481
  0
LINE
  5
21A
100
AcDbEntity
  8
0
100
AcDbLine
 62
7
  6
BYLAYER
 10
20.1366780087
 20
47.7800936949
 11
19.4295741704
 21
47.3718495404
  0
LINE
  5
21B
100
AcDbEntity
  8
0
100
AcDbLine
 62
7
  6
BYLAYER
 10
5.6409545522
 20
18.7532954974
 11
25.4400268565
 21
7.3225543707
  0
LINE
  5
21C
100
AcDbEntity
  8
0
100
AcDbLine
 62
7
  6
BYLAYER
 10
4.762266064
 20
19.9780279589
 11
4.762266064
 21
25.6935448787
  0
LINE
  5
21D
100
AcDbEntity
  8
0
100
AcDbLine
 62
7
  6
BYLAYER
 10
5.6409545522
 20
18.7532954974
 11
5.6409545522
 21
24.4688124172
  0
LINE
  5
21E
100
AcDbEntity
  8
0
100
AcDbLine
 62
7
  6
BYLAYER
 10
20.1366838952
 20
46.1471063658
 11
20.8437877395
 21
46.5553505238
  0
LINE
  5
21F
100
AcDbEntity
  8
0
100
AcDbLine
 62
7
  6
BYLAYER
 10
25.2278315226
 20
49.0864642745
 11
25.9349353673
 21
49.4947084333
  0
LINE
  5
220
100
AcDbEntity
  8
0
100
AcDbLine
 62
7
  6
BYLAYER
 10
20.8730767636
 20
44.9730272847
 11
21.9958444653
 21
45.6212536502
  0
LINE
  5
221
100
AcDbEntity
  8
0
100
AcDbLine
 62
7
  6
BYLAYER
 10
20.8730767636
 20
44.939207645
 11
22.045844253
 21
45.616301229
  0
LINE
  5
222
100
AcDbEntity
  8
0
100
AcDbLine
 62
7
  6
BYLAYER
 10
22.7529539786
 20
45.2080604742
 11
20.8730767636
 21
44.1227193367
  0
LINE
  5
223
100
AcDbEntity
  8
0
100
AcDbLine
 62
7
  6
BYLAYER
 10
20.8730767636
 20
43.9594202635
 11
22.8236649591
 21
45.0855861609
  0
LWPOLYLINE
  5
224
100
AcDbEntity
  8
0
100
AcDbPolyline
 62
7
  6
BYLAYER
 90
4
 70
0
 10
22.7336240215
 20
51.230042623
 10
22.6485407746
 20
51.1172190286
 10
22.5234374976
 20
50.9318568107
 10
22.4543009574
 20
50.8172157135
  0
LINE
  5
225
100
AcDbEntity
  8
0
100
AcDbLine
 62
7
  6
BYLAYER
 10
22.8236649379
 20
43.6158817915
 11
20.8730767636
 21
42.4897159064
  0
LINE
  5
226
100
AcDbEntity
  8
0
100
AcDbLine
 62
7
  6
BYLAYER
 10
22.8029537417
 20
43.570103205
 11
20.8730767636
 21
42.4558948631
  0
LINE
  5
227
100
AcDbEntity
  8
0
100
AcDbLine
 62
7
  6
BYLAYER
 10
5.6409545522
 20
24.4688124172
 11
10.8596763151
 21
21.4558501648
  0
LINE
  5
228
100
AcDbEntity
  8
0
100
AcDbLine
 62
7
  6
BYLAYER
 10
20.7731026706
 20
15.732460269
 11
25.4400268565
 21
13.0380712893
  0
LINE
  5
229
100
AcDbEntity
  8
0
100
AcDbLine
 62
7
  6
BYLAYER
 10
25.7935787522
 20
13.6504445851
 11
21.7390295687
 21
15.9912866907
  0
LINE
  5
22A
100
AcDbEntity
  8
0
100
AcDbLine
 62
7
  6
BYLAYER
 10
10.690235831
 20
22.370166424
 11
5.9945064947
 21
25.081185689
  0
LINE
  5
22B
100
AcDbEntity
  8
0
100
AcDbLine
 62
7
  6
BYLAYER
 10
11.2270713337
 20
24.5095713008
 11
11.2270713337
 21
23.7636717692
  0
LINE
  5
22C
100
AcDbEntity
  8
0
100
AcDbLine
 62
7
  6
BYLAYER
 10
22.3834000024
 20
50.6946112032
 11
22.454214266
 21
50.8172657866
  0
LINE
  5
22D
100
AcDbEntity
  8
0
100
AcDbLine
 62
7
  6
BYLAYER
 10
22.4201067512
 20
50.6736595562
 11
22.490817136
 21
50.7961342153
  0
LINE
  5
22E
100
AcDbEntity
  8
0
100
AcDbLine
 62
7
  6
BYLAYER
 10
20.8437877395
 20
46.5553505268
 11
20.8730767636
 21
46.5961746004
  0
LINE
  5
22F
100
AcDbEntity
  8
0
100
AcDbLine
 62
7
  6
BYLAYER
 10
5.3969944401
 20
26.569225743
 11
10.6981927037
 21
23.508646738
  0
LINE
  5
230
100
AcDbEntity
  8
0
100
AcDbLine
 62
7
  6
BYLAYER
 10
23.5308194014
 20
16.0998938716
 11
28.3709815485
 21
13.3054881709
  0
LINE
  5
231
100
AcDbEntity
  8
0
100
AcDbLine
 62
7
  6
BYLAYER
 10
28.6209773013
 20
13.3302521129
 11
23.780815166
 21
16.1246578068
  0
LINE
  5
232
100
AcDbEntity
  8
0
100
AcDbLine
 62
7
  6
BYLAYER
 10
10.9481884592
 20
23.533410682
 11
5.6469902055
 21
26.5939896812
  0
LINE
  5
233
100
AcDbEntity
  8
0
100
AcDbLine
 62
7
  6
BYLAYER
 10
12.8165574241
 20
30.7333090537
 11
12.8165574241
 21
27.0590481766
  0
LINE
  5
234
100
AcDbEntity
  8
0
100
AcDbLine
 62
7
  6
BYLAYER
 10
12.9630055055
 20
26.8549260997
 11
12.9630055055
 21
30.5291869768
  0
LINE
  5
235
100
AcDbEntity
  8
0
100
AcDbLine
 62
7
  6
BYLAYER
 10
23.3186376224
 20
50.3182011675
 11
23.2483777901
 21
50.1958418913
  0
LINE
  5
236
100
AcDbEntity
  8
0
100
AcDbLine
 62
7
  6
BYLAYER
 10
23.1979268607
 20
50.3878934601
 11
23.1272164762
 21
50.2654188018
  0
LINE
  5
237
100
AcDbEntity
  8
0
100
AcDbLine
 62
7
  6
BYLAYER
 10
25.9349353673
 20
49.4947084344
 11
25.9642243915
 21
49.5355325122
  0
LINE
  5
238
100
AcDbEntity
  8
0
100
AcDbLine
 62
7
  6
BYLAYER
 10
26.1401188702
 20
20.3417415164
 11
26.1304819853
 21
20.3415443666
  0
LWPOLYLINE
  5
239
100
AcDbEntity
  8
0
100
AcDbPolyline
 62
7
  6
BYLAYER
 90
3
 70
0
 10
11.109009576
 20
23.4572795584
 10
11.0984243086
 20
23.4598135347
 10
10.9484167589
 20
23.5332786325
  0
LINE
  5
23A
100
AcDbEntity
  8
0
100
AcDbLine
 62
7
  6
BYLAYER
 10
20.7731026706
 20
19.8149723559
 11
12.1463559262
 21
24.7957696021
  0
LINE
  5
23B
100
AcDbEntity
  8
0
100
AcDbLine
 62
7
  6
BYLAYER
 10
12.1463559262
 20
24.7957696021
 11
10.8596763151
 21
21.4558501648
  0
LINE
  5
23C
100
AcDbEntity
  8
0
100
AcDbLine
 62
7
  6
BYLAYER
 10
10.6867395818
 20
22.3614104169
 11
11.9205360527
 21
25.5633416409
  0
LINE
  5
23D
100
AcDbEntity
  8
0
100
AcDbLine
 62
7
  6
BYLAYER
 10
11.994933016
 20
25.6973039869
 11
11.9205360527
 21
25.5633416409
  0
LINE
  5
23E
100
AcDbEntity
  8
0
100
AcDbLine
 62
7
  6
BYLAYER
 10
12.8533827017
 20
26.0201500332
 11
21.4802065087
 21
21.0397189274
  0
LINE
  5
23F
100
AcDbEntity
  8
0
100
AcDbLine
 62
7
  6
BYLAYER
 10
35.9369926012
 20
13.5911885314
 11
31.0968304697
 21
16.3855942231
  0
LINE
  5
240
100
AcDbEntity
  8
0
100
AcDbLine
 62
7
  6
BYLAYER
 10
13.3383478494
 20
26.6382269988
 11
12.9630055055
 21
26.8549260997
  0
LINE
  5
241
100
AcDbEntity
  8
0
100
AcDbLine
 62
7
  6
BYLAYER
 10
22.3701065538
 20
50.6447445603
 11
22.38338874
 21
50.6945911637
  0
LINE
  5
242
100
AcDbEntity
  8
0
100
AcDbLine
 62
7
  6
BYLAYER
 10
22.8236649381
 20
43.6158817917
 11
22.8029541688
 21
43.5701034515
  0
LWPOLYLINE
  5
243
100
AcDbEntity
  8
0
100
AcDbPolyline
 62
7
  6
BYLAYER
 90
4
 70
0
 10
12.2963569368
 20
26.0280966461
 10
12.2039782071
 20
25.940853916
 10
12.0275511619
 20
25.7402840374
 10
11.9946432864
 20
25.6973586634
  0
LINE
  5
244
100
AcDbEntity
  8
0
100
AcDbLine
 62
7
  6
BYLAYER
 10
19.5556112614
 20
25.008544655
 11
18.2981921367
 21
25.7344995018
  0
LINE
  5
245
100
AcDbEntity
  8
0
100
AcDbLine
 62
7
  6
BYLAYER
 10
18.2124098207
 20
27.4491713104
 11
18.2124098207
 21
48.26998187
  0
LINE
  5
246
100
AcDbEntity
  8
0
100
AcDbLine
 62
7
  6
BYLAYER
 10
18.6517540648
 20
26.8368040018
 11
18.6517540648
 21
47.6576156393
  0
LINE
  5
247
100
AcDbEntity
  8
0
100
AcDbLine
 62
7
  6
BYLAYER
 10
18.8345873567
 20
25.4248185831
 11
18.8345873567
 21
26.6974262903
  0
LINE
  5
248
100
AcDbEntity
  8
0
100
AcDbLine
 62
7
  6
BYLAYER
 10
18.8638769729
 20
25.4079085978
 11
18.8638769729
 21
26.6805163051
  0
LINE
  5
249
100
AcDbEntity
  8
0
100
AcDbLine
 62
7
  6
BYLAYER
 10
12.3534834574
 20
26.0696186711
 11
12.2963683996
 21
26.0280667125
  0
LINE
  5
24A
100
AcDbEntity
  8
0
100
AcDbLine
 62
7
  6
BYLAYER
 10
8.545175738
 20
24.9207593374
 11
12.0048714238
 21
26.9182036498
  0
LINE
  5
24B
100
AcDbEntity
  8
0
100
AcDbLine
 62
7
  6
BYLAYER
 10
21.9958444656
 20
31.7407125591
 11
20.8730767636
 21
31.0924861935
  0
LINE
  5
24C
100
AcDbEntity
  8
0
100
AcDbLine
 62
7
  6
BYLAYER
 10
20.8730767636
 20
31.0586665538
 11
22.0458442481
 21
31.735760135
  0
LINE
  5
24D
100
AcDbEntity
  8
0
100
AcDbLine
 62
7
  6
BYLAYER
 10
18.2124098207
 20
29.4522511925
 11
12.3534834574
 21
26.0696186711
  0
LINE
  5
24E
100
AcDbEntity
  8
0
100
AcDbLine
 62
7
  6
BYLAYER
 10
19.3795750219
 20
26.3827846333
 11
18.6724652969
 21
26.7910253877
  0
LINE
  5
24F
100
AcDbEntity
  8
0
100
AcDbLine
 62
7
  6
BYLAYER
 10
19.3588637887
 20
26.428563248
 11
18.6517540648
 21
26.8368040018
  0
LINE
  5
250
100
AcDbEntity
  8
0
100
AcDbLine
 62
7
  6
BYLAYER
 10
12.9630055055
 20
30.5291869768
 11
16.5203965991
 21
28.4753727348
  0
LINE
  5
251
100
AcDbEntity
  8
0
100
AcDbLine
 62
7
  6
BYLAYER
 10
31.0968304696
 20
20.0598551008
 11
35.9369926014
 21
17.265449409
  0
LINE
  5
252
100
AcDbEntity
  8
0
100
AcDbLine
 62
7
  6
BYLAYER
 10
36.2905445279
 20
17.8778226893
 11
31.4503823922
 21
20.6722283833
  0
LINE
  5
253
100
AcDbEntity
  8
0
100
AcDbLine
 62
7
  6
BYLAYER
 10
17.2275094802
 20
28.8836221101
 11
13.3165574078
 21
31.1415602606
  0
LINE
  5
254
100
AcDbEntity
  8
0
100
AcDbLine
 62
7
  6
BYLAYER
 10
18.6724652969
 20
26.7910253877
 11
18.6517540648
 21
26.8368040018
  0
LINE
  5
255
100
AcDbEntity
  8
0
100
AcDbLine
 62
7
  6
BYLAYER
 10
19.3588637898
 20
26.4285632474
 11
19.3795743805
 21
26.3827850036
  0
LINE
  5
256
100
AcDbEntity
  8
0
100
AcDbLine
 62
7
  6
BYLAYER
 10
19.5709867022
 20
26.303758915
 11
19.5709867015
 21
25.0174216164
  0
LINE
  5
257
100
AcDbEntity
  8
0
100
AcDbLine
 62
7
  6
BYLAYER
 10
19.7124080549
 20
25.0990707855
 11
19.7124080549
 21
26.2900713315
  0
LINE
  5
258
100
AcDbEntity
  8
0
100
AcDbLine
 62
7
  6
BYLAYER
 10
19.9952625432
 20
46.1471060274
 11
19.9952625436
 21
26.7959987446
  0
LINE
  5
259
100
AcDbEntity
  8
0
100
AcDbLine
 62
7
  6
BYLAYER
 10
20.1366838952
 20
26.7959990847
 11
20.1366838952
 21
46.1471063658
  0
LINE
  5
25A
100
AcDbEntity
  8
0
100
AcDbLine
 62
7
  6
BYLAYER
 10
20.7731026706
 20
19.8149723559
 11
20.7731026706
 21
15.732460269
  0
LINE
  5
25B
100
AcDbEntity
  8
0
100
AcDbLine
 62
7
  6
BYLAYER
 10
20.8437877395
 20
46.5553505238
 11
20.8437877395
 21
27.2042432428
  0
LINE
  5
25C
100
AcDbEntity
  8
0
100
AcDbLine
 62
7
  6
BYLAYER
 10
20.8730767636
 20
27.2450673169
 11
20.8730767636
 21
46.5961746004
  0
LINE
  5
25D
100
AcDbEntity
  8
0
100
AcDbLine
 62
7
  6
BYLAYER
 10
18.2124098207
 20
29.1141017173
 11
12.8533827017
 21
26.0201500332
  0
LINE
  5
25E
100
AcDbEntity
  8
0
100
AcDbLine
 62
7
  6
BYLAYER
 10
22.7529539737
 20
31.3275193802
 11
20.8730767636
 21
30.2421782455
  0
LINE
  5
25F
100
AcDbEntity
  8
0
100
AcDbLine
 62
7
  6
BYLAYER
 10
22.8236649427
 20
31.2050450636
 11
20.8730767636
 21
30.0788791767
  0
LINE
  5
260
100
AcDbEntity
  8
0
100
AcDbLine
 62
7
  6
BYLAYER
 10
11.2270713337
 20
24.5095713008
 11
10.2422390779
 21
23.9409815268
  0
LINE
  5
261
100
AcDbEntity
  8
0
100
AcDbLine
 62
7
  6
BYLAYER
 10
15.8939603125
 20
30.7966038048
 11
18.2124098207
 21
29.4580766387
  0
LINE
  5
262
100
AcDbEntity
  8
0
100
AcDbLine
 62
7
  6
BYLAYER
 10
31.6384832953
 20
21.7067048459
 11
35.6930324794
 21
19.3658627399
  0
LINE
  5
263
100
AcDbEntity
  8
0
100
AcDbLine
 62
7
  6
BYLAYER
 10
16.14395594
 20
30.8213678051
 11
18.2124098207
 21
29.6271724165
  0
LINE
  5
264
100
AcDbEntity
  8
0
100
AcDbLine
 62
7
  6
BYLAYER
 10
31.6725563915
 20
21.856128975
 11
35.9430282492
 21
19.3906266755
  0
LINE
  5
265
100
AcDbEntity
  8
0
100
AcDbLine
 62
7
  6
BYLAYER
 10
23.1707089298
 20
27.98358289
 11
23.9396405665
 21
27.5396500457
  0
LINE
  5
266
100
AcDbEntity
  8
0
100
AcDbLine
 62
7
  6
BYLAYER
 10
22.1873162329
 20
16.1407148784
 11
22.1873162329
 21
19.8149757554
  0
LINE
  5
267
100
AcDbEntity
  8
0
100
AcDbLine
 62
7
  6
BYLAYER
 10
22.3701065427
 20
43.3202002498
 11
22.3701065427
 21
32.3889578314
  0
LINE
  5
268
100
AcDbEntity
  8
0
100
AcDbLine
 62
7
  6
BYLAYER
 10
22.3701065427
 20
46.2694989236
 11
22.3701065427
 21
50.6447913441
  0
LINE
  5
269
100
AcDbEntity
  8
0
100
AcDbLine
 62
7
  6
BYLAYER
 10
22.3993961589
 20
32.3481334152
 11
22.399396159
 21
43.3371105167
  0
LINE
  5
26A
100
AcDbEntity
  8
0
100
AcDbLine
 62
7
  6
BYLAYER
 10
22.3993961589
 20
46.2286744957
 11
22.3993961589
 21
50.6039669227
  0
LINE
  5
26B
100
AcDbEntity
  8
0
100
AcDbLine
 62
7
  6
BYLAYER
 10
20.8730767636
 20
27.2450673176
 11
20.8437877395
 21
27.2042432434
  0
LINE
  5
26C
100
AcDbEntity
  8
0
100
AcDbLine
 62
7
  6
BYLAYER
 10
23.1065064732
 20
29.1637862002
 11
23.1357955004
 21
29.2046102755
  0
LWPOLYLINE
  5
26D
100
AcDbEntity
  8
0
100
AcDbPolyline
 62
7
  6
BYLAYER
 90
4
 70
0
 10
23.3258665622
 20
29.6886993421
 10
23.3869843267
 20
29.7439057671
 10
23.4615447314
 20
29.775533487
 10
23.5522293055
 20
29.7842372662
  0
LINE
  5
26E
100
AcDbEntity
  8
0
100
AcDbLine
 62
7
  6
BYLAYER
 10
25.9349353673
 20
30.1436011513
 11
25.2278315226
 21
29.7353569932
  0
LINE
  5
26F
100
AcDbEntity
  8
0
100
AcDbLine
 62
7
  6
BYLAYER
 10
20.8437877395
 20
27.2042432428
 11
20.1366838952
 21
26.7959990847
  0
LINE
  5
270
100
AcDbEntity
  8
0
100
AcDbLine
 62
7
  6
BYLAYER
 10
18.2981921367
 20
25.7344995018
 11
18.8345873567
 21
26.0441855779
  0
LINE
  5
271
100
AcDbEntity
  8
0
100
AcDbLine
 62
7
  6
BYLAYER
 10
23.1357955004
 20
28.5274744343
 11
23.2479189974
 21
28.592208579
  0
LINE
  5
272
100
AcDbEntity
  8
0
100
AcDbLine
 62
7
  6
BYLAYER
 10
25.7278233989
 20
29.6858152034
 11
25.0207195657
 21
29.2775710519
  0
LINE
  5
273
100
AcDbEntity
  8
0
100
AcDbLine
 62
7
  6
BYLAYER
 10
19.9295719374
 20
26.3382131438
 11
20.636675771
 21
26.7464572956
  0
LINE
  5
274
100
AcDbEntity
  8
0
100
AcDbLine
 62
7
  6
BYLAYER
 10
18.6517531092
 20
25.5303755971
 11
18.8345873567
 21
25.6359343689
  0
LINE
  5
275
100
AcDbEntity
  8
0
100
AcDbLine
 62
7
  6
BYLAYER
 10
23.1357955004
 20
28.1192232254
 11
23.2479189978
 21
28.1839573703
  0
LINE
  5
276
100
AcDbEntity
  8
0
100
AcDbLine
 62
7
  6
BYLAYER
 10
23.2479189974
 20
28.592208579
 11
24.5053381222
 21
27.8662537322
  0
LINE
  5
277
100
AcDbEntity
  8
0
100
AcDbLine
 62
7
  6
BYLAYER
 10
23.7636129078
 20
29.7303833054
 11
24.4707226498
 21
29.3221425412
  0
LINE
  5
278
100
AcDbEntity
  8
0
100
AcDbLine
 62
7
  6
BYLAYER
 10
24.4500114178
 20
29.3679211548
 11
23.7429016889
 21
29.7761619125
  0
LINE
  5
279
100
AcDbEntity
  8
0
100
AcDbLine
 62
7
  6
BYLAYER
 10
23.1065058842
 20
50.1957261681
 11
23.1065058841
 21
45.8204337411
  0
LINE
  5
27A
100
AcDbEntity
  8
0
100
AcDbLine
 62
7
  6
BYLAYER
 10
23.1065058847
 20
43.3709265012
 11
23.1065058847
 21
31.9398926598
  0
LINE
  5
27B
100
AcDbEntity
  8
0
100
AcDbLine
 62
7
  6
BYLAYER
 10
23.1065064732
 20
29.1637861977
 11
23.1065064732
 21
27.0586427239
  0
LINE
  5
27C
100
AcDbEntity
  8
0
100
AcDbLine
 62
7
  6
BYLAYER
 10
23.1357955004
 20
27.0755526507
 11
23.1357955004
 21
29.2046102755
  0
LINE
  5
27D
100
AcDbEntity
  8
0
100
AcDbLine
 62
7
  6
BYLAYER
 10
23.2479189978
 20
28.1839573703
 11
23.2479189978
 21
28.5922085792
  0
LINE
  5
27E
100
AcDbEntity
  8
0
100
AcDbLine
 62
7
  6
BYLAYER
 10
23.2479272377
 20
31.939892998
 11
23.2479272377
 21
43.370926823
  0
LINE
  5
27F
100
AcDbEntity
  8
0
100
AcDbLine
 62
7
  6
BYLAYER
 10
23.3186376224
 20
50.3182011675
 11
23.3186376224
 21
29.710526538
  0
LINE
  5
280
100
AcDbEntity
  8
0
100
AcDbLine
 62
7
  6
BYLAYER
 10
23.7429016889
 20
29.7761619125
 11
23.7429016889
 21
50.5969735493
  0
LINE
  5
281
100
AcDbEntity
  8
0
100
AcDbLine
 62
7
  6
BYLAYER
 10
23.8843654431
 20
16.0648743789
 11
23.8843654431
 21
16.7122496422
  0
LINE
  5
282
100
AcDbEntity
  8
0
100
AcDbLine
 62
7
  6
BYLAYER
 10
23.2483777901
 20
50.1958418913
 11
23.2479272385
 21
45.820434091
  0
LINE
  5
283
100
AcDbEntity
  8
0
100
AcDbLine
 62
7
  6
BYLAYER
 10
23.2479189973
 20
28.1839573702
 11
23.1707089298
 21
27.98358289
  0
LINE
  5
284
100
AcDbEntity
  8
0
100
AcDbLine
 62
7
  6
BYLAYER
 10
25.9642243915
 20
30.1844252257
 11
25.9349353673
 21
30.1436011513
  0
LINE
  5
285
100
AcDbEntity
  8
0
100
AcDbLine
 62
7
  6
BYLAYER
 10
18.7866796248
 20
25.4524774993
 11
18.8345873567
 21
25.4801368761
  0
LINE
  5
286
100
AcDbEntity
  8
0
100
AcDbLine
 62
7
  6
BYLAYER
 10
23.1357955004
 20
27.9634257325
 11
23.1707089298
 21
27.98358289
  0
LINE
  5
287
100
AcDbEntity
  8
0
100
AcDbLine
 62
7
  6
BYLAYER
 10
24.5053381222
 20
27.8662537322
 11
19.5556112614
 21
25.008544655
  0
LINE
  5
288
100
AcDbEntity
  8
0
100
AcDbLine
 62
7
  6
BYLAYER
 10
21.9958440336
 20
31.7407123097
 11
22.0458442416
 21
31.7357601313
  0
LINE
  5
289
100
AcDbEntity
  8
0
100
AcDbLine
 62
7
  6
BYLAYER
 10
25.3085364606
 20
29.4437412217
 11
30.6725563945
 21
26.346892929
  0
LINE
  5
28A
100
AcDbEntity
  8
0
100
AcDbLine
 62
7
  6
BYLAYER
 10
31.1725479079
 20
26.396420812
 11
25.6014231537
 21
29.6128384235
  0
LINE
  5
28B
100
AcDbEntity
  8
0
100
AcDbLine
 62
7
  6
BYLAYER
 10
22.0458442481
 20
31.735760135
 11
22.7529539737
 21
31.3275193802
  0
LINE
  5
28C
100
AcDbEntity
  8
0
100
AcDbLine
 62
7
  6
BYLAYER
 10
23.1065058847
 20
31.9398926598
 11
22.3993961589
 21
32.3481334152
  0
LINE
  5
28D
100
AcDbEntity
  8
0
100
AcDbLine
 62
7
  6
BYLAYER
 10
22.399396159
 20
32.348133416
 11
22.3701065427
 21
32.3889575906
  0
LINE
  5
28E
100
AcDbEntity
  8
0
100
AcDbLine
 62
7
  6
BYLAYER
 10
23.763612263
 20
29.7303836777
 11
23.7429016757
 21
29.7761619202
  0
LINE
  5
28F
100
AcDbEntity
  8
0
100
AcDbLine
 62
7
  6
BYLAYER
 10
24.4500114177
 20
29.367921156
 11
24.4707220081
 21
29.3221429116
  0
LINE
  5
290
100
AcDbEntity
  8
0
100
AcDbLine
 62
7
  6
BYLAYER
 10
23.3186376632
 20
29.7105265934
 11
23.3258695162
 21
29.688701516
  0
LINE
  5
291
100
AcDbEntity
  8
0
100
AcDbLine
 62
7
  6
BYLAYER
 10
25.0864101724
 20
49.0864639361
 11
25.0864101724
 21
29.7353566465
  0
LINE
  5
292
100
AcDbEntity
  8
0
100
AcDbLine
 62
7
  6
BYLAYER
 10
25.2278315226
 20
29.7353569932
 11
25.2278315226
 21
49.0864642745
  0
LINE
  5
293
100
AcDbEntity
  8
0
100
AcDbLine
 62
7
  6
BYLAYER
 10
25.4400268565
 20
13.0380712893
 11
25.4400268565
 21
7.3225543707
  0
LINE
  5
294
100
AcDbEntity
  8
0
100
AcDbLine
 62
7
  6
BYLAYER
 10
25.9349353673
 20
49.4947084333
 11
25.9349353673
 21
30.1436011513
  0
LINE
  5
295
100
AcDbEntity
  8
0
100
AcDbLine
 62
7
  6
BYLAYER
 10
25.9642243915
 20
49.535532508
 11
25.9642243915
 21
30.1844252249
  0
LINE
  5
296
100
AcDbEntity
  8
0
100
AcDbLine
 62
7
  6
BYLAYER
 10
30.6725563945
 20
26.346892929
 11
21.4802065087
 21
21.0397189274
  0
LINE
  5
297
100
AcDbEntity
  8
0
100
AcDbLine
 62
7
  6
BYLAYER
 10
19.411596226
 20
48.2626856797
 11
19.4158556492
 21
48.2543258285
  0
LINE
  5
298
100
AcDbEntity
  8
0
100
AcDbLine
 62
7
  6
BYLAYER
 10
28.5329101776
 20
12.6241236042
 11
28.5329101776
 21
8.9498627266
  0
LINE
  5
299
100
AcDbEntity
  8
0
100
AcDbLine
 62
7
  6
BYLAYER
 10
28.8709815429
 20
12.8972369623
 11
28.8709815429
 21
9.2229760851
  0
LINE
  5
29A
100
AcDbEntity
  8
0
100
AcDbLine
 62
7
  6
BYLAYER
 10
28.9048144633
 20
14.3035524383
 11
28.9048144633
 21
12.2622963955
  0
LINE
  5
29B
100
AcDbEntity
  8
0
100
AcDbLine
 62
7
  6
BYLAYER
 10
29.6826169062
 20
20.0598516988
 11
29.6826169062
 21
16.3855908231
  0
LINE
  5
29C
100
AcDbEntity
  8
0
100
AcDbLine
 62
7
  6
BYLAYER
 10
29.682667543
 20
7.3225645684
 11
29.682667543
 21
9.3638206109
  0
LINE
  5
29D
100
AcDbEntity
  8
0
100
AcDbLine
 62
7
  6
BYLAYER
 10
22.1873162329
 20
19.8149757554
 11
31.3796661176
 21
25.1221497563
  0
LINE
  5
29E
100
AcDbEntity
  8
0
100
AcDbLine
 62
7
  6
BYLAYER
 10
31.0968304696
 20
16.3855942232
 11
31.0968304696
 21
20.0598551008
  0
LINE
  5
29F
100
AcDbEntity
  8
0
100
AcDbLine
 62
7
  6
BYLAYER
 10
31.3796661176
 20
25.1221497563
 11
31.3796661176
 21
21.4478888786
  0
LINE
  5
2A0
100
AcDbEntity
  8
0
100
AcDbLine
 62
7
  6
BYLAYER
 10
31.6725563915
 20
21.8194614897
 11
31.6725563915
 21
25.5303905102
  0
LINE
  5
2A1
100
AcDbEntity
  8
0
100
AcDbLine
 62
7
  6
BYLAYER
 10
26.1401838655
 20
20.3419348401
 11
26.4299803
 21
20.432601648
  0
LINE
  5
2A2
100
AcDbEntity
  8
0
100
AcDbLine
 62
7
  6
BYLAYER
 10
31.6724861462
 20
21.8194819946
 11
31.6384832954
 21
21.7067048459
  0
LINE
  5
2A3
100
AcDbEntity
  8
0
100
AcDbLine
 62
7
  6
BYLAYER
 10
31.5506331845
 20
25.2541209568
 11
31.6725563915
 21
25.5303905103
  0
LINE
  5
2A4
100
AcDbEntity
  8
0
100
AcDbLine
 62
7
  6
BYLAYER
 10
22.1873162329
 20
16.1407148784
 11
23.0937993174
 21
16.6640700073
  0
LINE
  5
2A5
100
AcDbEntity
  8
0
100
AcDbLine
 62
7
  6
BYLAYER
 10
30.4731830264
 20
20.9245337459
 11
31.3796661176
 21
21.4478888786
  0
LINE
  5
2A6
100
AcDbEntity
  8
0
100
AcDbLine
 62
7
  6
BYLAYER
 10
22.3993961589
 20
46.2286745082
 11
22.3701065427
 21
46.2694989229
  0
LINE
  5
2A7
100
AcDbEntity
  8
0
100
AcDbLine
 62
7
  6
BYLAYER
 10
28.8100199395
 20
12.7591021856
 11
28.8709815429
 21
12.8972369623
  0
LINE
  5
2A8
100
AcDbEntity
  8
0
100
AcDbLine
 62
7
  6
BYLAYER
 10
22.7822339984
 20
43.558140727
 11
23.1065058847
 21
43.3709265012
  0
LINE
  5
2A9
100
AcDbEntity
  8
0
100
AcDbLine
 62
7
  6
BYLAYER
 10
35.9369926014
 20
17.265449409
 11
35.9369926014
 21
13.5911885314
  0
LINE
  5
2AA
100
AcDbEntity
  8
0
100
AcDbLine
 62
7
  6
BYLAYER
 10
36.046602079
 20
13.0380179963
 11
36.046602079
 21
10.9967619539
  0
LINE
  5
2AB
100
AcDbEntity
  8
0
100
AcDbLine
 62
7
  6
BYLAYER
 10
36.7635988481
 20
13.7018246865
 11
36.7635988481
 21
17.3760855636
  0
LINE
  5
2AC
100
AcDbEntity
  8
0
100
AcDbLine
 62
7
  6
BYLAYER
 10
36.925272903
 20
12.2214842172
 11
36.925272903
 21
17.9370011369
  0
LINE
  5
2AD
100
AcDbEntity
  8
0
100
AcDbLine
 62
7
  6
BYLAYER
 10
29.6826169066
 20
16.3855908233
 11
26.5057627563
 21
14.5514441728
  0
LINE
  5
2AE
100
AcDbEntity
  8
0
100
AcDbLine
 62
7
  6
BYLAYER
 10
21.9958440328
 20
45.6212534005
 11
22.0458442414
 21
45.6163012223
  0
LINE
  5
2AF
100
AcDbEntity
  8
0
100
AcDbLine
 62
7
  6
BYLAYER
 10
22.045844253
 20
45.616301229
 11
22.7529539786
 21
45.2080604742
  0
LINE
  5
2B0
100
AcDbEntity
  8
0
100
AcDbLine
 62
7
  6
BYLAYER
 10
18.6517540648
 20
47.6576156393
 11
19.3588637918
 21
47.2493748837
  0
LINE
  5
2B1
100
AcDbEntity
  8
0
100
AcDbLine
 62
7
  6
BYLAYER
 10
19.4295741704
 20
47.3718495404
 11
18.722464474
 21
47.7800902783
  0
LINE
  5
2B2
100
AcDbEntity
  8
0
100
AcDbLine
 62
7
  6
BYLAYER
 10
23.1065058841
 20
45.8204337411
 11
22.3993961589
 21
46.2286744957
  0
LINE
  5
2B3
100
AcDbEntity
  8
0
100
AcDbLine
 62
7
  6
BYLAYER
 10
19.4295682789
 20
48.1883344521
 11
20.1366780087
 21
47.7800936949
  0
LINE
  5
2B4
100
AcDbEntity
  8
0
100
AcDbLine
 62
7
  6
BYLAYER
 10
19.4795674387
 20
48.193287238
 11
20.1866771622
 21
47.7850464844
  0
LINE
  5
2B5
100
AcDbEntity
  8
0
100
AcDbLine
 62
7
  6
BYLAYER
 10
18.5109252005
 20
48.7665296641
 11
19.3236262769
 21
48.2973270937
  0
LINE
  5
2B6
100
AcDbEntity
  8
0
100
AcDbLine
 62
7
  6
BYLAYER
 10
18.5609249914
 20
48.7714820832
 11
19.5502761062
 21
48.2002836434
  0
LINE
  5
2B7
100
AcDbEntity
  8
0
100
AcDbLine
 62
7
  6
BYLAYER
 10
36.7635988481
 20
17.3760855634
 11
36.925272903
 21
17.9370010788
  0
LINE
  5
2B8
100
AcDbEntity
  8
0
100
AcDbLine
 62
7
  6
BYLAYER
 10
28.9048144633
 20
14.3035524383
 11
27.9199822066
 21
13.7349626638
  0
LINE
  5
2B9
100
AcDbEntity
  8
0
100
AcDbLine
 62
7
  6
BYLAYER
 10
28.8709815429
 20
12.2427630664
 11
28.9048144633
 21
12.2622963955
  0
LINE
  5
2BA
100
AcDbEntity
  8
0
100
AcDbLine
 62
7
  6
BYLAYER
 10
30.4604676324
 20
11.7724529604
 11
31.874675308
 21
12.5889412688
  0
LINE
  5
2BB
100
AcDbEntity
  8
0
100
AcDbLine
 62
7
  6
BYLAYER
 10
20.1866778031
 20
47.7850461143
 11
20.1366780087
 21
47.7800936949
  0
LINE
  5
2BC
100
AcDbEntity
  8
0
100
AcDbLine
 62
7
  6
BYLAYER
 10
19.4295682853
 20
48.1883344485
 11
19.4795674387
 21
48.193287238
  0
LINE
  5
2BD
100
AcDbEntity
  8
0
100
AcDbLine
 62
7
  6
BYLAYER
 10
22.3993961589
 20
50.6039669227
 11
23.1065058842
 21
50.1957261681
  0
LINE
  5
2BE
100
AcDbEntity
  8
0
100
AcDbLine
 62
7
  6
BYLAYER
 10
23.2483766119
 20
50.1958425698
 11
22.4201067512
 21
50.6736595562
  0
LINE
  5
2BF
100
AcDbEntity
  8
0
100
AcDbLine
 62
7
  6
BYLAYER
 10
23.1979268607
 20
50.3878934601
 11
23.3186376223
 21
50.3182011676
  0
LINE
  5
2C0
100
AcDbEntity
  8
0
100
AcDbLine
 62
7
  6
BYLAYER
 10
22.45421792
 20
50.8172636881
 11
22.4908171349
 21
50.7961342134
  0
LINE
  5
2C1
100
AcDbEntity
  8
0
100
AcDbLine
 62
7
  6
BYLAYER
 10
23.7429016889
 20
50.5969735493
 11
24.4500114186
 21
50.1887327926
  0
LINE
  5
2C2
100
AcDbEntity
  8
0
100
AcDbLine
 62
7
  6
BYLAYER
 10
22.7621268308
 20
51.1970326174
 11
23.5748279117
 21
50.7278300443
  0
LINE
  5
2C3
100
AcDbEntity
  8
0
100
AcDbLine
 62
7
  6
BYLAYER
 10
23.624827703
 20
50.7806120677
 11
22.8121266228
 21
51.2498146404
  0
LINE
  5
2C4
100
AcDbEntity
  8
0
100
AcDbLine
 62
7
  6
BYLAYER
 10
24.5207217984
 20
50.3112074481
 11
23.8136120281
 21
50.7194482287
  0
LINE
  5
2C5
100
AcDbEntity
  8
0
100
AcDbLine
 62
7
  6
BYLAYER
 10
36.046602079
 20
13.0380179963
 11
29.682667543
 21
9.3638206109
  0
LINE
  5
2C6
100
AcDbEntity
  8
0
100
AcDbLine
 62
7
  6
BYLAYER
 10
25.2778254319
 20
50.7244040217
 11
25.2278256373
 21
50.7194516029
  0
LINE
  5
2C7
100
AcDbEntity
  8
0
100
AcDbLine
 62
7
  6
BYLAYER
 10
24.5207159128
 20
51.1276923571
 11
24.5707150658
 21
51.1326451463
  0
LINE
  5
2C8
100
AcDbEntity
  8
0
100
AcDbLine
 62
7
  6
BYLAYER
 10
24.5207159182
 20
51.127692354
 11
25.2278256373
 21
50.7194516029
  0
LINE
  5
2C9
100
AcDbEntity
  8
0
100
AcDbLine
 62
7
  6
BYLAYER
 10
25.2778247903
 20
50.7244043922
 11
24.5707150658
 21
51.1326451463
  0
LINE
  5
2CA
100
AcDbEntity
  8
0
100
AcDbLine
 62
7
  6
BYLAYER
 10
29.682667543
 20
7.3225645684
 11
36.046602079
 21
10.9967619539
  0
ARC
  5
2CB
100
AcDbEntity
  8
0
100
AcDbCircle
 62
7
  6
BYLAYER
 10
25.4362504565
 20
49.0953417659
 40
3.4012587866
100
AcDbArc
 50
147.2718205665
 51
149.9964151748
  0
ARC
  5
2CC
100
AcDbEntity
  8
0
100
AcDbCircle
 62
7
  6
BYLAYER
 10
25.4088198323
 20
49.1144658715
 40
3.3678436199
100
AcDbArc
 50
141.802289693
 51
147.2932152311
  0
ARC
  5
2CD
100
AcDbEntity
  8
0
100
AcDbCircle
 62
7
  6
BYLAYER
 10
34.6110825689
 20
17.4859285015
 40
2.1690477979
100
AcDbArc
 50
55.2311260968
 51
60.0784798068
  0
ARC
  5
2CE
100
AcDbEntity
  8
0
100
AcDbCircle
 62
7
  6
BYLAYER
 10
30.6725563912
 20
25.5303905101
 40
1.0000000001
100
AcDbArc
 50
0.0042709627
 51
60.0005612406
  0
ARC
  5
2CF
100
AcDbEntity
  8
0
100
AcDbCircle
 62
7
  6
BYLAYER
 10
19.8770064489
 20
46.5551156546
 40
0.9667813124
100
AcDbArc
 50
0.0139191676
 51
1.7935982214
  0
ARC
  5
2D0
100
AcDbEntity
  8
0
100
AcDbCircle
 62
7
  6
BYLAYER
 10
24.9681541003
 20
49.4944735647
 40
0.9667812901
100
AcDbArc
 50
0.0139192054
 51
1.7935981503
  0
ARC
  5
2D1
100
AcDbEntity
  8
0
100
AcDbCircle
 62
7
  6
BYLAYER
 10
19.6581908852
 20
46.9514682361
 40
0.9568542603
100
AcDbArc
 50
58.1976930193
 51
59.9958519188
  0
ARC
  5
2D2
100
AcDbEntity
  8
0
100
AcDbCircle
 62
7
  6
BYLAYER
 10
24.749338516
 20
49.8908261471
 40
0.9568542572
100
AcDbArc
 50
58.1976929914
 51
59.9958519198
  0
ARC
  5
2D3
100
AcDbEntity
  8
0
100
AcDbCircle
 62
7
  6
BYLAYER
 10
26.9754940816
 20
20.5903534024
 40
0.8991067819
100
AcDbArc
 50
179.9833773715
 51
182.2782258136
  0
ARC
  5
2D4
100
AcDbEntity
  8
0
100
AcDbCircle
 62
7
  6
BYLAYER
 10
19.0978526403
 20
48.1582897696
 40
0.8452452832
100
AcDbArc
 50
133.9783988702
 51
137.0351152892
  0
ARC
  5
2D5
100
AcDbEntity
  8
0
100
AcDbCircle
 62
7
  6
BYLAYER
 10
19.7672827158
 20
27.1357915092
 40
0.8166871087
100
AcDbArc
 50
239.9938938994
 51
242.485139205
  0
ARC
  5
2D6
100
AcDbEntity
  8
0
100
AcDbCircle
 62
7
  6
BYLAYER
 10
24.8584303388
 20
30.0751494059
 40
0.8166870968
100
AcDbArc
 50
239.99389391
 51
242.485139133
  0
ARC
  5
2D7
100
AcDbEntity
  8
0
100
AcDbCircle
 62
7
  6
BYLAYER
 10
23.8064286738
 20
29.3102386354
 40
0.6310075394
100
AcDbArc
 50
140.6272367777
 51
141.9013761228
  0
ARC
  5
2D8
100
AcDbEntity
  8
0
100
AcDbCircle
 62
7
  6
BYLAYER
 10
23.5309969146
 20
29.3142251368
 40
0.5126622742
100
AcDbArc
 50
87.1250647107
 51
87.9253405643
  0
ARC
  5
2D9
100
AcDbEntity
  8
0
100
AcDbCircle
 62
7
  6
BYLAYER
 10
5.3969944474
 20
26.1609745304
 40
0.5
100
AcDbArc
 50
59.9747029973
 51
149.3294432689
  0
ARC
  5
2DA
100
AcDbEntity
  8
0
100
AcDbCircle
 62
7
  6
BYLAYER
 10
28.3709815431
 20
12.8972369623
 40
0.5
100
AcDbArc
 50
0.0002834639
 51
60.0006798041
  0
ARC
  5
2DB
100
AcDbEntity
  8
0
100
AcDbCircle
 62
7
  6
BYLAYER
 10
13.3165574239
 20
30.7333090537
 40
0.4999999998
100
AcDbArc
 50
101.1778898809
 51
180.0000000054
  0
ARC
  5
2DC
100
AcDbEntity
  8
0
100
AcDbCircle
 62
7
  6
BYLAYER
 10
23.53235632
 20
29.3297088577
 40
0.4971301984
100
AcDbArc
 50
79.793087126
 51
87.1920374072
  0
ARC
  5
2DD
100
AcDbEntity
  8
0
100
AcDbCircle
 62
7
  6
BYLAYER
 10
26.6570325303
 20
21.6788023555
 40
0.4267862392
100
AcDbArc
 50
27.2905209849
 51
28.8351388016
  0
ARC
  5
2DE
100
AcDbEntity
  8
0
100
AcDbCircle
 62
7
  6
BYLAYER
 10
26.1315850286
 20
20.757169481
 40
0.4155116216
100
AcDbArc
 50
269.1956931198
 51
271.177009976
  0
ARC
  5
2DF
100
AcDbEntity
  8
0
100
AcDbCircle
 62
7
  6
BYLAYER
 10
26.1817354418
 20
20.7745608179
 40
0.2549273716
100
AcDbArc
 50
247.2113678766
 51
249.0425295201
  0
ARC
  5
2E0
100
AcDbEntity
  8
0
100
AcDbCircle
 62
7
  6
BYLAYER
 10
19.4833664832
 20
48.365764907
 40
0.1737989592
100
AcDbArc
 50
206.3829020929
 51
210.0383568011
  0
ARC
  5
2E1
100
AcDbEntity
  8
0
100
AcDbCircle
 62
7
  6
BYLAYER
 10
23.7228728151
 20
50.6424304918
 40
0.1709104357
100
AcDbArc
 50
143.1325090317
 51
150.0215456997
  0
ARC
  5
2E2
100
AcDbEntity
  8
0
100
AcDbCircle
 62
7
  6
BYLAYER
 10
22.9101717249
 20
51.1116330683
 40
0.1709104259
100
AcDbArc
 50
143.1325082484
 51
150.0215451443
  0
ARC
  5
2E3
100
AcDbEntity
  8
0
100
AcDbCircle
 62
7
  6
BYLAYER
 10
5.5618091508
 20
26.4462363638
 40
0.1705110139
100
AcDbArc
 50
60.0361914024
 51
73.6218074311
  0
ARC
  5
2E4
100
AcDbEntity
  8
0
100
AcDbCircle
 62
7
  6
BYLAYER
 10
22.5667316382
 20
50.5887932539
 40
0.1694111774
100
AcDbArc
 50
149.9377937648
 51
158.7256316603
  0
ARC
  5
2E5
100
AcDbEntity
  8
0
100
AcDbCircle
 62
7
  6
BYLAYER
 10
19.4752714948
 20
48.3617347802
 40
0.1647562509
100
AcDbArc
 50
203.0121997634
 51
206.378306819
  0
ARC
  5
2E6
100
AcDbEntity
  8
0
100
AcDbCircle
 62
7
  6
BYLAYER
 10
22.9041480956
 20
51.1159111639
 40
0.1635247691
100
AcDbArc
 50
137.4485768912
 51
143.0654486932
  0
ARC
  5
2E7
100
AcDbEntity
  8
0
100
AcDbCircle
 62
7
  6
BYLAYER
 10
19.3236262802
 20
48.215676849
 40
0.1000000008
100
AcDbArc
 50
22.7379300036
 51
60.0005650013
  0
ARC
  5
2E8
100
AcDbEntity
  8
0
100
AcDbCircle
 62
7
  6
BYLAYER
 10
19.5002763144
 20
48.1136809834
 40
0.1000000003
100
AcDbArc
 50
6.0508618628
 51
59.9957103693
  0
ARC
  5
2E9
100
AcDbEntity
  8
0
100
AcDbCircle
 62
7
  6
BYLAYER
 10
18.5109251989
 20
48.6848794229
 40
0.0999999996
100
AcDbArc
 50
60.0005574594
 51
134.8566930209
  0
ARC
  5
2EA
100
AcDbEntity
  8
0
100
AcDbCircle
 62
7
  6
BYLAYER
 10
19.4900548129
 20
48.1306219871
 40
0.096815155
100
AcDbArc
 50
2.1427233645
 51
8.8042079359
  0
SPLINE
  5
2EB
100
AcDbEntity
  8
0
100
AcDbSpline
 62
7
  6
BYLAYER
 70
0
 71
3
 72
14
 73
10
 74
0
 42
0.0000001
 43
0.0000001
 44
0.0000000001
 40
0.0
 40
0.0
 40
0.0
 40
0.0
 40
0.1485935507
 40
0.2896325823
 40
0.548444204
 40
0.667848121
 40
0.7818428013
 40
0.8919403448
 40
1.0
 40
1.0
 40
1.0
 40
1.0
 10
5.6409545523
 20
18.7532954973
 30
0.0
 10
5.5733201138
 20
18.7923433752
 30
0.0
 10
5.444526042
 20
18.8740158967
 30
0.0
 10
5.2163943568
 20
19.0505051465
 30
0.0
 10
5.0262753465
 20
19.2505533478
 30
0.0
 10
4.8888534679
 20
19.4706091685
 30
0.0
 10
4.8161451012
 20
19.6366450179
 30
0.0
 10
4.7721557904
 20
19.8063483632
 30
0.0
 10
4.762271187
 20
19.9212344872
 30
0.0
 10
4.7622711856
 20
19.9780279589
 30
0.0
  0
SPLINE
  5
2EC
100
AcDbEntity
  8
0
100
AcDbSpline
 62
7
  6
BYLAYER
 70
0
 71
3
 72
17
 73
13
 74
0
 42
0.0000001
 43
0.0000001
 44
0.0000000001
 40
0.0
 40
0.0
 40
0.0
 40
0.0
 40
0.0558318892
 40
0.114220514
 40
0.2373710272
 40
0.3669983383
 40
0.4999994972
 40
0.6330007256
 40
0.7626282418
 40
0.8857790746
 40
0.9441678938
 40
1.0
 40
1.0
 40
1.0
 40
1.0
 10
29.6826675433
 20
7.3225645686
 30
0.0
 10
29.6116292431
 20
7.2815508317
 30
0.0
 10
29.4625870046
 20
7.2039461803
 30
0.0
 10
29.1415586452
 20
7.0670228708
 30
0.0
 10
28.7026960366
 20
6.9336585956
 30
0.0
 10
28.1429438398
 20
6.8369382676
 30
0.0
 10
27.5613507018
 20
6.8042879581
 30
0.0
 10
26.9797571102
 20
6.8369355217
 30
0.0
 10
26.4200035756
 20
6.9336532043
 30
0.0
 10
25.9811392322
 20
7.0670153555
 30
0.0
 10
25.6601090293
 20
7.2039370725
 30
0.0
 10
25.5110657286
 20
7.2815409866
 30
0.0
 10
25.4400268565
 20
7.3225543707
 30
0.0
  0
SPLINE
  5
2ED
100
AcDbEntity
  8
0
100
AcDbSpline
 62
7
  6
BYLAYER
 70
0
 71
3
 72
15
 73
11
 74
0
 42
0.0000001
 43
0.0000001
 44
0.0000000001
 40
0.0
 40
0.0
 40
0.0
 40
0.0
 40
0.1210906558
 40
0.2481156392
 40
0.3788325188
 40
0.5106947811
 40
0.6411118962
 40
0.7675532619
 40
0.8878290433
 40
1.0
 40
1.0
 40
1.0
 40
1.0
 10
31.5635055296
 20
12.4103333195
 30
0.0
 10
31.460420991
 20
12.4504676429
 30
0.0
 10
31.2437423604
 20
12.5191251543
 30
0.0
 10
30.903696445
 20
12.5866350506
 30
0.0
 10
30.5487177059
 20
12.6198821931
 30
0.0
 10
30.1891202873
 20
12.6178262526
 30
0.0
 10
29.8353690816
 20
12.5805314943
 30
0.0
 10
29.4976267412
 20
12.5091277018
 30
0.0
 10
29.1858043558
 20
12.4055945281
 30
0.0
 10
28.993559046
 20
12.3135327983
 30
0.0
 10
28.9048144628
 20
12.2622963952
 30
0.0
  0
SPLINE
  5
2EE
100
AcDbEntity
  8
0
100
AcDbSpline
 62
7
  6
BYLAYER
 70
0
 71
3
 72
15
 73
11
 74
0
 42
0.0000001
 43
0.0000001
 44
0.0000000001
 40
0.0
 40
0.0
 40
0.0
 40
0.0
 40
0.1125193704
 40
0.233481027
 40
0.3606251513
 40
0.491614421
 40
0.6237620248
 40
0.7542718653
 40
0.8804733725
 40
1.0
 40
1.0
 40
1.0
 40
1.0
 10
26.0763873375
 20
20.5906142509
 30
0.0
 10
26.0763873375
 20
20.6410768099
 30
0.0
 10
26.084776073
 20
20.745871656
 30
0.0
 10
26.1183856233
 20
20.9044433819
 30
0.0
 10
26.1726680515
 20
21.0659363694
 30
0.0
 10
26.2458505699
 20
21.2252770666
 30
0.0
 10
26.3356296981
 20
21.3776403667
 30
0.0
 10
26.4393174244
 20
21.5182690666
 30
0.0
 10
26.5536468938
 20
21.6428042144
 30
0.0
 10
26.6374005166
 20
21.714962589
 30
0.0
 10
26.6803332368
 20
21.747060803
 30
0.0
  0
SPLINE
  5
2EF
100
AcDbEntity
  8
0
100
AcDbSpline
 62
7
  6
BYLAYER
 70
0
 71
3
 72
14
 73
10
 74
0
 42
0.0000001
 43
0.0000001
 44
0.0000000001
 40
0.0
 40
0.0
 40
0.0
 40
0.0
 40
0.2966707642
 40
0.4322258931
 40
0.5590637184
 40
0.6777657379
 40
0.7894971332
 40
0.8961162385
 40
1.0
 40
1.0
 40
1.0
 40
1.0
 10
26.6803332368
 20
21.747060803
 30
0.0
 10
26.7317472725
 20
21.7854999867
 30
0.0
 10
26.8116705708
 20
21.8356362006
 30
0.0
 10
26.9236739444
 20
21.8819610741
 30
0.0
 10
27.0034634198
 20
21.9037635331
 30
0.0
 10
27.0804745406
 20
21.9133702574
 30
0.0
 10
27.1537193005
 20
21.9104070805
 30
0.0
 10
27.2221185795
 20
21.8949206162
 30
0.0
 10
27.2640093107
 20
21.8761175248
 30
0.0
 10
27.283472154
 20
21.86487059
 30
0.0
  0
SPLINE
  5
2F0
100
AcDbEntity
  8
0
100
AcDbSpline
 62
7
  6
BYLAYER
 70
0
 71
3
 72
12
 73
8
 74
0
 42
0.0000001
 43
0.0000001
 44
0.0000000001
 40
0.0
 40
0.0
 40
0.0
 40
0.0
 40
0.1113521671
 40
0.228124476
 40
0.474877238
 40
0.7345328568
 40
1.0
 40
1.0
 40
1.0
 40
1.0
 10
30.4604676329
 20
11.7724529607
 30
0.0
 10
30.4075062489
 20
11.7418758739
 30
0.0
 10
30.2960476307
 20
11.6842509173
 30
0.0
 10
30.055224257
 20
11.5835738401
 30
0.0
 10
29.7252801239
 20
11.4879678062
 30
0.0
 10
29.3052842387
 20
11.4236003545
 30
0.0
 10
29.0161913864
 20
11.4146559795
 30
0.0
 10
28.8704580062
 20
11.4188656117
 30
0.0
  0
SPLINE
  5
2F1
100
AcDbEntity
  8
0
100
AcDbSpline
 62
7
  6
BYLAYER
 70
0
 71
3
 72
12
 73
8
 74
0
 42
0.0000001
 43
0.0000001
 44
0.0000000001
 40
0.0
 40
0.0
 40
0.0
 40
0.0
 40
0.1094630496
 40
0.2207468762
 40
0.4547380862
 40
0.7129924927
 40
1.0
 40
1.0
 40
1.0
 40
1.0
 10
26.2835101955
 20
20.1328462195
 30
0.0
 10
26.2680547826
 20
20.1417773926
 30
0.0
 10
26.2382878484
 20
20.1623443313
 30
0.0
 10
26.1844620918
 20
20.2137321223
 30
0.0
 10
26.1299912315
 20
20.297445151
 30
0.0
 10
26.0895193863
 20
20.4189716909
 30
0.0
 10
26.0789631646
 20
20.5078463186
 30
0.0
 10
26.0770979768
 20
20.5546120516
 30
0.0
  0
SPLINE
  5
2F2
100
AcDbEntity
  8
0
100
AcDbSpline
 62
7
  6
BYLAYER
 70
0
 71
3
 72
9
 73
5
 74
0
 42
0.0000001
 43
0.0000001
 44
0.0000000001
 40
0.0
 40
0.0
 40
0.0
 40
0.0
 40
0.516879188
 40
1.0
 40
1.0
 40
1.0
 40
1.0
 10
12.8142195669
 20
27.2510923893
 30
0.0
 10
12.6687713941
 20
27.2102633788
 30
0.0
 10
12.3913090559
 20
27.1162214261
 30
0.0
 10
12.1271573661
 20
26.9888050505
 30
0.0
 10
12.0048714236
 20
26.9182036502
 30
0.0
  0
SPLINE
  5
2F3
100
AcDbEntity
  8
0
100
AcDbSpline
 62
7
  6
BYLAYER
 70
0
 71
3
 72
15
 73
11
 74
0
 42
0.0000001
 43
0.0000001
 44
0.0000000001
 40
0.0
 40
0.0
 40
0.0
 40
0.0
 40
0.1105616378
 40
0.2334128539
 40
0.3645991508
 40
0.4999942147
 40
0.6353906461
 40
0.7665804242
 40
0.889434825
 40
1.0
 40
1.0
 40
1.0
 40
1.0
 10
22.3701065411
 20
32.3889578308
 30
0.0
 10
22.3701065414
 20
32.3603328723
 30
0.0
 10
22.3645852608
 20
32.2998589032
 30
0.0
 10
22.3430007923
 20
32.2077172242
 30
0.0
 10
22.307978351
 20
32.1129081534
 30
0.0
 10
22.260918763
 20
32.0198396695
 30
0.0
 10
22.2038495902
 20
31.9325491764
 30
0.0
 10
22.1392543071
 20
31.854811042
 30
0.0
 10
22.0702473994
 20
31.7900458962
 30
0.0
 10
22.0206352374
 20
31.7550254336
 30
0.0
 10
21.995844466
 20
31.7407125606
 30
0.0
  0
SPLINE
  5
2F4
100
AcDbEntity
  8
0
100
AcDbSpline
 62
7
  6
BYLAYER
 70
0
 71
3
 72
11
 73
7
 74
0
 42
0.0000001
 43
0.0000001
 44
0.0000000001
 40
0.0
 40
0.0
 40
0.0
 40
0.0
 40
0.3409002239
 40
0.6166331578
 40
0.8305237586
 40
1.0
 40
1.0
 40
1.0
 40
1.0
 10
22.8029537405
 20
43.5701031964
 30
0.0
 10
22.8236619201
 20
43.582058999
 30
0.0
 10
22.8628856515
 20
43.6009701552
 30
0.0
 10
22.919852327
 20
43.6151898703
 30
0.0
 10
22.966737739
 20
43.6149551163
 30
0.0
 10
22.9926547489
 20
43.6057632471
 30
0.0
 10
23.0029497236
 20
43.5998195754
 30
0.0
  0
SPLINE
  5
2F5
100
AcDbEntity
  8
0
100
AcDbSpline
 62
7
  6
BYLAYER
 70
0
 71
3
 72
15
 73
11
 74
0
 42
0.0000001
 43
0.0000001
 44
0.0000000001
 40
0.0
 40
0.0
 40
0.0
 40
0.0
 40
0.1158412527
 40
0.2392675588
 40
0.3681373602
 40
0.5000038437
 40
0.6318698217
 40
0.760738047
 40
0.8841603965
 40
1.0
 40
1.0
 40
1.0
 40
1.0
 10
20.8730767737
 20
46.5961746048
 30
0.0
 10
20.8730767721
 20
46.6512645043
 30
0.0
 10
20.8632012836
 20
46.7651633762
 30
0.0
 10
20.8237099875
 20
46.9361977303
 30
0.0
 10
20.76060746
 20
47.1081224783
 30
0.0
 10
20.6763539445
 20
47.2751857608
 30
0.0
 10
20.5737984412
 20
47.4316814055
 30
0.0
 10
20.4564589128
 20
47.5722887228
 30
0.0
 10
20.3280862652
 20
47.6920032932
 30
0.0
 10
20.23438601
 20
47.757502398
 30
0.0
 10
20.1866771676
 20
47.7850464894
 30
0.0
  0
SPLINE
  5
2F6
100
AcDbEntity
  8
0
100
AcDbSpline
 62
7
  6
BYLAYER
 70
0
 71
3
 72
13
 73
9
 74
0
 42
0.0000001
 43
0.0000001
 44
0.0000000001
 40
0.0
 40
0.0
 40
0.0
 40
0.0
 40
0.1161904199
 40
0.2326571094
 40
0.3508389075
 40
0.4719853556
 40
0.7262349274
 40
1.0
 40
1.0
 40
1.0
 40
1.0
 10
19.9295719351
 20
26.3382131429
 30
0.0
 10
19.9102045456
 20
26.3270314421
 30
0.0
 10
19.8694454258
 20
26.3078936978
 30
0.0
 10
19.8041778238
 20
26.2895261889
 30
0.0
 10
19.7359022483
 20
26.2814601455
 30
0.0
 10
19.6406533173
 20
26.2841196334
 30
0.0
 10
19.5176826927
 20
26.3127133464
 30
0.0
 10
19.4252081858
 20
26.3564389033
 30
0.0
 10
19.379575018
 20
26.3827846275
 30
0.0
  0
SPLINE
  5
2F7
100
AcDbEntity
  8
0
100
AcDbSpline
 62
7
  6
BYLAYER
 70
0
 71
3
 72
13
 73
9
 74
0
 42
0.0000001
 43
0.0000001
 44
0.0000000001
 40
0.0
 40
0.0
 40
0.0
 40
0.0
 40
0.1161900838
 40
0.2326564627
 40
0.3508380226
 40
0.4719843479
 40
0.726234141
 40
1.0
 40
1.0
 40
1.0
 40
1.0
 10
20.6366757724
 20
26.7464572968
 30
0.0
 10
20.6560435807
 20
26.7576392394
 30
0.0
 10
20.6929978103
 20
26.7833692443
 30
0.0
 10
20.7415394094
 20
26.8307099472
 30
0.0
 10
20.782663364
 20
26.8858066881
 30
0.0
 10
20.8279852946
 20
26.9696267108
 30
0.0
 10
20.8647077045
 20
27.0904227025
 30
0.0
 10
20.8730767696
 20
27.1923735318
 30
0.0
 10
20.8730767706
 20
27.2450673199
 30
0.0
  0
SPLINE
  5
2F8
100
AcDbEntity
  8
0
100
AcDbSpline
 62
7
  6
BYLAYER
 70
0
 71
3
 72
9
 73
5
 74
0
 42
0.0000001
 43
0.0000001
 44
0.0000000001
 40
0.0
 40
0.0
 40
0.0
 40
0.0
 40
0.5645083732
 40
1.0
 40
1.0
 40
1.0
 40
1.0
 10
19.4795674373
 20
48.1932872398
 30
0.0
 10
19.468494214
 20
48.1996802233
 30
0.0
 10
19.4495903286
 20
48.2123464726
 30
0.0
 10
19.4332127055
 20
48.2282606976
 30
0.0
 10
19.4270710517
 20
48.2359793364
 30
0.0
  0
SPLINE
  5
2F9
100
AcDbEntity
  8
0
100
AcDbSpline
 62
7
  6
BYLAYER
 70
0
 71
3
 72
9
 73
5
 74
0
 42
0.0000001
 43
0.0000001
 44
0.0000000001
 40
0.0
 40
0.0
 40
0.0
 40
0.0
 40
0.2938773771
 40
1.0
 40
1.0
 40
1.0
 40
1.0
 10
19.4270710517
 20
48.2359793364
 30
0.0
 10
19.4257572134
 20
48.2376305274
 30
0.0
 10
19.4214556729
 20
48.2433771139
 30
0.0
 10
19.417815294
 20
48.2496494284
 30
0.0
 10
19.4158557436
 20
48.2543256021
 30
0.0
  0
SPLINE
  5
2FA
100
AcDbEntity
  8
0
100
AcDbSpline
 62
7
  6
BYLAYER
 70
0
 71
3
 72
11
 73
7
 74
0
 42
0.0000001
 43
0.0000001
 44
0.0000000001
 40
0.0
 40
0.0
 40
0.0
 40
0.0
 40
0.238392726
 40
0.4813712163
 40
0.7340452384
 40
1.0
 40
1.0
 40
1.0
 40
1.0
 10
18.2124098209
 20
48.2699818993
 30
0.0
 10
18.2124098232
 20
48.3138583789
 30
0.0
 10
18.2228667054
 20
48.4027802892
 30
0.0
 10
18.2687792999
 20
48.5309183877
 30
0.0
 10
18.3423523382
 20
48.6512319645
 30
0.0
 10
18.4062503243
 20
48.722826934
 30
0.0
 10
18.4414687602
 20
48.7568224691
 30
0.0
  0
SPLINE
  5
2FB
100
AcDbEntity
  8
0
100
AcDbSpline
 62
7
  6
BYLAYER
 70
0
 71
3
 72
13
 73
9
 74
0
 42
0.0000001
 43
0.0000001
 44
0.0000000001
 40
0.0
 40
0.0
 40
0.0
 40
0.0
 40
0.2784630851
 40
0.5338489814
 40
0.6545045427
 40
0.7716980217
 40
0.8864326716
 40
1.0
 40
1.0
 40
1.0
 40
1.0
 10
18.6724654895
 20
26.79102571
 30
0.0
 10
18.6049183955
 20
26.8300231608
 30
0.0
 10
18.4811352602
 20
26.9155857797
 30
0.0
 10
18.354137983
 20
27.0504235329
 30
0.0
 10
18.2812905042
 20
27.1683070942
 30
0.0
 10
18.2419540611
 20
27.2593103927
 30
0.0
 10
18.2177848434
 20
27.3534373819
 30
0.0
 10
18.2124456576
 20
27.417520879
 30
0.0
 10
18.2124599481
 20
27.4493305603
 30
0.0
  0
SPLINE
  5
2FC
100
AcDbEntity
  8
0
100
AcDbSpline
 62
7
  6
BYLAYER
 70
0
 71
3
 72
13
 73
9
 74
0
 42
0.0000001
 43
0.0000001
 44
0.0000000001
 40
0.0
 40
0.0
 40
0.0
 40
0.0
 40
0.1161904199
 40
0.2326571094
 40
0.3508389075
 40
0.4719853556
 40
0.7262349274
 40
1.0
 40
1.0
 40
1.0
 40
1.0
 10
25.020719563
 20
29.2775710507
 30
0.0
 10
25.0013521736
 20
29.26638935
 30
0.0
 10
24.9605930537
 20
29.2472516057
 30
0.0
 10
24.8953254518
 20
29.2288840967
 30
0.0
 10
24.8270498762
 20
29.2208180533
 30
0.0
 10
24.7318009452
 20
29.2234775413
 30
0.0
 10
24.6088303206
 20
29.2520712543
 30
0.0
 10
24.5163558137
 20
29.2957968111
 30
0.0
 10
24.4707226458
 20
29.3221425353
 30
0.0
  0
SPLINE
  5
2FD
100
AcDbEntity
  8
0
100
AcDbSpline
 62
7
  6
BYLAYER
 70
0
 71
3
 72
13
 73
9
 74
0
 42
0.0000001
 43
0.0000001
 44
0.0000000001
 40
0.0
 40
0.0
 40
0.0
 40
0.0
 40
0.1161900838
 40
0.2326564627
 40
0.3508380226
 40
0.4719843479
 40
0.726234141
 40
1.0
 40
1.0
 40
1.0
 40
1.0
 10
25.7278234003
 20
29.6858152047
 30
0.0
 10
25.7471912087
 20
29.6969971473
 30
0.0
 10
25.7841454383
 20
29.7227271522
 30
0.0
 10
25.8326870373
 20
29.770067855
 30
0.0
 10
25.8738109919
 20
29.825164596
 30
0.0
 10
25.9191329225
 20
29.9089846187
 30
0.0
 10
25.9558553324
 20
30.0297806103
 30
0.0
 10
25.9642243975
 20
30.1317314396
 30
0.0
 10
25.9642243985
 20
30.1844252277
 30
0.0
  0
SPLINE
  5
2FE
100
AcDbEntity
  8
0
100
AcDbSpline
 62
7
  6
BYLAYER
 70
0
 71
3
 72
15
 73
11
 74
0
 42
0.0000001
 43
0.0000001
 44
0.0000000001
 40
0.0
 40
0.0
 40
0.0
 40
0.0
 40
0.1158412527
 40
0.2392675588
 40
0.3681373601
 40
0.5000038436
 40
0.6318698217
 40
0.760738047
 40
0.8841603965
 40
1.0
 40
1.0
 40
1.0
 40
1.0
 10
25.9642244015
 20
49.5355325124
 30
0.0
 10
25.9642243999
 20
49.5906224118
 30
0.0
 10
25.9543489115
 20
49.7045212837
 30
0.0
 10
25.9148576155
 20
49.8755556379
 30
0.0
 10
25.8517550881
 20
50.0474803859
 30
0.0
 10
25.7675015726
 20
50.2145436684
 30
0.0
 10
25.6649460694
 20
50.3710393131
 30
0.0
 10
25.547606541
 20
50.5116466305
 30
0.0
 10
25.4192338933
 20
50.6313612009
 30
0.0
 10
25.3255336381
 20
50.6968603057
 30
0.0
 10
25.2778247957
 20
50.724404397
 30
0.0
  0
SPLINE
  5
2FF
100
AcDbEntity
  8
0
100
AcDbSpline
 62
7
  6
BYLAYER
 70
0
 71
3
 72
10
 73
6
 74
0
 42
0.0000001
 43
0.0000001
 44
0.0000000001
 40
0.0
 40
0.0
 40
0.0
 40
0.0
 40
0.2171280387
 40
0.4617615709
 40
1.0
 40
1.0
 40
1.0
 40
1.0
 10
23.763612901
 20
29.730383304
 30
0.0
 10
23.7498315437
 20
29.7383397947
 30
0.0
 10
23.7190663374
 20
29.7527906157
 30
0.0
 10
23.6491215074
 20
29.7750939549
 30
0.0
 10
23.591648019
 20
29.7828068495
 30
0.0
 10
23.552226606
 20
29.7842367677
 30
0.0
  0
SPLINE
  5
300
100
AcDbEntity
  8
0
100
AcDbSpline
 62
7
  6
BYLAYER
 70
0
 71
3
 72
15
 73
11
 74
0
 42
0.0000001
 43
0.0000001
 44
0.0000000001
 40
0.0
 40
0.0
 40
0.0
 40
0.0
 40
0.1229025826
 40
0.2506447809
 40
0.3809926812
 40
0.5119093614
 40
0.6411844122
 40
0.7667270035
 40
0.8868812799
 40
1.0
 40
1.0
 40
1.0
 40
1.0
 10
22.7794943233
 20
51.2626902225
 30
0.0
 10
22.8509286457
 20
51.2873580421
 30
0.0
 10
22.9996818401
 20
51.3290697683
 30
0.0
 10
23.2309482691
 20
51.3687207001
 30
0.0
 10
23.4699144681
 20
51.38588468
 30
0.0
 10
23.7103531283
 20
51.3801897032
 30
0.0
 10
23.9462272577
 20
51.3519009084
 30
0.0
 10
24.17166708
 20
51.3015080995
 30
0.0
 10
24.3808880895
 20
51.230072963
 30
0.0
 10
24.5104762438
 20
51.1674232539
 30
0.0
 10
24.5707150654
 20
51.1326451395
 30
0.0
  0
SPLINE
  5
301
100
AcDbEntity
  8
0
100
AcDbSpline
 62
7
  6
BYLAYER
 70
0
 71
3
 72
11
 73
7
 74
0
 42
0.0000001
 43
0.0000001
 44
0.0000000001
 40
0.0
 40
0.0
 40
0.0
 40
0.0
 40
0.2211152881
 40
0.471011802
 40
0.7355412455
 40
1.0
 40
1.0
 40
1.0
 40
1.0
 10
23.1357955033
 20
29.2046102827
 30
0.0
 10
23.1357955033
 20
29.2435670207
 30
0.0
 10
23.1459233004
 20
29.3266141756
 30
0.0
 10
23.1839958912
 20
29.4510182393
 30
0.0
 10
23.2439762926
 20
29.5749979657
 30
0.0
 10
23.2966707391
 20
29.6523769017
 30
0.0
 10
23.3258619369
 20
29.6886920845
 30
0.0
  0
SPLINE
  5
302
100
AcDbEntity
  8
0
100
AcDbSpline
 62
7
  6
BYLAYER
 70
0
 71
3
 72
15
 73
11
 74
0
 42
0.0000001
 43
0.0000001
 44
0.0000000001
 40
0.0
 40
0.0
 40
0.0
 40
0.0
 40
0.1105616377
 40
0.2334128537
 40
0.3645991506
 40
0.4999942145
 40
0.635390646
 40
0.7665804241
 40
0.889434825
 40
1.0
 40
1.0
 40
1.0
 40
1.0
 10
22.3701065412
 20
46.2694989229
 30
0.0
 10
22.3701065414
 20
46.2408739644
 30
0.0
 10
22.3645852609
 20
46.1803999953
 30
0.0
 10
22.3430007925
 20
46.0882583162
 30
0.0
 10
22.3079783513
 20
45.9934492452
 30
0.0
 10
22.2609187633
 20
45.9003807612
 30
0.0
 10
22.2038495905
 20
45.813090268
 30
0.0
 10
22.1392543073
 20
45.7353521334
 30
0.0
 10
22.0702473995
 20
45.6705869875
 30
0.0
 10
22.0206352374
 20
45.6355665248
 30
0.0
 10
21.995844466
 20
45.6212536518
 30
0.0
  0
SPLINE
  5
303
100
AcDbEntity
  8
0
100
AcDbSpline
 62
7
  6
BYLAYER
 70
0
 71
3
 72
14
 73
10
 74
0
 42
0.0000001
 43
0.0000001
 44
0.0000000001
 40
0.0
 40
0.0
 40
0.0
 40
0.0
 40
0.1145502626
 40
0.2339994583
 40
0.3575060433
 40
0.4843295933
 40
0.7429913897
 40
0.87245332
 40
1.0
 40
1.0
 40
1.0
 40
1.0
 10
16.1439559778
 20
30.8213678185
 30
0.0
 10
16.0444273747
 20
30.8788293781
 30
0.0
 10
15.8338880984
 20
30.9839981876
 30
0.0
 10
15.497577489
 20
31.110212567
 30
0.0
 10
15.1389007735
 20
31.2071437919
 30
0.0
 10
14.6356657005
 20
31.2966287873
 30
0.0
 10
14.1169436961
 20
31.323301181
 30
0.0
 10
13.6004423275
 20
31.2875635291
 30
0.0
 10
13.3451546652
 20
31.248631284
 30
0.0
 10
13.2196186656
 20
31.2238219406
 30
0.0
  0
SPLINE
  5
304
100
AcDbEntity
  8
0
100
AcDbSpline
 62
7
  6
BYLAYER
 70
0
 71
3
 72
11
 73
7
 74
0
 42
0.0000001
 43
0.0000001
 44
0.0000000001
 40
0.0
 40
0.0
 40
0.0
 40
0.0
 40
0.2525332411
 40
0.5027348842
 40
0.7515862516
 40
1.0
 40
1.0
 40
1.0
 40
1.0
 10
4.9669034221
 20
26.4159681073
 30
0.0
 10
4.9343020005
 20
26.3609801412
 30
0.0
 10
4.8758416231
 20
26.2475068355
 30
0.0
 10
4.811055822
 20
26.0680459854
 30
0.0
 10
4.7711989387
 20
25.8824870765
 30
0.0
 10
4.7622660631
 20
25.7564281179
 30
0.0
 10
4.7622660602
 20
25.6935449556
 30
0.0
  0
SPLINE
  5
305
100
AcDbEntity
  8
0
100
AcDbSpline
 62
7
  6
BYLAYER
 70
0
 71
3
 72
22
 73
18
 74
0
 42
0.0000001
 43
0.0000001
 44
0.0000000001
 40
0.0
 40
0.0
 40
0.0
 40
0.0
 40
0.0021391715
 40
0.0042752235
 40
0.007235086
 40
0.0116399816
 40
0.0253709659
 40
0.0466871891
 40
0.0766730531
 40
0.1163449994
 40
0.1668707084
 40
0.2295282736
 40
0.3048814014
 40
0.3924614644
 40
0.4918018453
 40
0.7242694512
 40
1.0
 40
1.0
 40
1.0
 40
1.0
 10
23.5914751671
 20
16.3040088851
 30
0.0
 10
23.5914751671
 20
16.3041991022
 30
0.0
 10
23.5913814595
 20
16.3049218098
 30
0.0
 10
23.5913899347
 20
16.3037993746
 30
0.0
 10
23.5915379108
 20
16.3031569225
 30
0.0
 10
23.5919335118
 20
16.3011998922
 30
0.0
 10
23.5929771954
 20
16.2979453876
 30
0.0
 10
23.5950479298
 20
16.2924884304
 30
0.0
 10
23.598488858
 20
16.2851817894
 30
0.0
 10
23.6037622294
 20
16.2758654943
 30
0.0
 10
23.6113115778
 20
16.2645529412
 30
0.0
 10
23.6215414245
 20
16.2512552278
 30
0.0
 10
23.6347166262
 20
16.2361145346
 30
0.0
 10
23.6509991975
 20
16.2194010496
 30
0.0
 10
23.6784636435
 20
16.1941464835
 30
0.0
 10
23.721322157
 20
16.161086856
 30
0.0
 10
23.759581639
 20
16.1369167179
 30
0.0
 10
23.7808151636
 20
16.1246578143
 30
0.0
  0
SPLINE
  5
306
100
AcDbEntity
  8
0
100
AcDbSpline
 62
7
  6
BYLAYER
 70
0
 71
3
 72
14
 73
10
 74
0
 42
0.0000001
 43
0.0000001
 44
0.0000000001
 40
0.0
 40
0.0
 40
0.0
 40
0.0
 40
0.1080599057
 40
0.2181576606
 40
0.3321524822
 40
0.4515564544
 40
0.710367899
 40
0.8514067111
 40
1.0
 40
1.0
 40
1.0
 40
1.0
 10
36.9252677814
 20
12.2214842172
 30
0.0
 10
36.9252677828
 20
12.1646913467
 30
0.0
 10
36.9153833891
 20
12.0498064668
 30
0.0
 10
36.8713950223
 20
11.8801049007
 30
0.0
 10
36.7986881944
 20
11.7140707089
 30
0.0
 10
36.6612692322
 20
11.4940170152
 30
0.0
 10
36.471154111
 20
11.2939703236
 30
0.0
 10
36.2430268582
 20
11.1174819914
 30
0.0
 10
36.1142352436
 20
11.0358097466
 30
0.0
 10
36.0466020787
 20
10.9967619538
 30
0.0
  0
SPLINE
  5
307
100
AcDbEntity
  8
0
100
AcDbSpline
 62
7
  6
BYLAYER
 70
0
 71
3
 72
13
 73
9
 74
0
 42
0.0000001
 43
0.0000001
 44
0.0000000001
 40
0.0
 40
0.0
 40
0.0
 40
0.0
 40
0.1196202119
 40
0.2391109792
 40
0.3597327643
 40
0.4820155833
 40
0.7336260194
 40
1.0
 40
1.0
 40
1.0
 40
1.0
 10
36.9252729068
 20
17.9370011362
 30
0.0
 10
36.925272906
 20
18.0102210745
 30
0.0
 10
36.9131589729
 20
18.1568653336
 30
0.0
 10
36.8594423348
 20
18.37132681
 30
0.0
 10
36.7724962092
 20
18.5763242131
 30
0.0
 10
36.6152671581
 20
18.8360409158
 30
0.0
 10
36.3461805144
 20
19.1267036006
 30
0.0
 10
36.0842331294
 20
19.3091038502
 30
0.0
 10
35.9430282587
 20
19.3906266776
 30
0.0
  0
SPLINE
  5
308
100
AcDbEntity
  8
0
100
AcDbSpline
 62
7
  6
BYLAYER
 70
0
 71
3
 72
15
 73
11
 74
0
 42
0.0000001
 43
0.0000001
 44
0.0000000001
 40
0.0
 40
0.0
 40
0.0
 40
0.0
 40
0.1080104539
 40
0.2180640309
 40
0.3319995658
 40
0.4513356273
 40
0.5772425727
 40
0.7105237624
 40
0.8515187675
 40
1.0
 40
1.0
 40
1.0
 40
1.0
 10
32.4897294484
 20
13.4462468532
 30
0.0
 10
32.4897294489
 20
13.4064923677
 30
0.0
 10
32.482846322
 20
13.3260669888
 30
0.0
 10
32.4519931019
 20
13.2072908078
 30
0.0
 10
32.4011513524
 20
13.0910649201
 30
0.0
 10
32.3308956369
 20
12.9785802685
 30
0.0
 10
32.2420098184
 20
12.8708338396
 30
0.0
 10
32.1353780513
 20
12.7687822645
 30
0.0
 10
32.0121180346
 20
12.6734174811
 30
0.0
 10
31.9220038569
 20
12.6162662561
 30
0.0
 10
31.8746753079
 20
12.5889412687
 30
0.0
  0
SPLINE
  5
309
100
AcDbEntity
  8
0
100
AcDbSpline
 62
7
  6
BYLAYER
 70
0
 71
3
 72
17
 73
13
 74
0
 42
0.0000001
 43
0.0000001
 44
0.0000000001
 40
0.0
 40
0.0
 40
0.0
 40
0.0
 40
0.058993848
 40
0.1213816185
 40
0.2538666733
 40
0.392747097
 40
0.5324527156
 40
0.6672350962
 40
0.7920173635
 40
0.8495321834
 40
0.9033912714
 40
1.0
 40
1.0
 40
1.0
 40
1.0
 10
26.4299803
 20
20.432601648
 30
0.0
 10
26.4585977561
 20
20.4491238454
 30
0.0
 10
26.5156049113
 20
20.4864379674
 30
0.0
 10
26.6267860092
 20
20.5753517958
 30
0.0
 10
26.7567530478
 20
20.7110043687
 30
0.0
 10
26.8899397189
 20
20.8997510519
 30
0.0
 10
26.9957090948
 20
21.1066409723
 30
0.0
 10
27.0676477155
 20
21.3192656183
 30
0.0
 10
27.0967120074
 20
21.4955646035
 30
0.0
 10
27.0979947251
 20
21.6281327167
 30
0.0
 10
27.0859154758
 20
21.7440743807
 30
0.0
 10
27.0611288407
 20
21.8263957306
 30
0.0
 10
27.036314516
 20
21.8744849282
 30
0.0
  0
SPLINE
  5
30A
100
AcDbEntity
  8
0
100
AcDbSpline
 62
7
  6
BYLAYER
 70
0
 71
3
 72
12
 73
8
 74
0
 42
0.0000001
 43
0.0000001
 44
0.0000000001
 40
0.0
 40
0.0
 40
0.0
 40
0.0
 40
0.1081678375
 40
0.2183538064
 40
0.4513088211
 40
0.7105869577
 40
1.0
 40
1.0
 40
1.0
 40
1.0
 10
27.283472154
 20
21.86487059
 30
0.0
 10
27.2998644243
 20
21.855398038
 30
0.0
 10
27.3313793667
 20
21.8333940334
 30
0.0
 10
27.3879520868
 20
21.7778152916
 30
0.0
 10
27.4439671372
 20
21.6864793612
 30
0.0
 10
27.482870639
 20
21.5541314376
 30
0.0
 10
27.490595012
 20
21.4577579437
 30
0.0
 10
27.490595012
 20
21.4071025586
 30
0.0
  0
SPLINE
  5
30B
100
AcDbEntity
  8
0
100
AcDbSpline
 62
7
  6
BYLAYER
 70
0
 71
3
 72
12
 73
8
 74
0
 42
0.0000001
 43
0.0000001
 44
0.0000000001
 40
0.0
 40
0.0
 40
0.0
 40
0.0
 40
0.1081718697
 40
0.2183761853
 40
0.4513299689
 40
0.7105182676
 40
1.0
 40
1.0
 40
1.0
 40
1.0
 10
25.0207195657
 20
29.2775710519
 30
0.0
 10
25.0371163054
 20
29.2870376552
 30
0.0
 10
25.0686285206
 20
29.3090566051
 30
0.0
 10
25.1251802781
 20
29.3646604883
 30
0.0
 10
25.1811996724
 20
29.4559742417
 30
0.0
 10
25.2201264264
 20
29.588316098
 30
0.0
 10
25.2278315303
 20
29.6846890833
 30
0.0
 10
25.2278315293
 20
29.735356997
 30
0.0
  0
SPLINE
  5
30C
100
AcDbEntity
  8
0
100
AcDbSpline
 62
7
  6
BYLAYER
 70
0
 71
3
 72
15
 73
11
 74
0
 42
0.0000001
 43
0.0000001
 44
0.0000000001
 40
0.0
 40
0.0
 40
0.0
 40
0.0
 40
0.1108856828
 40
0.2285363968
 40
0.3517783793
 40
0.4793046758
 40
0.6095594079
 40
0.7408718803
 40
0.8716072041
 40
1.0
 40
1.0
 40
1.0
 40
1.0
 10
25.4400268565
 20
13.038071287
 30
0.0
 10
25.5418665882
 20
12.9792754213
 30
0.0
 10
25.7594182251
 20
12.8710654562
 30
0.0
 10
26.1095730257
 20
12.7407199636
 30
0.0
 10
26.487530509
 20
12.6395771341
 30
0.0
 10
26.8859728493
 20
12.5695164418
 30
0.0
 10
27.2973450006
 20
12.531914663
 30
0.0
 10
27.7138077432
 20
12.527432651
 30
0.0
 10
28.1272928776
 20
12.5562204919
 30
0.0
 10
28.399333775
 20
12.5977252519
 30
0.0
 10
28.5329101777
 20
12.6241236005
 30
0.0
  0
SPLINE
  5
30D
100
AcDbEntity
  8
0
100
AcDbSpline
 62
7
  6
BYLAYER
 70
0
 71
3
 72
13
 73
9
 74
0
 42
0.0000001
 43
0.0000001
 44
0.0000000001
 40
0.0
 40
0.0
 40
0.0
 40
0.0
 40
0.1141728896
 40
0.237563367
 40
0.4999983941
 40
0.7624342995
 40
0.8858258052
 40
1.0
 40
1.0
 40
1.0
 40
1.0
 10
25.7935787714
 20
13.650444574
 30
0.0
 10
25.7693931827
 20
13.6364811009
 30
0.0
 10
25.7215946451
 20
13.602942914
 30
0.0
 10
25.6320479021
 20
13.5192122763
 30
0.0
 10
25.5375453396
 20
13.3900181858
 30
0.0
 10
25.4729119325
 20
13.2435789787
 30
0.0
 10
25.4451725719
 20
13.1241630779
 30
0.0
 10
25.4400268564
 20
13.0659986793
 30
0.0
 10
25.4400268565
 20
13.0380712893
 30
0.0
  0
SPLINE
  5
30E
100
AcDbEntity
  8
0
100
AcDbSpline
 62
7
  6
BYLAYER
 70
0
 71
3
 72
14
 73
10
 74
0
 42
0.0000001
 43
0.0000001
 44
0.0000000001
 40
0.0
 40
0.0
 40
0.0
 40
0.0
 40
0.0234349705
 40
0.0796405471
 40
0.1697358465
 40
0.2913302751
 40
0.4403005301
 40
0.6117209346
 40
1.0
 40
1.0
 40
1.0
 40
1.0
 10
23.5521980772
 20
29.7842384004
 30
0.0
 10
23.5518653247
 20
29.7842519364
 30
0.0
 10
23.5513535296
 20
29.7856381387
 30
0.0
 10
23.5509580406
 20
29.7877358224
 30
0.0
 10
23.5505021855
 20
29.7916675564
 30
0.0
 10
23.5501611481
 20
29.7967198602
 30
0.0
 10
23.549879492
 20
29.8030174232
 30
0.0
 10
23.5496143108
 20
29.8130753271
 30
0.0
 10
23.5495561691
 20
29.8210336434
 30
0.0
 10
23.5495561691
 20
29.826551368
 30
0.0
  0
SPLINE
  5
30F
100
AcDbEntity
  8
0
100
AcDbSpline
 62
7
  6
BYLAYER
 70
0
 71
3
 72
12
 73
8
 74
0
 42
0.0000001
 43
0.0000001
 44
0.0000000001
 40
0.0
 40
0.0
 40
0.0
 40
0.0
 40
0.2875384293
 40
0.5470592502
 40
0.7816260591
 40
0.8922763566
 40
1.0
 40
1.0
 40
1.0
 40
1.0
 10
23.5308194014
 20
16.0998938716
 30
0.0
 10
23.4694180028
 20
16.1353431834
 30
0.0
 10
23.357310659
 20
16.2117497213
 30
0.0
 10
23.2203274393
 20
16.3491883226
 30
0.0
 10
23.1418916322
 20
16.4782833511
 30
0.0
 10
23.1058449906
 20
16.584364385
 30
0.0
 10
23.0963515473
 20
16.6376309364
 30
0.0
 10
23.0937993178
 20
16.6640700074
 30
0.0
  0
SPLINE
  5
310
100
AcDbEntity
  8
0
100
AcDbSpline
 62
7
  6
BYLAYER
 70
0
 71
3
 72
15
 73
11
 74
0
 42
0.0000001
 43
0.0000001
 44
0.0000000001
 40
0.0
 40
0.0
 40
0.0
 40
0.0
 40
0.1108605595
 40
0.2285423717
 40
0.3517853005
 40
0.4793066274
 40
0.6095515137
 40
0.7408649182
 40
0.8716383094
 40
1.0
 40
1.0
 40
1.0
 40
1.0
 10
25.7935787522
 20
13.6504445851
 30
0.0
 10
25.8784258395
 20
13.6014592049
 30
0.0
 10
26.0597349998
 20
13.5113068035
 30
0.0
 10
26.3515206003
 20
13.4026466943
 30
0.0
 10
26.6665100119
 20
13.3183524189
 30
0.0
 10
26.998540015
 20
13.2600200963
 30
0.0
 10
27.3413315691
 20
13.2286361973
 30
0.0
 10
27.6884114766
 20
13.2249058747
 30
0.0
 10
28.0329853194
 20
13.2489304974
 30
0.0
 10
28.2596950144
 20
13.28349491
 30
0.0
 10
28.3709815485
 20
13.3054881709
 30
0.0
  0
SPLINE
  5
311
100
AcDbEntity
  8
0
100
AcDbSpline
 62
7
  6
BYLAYER
 70
0
 71
3
 72
9
 73
5
 74
0
 42
0.0000001
 43
0.0000001
 44
0.0000000001
 40
0.0
 40
0.0
 40
0.0
 40
0.0
 40
0.4773840405
 40
1.0
 40
1.0
 40
1.0
 40
1.0
 10
22.1873162329
 20
16.1407148784
 30
0.0
 10
22.1219256489
 20
16.1029618325
 30
0.0
 10
21.9754840948
 20
16.0399762095
 30
0.0
 10
21.8207184732
 20
16.0039240377
 30
0.0
 10
21.7390295687
 20
15.9912866907
 30
0.0
  0
SPLINE
  5
312
100
AcDbEntity
  8
0
100
AcDbSpline
 62
7
  6
BYLAYER
 70
0
 71
3
 72
11
 73
7
 74
0
 42
0.0000001
 43
0.0000001
 44
0.0000000001
 40
0.0
 40
0.0
 40
0.0
 40
0.0
 40
0.2895353836
 40
0.5491065872
 40
0.7822495576
 40
1.0
 40
1.0
 40
1.0
 40
1.0
 10
23.5308194107
 20
16.0998938662
 30
0.0
 10
23.5527456476
 20
16.1125529092
 30
0.0
 10
23.5963995979
 20
16.1332943497
 30
0.0
 10
23.6634709424
 20
16.1495296993
 30
0.0
 10
23.7264370053
 20
16.1479513781
 30
0.0
 10
23.7643134497
 20
16.1341580418
 30
0.0
 10
23.7808035493
 20
16.1246376911
 30
0.0
  0
SPLINE
  5
313
100
AcDbEntity
  8
0
100
AcDbSpline
 62
7
  6
BYLAYER
 70
0
 71
3
 72
11
 73
7
 74
0
 42
0.0000001
 43
0.0000001
 44
0.0000000001
 40
0.0
 40
0.0
 40
0.0
 40
0.0
 40
0.2177504419
 40
0.4508934119
 40
0.7104646156
 40
1.0
 40
1.0
 40
1.0
 40
1.0
 10
35.9430166349
 20
19.3906065585
 30
0.0
 10
35.9265265351
 20
19.4001269097
 30
0.0
 10
35.8886500901
 20
19.4139202467
 30
0.0
 10
35.8256840257
 20
19.4154985681
 30
0.0
 10
35.7586126796
 20
19.399263218
 30
0.0
 10
35.7149587284
 20
19.3785217768
 30
0.0
 10
35.693032491
 20
19.3658627333
 30
0.0
  0
SPLINE
  5
314
100
AcDbEntity
  8
0
100
AcDbSpline
 62
7
  6
BYLAYER
 70
0
 71
3
 72
11
 73
7
 74
0
 42
0.0000001
 43
0.0000001
 44
0.0000000001
 40
0.0
 40
0.0
 40
0.0
 40
0.0
 40
0.102288696
 40
0.2980526918
 40
0.5983899208
 40
1.0
 40
1.0
 40
1.0
 40
1.0
 10
22.7335583489
 20
51.2300004842
 30
0.0
 10
22.7332253081
 20
51.2294783763
 30
0.0
 10
22.7337017506
 20
51.2274326382
 30
0.0
 10
22.7355792956
 20
51.2245021599
 30
0.0
 10
22.7389173611
 20
51.2201113663
 30
0.0
 10
22.741761046
 20
51.2169785251
 30
0.0
 10
22.7434264596
 20
51.2152069754
 30
0.0
  0
SPLINE
  5
315
100
AcDbEntity
  8
0
100
AcDbSpline
 62
7
  6
BYLAYER
 70
0
 71
3
 72
9
 73
5
 74
0
 42
0.0000001
 43
0.0000001
 44
0.0000000001
 40
0.0
 40
0.0
 40
0.0
 40
0.0
 40
0.214693396
 40
1.0
 40
1.0
 40
1.0
 40
1.0
 10
22.7434264596
 20
51.2152069754
 30
0.0
 10
22.7447048508
 20
51.2138471128
 30
0.0
 10
22.7507732932
 20
51.207620373
 30
0.0
 10
22.7571186408
 20
51.2016722067
 30
0.0
 10
22.7621268309
 20
51.1970326173
 30
0.0
  0
SPLINE
  5
316
100
AcDbEntity
  8
0
100
AcDbSpline
 62
7
  6
BYLAYER
 70
0
 71
3
 72
11
 73
7
 74
0
 42
0.0000001
 43
0.0000001
 44
0.0000000001
 40
0.0
 40
0.0
 40
0.0
 40
0.0
 40
0.2790915397
 40
0.5412401142
 40
0.7821862381
 40
1.0
 40
1.0
 40
1.0
 40
1.0
 10
28.5329101776
 20
12.6241236042
 30
0.0
 10
28.5614417074
 20
12.6297622147
 30
0.0
 10
28.6162243841
 20
12.6438118177
 30
0.0
 10
28.69224599
 20
12.6738965752
 30
0.0
 10
28.7575629489
 20
12.7115871813
 30
0.0
 10
28.7944397074
 20
12.742596266
 30
0.0
 10
28.8100199395
 20
12.7591021856
 30
0.0
  0
SPLINE
  5
317
100
AcDbEntity
  8
0
100
AcDbSpline
 62
7
  6
BYLAYER
 70
0
 71
3
 72
14
 73
10
 74
0
 42
0.0000001
 43
0.0000001
 44
0.0000000001
 40
0.0
 40
0.0
 40
0.0
 40
0.0
 40
0.0973412089
 40
0.2112739977
 40
0.3378650031
 40
0.4728675133
 40
0.748649056
 40
0.87983019
 40
1.0
 40
1.0
 40
1.0
 40
1.0
 10
28.3709815546
 20
13.3054881741
 30
0.0
 10
28.382671172
 20
13.2857721383
 30
0.0
 10
28.4051292125
 20
13.2412549809
 30
0.0
 10
28.4348748347
 20
13.1674078085
 30
0.0
 10
28.4623554048
 20
13.0832937704
 30
0.0
 10
28.494732835
 20
12.9609287275
 30
0.0
 10
28.51791654
 20
12.8351443472
 30
0.0
 10
28.530505844
 20
12.7116158791
 30
0.0
 10
28.5329101776
 20
12.6524199891
 30
0.0
 10
28.5329101775
 20
12.6241236042
 30
0.0
  0
SPLINE
  5
318
100
AcDbEntity
  8
0
100
AcDbSpline
 62
7
  6
BYLAYER
 70
0
 71
3
 72
11
 73
7
 74
0
 42
0.0000001
 43
0.0000001
 44
0.0000000001
 40
0.0
 40
0.0
 40
0.0
 40
0.0
 40
0.2176655404
 40
0.451135924
 40
0.7111681741
 40
1.0
 40
1.0
 40
1.0
 40
1.0
 10
22.370103806
 20
50.6447777894
 30
0.0
 10
22.3701053844
 20
50.6409721582
 30
0.0
 10
22.3715106481
 20
50.6330313728
 30
0.0
 10
22.3775498645
 20
50.6219649193
 30
0.0
 10
22.387081805
 20
50.611989317
 30
0.0
 10
22.3950228016
 20
50.6064918299
 30
0.0
 10
22.3993961589
 20
50.6039669227
 30
0.0
  0
SPLINE
  5
319
100
AcDbEntity
  8
0
100
AcDbSpline
 62
7
  6
BYLAYER
 70
0
 71
3
 72
11
 73
7
 74
0
 42
0.0000001
 43
0.0000001
 44
0.0000000001
 40
0.0
 40
0.0
 40
0.0
 40
0.0
 40
0.2178455119
 40
0.4526684603
 40
0.7126566942
 40
1.0
 40
1.0
 40
1.0
 40
1.0
 10
26.8273158963
 20
21.838021938
 30
0.0
 10
26.848892552
 20
21.8223535952
 30
0.0
 10
26.8886403144
 20
21.782313258
 30
0.0
 10
26.9304392629
 20
21.7046791118
 30
0.0
 10
26.9552835886
 20
21.6115134725
 30
0.0
 10
26.9602641901
 20
21.5443343168
 30
0.0
 10
26.9602641901
 20
21.5091618974
 30
0.0
  0
SPLINE
  5
31A
100
AcDbEntity
  8
0
100
AcDbSpline
 62
7
  6
BYLAYER
 70
0
 71
3
 72
14
 73
10
 74
0
 42
0.0000001
 43
0.0000001
 44
0.0000000001
 40
0.0
 40
0.0
 40
0.0
 40
0.0
 40
0.09280322
 40
0.1964688684
 40
0.4341027466
 40
0.5669473291
 40
0.7076154653
 40
0.8536900625
 40
1.0
 40
1.0
 40
1.0
 40
1.0
 10
20.7731026705
 20
15.7324602695
 30
0.0
 10
20.8032053738
 20
15.7396596865
 30
0.0
 10
20.866634713
 20
15.7561525273
 30
0.0
 10
21.0058838905
 20
15.7958121831
 30
0.0
 10
21.1571046349
 20
15.8420885547
 30
0.0
 10
21.3204999641
 20
15.8907105187
 30
0.0
 10
21.4550896498
 20
15.9290772795
 30
0.0
 10
21.5950977148
 20
15.9646370384
 30
0.0
 10
21.6908060523
 20
15.9838264688
 30
0.0
 10
21.7390295697
 20
15.9912866908
 30
0.0
  0
SPLINE
  5
31B
100
AcDbEntity
  8
0
100
AcDbSpline
 62
7
  6
BYLAYER
 70
0
 71
3
 72
9
 73
5
 74
0
 42
0.0000001
 43
0.0000001
 44
0.0000000001
 40
0.0
 40
0.0
 40
0.0
 40
0.0
 40
0.2596170366
 40
1.0
 40
1.0
 40
1.0
 40
1.0
 10
19.5160837673
 20
48.1748631653
 30
0.0
 10
19.5159704551
 20
48.1781321806
 30
0.0
 10
19.5149395098
 20
48.1906931546
 30
0.0
 10
19.511249472
 20
48.2030590739
 30
0.0
 10
19.5070867244
 20
48.2114070124
 30
0.0
  0
SPLINE
  5
31C
100
AcDbEntity
  8
0
100
AcDbSpline
 62
7
  6
BYLAYER
 70
0
 71
3
 72
9
 73
5
 74
0
 42
0.0000001
 43
0.0000001
 44
0.0000000001
 40
0.0
 40
0.0
 40
0.0
 40
0.0
 40
0.5236832521
 40
1.0
 40
1.0
 40
1.0
 40
1.0
 10
19.5070867244
 20
48.2114070124
 30
0.0
 10
19.5038980994
 20
48.2178014537
 30
0.0
 10
19.4960532197
 20
48.2292438049
 30
0.0
 10
19.485194117
 20
48.2378599882
 30
0.0
 10
19.4795657225
 20
48.2411094698
 30
0.0
  0
SPLINE
  5
31D
100
AcDbEntity
  8
0
100
AcDbSpline
 62
7
  6
BYLAYER
 70
0
 71
3
 72
15
 73
11
 74
0
 42
0.0000001
 43
0.0000001
 44
0.0000000001
 40
0.0
 40
0.0
 40
0.0
 40
0.0
 40
0.1140748424
 40
0.2373592252
 40
0.3669885096
 40
0.5000017666
 40
0.6330147999
 40
0.7626433472
 40
0.8859265427
 40
1.0
 40
1.0
 40
1.0
 40
1.0
 10
23.2479272385
 20
45.820434091
 30
0.0
 10
23.2479272394
 20
45.7869204998
 30
0.0
 10
23.2417461063
 20
45.7171271445
 30
0.0
 10
23.2173128683
 20
45.6118292471
 30
0.0
 10
23.1780636424
 20
45.505163288
 30
0.0
 10
23.1255376943
 20
45.4011962576
 30
0.0
 10
23.0617631536
 20
45.3037238168
 30
0.0
 10
22.9890130708
 20
45.2164002175
 30
0.0
 10
22.9100399422
 20
45.142591908
 30
0.0
 10
22.8526882714
 20
45.1023426779
 30
0.0
 10
22.8236649591
 20
45.0855861609
 30
0.0
  0
SPLINE
  5
31E
100
AcDbEntity
  8
0
100
AcDbSpline
 62
7
  6
BYLAYER
 70
0
 71
3
 72
15
 73
11
 74
0
 42
0.0000001
 43
0.0000001
 44
0.0000000001
 40
0.0
 40
0.0
 40
0.0
 40
0.0
 40
0.1140748427
 40
0.237359227
 40
0.3669885119
 40
0.5000017691
 40
0.6330148024
 40
0.762643349
 40
0.8859265433
 40
1.0
 40
1.0
 40
1.0
 40
1.0
 10
23.2479272377
 20
31.939892998
 30
0.0
 10
23.2479272393
 20
31.9063794062
 30
0.0
 10
23.2417461049
 20
31.8365860493
 30
0.0
 10
23.2173128644
 20
31.7312881502
 30
0.0
 10
23.1780636368
 20
31.6246221894
 30
0.0
 10
23.1255376864
 20
31.520655158
 30
0.0
 10
23.0617631432
 20
31.423182717
 30
0.0
 10
22.989013058
 20
31.3358591182
 30
0.0
 10
22.9100399271
 20
31.2620508099
 30
0.0
 10
22.8526882553
 20
31.2218015807
 30
0.0
 10
22.8236649427
 20
31.2050450636
 30
0.0
  0
SPLINE
  5
31F
100
AcDbEntity
  8
0
100
AcDbSpline
 62
7
  6
BYLAYER
 70
0
 71
3
 72
9
 73
5
 74
0
 42
0.0000001
 43
0.0000001
 44
0.0000000001
 40
0.0
 40
0.0
 40
0.0
 40
0.0
 40
0.5300912965
 40
1.0
 40
1.0
 40
1.0
 40
1.0
 10
22.8236649379
 20
43.6158817915
 30
0.0
 10
22.8522969733
 20
43.6324124078
 30
0.0
 10
22.9091935427
 20
43.6590168429
 30
0.0
 10
22.9710906911
 20
43.6719747438
 30
0.0
 10
23.0003645045
 20
43.6733865393
 30
0.0
  0
SPLINE
  5
320
100
AcDbEntity
  8
0
100
AcDbSpline
 62
7
  6
BYLAYER
 70
0
 71
3
 72
15
 73
11
 74
0
 42
0.0000001
 43
0.0000001
 44
0.0000000001
 40
0.0
 40
0.0
 40
0.0
 40
0.0
 40
0.119862083
 40
0.2334692767
 40
0.3449092176
 40
0.4585642077
 40
0.5785143494
 40
0.7078646971
 40
0.8483611526
 40
1.0
 40
1.0
 40
1.0
 40
1.0
 10
23.0003645045
 20
43.6733865393
 30
0.0
 10
23.0180476465
 20
43.6742393486
 30
0.0
 10
23.0528007502
 20
43.6726002513
 30
0.0
 10
23.1022594864
 20
43.6585320236
 30
0.0
 10
23.1460061435
 20
43.6331982748
 30
0.0
 10
23.1828434134
 20
43.5972729184
 30
0.0
 10
23.2119297365
 20
43.5517534558
 30
0.0
 10
23.2328659143
 20
43.4977744526
 30
0.0
 10
23.2453339568
 20
43.4365388182
 30
0.0
 10
23.2479272387
 20
43.3933239627
 30
0.0
 10
23.2479272377
 20
43.370926823
 30
0.0
  0
SPLINE
  5
321
100
AcDbEntity
  8
0
100
AcDbSpline
 62
7
  6
BYLAYER
 70
0
 71
3
 72
13
 73
9
 74
0
 42
0.0000001
 43
0.0000001
 44
0.0000000001
 40
0.0
 40
0.0
 40
0.0
 40
0.0
 40
0.1141741951
 40
0.237565701
 40
0.5000016068
 40
0.7624366337
 40
0.8858271109
 40
1.0
 40
1.0
 40
1.0
 40
1.0
 10
5.6409545564
 20
24.4688124149
 30
0.0
 10
5.6409545564
 20
24.4967398051
 30
0.0
 10
5.6461002721
 20
24.554904204
 30
0.0
 10
5.6738396332
 20
24.6743201054
 30
0.0
 10
5.7384730411
 20
24.820759313
 30
0.0
 10
5.8329756045
 20
24.9499534036
 30
0.0
 10
5.9225223482
 20
25.0336840409
 30
0.0
 10
5.9703208861
 20
25.0672222275
 30
0.0
 10
5.9945064749
 20
25.0811857003
 30
0.0
  0
SPLINE
  5
322
100
AcDbEntity
  8
0
100
AcDbSpline
 62
7
  6
BYLAYER
 70
0
 71
3
 72
11
 73
7
 74
0
 42
0.0000001
 43
0.0000001
 44
0.0000000001
 40
0.0
 40
0.0
 40
0.0
 40
0.0
 40
0.283781902
 40
0.5437865892
 40
0.7806817781
 40
1.0
 40
1.0
 40
1.0
 40
1.0
 10
5.3969944471
 20
26.5692257389
 30
0.0
 10
5.4152033005
 20
26.5797385625
 30
0.0
 10
5.4515286849
 20
26.5975624758
 30
0.0
 10
5.5071910832
 20
26.6143934767
 30
0.0
 10
5.5604204558
 20
26.619404848
 30
0.0
 10
5.5943013966
 20
26.6144182325
 30
0.0
 10
5.6098892175
 20
26.6098282739
 30
0.0
  0
SPLINE
  5
323
100
AcDbEntity
  8
0
100
AcDbSpline
 62
7
  6
BYLAYER
 70
0
 71
3
 72
9
 73
5
 74
0
 42
0.0000001
 43
0.0000001
 44
0.0000000001
 40
0.0
 40
0.0
 40
0.0
 40
0.0
 40
0.4842173945
 40
1.0
 40
1.0
 40
1.0
 40
1.0
 10
19.5502761069
 20
48.200283643
 30
0.0
 10
19.5596405937
 20
48.1948771764
 30
0.0
 10
19.5763467172
 20
48.178608248
 30
0.0
 10
19.5839567352
 20
48.1568211668
 30
0.0
 10
19.5857292088
 20
48.1454403611
 30
0.0
  0
SPLINE
  5
324
100
AcDbEntity
  8
0
100
AcDbSpline
 62
7
  6
BYLAYER
 70
0
 71
3
 72
9
 73
5
 74
0
 42
0.0000001
 43
0.0000001
 44
0.0000000001
 40
0.0
 40
0.0
 40
0.0
 40
0.0
 40
0.2652510737
 40
1.0
 40
1.0
 40
1.0
 40
1.0
 10
31.3796661176
 20
25.1221497563
 30
0.0
 10
31.396235007
 20
25.131715752
 30
0.0
 10
31.457558916
 20
25.169650503
 30
0.0
 10
31.5142555418
 20
25.2155819644
 30
0.0
 10
31.5506331845
 20
25.2541209568
 30
0.0
  0
SPLINE
  5
325
100
AcDbEntity
  8
0
100
AcDbSpline
 62
7
  6
BYLAYER
 70
0
 71
3
 72
15
 73
11
 74
0
 42
0.0000001
 43
0.0000001
 44
0.0000000001
 40
0.0
 40
0.0
 40
0.0
 40
0.0
 40
0.114120556
 40
0.2373412076
 40
0.3669672553
 40
0.4999969877
 40
0.6330271153
 40
0.7626542451
 40
0.885877438
 40
1.0
 40
1.0
 40
1.0
 40
1.0
 10
30.6725563926
 20
26.3468929279
 30
0.0
 10
30.720949098
 20
26.3189540185
 30
0.0
 10
30.8165558893
 20
26.2519112949
 30
0.0
 10
30.9481335727
 20
26.12885638
 30
0.0
 10
31.0693653577
 20
25.9833382153
 30
0.0
 10
31.1757308071
 20
25.8209097302
 30
0.0
 10
31.2632169386
 20
25.6475805634
 30
0.0
 10
31.3286257196
 20
25.4698303761
 30
0.0
 10
31.3694071765
 20
25.2943508623
 30
0.0
 10
31.3796661176
 20
25.1780295055
 30
0.0
 10
31.3796661176
 20
25.1221497563
 30
0.0
  0
SPLINE
  5
326
100
AcDbEntity
  8
0
100
AcDbSpline
 62
7
  6
BYLAYER
 70
0
 71
3
 72
13
 73
9
 74
0
 42
0.0000001
 43
0.0000001
 44
0.0000000001
 40
0.0
 40
0.0
 40
0.0
 40
0.0
 40
0.1141728899
 40
0.2375633676
 40
0.4999983936
 40
0.7624342983
 40
0.8858258045
 40
1.0
 40
1.0
 40
1.0
 40
1.0
 10
22.0458442533
 20
45.6163012288
 30
0.0
 10
22.0700298412
 20
45.6302647016
 30
0.0
 10
22.1178283768
 20
45.6638028885
 30
0.0
 10
22.2073751157
 20
45.7475335247
 30
0.0
 10
22.3018776752
 20
45.8767276105
 30
0.0
 10
22.3665110803
 20
46.0231668126
 30
0.0
 10
22.3942504423
 20
46.1425827092
 30
0.0
 10
22.3993961591
 20
46.2007471061
 30
0.0
 10
22.3993961593
 20
46.2286744955
 30
0.0
  0
SPLINE
  5
327
100
AcDbEntity
  8
0
100
AcDbSpline
 62
7
  6
BYLAYER
 70
0
 71
3
 72
11
 73
7
 74
0
 42
0.0000001
 43
0.0000001
 44
0.0000000001
 40
0.0
 40
0.0
 40
0.0
 40
0.0
 40
0.2894493853
 40
0.5491298614
 40
0.7822953729
 40
1.0
 40
1.0
 40
1.0
 40
1.0
 10
12.9630055055
 20
26.8549260997
 30
0.0
 10
12.9410857744
 20
26.867581176
 30
0.0
 10
12.901305732
 20
26.8950290894
 30
0.0
 10
12.8536853271
 20
26.9449823935
 30
0.0
 10
12.8235884033
 20
27.0003177322
 30
0.0
 10
12.8165728568
 20
27.0400111233
 30
0.0
 10
12.8165819255
 20
27.059048062
 30
0.0
  0
LINE
  5
328
100
AcDbEntity
  8
0
100
AcDbLine
 62
7
  6
BYLAYER
 10
22.4201067514
 20
50.6736595566
 11
22.387855549
 21
50.6922730581
  0
LINE
  5
329
100
AcDbEntity
  8
0
100
AcDbLine
 62
7
  6
BYLAYER
 10
22.387855549
 20
50.6922730581
 11
22.3833970703
 21
50.6946071873
  0
SPLINE
  5
32A
100
AcDbEntity
  8
0
100
AcDbSpline
 62
7
  6
BYLAYER
 70
0
 71
3
 72
9
 73
5
 74
0
 42
0.0000001
 43
0.0000001
 44
0.0000000001
 40
0.0
 40
0.0
 40
0.0
 40
0.0
 40
0.2323474726
 40
1.0
 40
1.0
 40
1.0
 40
1.0
 10
22.3993961591
 20
50.6039669223
 30
0.0
 10
22.3993961591
 20
50.607638571
 30
0.0
 10
22.4003233353
 20
50.6234382008
 30
0.0
 10
22.4044726412
 20
50.6389539138
 30
0.0
 10
22.4088652163
 20
50.650261456
 30
0.0
  0
SPLINE
  5
32B
100
AcDbEntity
  8
0
100
AcDbSpline
 62
7
  6
BYLAYER
 70
0
 71
3
 72
14
 73
10
 74
0
 42
0.0000001
 43
0.0000001
 44
0.0000000001
 40
0.0
 40
0.0
 40
0.0
 40
0.0
 40
0.1493874699
 40
0.287600502
 40
0.4165864424
 40
0.5390519429
 40
0.6571795923
 40
0.772688009
 40
1.0
 40
1.0
 40
1.0
 40
1.0
 10
23.0937993174
 20
16.6640700073
 30
0.0
 10
23.1289404552
 20
16.6843586316
 30
0.0
 10
23.1995581025
 20
16.7185590901
 30
0.0
 10
23.3078590193
 20
16.7525988341
 30
0.0
 10
23.412585425
 20
16.7700209564
 30
0.0
 10
23.513132589
 20
16.7738067246
 30
0.0
 10
23.6097686926
 20
16.7670829641
 30
0.0
 10
23.7336359656
 20
16.7481577585
 30
0.0
 10
23.8243152029
 20
16.7266111962
 30
0.0
 10
23.8843654431
 20
16.7122496422
 30
0.0
  0
SPLINE
  5
32C
100
AcDbEntity
  8
0
100
AcDbSpline
 62
7
  6
BYLAYER
 70
0
 71
3
 72
9
 73
5
 74
0
 42
0.0000001
 43
0.0000001
 44
0.0000000001
 40
0.0
 40
0.0
 40
0.0
 40
0.0
 40
0.2408494505
 40
1.0
 40
1.0
 40
1.0
 40
1.0
 10
11.2270713337
 20
24.5095713008
 30
0.0
 10
11.253766592
 20
24.5249837233
 30
0.0
 10
11.3661070243
 20
24.5863594692
 30
0.0
 10
11.4838345955
 20
24.6376853808
 30
0.0
 10
11.5748976256
 20
24.6715599361
 30
0.0
  0
SPLINE
  5
32D
100
AcDbEntity
  8
0
100
AcDbSpline
 62
7
  6
BYLAYER
 70
0
 71
3
 72
11
 73
7
 74
0
 42
0.0000001
 43
0.0000001
 44
0.0000000001
 40
0.0
 40
0.0
 40
0.0
 40
0.0
 40
0.2291059416
 40
0.4705793908
 40
0.7287316604
 40
1.0
 40
1.0
 40
1.0
 40
1.0
 10
10.9481884592
 20
23.533410682
 30
0.0
 10
10.9308403123
 20
23.5434264079
 30
0.0
 10
10.8910778492
 20
23.5574334189
 30
0.0
 10
10.8264583949
 20
23.5577788049
 30
0.0
 10
10.7607021393
 20
23.5406255483
 30
0.0
 10
10.7187333432
 20
23.5205058108
 30
0.0
 10
10.6981927009
 20
23.5086467396
 30
0.0
  0
SPLINE
  5
32E
100
AcDbEntity
  8
0
100
AcDbSpline
 62
7
  6
BYLAYER
 70
0
 71
3
 72
13
 73
9
 74
0
 42
0.0000001
 43
0.0000001
 44
0.0000000001
 40
0.0
 40
0.0
 40
0.0
 40
0.0
 40
0.2607180666
 40
0.518823109
 40
0.6454997353
 40
0.7691030093
 40
0.8880834752
 40
1.0
 40
1.0
 40
1.0
 40
1.0
 10
29.6826169062
 20
20.0598516988
 30
0.0
 10
29.7423681709
 20
20.1431361573
 30
0.0
 10
29.8611806874
 20
20.3089271082
 30
0.0
 10
30.0175628648
 20
20.5090586377
 30
0.0
 10
30.1505534527
 20
20.6583682937
 30
0.0
 10
30.2534025116
 20
20.7610020695
 30
0.0
 10
30.3598288252
 20
20.851248035
 30
0.0
 10
30.4350778739
 20
20.9025338571
 30
0.0
 10
30.4731830264
 20
20.9245337459
 30
0.0
  0
SPLINE
  5
32F
100
AcDbEntity
  8
0
100
AcDbSpline
 62
7
  6
BYLAYER
 70
0
 71
3
 72
21
 73
17
 74
0
 42
0.0000001
 43
0.0000001
 44
0.0000000001
 40
0.0
 40
0.0
 40
0.0
 40
0.0
 40
0.0623553653
 40
0.128785971
 40
0.1984256682
 40
0.270415283
 40
0.4174512154
 40
0.5616787321
 40
0.6303060997
 40
0.6954233111
 40
0.7563968699
 40
0.8128586488
 40
0.8647826985
 40
0.9125783183
 40
0.9571731677
 40
1.0
 40
1.0
 40
1.0
 40
1.0
 10
27.490595012
 20
21.4071025586
 30
0.0
 10
27.490595012
 20
21.3656535956
 30
0.0
 10
27.4849298384
 20
21.2799935807
 30
0.0
 10
27.4618689908
 20
21.1499070957
 30
0.0
 10
27.4242349913
 20
21.0165941905
 30
0.0
 10
27.3554120373
 20
20.837247868
 30
0.0
 10
27.2398966733
 20
20.6238362719
 30
0.0
 10
27.0918496304
 20
20.4342254854
 30
0.0
 10
26.9585738528
 20
20.3058648961
 30
0.0
 10
26.8564644267
 20
20.2259051375
 30
0.0
 10
26.7526864297
 20
20.1624288197
 30
0.0
 10
26.6493677794
 20
20.116752803
 30
0.0
 10
26.5485482556
 20
20.0899748227
 30
0.0
 10
26.4522164035
 20
20.0828720121
 30
0.0
 10
26.362508645
 20
20.0960203156
 30
0.0
 10
26.3081586238
 20
20.1186027063
 30
0.0
 10
26.2835101955
 20
20.1328462195
 30
0.0
  0
SPLINE
  5
330
100
AcDbEntity
  8
0
100
AcDbSpline
 62
7
  6
BYLAYER
 70
0
 71
3
 72
11
 73
7
 74
0
 42
0.0000001
 43
0.0000001
 44
0.0000000001
 40
0.0
 40
0.0
 40
0.0
 40
0.0
 40
0.2176914566
 40
0.4508539162
 40
0.7104687655
 40
1.0
 40
1.0
 40
1.0
 40
1.0
 10
12.8165641616
 20
30.7333090538
 30
0.0
 10
12.8165649364
 20
30.7142728652
 30
0.0
 10
12.8235851049
 20
30.6745825469
 30
0.0
 10
12.8536834748
 20
30.6192563154
 30
0.0
 10
12.9012869279
 20
30.5692830879
 30
0.0
 10
12.9410791161
 20
30.5418458975
 30
0.0
 10
12.9630055055
 20
30.5291869768
 30
0.0
  0
SPLINE
  5
331
100
AcDbEntity
  8
0
100
AcDbSpline
 62
7
  6
BYLAYER
 70
0
 71
3
 72
11
 73
7
 74
0
 42
0.0000001
 43
0.0000001
 44
0.0000000001
 40
0.0
 40
0.0
 40
0.0
 40
0.0
 40
0.2825300345
 40
0.542384215
 40
0.7800160025
 40
1.0
 40
1.0
 40
1.0
 40
1.0
 10
15.8939601969
 20
30.7966038715
 30
0.0
 10
15.9114408758
 20
30.8066962851
 30
0.0
 10
15.9463163966
 20
30.8239308059
 30
0.0
 10
15.9997434317
 20
30.8406977613
 30
0.0
 10
16.0509987513
 20
30.846637371
 30
0.0
 10
16.0838732504
 20
30.8430355773
 30
0.0
 10
16.0991354182
 20
30.8392843216
 30
0.0
  0
SPLINE
  5
332
100
AcDbEntity
  8
0
100
AcDbSpline
 62
7
  6
BYLAYER
 70
0
 71
3
 72
9
 73
5
 74
0
 42
0.0000001
 43
0.0000001
 44
0.0000000001
 40
0.0
 40
0.0
 40
0.0
 40
0.0
 40
0.2532050387
 40
1.0
 40
1.0
 40
1.0
 40
1.0
 10
16.0991354182
 20
30.8392843216
 30
0.0
 10
16.1030987928
 20
30.8383101721
 30
0.0
 10
16.1186159061
 20
30.8339322534
 30
0.0
 10
16.1335196041
 20
30.8273662696
 30
0.0
 10
16.1439443257
 20
30.821347688
 30
0.0
  0
SPLINE
  5
333
100
AcDbEntity
  8
0
100
AcDbSpline
 62
7
  6
BYLAYER
 70
0
 71
3
 72
13
 73
9
 74
0
 42
0.0000001
 43
0.0000001
 44
0.0000000001
 40
0.0
 40
0.0
 40
0.0
 40
0.0
 40
0.1259013468
 40
0.253124688
 40
0.3804530246
 40
0.5074852758
 40
0.7583912618
 40
1.0
 40
1.0
 40
1.0
 40
1.0
 10
23.3098573906
 20
29.6995809982
 30
0.0
 10
23.2987467352
 20
29.6854155743
 30
0.0
 10
23.2775749671
 20
29.6560183508
 30
0.0
 10
23.2481055781
 20
29.6102750351
 30
0.0
 10
23.2204331443
 20
29.5632263429
 30
0.0
 10
23.1869336226
 20
29.499181182
 30
0.0
 10
23.1521481993
 20
29.4175175819
 30
0.0
 10
23.1318227045
 20
29.3498884841
 30
0.0
 10
23.1240271366
 20
29.3162312572
 30
0.0
  0
SPLINE
  5
334
100
AcDbEntity
  8
0
100
AcDbSpline
 62
7
  6
BYLAYER
 70
0
 71
3
 72
9
 73
5
 74
0
 42
0.0000001
 43
0.0000001
 44
0.0000000001
 40
0.0
 40
0.0
 40
0.0
 40
0.0
 40
0.5126916044
 40
1.0
 40
1.0
 40
1.0
 40
1.0
 10
23.1240271366
 20
29.3162312572
 30
0.0
 10
23.1197352005
 20
29.2977008991
 30
0.0
 10
23.1127144874
 20
29.2611853072
 30
0.0
 10
23.1099499901
 20
29.2241396907
 30
0.0
 10
23.1088784384
 20
29.2060922868
 30
0.0
  0
LINE
  5
335
100
AcDbEntity
  8
0
100
AcDbLine
 62
7
  6
BYLAYER
 10
23.1088784384
 20
29.2060922868
 11
23.1065064732
 21
29.1637861977
  0
SPLINE
  5
336
100
AcDbEntity
  8
0
100
AcDbSpline
 62
7
  6
BYLAYER
 70
0
 71
3
 72
15
 73
11
 74
0
 42
0.0000001
 43
0.0000001
 44
0.0000000001
 40
0.0
 40
0.0
 40
0.0
 40
0.0
 40
0.1128678571
 40
0.227285405
 40
0.3445609938
 40
0.4657720031
 40
0.5917466028
 40
0.7230028112
 40
0.8593590106
 40
1.0
 40
1.0
 40
1.0
 40
1.0
 10
11.9205272907
 20
25.5633450154
 30
0.0
 10
11.9090849584
 20
25.5336465515
 30
0.0
 10
11.8912607795
 20
25.4716830365
 30
0.0
 10
11.880858316
 20
25.3746389053
 30
0.0
 10
11.8866311905
 20
25.2748576659
 30
0.0
 10
11.9086181799
 20
25.1740676299
 30
0.0
 10
11.9462867771
 20
25.0738526538
 30
0.0
 10
11.9991461477
 20
24.9759081768
 30
0.0
 10
12.0660306412
 20
24.8818978504
 30
0.0
 10
12.1183851511
 20
24.8236774033
 30
0.0
 10
12.1464606885
 20
24.7956681469
 30
0.0
  0
SPLINE
  5
337
100
AcDbEntity
  8
0
100
AcDbSpline
 62
7
  6
BYLAYER
 70
0
 71
3
 72
15
 73
11
 74
0
 42
0.0000001
 43
0.0000001
 44
0.0000000001
 40
0.0
 40
0.0
 40
0.0
 40
0.0
 40
0.1108605606
 40
0.228542371
 40
0.3517853
 40
0.4793066267
 40
0.6095515126
 40
0.740864917
 40
0.8716383086
 40
1.0
 40
1.0
 40
1.0
 40
1.0
 10
15.8939603125
 20
30.7966038048
 30
0.0
 10
15.8091132182
 20
30.845589183
 30
0.0
 10
15.6278040523
 20
30.9357415896
 30
0.0
 10
15.3360184416
 20
31.0444017082
 30
0.0
 10
15.021029018
 20
31.128695986
 30
0.0
 10
14.6889990021
 20
31.1870283138
 30
0.0
 10
14.3462074345
 20
31.2184122184
 30
0.0
 10
13.9991275126
 20
31.2221425458
 30
0.0
 10
13.654553654
 20
31.1981179303
 30
0.0
 10
13.4278439475
 20
31.1635535213
 30
0.0
 10
13.3165574078
 20
31.1415602606
 30
0.0
  0
SPLINE
  5
338
100
AcDbEntity
  8
0
100
AcDbSpline
 62
7
  6
BYLAYER
 70
0
 71
3
 72
12
 73
8
 74
0
 42
0.0000001
 43
0.0000001
 44
0.0000000001
 40
0.0
 40
0.0
 40
0.0
 40
0.0
 40
0.2366548278
 40
0.3597727999
 40
0.4850965355
 40
0.740382234
 40
1.0
 40
1.0
 40
1.0
 40
1.0
 10
23.6013134133
 20
50.6428464446
 30
0.0
 10
23.5697225477
 20
50.6288506307
 30
0.0
 10
23.5255663678
 20
50.5987120871
 30
0.0
 10
23.4740778046
 20
50.5501107165
 30
0.0
 10
23.4250381813
 20
50.4951615131
 30
0.0
 10
23.3707473704
 20
50.4187329008
 30
0.0
 10
23.3347124187
 20
50.3525288761
 30
0.0
 10
23.3186376224
 20
50.3182011663
 30
0.0
  0
SPLINE
  5
339
100
AcDbEntity
  8
0
100
AcDbSpline
 62
7
  6
BYLAYER
 70
0
 71
3
 72
9
 73
5
 74
0
 42
0.0000001
 43
0.0000001
 44
0.0000000001
 40
0.0
 40
0.0
 40
0.0
 40
0.0
 40
0.5075920774
 40
1.0
 40
1.0
 40
1.0
 40
1.0
 10
23.3186409461
 20
29.710523475
 30
0.0
 10
23.3276141637
 20
29.723680031
 30
0.0
 10
23.3471878328
 20
29.7483902431
 30
0.0
 10
23.3708055242
 20
29.7693433227
 30
0.0
 10
23.3832633315
 20
29.7784795333
 30
0.0
  0
SPLINE
  5
33A
100
AcDbEntity
  8
0
100
AcDbSpline
 62
7
  6
BYLAYER
 70
0
 71
3
 72
9
 73
5
 74
0
 42
0.0000001
 43
0.0000001
 44
0.0000000001
 40
0.0
 40
0.0
 40
0.0
 40
0.0
 40
0.503765326
 40
1.0
 40
1.0
 40
1.0
 40
1.0
 10
23.3832633315
 20
29.7784795333
 30
0.0
 10
23.3952459016
 20
29.7872672181
 30
0.0
 10
23.4206212324
 20
29.8026769191
 30
0.0
 10
23.4484397723
 20
29.8130287331
 30
0.0
 10
23.462547243
 20
29.8169316146
 30
0.0
  0
SPLINE
  5
33B
100
AcDbEntity
  8
0
100
AcDbSpline
 62
7
  6
BYLAYER
 70
0
 71
3
 72
9
 73
5
 74
0
 42
0.0000001
 43
0.0000001
 44
0.0000000001
 40
0.0
 40
0.0
 40
0.0
 40
0.0
 40
0.5010881081
 40
1.0
 40
1.0
 40
1.0
 40
1.0
 10
23.462547243
 20
29.8169316146
 30
0.0
 10
23.4766814324
 20
29.8208418879
 30
0.0
 10
23.5056009793
 20
29.8262530049
 30
0.0
 10
23.5349643201
 20
29.8270735631
 30
0.0
 10
23.5495561737
 20
29.8265450167
 30
0.0
  0
SPLINE
  5
33C
100
AcDbEntity
  8
0
100
AcDbSpline
 62
7
  6
BYLAYER
 70
0
 71
3
 72
9
 73
5
 74
0
 42
0.0000001
 43
0.0000001
 44
0.0000000001
 40
0.0
 40
0.0
 40
0.0
 40
0.0
 40
0.4973124964
 40
1.0
 40
1.0
 40
1.0
 40
1.0
 10
23.601313413
 20
50.6428464445
 30
0.0
 10
23.5939603023
 20
50.6557294718
 30
0.0
 10
23.5823890073
 20
50.6834881223
 30
0.0
 10
23.5761809621
 20
50.7128971266
 30
0.0
 10
23.5748279118
 20
50.7278300443
 30
0.0
  0
SPLINE
  5
33D
100
AcDbEntity
  8
0
100
AcDbSpline
 62
7
  6
BYLAYER
 70
0
 71
3
 72
11
 73
7
 74
0
 42
0.0000001
 43
0.0000001
 44
0.0000000001
 40
0.0
 40
0.0
 40
0.0
 40
0.0
 40
0.2769719795
 40
0.5421331721
 40
0.7852685134
 40
1.0
 40
1.0
 40
1.0
 40
1.0
 10
23.1979268606
 20
50.3878934602
 30
0.0
 10
23.2218369789
 20
50.4293072296
 30
0.0
 10
23.2746914742
 20
50.5070279017
 30
0.0
 10
23.3671194107
 20
50.6070194804
 30
0.0
 10
23.4669512936
 20
50.6830251055
 30
0.0
 10
23.5392976363
 20
50.7172420236
 30
0.0
 10
23.5748279117
 20
50.7278300443
 30
0.0
  0
SPLINE
  5
33E
100
AcDbEntity
  8
0
100
AcDbSpline
 62
7
  6
BYLAYER
 70
0
 71
3
 72
11
 73
7
 74
0
 42
0.0000001
 43
0.0000001
 44
0.0000000001
 40
0.0
 40
0.0
 40
0.0
 40
0.0
 40
0.3097991021
 40
0.5752104977
 40
0.8001651532
 40
1.0
 40
1.0
 40
1.0
 40
1.0
 10
22.8121266223
 20
51.2498146295
 30
0.0
 10
22.8093993179
 20
51.2524493532
 30
0.0
 10
22.803997554
 20
51.2570183792
 30
0.0
 10
22.7954306909
 20
51.2619134799
 30
0.0
 10
22.7871342786
 20
51.2641148532
 30
0.0
 10
22.7818048752
 20
51.2634934592
 30
0.0
 10
22.7794926117
 20
51.26269551
 30
0.0
  0
SPLINE
  5
33F
100
AcDbEntity
  8
0
100
AcDbSpline
 62
7
  6
BYLAYER
 70
0
 71
3
 72
9
 73
5
 74
0
 42
0.0000001
 43
0.0000001
 44
0.0000000001
 40
0.0
 40
0.0
 40
0.0
 40
0.0
 40
0.2553371514
 40
1.0
 40
1.0
 40
1.0
 40
1.0
 10
22.7836841901
 20
51.2264950578
 30
0.0
 10
22.7847085514
 20
51.2276087987
 30
0.0
 10
22.7887823376
 20
51.2319129291
 30
0.0
 10
22.7931324703
 20
51.2359577828
 30
0.0
 10
22.7965204902
 20
51.2387855522
 30
0.0
  0
SPLINE
  5
340
100
AcDbEntity
  8
0
100
AcDbSpline
 62
7
  6
BYLAYER
 70
0
 71
3
 72
9
 73
5
 74
0
 42
0.0000001
 43
0.0000001
 44
0.0000000001
 40
0.0
 40
0.0
 40
0.0
 40
0.0
 40
0.2593568606
 40
1.0
 40
1.0
 40
1.0
 40
1.0
 10
22.7965204902
 20
51.2387855522
 30
0.0
 10
22.7977896655
 20
51.2398448538
 30
0.0
 10
22.8027640303
 20
51.2438302769
 30
0.0
 10
22.8080467413
 20
51.2474394552
 30
0.0
 10
22.8121266228
 20
51.2498146404
 30
0.0
  0
SPLINE
  5
341
100
AcDbEntity
  8
0
100
AcDbSpline
 62
7
  6
BYLAYER
 70
0
 71
3
 72
11
 73
7
 74
0
 42
0.0000001
 43
0.0000001
 44
0.0000000001
 40
0.0
 40
0.0
 40
0.0
 40
0.0
 40
0.2177490364
 40
0.450891401
 40
0.7104631291
 40
1.0
 40
1.0
 40
1.0
 40
1.0
 10
23.0029381111
 20
43.5997994572
 30
0.0
 10
23.0194287578
 20
43.5902787904
 30
0.0
 10
23.0503138424
 20
43.5643729718
 30
0.0
 10
23.0831652173
 20
43.5106300062
 30
0.0
 10
23.1026414656
 20
43.4444240838
 30
0.0
 10
23.1065058865
 20
43.3962458337
 30
0.0
 10
23.1065058857
 20
43.3709265003
 30
0.0
  0
SPLINE
  5
342
100
AcDbEntity
  8
0
100
AcDbSpline
 62
7
  6
BYLAYER
 70
0
 71
3
 72
12
 73
8
 74
0
 42
0.0000001
 43
0.0000001
 44
0.0000000001
 40
0.0
 40
0.0
 40
0.0
 40
0.0
 40
0.1134585902
 40
0.2284561283
 40
0.4675518223
 40
0.7246517177
 40
1.0
 40
1.0
 40
1.0
 40
1.0
 10
4.9669421863
 20
26.4160336001
 30
0.0
 10
4.9763053528
 20
26.4318164565
 30
0.0
 10
4.9981741754
 20
26.4619158141
 30
0.0
 10
5.0532518625
 20
26.5142437968
 30
0.0
 10
5.1421401913
 20
26.5619830711
 30
0.0
 10
5.2664274832
 20
26.5848634183
 30
0.0
 10
5.3533035582
 20
26.5778600189
 30
0.0
 10
5.3969944478
 20
26.5692257392
 30
0.0
  0
SPLINE
  5
343
100
AcDbEntity
  8
0
100
AcDbSpline
 62
7
  6
BYLAYER
 70
0
 71
3
 72
15
 73
11
 74
0
 42
0.0000001
 43
0.0000001
 44
0.0000000001
 40
0.0
 40
0.0
 40
0.0
 40
0.0
 40
0.1080034558
 40
0.2180543137
 40
0.3319979528
 40
0.4513544947
 40
0.5772597423
 40
0.7104915143
 40
0.8514579671
 40
1.0
 40
1.0
 40
1.0
 40
1.0
 10
4.7622658301
 20
25.6935448786
 30
0.0
 10
4.7622645262
 20
25.6367553195
 30
0.0
 10
4.7721464696
 20
25.5218713177
 30
0.0
 10
4.8161471684
 20
25.3521705605
 30
0.0
 10
4.8888308253
 20
25.1861329829
 30
0.0
 10
4.9892056482
 20
25.0254284898
 30
0.0
 10
5.1161878485
 20
24.8715225184
 30
0.0
 10
5.2684728071
 20
24.7257429402
 30
0.0
 10
5.4445500542
 20
24.5895013405
 30
0.0
 10
5.5733130419
 20
24.5078643782
 30
0.0
 10
5.6409545522
 20
24.4688124172
 30
0.0
  0
SPLINE
  5
344
100
AcDbEntity
  8
0
100
AcDbSpline
 62
7
  6
BYLAYER
 70
0
 71
3
 72
15
 73
11
 74
0
 42
0.0000001
 43
0.0000001
 44
0.0000000001
 40
0.0
 40
0.0
 40
0.0
 40
0.0
 40
0.0956368752
 40
0.2061169846
 40
0.3304925079
 40
0.4653566974
 40
0.6055118906
 40
0.7450169425
 40
0.8782443518
 40
1.0
 40
1.0
 40
1.0
 40
1.0
 10
36.7635988459
 20
13.7018246826
 30
0.0
 10
36.7489965309
 20
13.6771953387
 30
0.0
 10
36.7071407549
 20
13.6301817401
 30
0.0
 10
36.6234905974
 20
13.5759200585
 30
0.0
 10
36.5197974557
 20
13.5353985463
 30
0.0
 10
36.4022833705
 20
13.5108447826
 30
0.0
 10
36.2779494304
 20
13.5037340456
 30
0.0
 10
36.1543407054
 20
13.5144173081
 30
0.0
 10
36.0391199073
 20
13.5423336599
 30
0.0
 10
35.9685614911
 20
13.5729626367
 30
0.0
 10
35.9369926012
 20
13.5911885314
 30
0.0
  0
SPLINE
  5
345
100
AcDbEntity
  8
0
100
AcDbSpline
 62
7
  6
BYLAYER
 70
0
 71
3
 72
9
 73
5
 74
0
 42
0.0000001
 43
0.0000001
 44
0.0000000001
 40
0.0
 40
0.0
 40
0.0
 40
0.0
 40
0.2398426167
 40
1.0
 40
1.0
 40
1.0
 40
1.0
 10
23.7429016889
 20
29.7761619128
 30
0.0
 10
23.7385859571
 20
29.7786535453
 30
0.0
 10
23.7203153625
 20
29.7885604773
 30
0.0
 10
23.7010717178
 20
29.7966306512
 30
0.0
 10
23.6861631864
 20
29.8018453867
 30
0.0
  0
SPLINE
  5
346
100
AcDbEntity
  8
0
100
AcDbSpline
 62
7
  6
BYLAYER
 70
0
 71
3
 72
9
 73
5
 74
0
 42
0.0000001
 43
0.0000001
 44
0.0000000001
 40
0.0
 40
0.0
 40
0.0
 40
0.0
 40
0.2435093506
 40
1.0
 40
1.0
 40
1.0
 40
1.0
 10
23.6861631864
 20
29.8018453867
 30
0.0
 10
23.6809570926
 20
29.8036663845
 30
0.0
 10
23.6594180595
 20
29.8106840177
 30
0.0
 10
23.6373106139
 20
29.8159246098
 30
0.0
 10
23.6204495235
 20
29.8189715905
 30
0.0
  0
SPLINE
  5
347
100
AcDbEntity
  8
0
100
AcDbSpline
 62
7
  6
BYLAYER
 70
0
 71
3
 72
15
 73
11
 74
0
 42
0.0000001
 43
0.0000001
 44
0.0000000001
 40
0.0
 40
0.0
 40
0.0
 40
0.0
 40
0.0963515486
 40
0.1970931316
 40
0.3057142968
 40
0.4242815958
 40
0.5536737984
 40
0.693721162
 40
0.8433049708
 40
1.0
 40
1.0
 40
1.0
 40
1.0
 10
28.8709570416
 20
9.2229761997
 30
0.0
 10
28.8709498956
 20
9.2079753621
 30
0.0
 10
28.8667266372
 20
9.1771457123
 30
0.0
 10
28.8481074173
 20
9.1328462227
 30
0.0
 10
28.8180199991
 20
9.0911388843
 30
0.0
 10
28.7774223013
 20
9.0528693226
 30
0.0
 10
28.7272702588
 20
9.0188139614
 30
0.0
 10
28.6687300205
 20
8.9896384689
 30
0.0
 10
28.6032163365
 20
8.9660803136
 30
0.0
 10
28.5568429205
 20
8.9545924914
 30
0.0
 10
28.5329101772
 20
8.9498627268
 30
0.0
  0
SPLINE
  5
348
100
AcDbEntity
  8
0
100
AcDbSpline
 62
7
  6
BYLAYER
 70
0
 71
3
 72
15
 73
11
 74
0
 42
0.0000001
 43
0.0000001
 44
0.0000000001
 40
0.0
 40
0.0
 40
0.0
 40
0.0
 40
0.11412416
 40
0.2373483676
 40
0.3669736386
 40
0.5000010132
 40
0.6330282463
 40
0.7626531026
 40
0.8858766828
 40
1.0
 40
1.0
 40
1.0
 40
1.0
 10
25.0864101724
 20
49.0864639361
 30
0.0
 10
25.0864101726
 20
49.1367563593
 30
0.0
 10
25.0771757844
 20
49.2414465424
 30
0.0
 10
25.0404719082
 20
49.3993780907
 30
0.0
 10
24.9816033893
 20
49.5593511522
 30
0.0
 10
24.9028672074
 20
49.7153442865
 30
0.0
 10
24.8071407049
 20
49.8615277924
 30
0.0
 10
24.698033887
 20
49.992494999
 30
0.0
 10
24.5796129899
 20
50.1032459456
 30
0.0
 10
24.4935658595
 20
50.1635871935
 30
0.0
 10
24.4500114186
 20
50.1887327926
 30
0.0
  0
SPLINE
  5
349
100
AcDbEntity
  8
0
100
AcDbSpline
 62
7
  6
BYLAYER
 70
0
 71
3
 72
14
 73
10
 74
0
 42
0.0000001
 43
0.0000001
 44
0.0000000001
 40
0.0
 40
0.0
 40
0.0
 40
0.0
 40
0.2894781519
 40
0.4210609248
 40
0.5447471352
 40
0.662136589
 40
0.77539427
 40
0.8870875794
 40
1.0
 40
1.0
 40
1.0
 40
1.0
 10
24.481138326
 20
29.3508369379
 30
0.0
 10
24.5257968427
 20
29.3275950255
 30
0.0
 10
24.5944548189
 20
29.2996543674
 30
0.0
 10
24.6878397681
 20
29.2821932416
 30
0.0
 10
24.7528877447
 20
29.2798467231
 30
0.0
 10
24.8142874344
 20
29.2880201596
 30
0.0
 10
24.8712177596
 20
29.3066509122
 30
0.0
 10
24.9227884919
 20
29.3355668937
 30
0.0
 10
24.9526985029
 20
29.3611232298
 30
0.0
 10
24.966407133
 20
29.3751834707
 30
0.0
  0
SPLINE
  5
34A
100
AcDbEntity
  8
0
100
AcDbSpline
 62
7
  6
BYLAYER
 70
0
 71
3
 72
11
 73
7
 74
0
 42
0.0000001
 43
0.0000001
 44
0.0000000001
 40
0.0
 40
0.0
 40
0.0
 40
0.0
 40
0.2198657531
 40
0.457271756
 40
0.7170058883
 40
1.0
 40
1.0
 40
1.0
 40
1.0
 10
24.966407133
 20
29.3751834707
 30
0.0
 10
24.9862821799
 20
29.3955682898
 30
0.0
 10
25.0220573923
 20
29.4436260774
 30
0.0
 10
25.0595026587
 20
29.5292731099
 30
0.0
 10
25.0818540218
 20
29.6282991652
 30
0.0
 10
25.0864101725
 20
29.6987118808
 30
0.0
 10
25.0864101724
 20
29.7353566465
 30
0.0
  0
SPLINE
  5
34B
100
AcDbEntity
  8
0
100
AcDbSpline
 62
7
  6
BYLAYER
 70
0
 71
3
 72
9
 73
5
 74
0
 42
0.0000001
 43
0.0000001
 44
0.0000000001
 40
0.0
 40
0.0
 40
0.0
 40
0.0
 40
0.5230206836
 40
1.0
 40
1.0
 40
1.0
 40
1.0
 10
23.624827703
 20
50.7806120677
 30
0.0
 10
23.6592357722
 20
50.775744393
 30
0.0
 10
23.7244548381
 20
50.7614075112
 30
0.0
 10
23.7861260336
 20
50.7352240511
 30
0.0
 10
23.8136120281
 20
50.7194482287
 30
0.0
  0
SPLINE
  5
34C
100
AcDbEntity
  8
0
100
AcDbSpline
 62
7
  6
BYLAYER
 70
0
 71
3
 72
15
 73
11
 74
0
 42
0.0000001
 43
0.0000001
 44
0.0000000001
 40
0.0
 40
0.0
 40
0.0
 40
0.0
 40
0.1117353926
 40
0.2313861218
 40
0.3570604358
 40
0.4868109818
 40
0.6183338465
 40
0.7492352807
 40
0.87727357
 40
1.0
 40
1.0
 40
1.0
 40
1.0
 10
24.5207159182
 20
51.127692354
 30
0.0
 10
24.4639735535
 20
51.160451833
 30
0.0
 10
24.3413396691
 20
51.2196075119
 30
0.0
 10
24.1427326817
 20
51.2871985831
 30
0.0
 10
23.9276500294
 20
51.3350852613
 30
0.0
 10
23.7019935295
 20
51.3620074305
 30
0.0
 10
23.4717465033
 20
51.3673733303
 30
0.0
 10
23.2430143742
 20
51.3509204609
 30
0.0
 10
23.0220824036
 20
51.3130641732
 30
0.0
 10
22.8801499634
 20
51.2733049551
 30
0.0
 10
22.8121266228
 20
51.2498146404
 30
0.0
  0
SPLINE
  5
34D
100
AcDbEntity
  8
0
100
AcDbSpline
 62
7
  6
BYLAYER
 70
0
 71
3
 72
11
 73
7
 74
0
 42
0.0000001
 43
0.0000001
 44
0.0000000001
 40
0.0
 40
0.0
 40
0.0
 40
0.0
 40
0.2372196245
 40
0.5000016158
 40
0.7627827277
 40
1.0
 40
1.0
 40
1.0
 40
1.0
 10
23.7429016888
 20
50.5969735494
 30
0.0
 10
23.7429016888
 20
50.6085645072
 30
0.0
 10
23.7472490783
 20
50.6330112204
 30
0.0
 10
23.7624031803
 20
50.6673642016
 30
0.0
 10
23.7845764565
 20
50.6976645525
 30
0.0
 10
23.8035740904
 20
50.7136528089
 30
0.0
 10
23.8136120696
 20
50.7194482048
 30
0.0
  0
SPLINE
  5
34E
100
AcDbEntity
  8
0
100
AcDbSpline
 62
7
  6
BYLAYER
 70
0
 71
3
 72
9
 73
5
 74
0
 42
0.0000001
 43
0.0000001
 44
0.0000000001
 40
0.0
 40
0.0
 40
0.0
 40
0.0
 40
0.5231134764
 40
1.0
 40
1.0
 40
1.0
 40
1.0
 10
23.6013134133
 20
50.6428464446
 30
0.0
 10
23.6271315779
 20
50.6392403122
 30
0.0
 10
23.6760411611
 20
50.6284586605
 30
0.0
 10
23.7223203744
 20
50.6088559074
 30
0.0
 10
23.7429016889
 20
50.5969735493
 30
0.0
  0
SPLINE
  5
34F
100
AcDbEntity
  8
0
100
AcDbSpline
 62
7
  6
BYLAYER
 70
0
 71
3
 72
13
 73
9
 74
0
 42
0.0000001
 43
0.0000001
 44
0.0000000001
 40
0.0
 40
0.0
 40
0.0
 40
0.0
 40
0.2586109524
 40
0.3896360223
 40
0.5196180073
 40
0.6471662316
 40
0.770753185
 40
1.0
 40
1.0
 40
1.0
 40
1.0
 10
23.6100334763
 20
50.727121147
 30
0.0
 10
23.6089870059
 20
50.7198815705
 30
0.0
 10
23.60684765
 20
50.7090631468
 30
0.0
 10
23.6047919018
 20
50.6945060427
 30
0.0
 10
23.6036395698
 20
50.6835764069
 30
0.0
 10
23.602614189
 20
50.6728414611
 30
0.0
 10
23.6011952685
 20
50.6593466026
 30
0.0
 10
23.6006285087
 20
50.649294424
 30
0.0
 10
23.6013134132
 20
50.6428464443
 30
0.0
  0
SPLINE
  5
350
100
AcDbEntity
  8
0
100
AcDbSpline
 62
7
  6
BYLAYER
 70
0
 71
3
 72
9
 73
5
 74
0
 42
0.0000001
 43
0.0000001
 44
0.0000000001
 40
0.0
 40
0.0
 40
0.0
 40
0.0
 40
0.2314800224
 40
1.0
 40
1.0
 40
1.0
 40
1.0
 10
23.6248277034
 20
50.7806120675
 30
0.0
 10
23.6212990665
 20
50.7785748201
 30
0.0
 10
23.60662951
 20
50.7687858078
 30
0.0
 10
23.5942614217
 20
50.7557894286
 30
0.0
 10
23.5861401593
 20
50.7449710099
 30
0.0
  0
SPLINE
  5
351
100
AcDbEntity
  8
0
100
AcDbSpline
 62
7
  6
BYLAYER
 70
0
 71
3
 72
9
 73
5
 74
0
 42
0.0000001
 43
0.0000001
 44
0.0000000001
 40
0.0
 40
0.0
 40
0.0
 40
0.0
 40
0.5557031431
 40
1.0
 40
1.0
 40
1.0
 40
1.0
 10
23.6100334765
 20
50.7271211469
 30
0.0
 10
23.6119781667
 20
50.7372279189
 30
0.0
 10
23.6160631945
 20
50.7553007353
 30
0.0
 10
23.621647469
 20
50.7730226375
 30
0.0
 10
23.624827703
 20
50.7806120679
 30
0.0
  0
SPLINE
  5
352
100
AcDbEntity
  8
0
100
AcDbSpline
 62
7
  6
BYLAYER
 70
0
 71
3
 72
15
 73
11
 74
0
 42
0.0000001
 43
0.0000001
 44
0.0000000001
 40
0.0
 40
0.0
 40
0.0
 40
0.0
 40
0.1151140533
 40
0.2384962214
 40
0.3677059408
 40
0.4999989995
 40
0.632292196
 40
0.7615023184
 40
0.8848851259
 40
1.0
 40
1.0
 40
1.0
 40
1.0
 10
25.2535911562
 20
50.7040292855
 30
0.0
 10
25.2995477736
 20
50.6755476414
 30
0.0
 10
25.390093214
 20
50.608819279
 30
0.0
 10
25.5147524759
 20
50.4887093533
 30
0.0
 10
25.6295916643
 20
50.3485919579
 30
0.0
 10
25.7307174736
 20
50.1933017595
 30
0.0
 10
25.814640638
 20
50.0280793419
 30
0.0
 10
25.878567284
 20
49.8585667847
 30
0.0
 10
25.9202570838
 20
49.6905531321
 30
0.0
 10
25.9327737249
 20
49.578773721
 30
0.0
 10
25.9344617291
 20
49.5247329302
 30
0.0
  0
SPLINE
  5
353
100
AcDbEntity
  8
0
100
AcDbSpline
 62
7
  6
BYLAYER
 70
0
 71
3
 72
11
 73
7
 74
0
 42
0.0000001
 43
0.0000001
 44
0.0000000001
 40
0.0
 40
0.0
 40
0.0
 40
0.0
 40
0.2176475038
 40
0.4506923623
 40
0.7102014672
 40
1.0
 40
1.0
 40
1.0
 40
1.0
 10
28.6209763014
 20
13.3302524429
 30
0.0
 10
28.6044948149
 20
13.3397701338
 30
0.0
 10
28.5666210939
 20
13.3535204383
 30
0.0
 10
28.5036864866
 20
13.3551280247
 30
0.0
 10
28.4365943845
 20
13.338918015
 30
0.0
 10
28.3929279592
 20
13.3181588602
 30
0.0
 10
28.3709815491
 20
13.3054881706
 30
0.0
  0
SPLINE
  5
354
100
AcDbEntity
  8
0
100
AcDbSpline
 62
7
  6
BYLAYER
 70
0
 71
3
 72
9
 73
5
 74
0
 42
0.0000001
 43
0.0000001
 44
0.0000000001
 40
0.0
 40
0.0
 40
0.0
 40
0.0
 40
0.275560183
 40
1.0
 40
1.0
 40
1.0
 40
1.0
 10
36.0466020787
 20
13.0380179966
 30
0.0
 10
36.1247684179
 20
13.0831470842
 30
0.0
 10
36.3998727133
 20
13.2597531987
 30
0.0
 10
36.6425854088
 20
13.4977144898
 30
0.0
 10
36.7635988459
 20
13.7018246826
 30
0.0
  0
SPLINE
  5
355
100
AcDbEntity
  8
0
100
AcDbSpline
 62
7
  6
BYLAYER
 70
0
 71
3
 72
12
 73
8
 74
0
 42
0.0000001
 43
0.0000001
 44
0.0000000001
 40
0.0
 40
0.0
 40
0.0
 40
0.0
 40
0.2894817333
 40
0.5486700305
 40
0.7816238149
 40
0.8918281304
 40
1.0
 40
1.0
 40
1.0
 40
1.0
 10
25.9349353625
 20
30.1436011486
 30
0.0
 10
25.9349353618
 20
30.0929332347
 30
0.0
 10
25.9272302592
 20
29.9965602497
 30
0.0
 10
25.8883035059
 20
29.8642183929
 30
0.0
 10
25.8322841113
 20
29.7729046399
 30
0.0
 10
25.7757323538
 20
29.7173007566
 30
0.0
 10
25.7442201385
 20
29.6952818068
 30
0.0
 10
25.7278233989
 20
29.6858152034
 30
0.0
  0
SPLINE
  5
356
100
AcDbEntity
  8
0
100
AcDbSpline
 62
7
  6
BYLAYER
 70
0
 71
3
 72
11
 73
7
 74
0
 42
0.0000001
 43
0.0000001
 44
0.0000000001
 40
0.0
 40
0.0
 40
0.0
 40
0.0
 40
0.2372178169
 40
0.4999994762
 40
0.7627814206
 40
1.0
 40
1.0
 40
1.0
 40
1.0
 10
25.2278315226
 20
29.7353569886
 30
0.0
 10
25.2177935321
 20
29.7295615873
 30
0.0
 10
25.1944484531
 20
29.7211033273
 30
0.0
 10
25.1571209582
 20
29.7170507695
 30
0.0
 10
25.1197934072
 20
29.7211031576
 30
0.0
 10
25.0964482369
 20
29.7295613022
 30
0.0
 10
25.0864101724
 20
29.73535665
 30
0.0
  0
SPLINE
  5
357
100
AcDbEntity
  8
0
100
AcDbSpline
 62
7
  6
BYLAYER
 70
0
 71
3
 72
11
 73
7
 74
0
 42
0.0000001
 43
0.0000001
 44
0.0000000001
 40
0.0
 40
0.0
 40
0.0
 40
0.0
 40
0.2372172731
 40
0.499998385
 40
0.762780376
 40
1.0
 40
1.0
 40
1.0
 40
1.0
 10
24.5207217993
 20
50.3112074476
 30
0.0
 10
24.5106838202
 20
50.3054120517
 30
0.0
 10
24.4916861862
 20
50.2894237953
 30
0.0
 10
24.46951291
 20
50.2591234443
 30
0.0
 10
24.4543588081
 20
50.2247704631
 30
0.0
 10
24.4500114186
 20
50.20032375
 30
0.0
 10
24.4500114186
 20
50.1887327922
 30
0.0
  0
SPLINE
  5
358
100
AcDbEntity
  8
0
100
AcDbSpline
 62
7
  6
BYLAYER
 70
0
 71
3
 72
15
 73
11
 74
0
 42
0.0000001
 43
0.0000001
 44
0.0000000001
 40
0.0
 40
0.0
 40
0.0
 40
0.0
 40
0.1141225843
 40
0.2373453281
 40
0.3669717174
 40
0.500001082
 40
0.633030296
 40
0.7626562459
 40
0.8858782967
 40
1.0
 40
1.0
 40
1.0
 40
1.0
 10
25.2278315275
 20
49.0864642784
 30
0.0
 10
25.2278315283
 20
49.1423440379
 30
0.0
 10
25.2175725768
 20
49.2586651802
 30
0.0
 10
25.176791368
 20
49.4341441579
 30
0.0
 10
25.1113829871
 20
49.611893467
 30
0.0
 10
25.0238975499
 20
49.7852218646
 30
0.0
 10
24.9175328199
 20
49.9476499911
 30
0.0
 10
24.7963012277
 20
50.0931688493
 30
0.0
 10
24.6647225132
 20
50.216224397
 30
0.0
 10
24.569114994
 20
50.283268261
 30
0.0
 10
24.5207218021
 20
50.3112074502
 30
0.0
  0
SPLINE
  5
359
100
AcDbEntity
  8
0
100
AcDbSpline
 62
7
  6
BYLAYER
 70
0
 71
3
 72
11
 73
7
 74
0
 42
0.0000001
 43
0.0000001
 44
0.0000000001
 40
0.0
 40
0.0
 40
0.0
 40
0.0
 40
0.2372185795
 40
0.5000005241
 40
0.7627821834
 40
1.0
 40
1.0
 40
1.0
 40
1.0
 10
25.0864101724
 20
49.086463936
 30
0.0
 10
25.0964482369
 20
49.0806685881
 30
0.0
 10
25.1197934073
 20
49.0722104436
 30
0.0
 10
25.1571209583
 20
49.0681580555
 30
0.0
 10
25.1944484532
 20
49.0722106133
 30
0.0
 10
25.2177935321
 20
49.0806688733
 30
0.0
 10
25.2278315226
 20
49.0864642745
 30
0.0
  0
SPLINE
  5
35A
100
AcDbEntity
  8
0
100
AcDbSpline
 62
7
  6
BYLAYER
 70
0
 71
3
 72
11
 73
7
 74
0
 42
0.0000001
 43
0.0000001
 44
0.0000000001
 40
0.0
 40
0.0
 40
0.0
 40
0.0
 40
0.345952381
 40
0.6339090405
 40
0.8533536162
 40
1.0
 40
1.0
 40
1.0
 40
1.0
 10
22.7734390785
 20
51.2141735822
 30
0.0
 10
22.7697178079
 20
51.2167879171
 30
0.0
 10
22.7628236495
 20
51.2214675517
 30
0.0
 10
22.7532653765
 20
51.2273702348
 30
0.0
 10
22.7456574168
 20
51.2313443457
 30
0.0
 10
22.7411198553
 20
51.2331149722
 30
0.0
 10
22.739219733
 20
51.2334403542
 30
0.0
  0
SPLINE
  5
35B
100
AcDbEntity
  8
0
100
AcDbSpline
 62
7
  6
BYLAYER
 70
0
 71
3
 72
9
 73
5
 74
0
 42
0.0000001
 43
0.0000001
 44
0.0000000001
 40
0.0
 40
0.0
 40
0.0
 40
0.0
 40
0.327948916
 40
1.0
 40
1.0
 40
1.0
 40
1.0
 10
22.739219733
 20
51.2334403542
 30
0.0
 10
22.7388598894
 20
51.2335019747
 30
0.0
 10
22.7377827111
 20
51.2336401905
 30
0.0
 10
22.7364986112
 20
51.2334811575
 30
0.0
 10
22.7359711989
 20
51.2329505374
 30
0.0
  0
SPLINE
  5
35C
100
AcDbEntity
  8
0
100
AcDbSpline
 62
7
  6
BYLAYER
 70
0
 71
3
 72
9
 73
5
 74
0
 42
0.0000001
 43
0.0000001
 44
0.0000000001
 40
0.0
 40
0.0
 40
0.0
 40
0.0
 40
0.4746734472
 40
1.0
 40
1.0
 40
1.0
 40
1.0
 10
23.1065058842
 20
50.1957261678
 30
0.0
 10
23.1065265092
 20
50.207324899
 30
0.0
 10
23.1107816657
 20
50.2317665003
 30
0.0
 10
23.1207113612
 20
50.2543527086
 30
0.0
 10
23.1272164761
 20
50.2654188018
 30
0.0
  0
SPLINE
  5
35D
100
AcDbEntity
  8
0
100
AcDbSpline
 62
7
  6
BYLAYER
 70
0
 71
3
 72
10
 73
6
 74
0
 42
0.0000001
 43
0.0000001
 44
0.0000000001
 40
0.0
 40
0.0
 40
0.0
 40
0.0
 40
0.2283224262
 40
0.4780825953
 40
1.0
 40
1.0
 40
1.0
 40
1.0
 10
23.1065058842
 20
50.1957261681
 30
0.0
 10
23.1128430762
 20
50.1920572034
 30
0.0
 10
23.1270194427
 20
50.1858990503
 30
0.0
 10
23.1582654298
 20
50.1783138922
 30
0.0
 10
23.1835022816
 20
50.1780128618
 30
0.0
 10
23.2000905864
 20
50.1802517106
 30
0.0
  0
SPLINE
  5
35E
100
AcDbEntity
  8
0
100
AcDbSpline
 62
7
  6
BYLAYER
 70
0
 71
3
 72
9
 73
5
 74
0
 42
0.0000001
 43
0.0000001
 44
0.0000000001
 40
0.0
 40
0.0
 40
0.0
 40
0.0
 40
0.2669843817
 40
1.0
 40
1.0
 40
1.0
 40
1.0
 10
23.2000905864
 20
50.1802517106
 30
0.0
 10
23.2045811279
 20
50.180855199
 30
0.0
 10
23.2212784413
 20
50.1838121111
 30
0.0
 10
23.2376414038
 20
50.18955707
 30
0.0
 10
23.2483763456
 20
50.195842716
 30
0.0
  0
SPLINE
  5
35F
100
AcDbEntity
  8
0
100
AcDbSpline
 62
7
  6
BYLAYER
 70
0
 71
3
 72
13
 73
9
 74
0
 42
0.0000001
 43
0.0000001
 44
0.0000000001
 40
0.0
 40
0.0
 40
0.0
 40
0.0
 40
0.1141741955
 40
0.2375657018
 40
0.5000016063
 40
0.7624366323
 40
0.88582711
 40
1.0
 40
1.0
 40
1.0
 40
1.0
 10
23.1065058852
 20
45.8204337405
 30
0.0
 10
23.1065058855
 20
45.7925063511
 30
0.0
 10
23.1013601685
 20
45.7343419541
 30
0.0
 10
23.0736208059
 20
45.6149260578
 30
0.0
 10
23.0089874014
 20
45.4684868554
 30
0.0
 10
22.9144848416
 20
45.3392927699
 30
0.0
 10
22.8249381029
 20
45.2555621334
 30
0.0
 10
22.7771395674
 20
45.2220239464
 30
0.0
 10
22.7529539793
 20
45.2080604738
 30
0.0
  0
SPLINE
  5
360
100
AcDbEntity
  8
0
100
AcDbSpline
 62
7
  6
BYLAYER
 70
0
 71
3
 72
11
 73
7
 74
0
 42
0.0000001
 43
0.0000001
 44
0.0000000001
 40
0.0
 40
0.0
 40
0.0
 40
0.0
 40
0.2372178156
 40
0.499999476
 40
0.7627814215
 40
1.0
 40
1.0
 40
1.0
 40
1.0
 10
23.2479272385
 20
45.8204340799
 30
0.0
 10
23.2378892478
 20
45.8146386782
 30
0.0
 10
23.2145441683
 20
45.8061804176
 30
0.0
 10
23.1772166721
 20
45.8021278595
 30
0.0
 10
23.1398891198
 20
45.8061802478
 30
0.0
 10
23.1165439488
 20
45.8146383929
 30
0.0
 10
23.1065058842
 20
45.8204337411
 30
0.0
  0
SPLINE
  5
361
100
AcDbEntity
  8
0
100
AcDbSpline
 62
7
  6
BYLAYER
 70
0
 71
3
 72
11
 73
7
 74
0
 42
0.0000001
 43
0.0000001
 44
0.0000000001
 40
0.0
 40
0.0
 40
0.0
 40
0.0
 40
0.2372177744
 40
0.499998909
 40
0.7627806374
 40
1.0
 40
1.0
 40
1.0
 40
1.0
 10
22.7529539734
 20
45.2080604712
 30
0.0
 10
22.7629920217
 20
45.2022651323
 30
0.0
 10
22.7819898052
 20
45.1862769869
 30
0.0
 10
22.8041632813
 20
45.155976732
 30
0.0
 10
22.8193175204
 20
45.121623808
 30
0.0
 10
22.8236649457
 20
45.097177105
 30
0.0
 10
22.8236649455
 20
45.0855861531
 30
0.0
  0
SPLINE
  5
362
100
AcDbEntity
  8
0
100
AcDbSpline
 62
7
  6
BYLAYER
 70
0
 71
3
 72
11
 73
7
 74
0
 42
0.0000001
 43
0.0000001
 44
0.0000000001
 40
0.0
 40
0.0
 40
0.0
 40
0.0
 40
0.2647637947
 40
0.5208437914
 40
0.7664080861
 40
1.0
 40
1.0
 40
1.0
 40
1.0
 10
28.5329101772
 20
8.9498627268
 30
0.0
 10
28.6391494362
 20
8.9708585098
 30
0.0
 10
28.8467908785
 20
9.0194584246
 30
0.0
 10
29.1461447019
 20
9.1135216132
 30
0.0
 10
29.4251630009
 20
9.2265952678
 30
0.0
 10
29.5999238091
 20
9.3160487794
 30
0.0
 10
29.6826675433
 20
9.3638206114
 30
0.0
  0
SPLINE
  5
363
100
AcDbEntity
  8
0
100
AcDbSpline
 62
7
  6
BYLAYER
 70
0
 71
3
 72
10
 73
6
 74
0
 42
0.0000001
 43
0.0000001
 44
0.0000000001
 40
0.0
 40
0.0
 40
0.0
 40
0.0
 40
0.5233153408
 40
0.7689044932
 40
1.0
 40
1.0
 40
1.0
 40
1.0
 10
21.0933225783
 20
20.6833132477
 30
0.0
 10
21.1487123591
 20
20.7571007478
 30
0.0
 10
21.2393252353
 20
20.859296973
 30
0.0
 10
21.3747230492
 20
20.9725648035
 30
0.0
 10
21.4448511749
 20
21.0193136347
 30
0.0
 10
21.4801392719
 20
21.0396801198
 30
0.0
  0
SPLINE
  5
364
100
AcDbEntity
  8
0
100
AcDbSpline
 62
7
  6
BYLAYER
 70
0
 71
3
 72
15
 73
11
 74
0
 42
0.0000001
 43
0.0000001
 44
0.0000000001
 40
0.0
 40
0.0
 40
0.0
 40
0.0
 40
0.1131224783
 40
0.234892074
 40
0.3629731646
 40
0.4947608268
 40
0.6272682809
 40
0.7574567551
 40
0.8825712028
 40
1.0
 40
1.0
 40
1.0
 40
1.0
 10
20.7731026705
 20
19.8149723561
 30
0.0
 10
20.8186773976
 20
19.7886603704
 30
0.0
 10
20.9179376619
 20
19.7418513484
 30
0.0
 10
21.0792949027
 20
19.6907372425
 30
0.0
 10
21.2540918749
 20
19.6574866746
 30
0.0
 10
21.4364125783
 20
19.6431560384
 30
0.0
 10
21.6201999416
 20
19.6482732367
 30
0.0
 10
21.7993370362
 20
19.6726145171
 30
0.0
 10
21.9677534262
 20
19.7154200897
 30
0.0
 10
22.0731553926
 20
19.7568445103
 30
0.0
 10
22.1223346458
 20
19.7806276669
 30
0.0
  0
SPLINE
  5
365
100
AcDbEntity
  8
0
100
AcDbSpline
 62
7
  6
BYLAYER
 70
0
 71
3
 72
14
 73
10
 74
0
 42
0.0000001
 43
0.0000001
 44
0.0000000001
 40
0.0
 40
0.0
 40
0.0
 40
0.0
 40
0.2892549854
 40
0.4225732183
 40
0.5485102807
 40
0.6678780561
 40
0.7818499421
 40
0.8919433723
 40
1.0
 40
1.0
 40
1.0
 40
1.0
 10
18.6517540648
 20
26.8368040036
 30
0.0
 10
18.5859164323
 20
26.8748145186
 30
0.0
 10
18.4937089802
 20
26.9383157795
 30
0.0
 10
18.3893701368
 20
27.0381484381
 30
0.0
 10
18.3258764602
 20
27.1151141973
 30
0.0
 10
18.275696787
 20
27.1954555356
 30
0.0
 10
18.2393716337
 20
27.2784715334
 30
0.0
 10
18.2173352102
 20
27.3633185632
 30
0.0
 10
18.2124234271
 20
27.4207706702
 30
0.0
 10
18.2124235942
 20
27.4491702343
 30
0.0
  0
SPLINE
  5
366
100
AcDbEntity
  8
0
100
AcDbSpline
 62
7
  6
BYLAYER
 70
0
 71
3
 72
12
 73
8
 74
0
 42
0.0000001
 43
0.0000001
 44
0.0000000001
 40
0.0
 40
0.0
 40
0.0
 40
0.0
 40
0.1081712361
 40
0.218374993
 40
0.4513281548
 40
0.7105167939
 40
1.0
 40
1.0
 40
1.0
 40
1.0
 10
23.5914751673
 20
16.3040088826
 30
0.0
 10
23.5914751682
 20
16.3229413862
 30
0.0
 10
23.594788024
 20
16.3612396468
 30
0.0
 10
23.6146660978
 20
16.4380136901
 30
0.0
 10
23.6657351532
 20
16.5321809422
 30
0.0
 10
23.7608805179
 20
16.632059391
 30
0.0
 10
23.8404870308
 20
16.686916575
 30
0.0
 10
23.8843654431
 20
16.7122496377
 30
0.0
  0
SPLINE
  5
367
100
AcDbEntity
  8
0
100
AcDbSpline
 62
7
  6
BYLAYER
 70
0
 71
3
 72
13
 73
9
 74
0
 42
0.0000001
 43
0.0000001
 44
0.0000000001
 40
0.0
 40
0.0
 40
0.0
 40
0.0
 40
0.1081598273
 40
0.2182975055
 40
0.332287084
 40
0.4517024772
 40
0.7106766003
 40
1.0
 40
1.0
 40
1.0
 40
1.0
 10
31.1725423454
 20
26.3964111799
 30
0.0
 10
31.156141745
 20
26.4058890668
 30
0.0
 10
31.1213226024
 20
26.4222008776
 30
0.0
 10
31.0649898551
 20
26.4377574457
 30
0.0
 10
31.0049591894
 20
26.4444611193
 30
0.0
 10
30.9185166924
 20
26.4414382352
 30
0.0
 10
30.8036680112
 20
26.4137661527
 30
0.0
 10
30.7164378621
 20
26.3722277547
 30
0.0
 10
30.6725563945
 20
26.346892929
 30
0.0
  0
SPLINE
  5
368
100
AcDbEntity
  8
0
100
AcDbSpline
 62
7
  6
BYLAYER
 70
0
 71
3
 72
15
 73
11
 74
0
 42
0.0000001
 43
0.0000001
 44
0.0000000001
 40
0.0
 40
0.0
 40
0.0
 40
0.0
 40
0.1141241598
 40
0.2373483674
 40
0.3669736384
 40
0.5000010129
 40
0.6330282461
 40
0.7626531025
 40
0.8858766828
 40
1.0
 40
1.0
 40
1.0
 40
1.0
 10
19.9952625432
 20
46.1471060274
 30
0.0
 10
19.9952625435
 20
46.1973984504
 30
0.0
 10
19.9860281556
 20
46.3020886334
 30
0.0
 10
19.9493242799
 20
46.4600201815
 30
0.0
 10
19.8904557613
 20
46.6199932429
 30
0.0
 10
19.8117195797
 20
46.7759863772
 30
0.0
 10
19.7159930775
 20
46.9221698832
 30
0.0
 10
19.6068862599
 20
47.05313709
 30
0.0
 10
19.488465363
 20
47.1638880368
 30
0.0
 10
19.4024182326
 20
47.2242292848
 30
0.0
 10
19.3588637918
 20
47.2493748837
 30
0.0
  0
SPLINE
  5
369
100
AcDbEntity
  8
0
100
AcDbSpline
 62
7
  6
BYLAYER
 70
0
 71
3
 72
14
 73
10
 74
0
 42
0.0000001
 43
0.0000001
 44
0.0000000001
 40
0.0
 40
0.0
 40
0.0
 40
0.0
 40
0.2894781519
 40
0.4210609247
 40
0.5447471351
 40
0.6621365889
 40
0.7753942699
 40
0.8870875794
 40
1.0
 40
1.0
 40
1.0
 40
1.0
 10
19.3899906984
 20
26.4114790303
 30
0.0
 10
19.434649215
 20
26.3882371179
 30
0.0
 10
19.503307191
 20
26.3602964599
 30
0.0
 10
19.5966921401
 20
26.3428353343
 30
0.0
 10
19.6617401166
 20
26.3404888158
 30
0.0
 10
19.7231398061
 20
26.3486622524
 30
0.0
 10
19.7800701312
 20
26.3672930051
 30
0.0
 10
19.8316408633
 20
26.3962089866
 30
0.0
 10
19.8615508742
 20
26.4217653227
 30
0.0
 10
19.8752595044
 20
26.4358255636
 30
0.0
  0
SPLINE
  5
36A
100
AcDbEntity
  8
0
100
AcDbSpline
 62
7
  6
BYLAYER
 70
0
 71
3
 72
11
 73
7
 74
0
 42
0.0000001
 43
0.0000001
 44
0.0000000001
 40
0.0
 40
0.0
 40
0.0
 40
0.0
 40
0.2198657528
 40
0.4572717557
 40
0.7170058882
 40
1.0
 40
1.0
 40
1.0
 40
1.0
 10
19.8752595044
 20
26.4358255636
 30
0.0
 10
19.8951345514
 20
26.4562103829
 30
0.0
 10
19.9309097641
 20
26.5042681713
 30
0.0
 10
19.9683550305
 20
26.5899152051
 30
0.0
 10
19.9907063934
 20
26.6889412618
 30
0.0
 10
19.9952625438
 20
26.7593539784
 30
0.0
 10
19.9952625436
 20
26.7959987446
 30
0.0
  0
SPLINE
  5
36B
100
AcDbEntity
  8
0
100
AcDbSpline
 62
7
  6
BYLAYER
 70
0
 71
3
 72
15
 73
11
 74
0
 42
0.0000001
 43
0.0000001
 44
0.0000000001
 40
0.0
 40
0.0
 40
0.0
 40
0.0
 40
0.1277619033
 40
0.2456724635
 40
0.3576802885
 40
0.4692295478
 40
0.585717943
 40
0.7115185588
 40
0.8494149085
 40
1.0
 40
1.0
 40
1.0
 40
1.0
 10
18.4793261929
 20
48.7343666939
 30
0.0
 10
18.4456189438
 20
48.6981413134
 30
0.0
 10
18.3868520621
 20
48.6223000946
 30
0.0
 10
18.328424775
 20
48.4951769333
 30
0.0
 10
18.3063610323
 20
48.3630440031
 30
0.0
 10
18.3220514895
 20
48.2305550902
 30
0.0
 10
18.3743099521
 20
48.1022830634
 30
0.0
 10
18.4608577601
 20
47.9817414412
 30
0.0
 10
18.5787025708
 20
47.8716500559
 30
0.0
 10
18.6719565038
 20
47.8092504096
 30
0.0
 10
18.722464474
 20
47.7800902783
 30
0.0
  0
SPLINE
  5
36C
100
AcDbEntity
  8
0
100
AcDbSpline
 62
7
  6
BYLAYER
 70
0
 71
3
 72
9
 73
5
 74
0
 42
0.0000001
 43
0.0000001
 44
0.0000000001
 40
0.0
 40
0.0
 40
0.0
 40
0.0
 40
0.2589611555
 40
1.0
 40
1.0
 40
1.0
 40
1.0
 10
19.4295682789
 20
48.1883344521
 30
0.0
 10
19.4253280346
 20
48.190796914
 30
0.0
 10
19.4091390891
 20
48.2006166938
 30
0.0
 10
19.3937075341
 20
48.21171896
 30
0.0
 10
19.382957419
 20
48.2207366151
 30
0.0
  0
SPLINE
  5
36D
100
AcDbEntity
  8
0
100
AcDbSpline
 62
7
  6
BYLAYER
 70
0
 71
3
 72
9
 73
5
 74
0
 42
0.0000001
 43
0.0000001
 44
0.0000000001
 40
0.0
 40
0.0
 40
0.0
 40
0.0
 40
0.2545766963
 40
1.0
 40
1.0
 40
1.0
 40
1.0
 10
19.382957419
 20
48.2207366151
 30
0.0
 10
19.3813917553
 20
48.2220499605
 30
0.0
 10
19.375298429
 20
48.227275988
 30
0.0
 10
19.36943703
 20
48.2327738133
 30
0.0
 10
19.3652264723
 20
48.2370254647
 30
0.0
  0
SPLINE
  5
36E
100
AcDbEntity
  8
0
100
AcDbSpline
 62
7
  6
BYLAYER
 70
0
 71
3
 72
9
 73
5
 74
0
 42
0.0000001
 43
0.0000001
 44
0.0000000001
 40
0.0
 40
0.0
 40
0.0
 40
0.0
 40
0.2554036098
 40
1.0
 40
1.0
 40
1.0
 40
1.0
 10
19.3652264723
 20
48.2370254647
 30
0.0
 10
19.3635946227
 20
48.2386732406
 30
0.0
 10
19.3572980793
 20
48.245215705
 30
0.0
 10
19.3513826797
 20
48.2521280309
 30
0.0
 10
19.3472463189
 20
48.2574760286
 30
0.0
  0
SPLINE
  5
36F
100
AcDbEntity
  8
0
100
AcDbSpline
 62
7
  6
BYLAYER
 70
0
 71
3
 72
9
 73
5
 74
0
 42
0.0000001
 43
0.0000001
 44
0.0000000001
 40
0.0
 40
0.0
 40
0.0
 40
0.0
 40
0.2550439128
 40
1.0
 40
1.0
 40
1.0
 40
1.0
 10
19.3472463189
 20
48.2574760286
 30
0.0
 10
19.345910836
 20
48.2592027057
 30
0.0
 10
19.3407833088
 20
48.266055953
 30
0.0
 10
19.3361003945
 20
48.2732441462
 30
0.0
 10
19.3329103781
 20
48.2787646847
 30
0.0
  0
SPLINE
  5
370
100
AcDbEntity
  8
0
100
AcDbSpline
 62
7
  6
BYLAYER
 70
0
 71
3
 72
11
 73
7
 74
0
 42
0.0000001
 43
0.0000001
 44
0.0000000001
 40
0.0
 40
0.0
 40
0.0
 40
0.0
 40
0.237219624
 40
0.5000016153
 40
0.7627827275
 40
1.0
 40
1.0
 40
1.0
 40
1.0
 10
18.6517540665
 20
47.6576156383
 30
0.0
 10
18.6517540665
 20
47.6692065961
 30
0.0
 10
18.6561014559
 20
47.6936533093
 30
0.0
 10
18.6712555579
 20
47.7280062905
 30
0.0
 10
18.6934288342
 20
47.7583066415
 30
0.0
 10
18.7124264681
 20
47.7742948979
 30
0.0
 10
18.7224644472
 20
47.7800902937
 30
0.0
  0
SPLINE
  5
371
100
AcDbEntity
  8
0
100
AcDbSpline
 62
7
  6
BYLAYER
 70
0
 71
3
 72
11
 73
7
 74
0
 42
0.0000001
 43
0.0000001
 44
0.0000000001
 40
0.0
 40
0.0
 40
0.0
 40
0.0
 40
0.2626613926
 40
0.5235302674
 40
0.7722285333
 40
1.0
 40
1.0
 40
1.0
 40
1.0
 10
21.0933225783
 20
20.6833132477
 30
0.0
 10
21.0439470868
 20
20.6175396384
 30
0.0
 10
20.9550894266
 20
20.4790027246
 30
0.0
 10
20.8540831096
 20
20.2584167585
 30
0.0
 10
20.7898077799
 20
20.0357724461
 30
0.0
 10
20.773112337
 20
19.8864195459
 30
0.0
 10
20.7731026793
 20
19.815100044
 30
0.0
  0
SPLINE
  5
372
100
AcDbEntity
  8
0
100
AcDbSpline
 62
7
  6
BYLAYER
 70
0
 71
3
 72
15
 73
11
 74
0
 42
0.0000001
 43
0.0000001
 44
0.0000000001
 40
0.0
 40
0.0
 40
0.0
 40
0.0
 40
0.1141225842
 40
0.2373453282
 40
0.3669717174
 40
0.500001082
 40
0.633030296
 40
0.7626562458
 40
0.8858782968
 40
1.0
 40
1.0
 40
1.0
 40
1.0
 10
22.1873162336
 20
19.8149757559
 30
0.0
 10
22.1873162336
 20
19.8708555153
 30
0.0
 10
22.1770572827
 20
19.9871766574
 30
0.0
 10
22.1362760744
 20
20.1626556353
 30
0.0
 10
22.0708676932
 20
20.3404049442
 30
0.0
 10
21.9833822562
 20
20.5137333419
 30
0.0
 10
21.8770175261
 20
20.6761614681
 30
0.0
 10
21.7557859343
 20
20.8216803267
 30
0.0
 10
21.6242072194
 20
20.944735874
 30
0.0
 10
21.5285996999
 20
21.0117797374
 30
0.0
 10
21.4802065086
 20
21.0397189274
 30
0.0
  0
SPLINE
  5
373
100
AcDbEntity
  8
0
100
AcDbSpline
 62
7
  6
BYLAYER
 70
0
 71
3
 72
9
 73
5
 74
0
 42
0.0000001
 43
0.0000001
 44
0.0000000001
 40
0.0
 40
0.0
 40
0.0
 40
0.0
 40
0.5041012473
 40
1.0
 40
1.0
 40
1.0
 40
1.0
 10
22.1223346458
 20
19.7806276669
 30
0.0
 10
22.1334562221
 20
19.786006077
 30
0.0
 10
22.1554825584
 20
19.796773393
 30
0.0
 10
22.1767915836
 20
19.8088993826
 30
0.0
 10
22.1873162329
 20
19.8149757554
 30
0.0
  0
SPLINE
  5
374
100
AcDbEntity
  8
0
100
AcDbSpline
 62
7
  6
BYLAYER
 70
0
 71
3
 72
11
 73
7
 74
0
 42
0.0000001
 43
0.0000001
 44
0.0000000001
 40
0.0
 40
0.0
 40
0.0
 40
0.0
 40
0.2896728352
 40
0.5489432895
 40
0.7822105477
 40
1.0
 40
1.0
 40
1.0
 40
1.0
 10
18.5109252005
 20
48.7665296641
 30
0.0
 10
18.5153125651
 20
48.7690626951
 30
0.0
 10
18.5240390724
 20
48.7732128049
 30
0.0
 10
18.5374544113
 20
48.7764597045
 30
0.0
 10
18.5500429545
 20
48.7761328721
 30
0.0
 10
18.5576257184
 20
48.7733868741
 30
0.0
 10
18.560924357
 20
48.7714824496
 30
0.0
  0
SPLINE
  5
375
100
AcDbEntity
  8
0
100
AcDbSpline
 62
7
  6
BYLAYER
 70
0
 71
3
 72
12
 73
8
 74
0
 42
0.0000001
 43
0.0000001
 44
0.0000000001
 40
0.0
 40
0.0
 40
0.0
 40
0.0
 40
0.2894467928
 40
0.5488868925
 40
0.7817706702
 40
0.8918826165
 40
1.0
 40
1.0
 40
1.0
 40
1.0
 10
12.8534324964
 20
26.0201225195
 30
0.0
 10
12.8095623328
 20
26.0454469068
 30
0.0
 10
12.7222003789
 20
26.0869056764
 30
0.0
 10
12.5881331227
 20
26.1194341147
 30
0.0
 10
12.4810409049
 20
26.1165270239
 30
0.0
 10
12.4046588929
 20
26.0953624826
 30
0.0
 10
12.3698709221
 20
26.0790770892
 30
0.0
 10
12.3534826221
 20
26.0696201181
 30
0.0
  0
SPLINE
  5
376
100
AcDbEntity
  8
0
100
AcDbSpline
 62
7
  6
BYLAYER
 70
0
 71
3
 72
9
 73
5
 74
0
 42
0.0000001
 43
0.0000001
 44
0.0000000001
 40
0.0
 40
0.0
 40
0.0
 40
0.0
 40
0.5199019503
 40
1.0
 40
1.0
 40
1.0
 40
1.0
 10
19.3236262791
 20
48.2973270901
 30
0.0
 10
19.3354345552
 20
48.2990511591
 30
0.0
 10
19.3588313427
 20
48.298743224
 30
0.0
 10
19.3809571414
 20
48.2905088646
 30
0.0
 10
19.3901810487
 20
48.2844792329
 30
0.0
  0
SPLINE
  5
377
100
AcDbEntity
  8
0
100
AcDbSpline
 62
7
  6
BYLAYER
 70
0
 71
3
 72
9
 73
5
 74
0
 42
0.0000001
 43
0.0000001
 44
0.0000000001
 40
0.0
 40
0.0
 40
0.0
 40
0.0
 40
0.2540426366
 40
1.0
 40
1.0
 40
1.0
 40
1.0
 10
19.3901810487
 20
48.2844792329
 30
0.0
 10
19.3914390273
 20
48.2836568973
 30
0.0
 10
19.3962909109
 20
48.2802698583
 30
0.0
 10
19.4007340307
 20
48.276294569
 30
0.0
 10
19.4037299325
 20
48.2730542318
 30
0.0
  0
SPLINE
  5
378
100
AcDbEntity
  8
0
100
AcDbSpline
 62
7
  6
BYLAYER
 70
0
 71
3
 72
9
 73
5
 74
0
 42
0.0000001
 43
0.0000001
 44
0.0000000001
 40
0.0
 40
0.0
 40
0.0
 40
0.0
 40
0.2540457727
 40
1.0
 40
1.0
 40
1.0
 40
1.0
 10
19.4037299325
 20
48.2730542318
 30
0.0
 10
19.4044779854
 20
48.2722451453
 30
0.0
 10
19.4073463727
 20
48.2689910923
 30
0.0
 10
19.40990348
 20
48.265459978
 30
0.0
 10
19.4115888201
 20
48.2626980379
 30
0.0
  0
SPLINE
  5
379
100
AcDbEntity
  8
0
100
AcDbSpline
 62
7
  6
BYLAYER
 70
0
 71
3
 72
15
 73
11
 74
0
 42
0.0000001
 43
0.0000001
 44
0.0000000001
 40
0.0
 40
0.0
 40
0.0
 40
0.0
 40
0.1141714724
 40
0.2374559048
 40
0.3670615305
 40
0.5000419535
 40
0.6330162114
 40
0.7626007076
 40
0.8858403963
 40
1.0
 40
1.0
 40
1.0
 40
1.0
 10
12.1463534579
 20
24.7956433542
 30
0.0
 10
12.1463715263
 20
24.8515391155
 30
0.0
 10
12.1566937282
 20
24.9678914285
 30
0.0
 10
12.19747857
 20
25.1433864929
 30
0.0
 10
12.2629063426
 20
25.3210971867
 30
0.0
 10
12.3503679883
 20
25.4943372661
 30
0.0
 10
12.4566826155
 20
25.6566787429
 30
0.0
 10
12.577856539
 20
25.802160945
 30
0.0
 10
12.7094302062
 20
25.9251947683
 30
0.0
 10
12.8050435196
 20
25.9922494884
 30
0.0
 10
12.8534483483
 20
26.0201897725
 30
0.0
  0
SPLINE
  5
37A
100
AcDbEntity
  8
0
100
AcDbSpline
 62
7
  6
BYLAYER
 70
0
 71
3
 72
13
 73
9
 74
0
 42
0.0000001
 43
0.0000001
 44
0.0000000001
 40
0.0
 40
0.0
 40
0.0
 40
0.0
 40
0.2783772014
 40
0.5473271121
 40
0.6750016006
 40
0.7950431497
 40
0.9045175029
 40
1.0
 40
1.0
 40
1.0
 40
1.0
 10
10.859676315
 20
21.455850165
 30
0.0
 10
10.8127857274
 20
21.5303852767
 30
0.0
 10
10.7341512605
 20
21.68582512
 30
0.0
 10
10.6729287128
 20
21.8918709734
 30
0.0
 10
10.6517292479
 20
22.0542128604
 30
0.0
 10
10.6493579985
 20
22.1674431026
 30
0.0
 10
10.659793884
 20
22.2699611819
 30
0.0
 10
10.6759459246
 20
22.3332030493
 30
0.0
 10
10.686749442
 20
22.361408407
 30
0.0
  0
SPLINE
  5
37B
100
AcDbEntity
  8
0
100
AcDbSpline
 62
7
  6
BYLAYER
 70
0
 71
3
 72
12
 73
8
 74
0
 42
0.0000001
 43
0.0000001
 44
0.0000000001
 40
0.0
 40
0.0
 40
0.0
 40
0.0
 40
0.2894817331
 40
0.5486700301
 40
0.7816238146
 40
0.8918281303
 40
1.0
 40
1.0
 40
1.0
 40
1.0
 10
20.8437877346
 20
27.2042432372
 30
0.0
 10
20.8437877338
 20
27.1535753237
 30
0.0
 10
20.8360826308
 20
27.0572023394
 30
0.0
 10
20.7971558773
 20
26.9248604838
 30
0.0
 10
20.7411364829
 20
26.8335467315
 30
0.0
 10
20.6845847256
 20
26.7779428485
 30
0.0
 10
20.6530725105
 20
26.7559238989
 30
0.0
 10
20.636675771
 20
26.7464572956
 30
0.0
  0
SPLINE
  5
37C
100
AcDbEntity
  8
0
100
AcDbSpline
 62
7
  6
BYLAYER
 70
0
 71
3
 72
9
 73
5
 74
0
 42
0.0000001
 43
0.0000001
 44
0.0000000001
 40
0.0
 40
0.0
 40
0.0
 40
0.0
 40
0.2539134272
 40
1.0
 40
1.0
 40
1.0
 40
1.0
 10
11.057160322
 20
23.3505173398
 30
0.0
 10
11.0427302432
 20
23.355260109
 30
0.0
 10
10.9860928986
 20
23.3745198449
 30
0.0
 10
10.930250218
 20
23.3961335182
 30
0.0
 10
10.8892019806
 20
23.4136567881
 30
0.0
  0
SPLINE
  5
37D
100
AcDbEntity
  8
0
100
AcDbSpline
 62
7
  6
BYLAYER
 70
0
 71
3
 72
9
 73
5
 74
0
 42
0.0000001
 43
0.0000001
 44
0.0000000001
 40
0.0
 40
0.0
 40
0.0
 40
0.0
 40
0.2562429787
 40
1.0
 40
1.0
 40
1.0
 40
1.0
 10
10.8892019806
 20
23.4136567881
 30
0.0
 10
10.8724385084
 20
23.4208130234
 30
0.0
 10
10.8074142231
 20
23.4496525683
 30
0.0
 10
10.7440099559
 20
23.4821947617
 30
0.0
 10
10.6981927281
 20
23.5086467521
 30
0.0
  0
SPLINE
  5
37E
100
AcDbEntity
  8
0
100
AcDbSpline
 62
7
  6
BYLAYER
 70
0
 71
3
 72
11
 73
7
 74
0
 42
0.0000001
 43
0.0000001
 44
0.0000000001
 40
0.0
 40
0.0
 40
0.0
 40
0.0
 40
0.2372178173
 40
0.4999994774
 40
0.762781422
 40
1.0
 40
1.0
 40
1.0
 40
1.0
 10
20.1366838952
 20
26.7959990841
 30
0.0
 10
20.1266459045
 20
26.7902036826
 30
0.0
 10
20.1033008251
 20
26.7817454224
 30
0.0
 10
20.0659733294
 20
26.7776928647
 30
0.0
 10
20.0286457777
 20
26.7817452531
 30
0.0
 10
20.0053006071
 20
26.7902033981
 30
0.0
 10
19.9952625427
 20
26.7959987463
 30
0.0
  0
SPLINE
  5
37F
100
AcDbEntity
  8
0
100
AcDbSpline
 62
7
  6
BYLAYER
 70
0
 71
3
 72
15
 73
11
 74
0
 42
0.0000001
 43
0.0000001
 44
0.0000000001
 40
0.0
 40
0.0
 40
0.0
 40
0.0
 40
0.1184705298
 40
0.2315225889
 40
0.342936035
 40
0.4570476247
 40
0.5776141197
 40
0.707405522
 40
0.8481151652
 40
1.0
 40
1.0
 40
1.0
 40
1.0
 10
5.3969944401
 20
26.569225743
 30
0.0
 10
5.3606444744
 20
26.5079152053
 30
0.0
 10
5.3010087564
 20
26.3806684307
 30
0.0
 10
5.2573227208
 20
26.1771021352
 30
0.0
 10
5.2641292253
 20
25.9714450605
 30
0.0
 10
5.3211206002
 20
25.7692293332
 30
0.0
 10
5.4260133424
 20
25.5748979504
 30
0.0
 10
5.5760610247
 20
25.3920645608
 30
0.0
 10
5.7678028511
 20
25.2238893443
 30
0.0
 10
5.9153690658
 20
25.1268746714
 30
0.0
 10
5.9945064947
 20
25.081185689
 30
0.0
  0
SPLINE
  5
380
100
AcDbEntity
  8
0
100
AcDbSpline
 62
7
  6
BYLAYER
 70
0
 71
3
 72
15
 73
11
 74
0
 42
0.0000001
 43
0.0000001
 44
0.0000000001
 40
0.0
 40
0.0
 40
0.0
 40
0.0
 40
0.1151140532
 40
0.2384962213
 40
0.3677059408
 40
0.4999989995
 40
0.6322921959
 40
0.7615023184
 40
0.8848851259
 40
1.0
 40
1.0
 40
1.0
 40
1.0
 10
20.1624435267
 20
47.7646713774
 30
0.0
 10
20.2084001441
 20
47.7361897332
 30
0.0
 10
20.2989455845
 20
47.6694613709
 30
0.0
 10
20.4236048465
 20
47.5493514453
 30
0.0
 10
20.5384440349
 20
47.4092340499
 30
0.0
 10
20.6395698443
 20
47.2539438515
 30
0.0
 10
20.7234930088
 20
47.0887214339
 30
0.0
 10
20.7874196548
 20
46.9192088766
 30
0.0
 10
20.8291094548
 20
46.751195224
 30
0.0
 10
20.8416260958
 20
46.6394158129
 30
0.0
 10
20.8433141001
 20
46.5853750221
 30
0.0
  0
SPLINE
  5
381
100
AcDbEntity
  8
0
100
AcDbSpline
 62
7
  6
BYLAYER
 70
0
 71
3
 72
11
 73
7
 74
0
 42
0.0000001
 43
0.0000001
 44
0.0000000001
 40
0.0
 40
0.0
 40
0.0
 40
0.0
 40
0.237217273
 40
0.499998385
 40
0.762780376
 40
1.0
 40
1.0
 40
1.0
 40
1.0
 10
19.4295741697
 20
47.3718495408
 30
0.0
 10
19.4195361905
 20
47.3660541449
 30
0.0
 10
19.4005385566
 20
47.3500658885
 30
0.0
 10
19.3783652803
 20
47.3197655375
 30
0.0
 10
19.3632111784
 20
47.2854125563
 30
0.0
 10
19.3588637889
 20
47.2609658431
 30
0.0
 10
19.3588637889
 20
47.2493748854
 30
0.0
  0
SPLINE
  5
382
100
AcDbEntity
  8
0
100
AcDbSpline
 62
7
  6
BYLAYER
 70
0
 71
3
 72
15
 73
11
 74
0
 42
0.0000001
 43
0.0000001
 44
0.0000000001
 40
0.0
 40
0.0
 40
0.0
 40
0.0
 40
0.1141225842
 40
0.237345328
 40
0.3669717172
 40
0.5000010818
 40
0.6330302959
 40
0.7626562458
 40
0.8858782967
 40
1.0
 40
1.0
 40
1.0
 40
1.0
 10
20.1366838992
 20
46.1471063682
 30
0.0
 10
20.1366839001
 20
46.2029861277
 30
0.0
 10
20.1264249488
 20
46.3193072701
 30
0.0
 10
20.0856437403
 20
46.4947862481
 30
0.0
 10
20.0202353595
 20
46.6725355576
 30
0.0
 10
19.9327499222
 20
46.8458639556
 30
0.0
 10
19.8263851921
 20
47.0082920824
 30
0.0
 10
19.7051535997
 20
47.1538109409
 30
0.0
 10
19.573574885
 20
47.2768664889
 30
0.0
 10
19.4779673656
 20
47.3439103531
 30
0.0
 10
19.4295741736
 20
47.3718495423
 30
0.0
  0
SPLINE
  5
383
100
AcDbEntity
  8
0
100
AcDbSpline
 62
7
  6
BYLAYER
 70
0
 71
3
 72
11
 73
7
 74
0
 42
0.0000001
 43
0.0000001
 44
0.0000000001
 40
0.0
 40
0.0
 40
0.0
 40
0.0
 40
0.2372185781
 40
0.5000005228
 40
0.762782183
 40
1.0
 40
1.0
 40
1.0
 40
1.0
 10
19.9952625427
 20
46.147106028
 30
0.0
 10
20.0053006071
 20
46.1413106799
 30
0.0
 10
20.0286457778
 20
46.1328525349
 30
0.0
 10
20.0659733294
 20
46.1288001465
 30
0.0
 10
20.1033008251
 20
46.1328527042
 30
0.0
 10
20.1266459045
 20
46.1413109644
 30
0.0
 10
20.1366838952
 20
46.1471063658
 30
0.0
  0
SPLINE
  5
384
100
AcDbEntity
  8
0
100
AcDbSpline
 62
7
  6
BYLAYER
 70
0
 71
3
 72
15
 73
11
 74
0
 42
0.0000001
 43
0.0000001
 44
0.0000000001
 40
0.0
 40
0.0
 40
0.0
 40
0.0
 40
0.1141236058
 40
0.2373475863
 40
0.3669728832
 40
0.5000004527
 40
0.6330279587
 40
0.7626530686
 40
0.8858767806
 40
1.0
 40
1.0
 40
1.0
 40
1.0
 10
31.0968304697
 20
16.3855942231
 30
0.0
 10
31.0484366133
 20
16.413533797
 30
0.0
 10
30.9425683269
 20
16.4628079893
 30
0.0
 10
30.7702079131
 20
16.5152280274
 30
0.0
 10
30.5835692601
 20
16.547454837
 30
0.0
 10
30.3897225929
 20
16.5583534707
 30
0.0
 10
30.1958760678
 20
16.5474539391
 30
0.0
 10
30.00923782
 20
16.5152262565
 30
0.0
 10
29.8368780893
 20
16.4628053784
 30
0.0
 10
29.7310103976
 20
16.4135306517
 30
0.0
 10
29.6826169066
 20
16.3855908233
 30
0.0
  0
SPLINE
  5
385
100
AcDbEntity
  8
0
100
AcDbSpline
 62
7
  6
BYLAYER
 70
0
 71
3
 72
12
 73
8
 74
0
 42
0.0000001
 43
0.0000001
 44
0.0000000001
 40
0.0
 40
0.0
 40
0.0
 40
0.0
 40
0.1081718698
 40
0.2183761855
 40
0.4513299692
 40
0.7105182678
 40
1.0
 40
1.0
 40
1.0
 40
1.0
 10
19.9295719374
 20
26.3382131438
 30
0.0
 10
19.945968677
 20
26.3476797471
 30
0.0
 10
19.9774808921
 20
26.3696986968
 30
0.0
 10
20.0340326493
 20
26.4253025796
 30
0.0
 10
20.0900520434
 20
26.5166163323
 30
0.0
 10
20.1289787977
 20
26.6489581875
 30
0.0
 10
20.136683902
 20
26.7453311721
 30
0.0
 10
20.136683901
 20
26.7959990854
 30
0.0
  0
SPLINE
  5
386
100
AcDbEntity
  8
0
100
AcDbSpline
 62
7
  6
BYLAYER
 70
0
 71
3
 72
15
 73
11
 74
0
 42
0.0000001
 43
0.0000001
 44
0.0000000001
 40
0.0
 40
0.0
 40
0.0
 40
0.0
 40
0.1484814966
 40
0.28947671
 40
0.4227580283
 40
0.5486650146
 40
0.6680010247
 40
0.7819364217
 40
0.891989791
 40
1.0
 40
1.0
 40
1.0
 40
1.0
 10
31.8746629432
 20
14.3035595763
 30
0.0
 10
31.9219923845
 20
14.2762345289
 30
0.0
 10
32.0121082804
 20
14.2190831142
 30
0.0
 10
32.1353707221
 20
14.1237178124
 30
0.0
 10
32.2420046328
 20
14.0216655162
 30
0.0
 10
32.3308922777
 20
13.9139181947
 30
0.0
 10
32.4011494586
 20
13.8014324976
 30
0.0
 10
32.4519922923
 20
13.6852054474
 30
0.0
 10
32.4828461716
 20
13.5664280153
 30
0.0
 10
32.4897294479
 20
13.4860017619
 30
0.0
 10
32.4897294484
 20
13.4462468532
 30
0.0
  0
SPLINE
  5
387
100
AcDbEntity
  8
0
100
AcDbSpline
 62
7
  6
BYLAYER
 70
0
 71
3
 72
15
 73
11
 74
0
 42
0.0000001
 43
0.0000001
 44
0.0000000001
 40
0.0
 40
0.0
 40
0.0
 40
0.0
 40
0.1141464977
 40
0.2373352781
 40
0.3669759339
 40
0.4999994787
 40
0.633023096
 40
0.7626639634
 40
0.8858530776
 40
1.0
 40
1.0
 40
1.0
 40
1.0
 10
28.9048144628
 20
14.303552438
 30
0.0
 10
29.0064617603
 20
14.3622381822
 30
0.0
 10
29.2287611049
 20
14.4657399144
 30
0.0
 10
29.590735218
 20
14.5757816917
 30
0.0
 10
29.9826483065
 20
14.6434758301
 30
0.0
 10
30.3897361989
 20
14.6663436087
 30
0.0
 10
30.7968244167
 20
14.6434777621
 30
0.0
 10
31.1887384666
 20
14.5757854845
 30
0.0
 10
31.5507141379
 20
14.4657454278
 30
0.0
 10
31.7730148444
 20
14.3622448059
 30
0.0
 10
31.8746629432
 20
14.3035595763
 30
0.0
  0
SPLINE
  5
388
100
AcDbEntity
  8
0
100
AcDbSpline
 62
7
  6
BYLAYER
 70
0
 71
3
 72
11
 73
7
 74
0
 42
0.0000001
 43
0.0000001
 44
0.0000000001
 40
0.0
 40
0.0
 40
0.0
 40
0.0
 40
0.2372185786
 40
0.5000005237
 40
0.7627821838
 40
1.0
 40
1.0
 40
1.0
 40
1.0
 10
23.1065058847
 20
43.3709264991
 30
0.0
 10
23.1165439492
 20
43.365131151
 30
0.0
 10
23.13988912
 20
43.3566730061
 30
0.0
 10
23.1772166719
 20
43.3526206178
 30
0.0
 10
23.2145441677
 20
43.3566731758
 30
0.0
 10
23.237889247
 20
43.3651314362
 30
0.0
 10
23.2479272377
 20
43.3709268378
 30
0.0
  0
SPLINE
  5
389
100
AcDbEntity
  8
0
100
AcDbSpline
 62
7
  6
BYLAYER
 70
0
 71
3
 72
11
 73
7
 74
0
 42
0.0000001
 43
0.0000001
 44
0.0000000001
 40
0.0
 40
0.0
 40
0.0
 40
0.0
 40
0.237217774
 40
0.499998908
 40
0.7627806364
 40
1.0
 40
1.0
 40
1.0
 40
1.0
 10
22.7529539726
 20
31.3275193796
 30
0.0
 10
22.7629920209
 20
31.3217240408
 30
0.0
 10
22.7819898042
 20
31.3057358955
 30
0.0
 10
22.8041632802
 20
31.275435641
 30
0.0
 10
22.8193175193
 20
31.2410827173
 30
0.0
 10
22.8236649448
 20
31.2166360145
 30
0.0
 10
22.8236649448
 20
31.2050450626
 30
0.0
  0
SPLINE
  5
38A
100
AcDbEntity
  8
0
100
AcDbSpline
 62
7
  6
BYLAYER
 70
0
 71
3
 72
13
 73
9
 74
0
 42
0.0000001
 43
0.0000001
 44
0.0000000001
 40
0.0
 40
0.0
 40
0.0
 40
0.0
 40
0.1141741946
 40
0.2375657005
 40
0.5000016054
 40
0.7624366322
 40
0.88582711
 40
1.0
 40
1.0
 40
1.0
 40
1.0
 10
23.1065058852
 20
31.9398926608
 30
0.0
 10
23.1065058861
 20
31.9119652711
 30
0.0
 10
23.1013601702
 20
31.8538008728
 30
0.0
 10
23.0736208087
 20
31.7343849735
 30
0.0
 10
23.0089874033
 20
31.5879457672
 30
0.0
 10
22.9144848414
 20
31.458751678
 30
0.0
 10
22.8249381001
 20
31.3750210399
 30
0.0
 10
22.7771395631
 20
31.3414828526
 30
0.0
 10
22.7529539744
 20
31.3275193798
 30
0.0
  0
SPLINE
  5
38B
100
AcDbEntity
  8
0
100
AcDbSpline
 62
7
  6
BYLAYER
 70
0
 71
3
 72
11
 73
7
 74
0
 42
0.0000001
 43
0.0000001
 44
0.0000000001
 40
0.0
 40
0.0
 40
0.0
 40
0.0
 40
0.2372178161
 40
0.4999994763
 40
0.7627814215
 40
1.0
 40
1.0
 40
1.0
 40
1.0
 10
23.2479272377
 20
31.9398929981
 30
0.0
 10
23.237889247
 20
31.9340975966
 30
0.0
 10
23.2145441677
 20
31.9256393361
 30
0.0
 10
23.1772166719
 20
31.9215867781
 30
0.0
 10
23.13988912
 20
31.9256391664
 30
0.0
 10
23.1165439492
 20
31.9340973114
 30
0.0
 10
23.1065058847
 20
31.9398926595
 30
0.0
  0
SPLINE
  5
38C
100
AcDbEntity
  8
0
100
AcDbSpline
 62
7
  6
BYLAYER
 70
0
 71
3
 72
13
 73
9
 74
0
 42
0.0000001
 43
0.0000001
 44
0.0000000001
 40
0.0
 40
0.0
 40
0.0
 40
0.0
 40
0.1132354641
 40
0.2352530594
 40
0.4951061501
 40
0.6277616001
 40
0.7580499881
 40
1.0
 40
1.0
 40
1.0
 40
1.0
 10
35.9369926014
 20
17.2654494084
 30
0.0
 10
35.9598577657
 20
17.2522484983
 30
0.0
 10
36.0097046777
 20
17.228776039
 30
0.0
 10
36.1199974079
 20
17.1939114307
 30
0.0
 10
36.240202749
 20
17.1786606381
 30
0.0
 10
36.3622273796
 20
17.1822173573
 30
0.0
 10
36.4789570518
 20
17.1983249291
 30
0.0
 10
36.562962616
 20
17.224621089
 30
0.0
 10
36.6136957272
 20
17.2492920153
 30
0.0
  0
SPLINE
  5
38D
100
AcDbEntity
  8
0
100
AcDbSpline
 62
7
  6
BYLAYER
 70
0
 71
3
 72
13
 73
9
 74
0
 42
0.0000001
 43
0.0000001
 44
0.0000000001
 40
0.0
 40
0.0
 40
0.0
 40
0.0
 40
0.1141728898
 40
0.2375633676
 40
0.4999983945
 40
0.7624342996
 40
0.8858258052
 40
1.0
 40
1.0
 40
1.0
 40
1.0
 10
22.0458442484
 20
31.7357601348
 30
0.0
 10
22.070029837
 20
31.7497236078
 30
0.0
 10
22.117828374
 20
31.783261795
 30
0.0
 10
22.2073751155
 20
31.8669924328
 30
0.0
 10
22.301877677
 20
31.9961865223
 30
0.0
 10
22.3665110832
 20
32.1426257283
 30
0.0
 10
22.3942504437
 20
32.2620416279
 30
0.0
 10
22.3993961594
 20
32.320206026
 30
0.0
 10
22.3993961592
 20
32.3481334158
 30
0.0
  0
SPLINE
  5
38E
100
AcDbEntity
  8
0
100
AcDbSpline
 62
7
  6
BYLAYER
 70
0
 71
3
 72
11
 73
7
 74
0
 42
0.0000001
 43
0.0000001
 44
0.0000000001
 40
0.0
 40
0.0
 40
0.0
 40
0.0
 40
0.2625468613
 40
0.5235420091
 40
0.7723216162
 40
1.0
 40
1.0
 40
1.0
 40
1.0
 10
36.0971699493
 20
17.6997015179
 30
0.0
 10
36.0724822569
 20
17.6668191247
 30
0.0
 10
36.0280539625
 20
17.5975176326
 30
0.0
 10
35.9774552107
 20
17.4872020207
 30
0.0
 10
35.9453737958
 20
17.3758023007
 30
0.0
 10
35.9369926014
 20
17.3011070492
 30
0.0
 10
35.9369926014
 20
17.2654494084
 30
0.0
  0
SPLINE
  5
38F
100
AcDbEntity
  8
0
100
AcDbSpline
 62
7
  6
BYLAYER
 70
0
 71
3
 72
9
 73
5
 74
0
 42
0.0000001
 43
0.0000001
 44
0.0000000001
 40
0.0
 40
0.0
 40
0.0
 40
0.0
 40
0.2452318252
 40
1.0
 40
1.0
 40
1.0
 40
1.0
 10
19.373625427
 20
48.3022798829
 30
0.0
 10
19.3725354102
 20
48.3029091894
 30
0.0
 10
19.3679457594
 20
48.3052219973
 30
0.0
 10
19.3628378971
 20
48.306454225
 30
0.0
 10
19.3589796005
 20
48.3068004079
 30
0.0
  0
SPLINE
  5
390
100
AcDbEntity
  8
0
100
AcDbSpline
 62
7
  6
BYLAYER
 70
0
 71
3
 72
9
 73
5
 74
0
 42
0.0000001
 43
0.0000001
 44
0.0000000001
 40
0.0
 40
0.0
 40
0.0
 40
0.0
 40
0.2376207545
 40
1.0
 40
1.0
 40
1.0
 40
1.0
 10
19.3589796005
 20
48.3068004079
 30
0.0
 10
19.357622697
 20
48.3069221551
 30
0.0
 10
19.3518864225
 20
48.3071430795
 30
0.0
 10
19.3461363584
 20
48.3062412604
 30
0.0
 10
19.341914944
 20
48.3051077038
 30
0.0
  0
SPLINE
  5
391
100
AcDbEntity
  8
0
100
AcDbSpline
 62
7
  6
BYLAYER
 70
0
 71
3
 72
9
 73
5
 74
0
 42
0.0000001
 43
0.0000001
 44
0.0000000001
 40
0.0
 40
0.0
 40
0.0
 40
0.0
 40
0.2369630889
 40
1.0
 40
1.0
 40
1.0
 40
1.0
 10
19.341914944
 20
48.3051077038
 30
0.0
 10
19.3403962927
 20
48.3046999075
 30
0.0
 10
19.3340545988
 20
48.3027308167
 30
0.0
 10
19.3280113158
 20
48.2998587771
 30
0.0
 10
19.3236262811
 20
48.2973270912
 30
0.0
  0
SPLINE
  5
392
100
AcDbEntity
  8
0
100
AcDbSpline
 62
7
  6
BYLAYER
 70
0
 71
3
 72
11
 73
7
 74
0
 42
0.0000001
 43
0.0000001
 44
0.0000000001
 40
0.0
 40
0.0
 40
0.0
 40
0.0
 40
0.2663467641
 40
0.5252308442
 40
0.7712302337
 40
1.0
 40
1.0
 40
1.0
 40
1.0
 10
30.4731830288
 20
20.9245337479
 30
0.0
 10
30.5635497342
 20
20.9216264922
 30
0.0
 10
30.7415976562
 20
20.9065587904
 30
0.0
 10
30.999101448
 20
20.8564089323
 30
0.0
 10
31.2368373582
 20
20.7802681259
 30
0.0
 10
31.3831285076
 20
20.7110565539
 30
0.0
 10
31.4503823922
 20
20.6722283833
 30
0.0
  0
SPLINE
  5
393
100
AcDbEntity
  8
0
100
AcDbSpline
 62
7
  6
BYLAYER
 70
0
 71
3
 72
10
 73
6
 74
0
 42
0.0000001
 43
0.0000001
 44
0.0000000001
 40
0.0
 40
0.0
 40
0.0
 40
0.0
 40
0.4623284422
 40
0.7214708014
 40
1.0
 40
1.0
 40
1.0
 40
1.0
 10
31.6384832953
 20
21.7067048459
 30
0.0
 10
31.6144354995
 20
21.6548889244
 30
0.0
 10
31.5593372699
 20
21.5818107117
 30
0.0
 10
31.4652986334
 20
21.5015497441
 30
0.0
 10
31.4094699642
 20
21.4650960354
 30
0.0
 10
31.3796661171
 20
21.447888879
 30
0.0
  0
SPLINE
  5
394
100
AcDbEntity
  8
0
100
AcDbSpline
 62
7
  6
BYLAYER
 70
0
 71
3
 72
15
 73
11
 74
0
 42
0.0000001
 43
0.0000001
 44
0.0000000001
 40
0.0
 40
0.0
 40
0.0
 40
0.0
 40
0.1212533775
 40
0.2371815435
 40
0.3509134776
 40
0.466185853
 40
0.5864486425
 40
0.71440165
 40
0.8519331763
 40
1.0
 40
1.0
 40
1.0
 40
1.0
 10
36.2905445279
 20
17.8778226893
 30
0.0
 10
36.3239775825
 20
17.9342133498
 30
0.0
 10
36.3796940928
 20
18.050759495
 30
0.0
 10
36.4251646362
 20
18.236415888
 30
0.0
 10
36.4284898269
 20
18.4244661288
 30
0.0
 10
36.3896205636
 20
18.6107790557
 30
0.0
 10
36.3098477688
 20
18.791800079
 30
0.0
 10
36.1910513558
 20
18.9645124672
 30
0.0
 10
36.0356322941
 20
19.1263919593
 30
0.0
 10
35.9137583881
 20
19.2220287803
 30
0.0
 10
35.8480197994
 20
19.2677126179
 30
0.0
  0
SPLINE
  5
395
100
AcDbEntity
  8
0
100
AcDbSpline
 62
7
  6
BYLAYER
 70
0
 71
3
 72
15
 73
11
 74
0
 42
0.0000001
 43
0.0000001
 44
0.0000000001
 40
0.0
 40
0.0
 40
0.0
 40
0.0
 40
0.1141216057
 40
0.2373437883
 40
0.3669699917
 40
0.4999994785
 40
0.6330290379
 40
0.762655453
 40
0.8858779696
 40
1.0
 40
1.0
 40
1.0
 40
1.0
 10
29.6826169062
 20
20.0598517013
 30
0.0
 10
29.7310097654
 20
20.0877911656
 30
0.0
 10
29.8368755523
 20
20.137066526
 30
0.0
 10
30.0092343357
 20
20.1894878815
 30
0.0
 10
30.1958732555
 20
20.2217172482
 30
0.0
 10
30.3897224951
 20
20.2326174636
 30
0.0
 10
30.5835718898
 20
20.2217181685
 30
0.0
 10
30.7702112676
 20
20.189489688
 30
0.0
 10
30.9425707933
 20
20.1370691522
 30
0.0
 10
31.0484372289
 20
20.0877943208
 30
0.0
 10
31.0968304696
 20
20.0598551014
 30
0.0
  0
SPLINE
  5
396
100
AcDbEntity
  8
0
100
AcDbSpline
 62
7
  6
BYLAYER
 70
0
 71
3
 72
13
 73
9
 74
0
 42
0.0000001
 43
0.0000001
 44
0.0000000001
 40
0.0
 40
0.0
 40
0.0
 40
0.0
 40
0.114174195
 40
0.2375657009
 40
0.5000016067
 40
0.7624366337
 40
0.8858271109
 40
1.0
 40
1.0
 40
1.0
 40
1.0
 10
31.0968304728
 20
20.0598550984
 30
0.0
 10
31.0968304728
 20
20.0877824886
 30
0.0
 10
31.1019761885
 20
20.1459468875
 30
0.0
 10
31.1297155496
 20
20.2653627888
 30
0.0
 10
31.1943489575
 20
20.4118019965
 30
0.0
 10
31.2888515209
 20
20.5409960871
 30
0.0
 10
31.3783982646
 20
20.6247267244
 30
0.0
 10
31.4261968025
 20
20.658264911
 30
0.0
 10
31.4503823913
 20
20.6722283838
 30
0.0
  0
SPLINE
  5
397
100
AcDbEntity
  8
0
100
AcDbSpline
 62
7
  6
BYLAYER
 70
0
 71
3
 72
13
 73
9
 74
0
 42
0.0000001
 43
0.0000001
 44
0.0000000001
 40
0.0
 40
0.0
 40
0.0
 40
0.0
 40
0.3459822674
 40
0.6222609335
 40
0.7350810906
 40
0.833162683
 40
0.9197967991
 40
1.0
 40
1.0
 40
1.0
 40
1.0
 10
13.3165574178
 20
31.1415602539
 30
0.0
 10
13.30869665
 20
31.1548184478
 30
0.0
 10
13.2934472752
 20
31.1780225652
 30
0.0
 10
13.2715267003
 20
31.2026989068
 30
0.0
 10
13.2541151329
 20
31.2157855636
 30
0.0
 10
13.2422420501
 20
31.2218672439
 30
0.0
 10
13.230684354
 20
31.2248031238
 30
0.0
 10
13.2231249245
 20
31.2245117972
 30
0.0
 10
13.2196197102
 20
31.2238190394
 30
0.0
  0
SPLINE
  5
398
100
AcDbEntity
  8
0
100
AcDbSpline
 62
7
  6
BYLAYER
 70
0
 71
3
 72
13
 73
9
 74
0
 42
0.0000001
 43
0.0000001
 44
0.0000000001
 40
0.0
 40
0.0
 40
0.0
 40
0.0
 40
0.1141737891
 40
0.2375646599
 40
0.5000006811
 40
0.7624362889
 40
0.88582704
 40
1.0
 40
1.0
 40
1.0
 40
1.0
 10
12.9630054968
 20
30.5291869818
 30
0.0
 10
12.9630054968
 20
30.5571142723
 30
0.0
 10
12.9681510581
 20
30.6152784282
 30
0.0
 10
12.9958904861
 20
30.7346940841
 30
0.0
 10
13.0605236475
 20
30.8811333887
 30
0.0
 10
13.1550263103
 20
31.0103277295
 30
0.0
 10
13.2445732063
 20
31.0940585298
 30
0.0
 10
13.2923718027
 20
31.1275967798
 30
0.0
 10
13.3165574058
 20
31.1415602617
 30
0.0
  0
SPLINE
  5
399
100
AcDbEntity
  8
0
100
AcDbSpline
 62
7
  6
BYLAYER
 70
0
 71
3
 72
9
 73
5
 74
0
 42
0.0000001
 43
0.0000001
 44
0.0000000001
 40
0.0
 40
0.0
 40
0.0
 40
0.0
 40
0.7529915612
 40
1.0
 40
1.0
 40
1.0
 40
1.0
 10
18.4408974201
 20
48.756242601
 30
0.0
 10
18.4448157689
 20
48.7600457452
 30
0.0
 10
18.4507998694
 20
48.7644085618
 30
0.0
 10
18.4574472227
 20
48.7673277528
 30
0.0
 10
18.4591228673
 20
48.7679608349
 30
0.0
  0
SPLINE
  5
39A
100
AcDbEntity
  8
0
100
AcDbSpline
 62
7
  6
BYLAYER
 70
0
 71
3
 72
9
 73
5
 74
0
 42
0.0000001
 43
0.0000001
 44
0.0000000001
 40
0.0
 40
0.0
 40
0.0
 40
0.0
 40
0.4702501088
 40
1.0
 40
1.0
 40
1.0
 40
1.0
 10
18.4591228673
 20
48.7679608349
 30
0.0
 10
18.4668335095
 20
48.7708740242
 30
0.0
 10
18.4846810436
 20
48.7730567506
 30
0.0
 10
18.5022621962
 20
48.7698723428
 30
0.0
 10
18.5109252005
 20
48.7665296637
 30
0.0
  0
SPLINE
  5
39B
100
AcDbEntity
  8
0
100
AcDbSpline
 62
7
  6
BYLAYER
 70
0
 71
3
 72
14
 73
10
 74
0
 42
0.0000001
 43
0.0000001
 44
0.0000000001
 40
0.0
 40
0.0
 40
0.0
 40
0.0
 40
0.1080500993
 40
0.2181404596
 40
0.3321148412
 40
0.4514909692
 40
0.5774369997
 40
0.7107517523
 40
1.0
 40
1.0
 40
1.0
 40
1.0
 10
18.2124217379
 20
48.2699818627
 30
0.0
 10
18.2124225769
 20
48.2415840058
 30
0.0
 10
18.2173363051
 20
48.1841348776
 30
0.0
 10
18.2393676887
 20
48.0992884836
 30
0.0
 10
18.2756951009
 20
48.0162710018
 30
0.0
 10
18.3258771603
 20
47.9359249427
 30
0.0
 10
18.3893754441
 20
47.8589583442
 30
0.0
 10
18.4937093137
 20
47.7591209646
 30
0.0
 10
18.5859179468
 20
47.6956252819
 30
0.0
 10
18.6517540648
 20
47.6576156393
 30
0.0
  0
SPLINE
  5
39C
100
AcDbEntity
  8
0
100
AcDbSpline
 62
7
  6
BYLAYER
 70
0
 71
3
 72
20
 73
16
 74
0
 42
0.0000001
 43
0.0000001
 44
0.0000000001
 40
0.0
 40
0.0
 40
0.0
 40
0.0
 40
0.0614948285
 40
0.1268856891
 40
0.2660657493
 40
0.4111360562
 40
0.5544549763
 40
0.623191448
 40
0.6888656016
 40
0.7508267785
 40
0.8086124426
 40
0.8620004256
 40
0.911209779
 40
0.9568544554
 40
1.0
 40
1.0
 40
1.0
 40
1.0
 10
26.9602641901
 20
21.5091618974
 30
0.0
 10
26.9602641901
 20
21.4793121155
 30
0.0
 10
26.9563495873
 20
21.4176818041
 30
0.0
 10
26.9345714164
 20
21.2902013438
 30
0.0
 10
26.8816941959
 20
21.1278561893
 30
0.0
 10
26.7854073687
 20
20.9430832751
 30
0.0
 10
26.6812900709
 20
20.8033557408
 30
0.0
 10
26.5870730734
 20
20.7067107629
 30
0.0
 10
26.514253613
 20
20.644949495
 30
0.0
 10
26.4396778193
 20
20.5942278836
 30
0.0
 10
26.364842519
 20
20.5554713144
 30
0.0
 10
26.2910925221
 20
20.5296307858
 30
0.0
 10
26.2198265488
 20
20.5171822226
 30
0.0
 10
26.1524024745
 20
20.5185566791
 30
0.0
 10
26.1101117143
 20
20.529006732
 30
0.0
 10
26.0905543266
 20
20.5364978661
 30
0.0
  0
SPLINE
  5
39D
100
AcDbEntity
  8
0
100
AcDbSpline
 62
7
  6
BYLAYER
 70
0
 71
3
 72
9
 73
5
 74
0
 42
0.0000001
 43
0.0000001
 44
0.0000000001
 40
0.0
 40
0.0
 40
0.0
 40
0.0
 40
0.2691348994
 40
1.0
 40
1.0
 40
1.0
 40
1.0
 10
36.6136957272
 20
17.2492920153
 30
0.0
 10
36.6251761813
 20
17.2549058181
 30
0.0
 10
36.6670262492
 20
17.2772737906
 30
0.0
 10
36.705761275
 20
17.3061997231
 30
0.0
 10
36.7295829163
 20
17.3314367087
 30
0.0
  0
SPLINE
  5
39E
100
AcDbEntity
  8
0
100
AcDbSpline
 62
7
  6
BYLAYER
 70
0
 71
3
 72
9
 73
5
 74
0
 42
0.0000001
 43
0.0000001
 44
0.0000000001
 40
0.0
 40
0.0
 40
0.0
 40
0.0
 40
0.476286163
 40
1.0
 40
1.0
 40
1.0
 40
1.0
 10
36.2905445199
 20
17.8778226939
 30
0.0
 10
36.2542192303
 20
17.8568504033
 30
0.0
 10
36.1836373556
 20
17.8028087029
 30
0.0
 10
36.124861806
 20
17.7365845548
 30
0.0
 10
36.0971699493
 20
17.6997015179
 30
0.0
  0
SPLINE
  5
39F
100
AcDbEntity
  8
0
100
AcDbSpline
 62
7
  6
BYLAYER
 70
0
 71
3
 72
12
 73
8
 74
0
 42
0.0000001
 43
0.0000001
 44
0.0000000001
 40
0.0
 40
0.0
 40
0.0
 40
0.0
 40
0.2302610628
 40
0.3535697455
 40
0.4809870675
 40
0.7417090483
 40
1.0
 40
1.0
 40
1.0
 40
1.0
 10
36.7603508994
 20
17.4244852826
 30
0.0
 10
36.753362453
 20
17.4770684404
 30
0.0
 10
36.7255794604
 20
17.5560987276
 30
0.0
 10
36.6647582133
 20
17.648984206
 30
0.0
 10
36.5857298229
 20
17.7369725915
 30
0.0
 10
36.463161314
 20
17.8250242119
 30
0.0
 10
36.3489183538
 20
17.8662867422
 30
0.0
 10
36.2905445192
 20
17.8778226935
 30
0.0
  0
SPLINE
  5
3A0
100
AcDbEntity
  8
0
100
AcDbSpline
 62
7
  6
BYLAYER
 70
0
 71
3
 72
9
 73
5
 74
0
 42
0.0000001
 43
0.0000001
 44
0.0000000001
 40
0.0
 40
0.0
 40
0.0
 40
0.0
 40
0.247420279
 40
1.0
 40
1.0
 40
1.0
 40
1.0
 10
36.763598848
 20
17.3760855637
 30
0.0
 10
36.7635988479
 20
17.3800878817
 30
0.0
 10
36.7633234214
 20
17.3962631948
 30
0.0
 10
36.7619547384
 20
17.4124175193
 30
0.0
 10
36.7603508994
 20
17.4244852826
 30
0.0
  0
SPLINE
  5
3A1
100
AcDbEntity
  8
0
100
AcDbSpline
 62
7
  6
BYLAYER
 70
0
 71
3
 72
9
 73
5
 74
0
 42
0.0000001
 43
0.0000001
 44
0.0000000001
 40
0.0
 40
0.0
 40
0.0
 40
0.0
 40
0.25914576
 40
1.0
 40
1.0
 40
1.0
 40
1.0
 10
36.7295829163
 20
17.3314367087
 30
0.0
 10
36.7329148573
 20
17.3349666145
 30
0.0
 10
36.7454312064
 20
17.3489017523
 30
0.0
 10
36.7565217605
 20
17.3641488244
 30
0.0
 10
36.7635988481
 20
17.3760855636
 30
0.0
  0
ENDSEC
  0
SECTION
  2
OBJECTS
  0
DICTIONARY
  5
C
100
AcDbDictionary
280
0
281
1
  3
ACAD_GROUP
350
D
  3
ACAD_MLINESTYLE
350
17
  3
ACAD_LAYOUT
350
1A
  3
ACAD_PLOTSETTINGS
350
19
  3
ACAD_PLOTSTYLENAME
350
E
  0
DICTIONARY
  5
D
102
{ACAD_REACTORS
330
C
102
}
100
AcDbDictionary
280
0
281
1
  0
ACDBDICTIONARYWDFLT
  5
E
102
{ACAD_REACTORS
330
C
102
}
100
AcDbDictionary
281
1
  3
Normal
350
F
100
AcDbDictionaryWithDefault
340
F
  0
DICTIONARY
  5
17
102
{ACAD_REACTORS
330
C
102
}
100
AcDbDictionary
280
0
281
1
  3
Standard
350
18
  0
DICTIONARY
  5
19
102
{ACAD_REACTORS
330
C
102
}
100
AcDbDictionary
281
1
  0
DICTIONARY
  5
1A
102
{ACAD_REACTORS
330
C
102
}
100
AcDbDictionary
281
1
  3
Model
350
3A2
  3
Layout1
350
3A3
  0
ACDBPLACEHOLDER
  5
F
102
{ACAD_REACTORS
330
E
102
}
  0
MLINESTYLE
  5
18
102
{ACAD_REACTORS
330
17
102
}
100
AcDbMlineStyle
  2
STANDARD
 70
0
  3

 62
256
 51
90.0
 52
90.0
 71
2
 49
0.5
 62
256
  6
BYLAYER
 49
-0.5
 62
256
  6
BYLAYER
  0
LAYOUT
  5
3A2
102
{ACAD_REACTORS
330
1A
102
}
100
AcDbPlotSettings
  1

  2
none_device
  4

  6

 40
0.0
 41
0.0
 42
0.0
 43
0.0
 44
210.0
 45
297.0
 46
0.0
 47
0.0
 48
0.0
 49
0.0
140
0.0
141
0.0
142
1.0
143
1.0
 70
1024
 72
1
 73
0
 74
0
  7

 75
0
147
1.0
148
0.0
149
0.0
100
AcDbLayout
  1
Model
 70
0
 71
0
 10
0.0
 20
0.0
 11
210.0
 21
297.0
 12
0.0
 22
0.0
 32
0.0
 14
0.0
 24
0.0
 34
0.0
 15
0.0
 25
0.0
 35
0.0
146
0.0
 13
0.0
 23
0.0
 33
0.0
 16
1.0
 26
0.0
 36
0.0
 17
0.0
 27
1.0
 37
0.0
 76
0
330
210
345
0
346
0
  0
LAYOUT
  5
3A3
102
{ACAD_REACTORS
330
1A
102
}
100
AcDbPlotSettings
  1

  2
none_device
  4

  6

 40
0.0
 41
0.0
 42
0.0
 43
0.0
 44
210.0
 45
297.0
 46
0.0
 47
0.0
 48
0.0
 49
0.0
140
0.0
141
0.0
142
1.0
143
1.0
 70
0
 72
1
 73
0
 74
0
  7

 75
0
147
1.0
148
0.0
149
0.0
100
AcDbLayout
  1
Layout1
 70
0
 71
1
 10
0.0
 20
0.0
 11
210.0
 21
297.0
 12
0.0
 22
0.0
 32
0.0
 14
0.0
 24
0.0
 34
0.0
 15
0.0
 25
0.0
 35
0.0
146
0.0
 13
0.0
 23
0.0
 33
0.0
 16
1.0
 26
0.0
 36
0.0
 17
0.0
 27
1.0
 37
0.0
 76
0
330
211
345
0
346
0
  0
ENDSEC
  0
EOF
