999
DXF file: C:\Users\sesa63760\Dev\_Creo\CAD\MCADID0004257_3D-CAD\drw0001_2.dxf
999
Pro/ENGINEER 2019471 by Parametric Technology Corporation
  0
SECTION
  2
HEADER
  9
$ACADVER
  1
AC1024
  9
$DWGCODEPAGE
  3
ANSI_1252
  9
$EXTMAX
 10
566.3497722322
 20
800.9803921569
 30
0.0
  9
$EXTMIN
 10
0.0
 20
0.0
 30
0.0
  9
$LIMMIN
 10
0.0
 20
0.0
  9
$LIMMAX
 10
566.3497722322
 20
800.9803921569
  9
$VIEWCTR
 10
283.1748861161
 20
400.4901960785
  9
$VIEWSIZE
 40
800.9803921569
  9
$CLAYER
  8
0
  9
$LTSCALE
 40
52.2120551924
  9
$CELTYPE
  6
BYLAYER
  9
$DIMSCALE
 40
1.0
  9
$DIMASZ
 40
6.7422591932
  9
$DIMEXO
 40
1.0
  9
$DIMDLI
 40
36.0737835875
  9
$DIMEXE
 40
1.0
  9
$DIMCEN
 40
8.5437908497
  9
$DIMLFAC
 40
1.0
  9
$DIMBLK
  1
_FILLED
  9
$DIMALT
 70
0
  9
$DIMALTF
 40
0.0393700787
  9
$DIMTXT
 40
9.4391628705
  9
$DIMTOL
 70
1
  9
$DIMLIM
 70
0
  9
$DIMTFAC
 40
1.0
  9
$DIMTP
 40
0.01
  9
$DIMTM
 40
0.01
  9
$DIMGAP
 40
0.625
  9
$DIMDSEP
 70
46
  9
$AUNITS
 70
0
  9
$PDMODE
 70
3
  9
$PDSIZE
 40
0.3125
  9
$HANDSEED
  5
570
  9
$TILEMODE
 70
1
  9
$MEASUREMENT
 70
1
  9
$INSUNITS
 70
4
  0
ENDSEC
  0
SECTION
  2
CLASSES
  0
CLASS
  1
ACDBDICTIONARYWDFLT
  2
AcDbDictionaryWithDefault
  3
AutoCAD 2000
 90
0
 91
1
280
0
281
0
  0
CLASS
  1
ACDBPLACEHOLDER
  2
AcDbPlaceHolder
  3
AutoCAD 2000
 90
0
 91
1
280
0
281
0
  0
CLASS
  1
LAYOUT
  2
AcDbLayout
  3
AutoCAD 2000
 90
0
 91
0
280
0
281
0
  0
ENDSEC
  0
SECTION
  2
TABLES
  0
TABLE
  2
VPORT
  5
8
100
AcDbSymbolTable
 70
2
  0
VPORT
  5
1F4
100
AcDbSymbolTableRecord
100
AcDbViewportTableRecord
  2
*ACTIVE
 70
0
 10
0.0
 20
0.0
 11
1.0
 21
1.0
 12
283.1748861161
 22
400.4901960785
 13
0.0
 23
0.0
 14
1.0
 24
1.0
 15
0.0
 25
0.0
 16
0.0
 26
0.0
 36
1.0
 17
0.0
 27
0.0
 37
0.0
 40
800.9803921569
 41
0.7070707071
 42
50.0
 43
0.0
 44
0.0
 50
0.0
 51
0.0
 71
0
 72
100
 73
1
 74
1
 75
0
 76
0
 77
0
 78
0
  0
ENDTAB
  0
TABLE
  2
LTYPE
  5
5
100
AcDbSymbolTable
 70
6
  0
LTYPE
  5
14
100
AcDbSymbolTableRecord
100
AcDbLinetypeTableRecord
  2
BYBLOCK
 70
0
  3

 72
65
 73
0
 40
0.0
  0
LTYPE
  5
15
100
AcDbSymbolTableRecord
100
AcDbLinetypeTableRecord
  2
BYLAYER
 70
0
  3

 72
65
 73
0
 40
0.0
  0
LTYPE
  5
16
100
AcDbSymbolTableRecord
100
AcDbLinetypeTableRecord
  2
CONTINUOUS
 70
64
  3
Solid line
 72
65
 73
0
 40
0.0
  0
LTYPE
  5
1F5
100
AcDbSymbolTableRecord
100
AcDbLinetypeTableRecord
  2
CENTER
 70
64
  3
____ _ ____ _ ____ _ ____ _ ____ _ ____ _ ____
 72
65
 73
4
 40
0.6
 49
0.375
 74
0
 49
-0.075
 74
0
 49
0.075
 74
0
 49
-0.075
 74
0
  0
LTYPE
  5
1F6
100
AcDbSymbolTableRecord
100
AcDbLinetypeTableRecord
  2
HIDDEN
 70
64
  3
- - - - - - - - - - - - - - - - - - - -
 72
65
 73
2
 40
0.2
 49
0.1
 74
0
 49
-0.1
 74
0
  0
LTYPE
  5
1F7
100
AcDbSymbolTableRecord
100
AcDbLinetypeTableRecord
  2
PHANTOM
 70
64
  3
_____ _ _ _____ _ _ _____ _ _ _____
 72
65
 73
6
 40
0.8
 49
0.45
 74
0
 49
-0.05
 74
0
 49
0.1
 74
0
 49
-0.05
 74
0
 49
0.1
 74
0
 49
-0.05
 74
0
  0
LTYPE
  5
1F8
100
AcDbSymbolTableRecord
100
AcDbLinetypeTableRecord
  2
DOT
 70
64
  3
. . . . . . . . . . . . . . . . . . . .
 72
65
 73
2
 40
0.2
 49
0.1
 74
0
 49
-0.1
 74
0
  0
LTYPE
  5
1F9
100
AcDbSymbolTableRecord
100
AcDbLinetypeTableRecord
  2
DASHED
 70
64
  3
- - - - - - - - - - - - - - - - - - - -
 72
65
 73
2
 40
0.2
 49
0.1
 74
0
 49
-0.1
 74
0
  0
ENDTAB
  0
TABLE
  2
LAYER
  5
2
100
AcDbSymbolTable
 70
36
  0
LAYER
  5
10
100
AcDbSymbolTableRecord
100
AcDbLayerTableRecord
  2
0
 70
0
 62
7
  6
CONTINUOUS
370
-3
390
F
  0
LAYER
  5
1FA
100
AcDbSymbolTableRecord
100
AcDbLayerTableRecord
  2
DEFAULT_1
 70
0
 62
7
  6
CENTER
370
-3
390
F
  0
LAYER
  5
1FB
100
AcDbSymbolTableRecord
100
AcDbLayerTableRecord
  2
DEFAULT_2
 70
0
 62
7
  6
HIDDEN
370
-3
390
F
  0
LAYER
  5
1FC
100
AcDbSymbolTableRecord
100
AcDbLayerTableRecord
  2
DEFAULT_3
 70
0
 62
7
  6
PHANTOM
370
-3
390
F
  0
LAYER
  5
1FD
100
AcDbSymbolTableRecord
100
AcDbLayerTableRecord
  2
00_COMPONENTS
 70
0
 62
7
  6
CONTINUOUS
370
-3
390
F
  0
LAYER
  5
1FE
100
AcDbSymbolTableRecord
100
AcDbLayerTableRecord
  2
01_1_DEFAULT_DATUMS
 70
0
 62
7
  6
CONTINUOUS
370
-3
390
F
  0
LAYER
  5
1FF
100
AcDbSymbolTableRecord
100
AcDbLayerTableRecord
  2
01_PLANES
 70
0
 62
7
  6
CONTINUOUS
370
-3
390
F
  0
LAYER
  5
200
100
AcDbSymbolTableRecord
100
AcDbLayerTableRecord
  2
02_COORD_SYS
 70
0
 62
7
  6
CONTINUOUS
370
-3
390
F
  0
LAYER
  5
201
100
AcDbSymbolTableRecord
100
AcDbLayerTableRecord
  2
03_AXES
 70
0
 62
7
  6
CONTINUOUS
370
-3
390
F
  0
LAYER
  5
202
100
AcDbSymbolTableRecord
100
AcDbLayerTableRecord
  2
04_POINTS
 70
0
 62
7
  6
CONTINUOUS
370
-3
390
F
  0
LAYER
  5
203
100
AcDbSymbolTableRecord
100
AcDbLayerTableRecord
  2
05_CURVES
 70
0
 62
7
  6
CONTINUOUS
370
-3
390
F
  0
LAYER
  5
204
100
AcDbSymbolTableRecord
100
AcDbLayerTableRecord
  2
06_SURFS
 70
0
 62
7
  6
CONTINUOUS
370
-3
390
F
  0
LAYER
  5
205
100
AcDbSymbolTableRecord
100
AcDbLayerTableRecord
  2
07_COSMETICS
 70
0
 62
7
  6
CONTINUOUS
370
-3
390
F
  0
LAYER
  5
206
100
AcDbSymbolTableRecord
100
AcDbLayerTableRecord
  2
10_NOTES
 70
0
 62
7
  6
CONTINUOUS
370
-3
390
F
  0
LAYER
  5
207
100
AcDbSymbolTableRecord
100
AcDbLayerTableRecord
  2
11_NOTES_PUB
 70
0
 62
7
  6
CONTINUOUS
370
-3
390
F
  0
LAYER
  5
208
100
AcDbSymbolTableRecord
100
AcDbLayerTableRecord
  2
13_REF_GTOL
 70
0
 62
7
  6
CONTINUOUS
370
-3
390
F
  0
LAYER
  5
209
100
AcDbSymbolTableRecord
100
AcDbLayerTableRecord
  2
16_MISC
 70
0
 62
7
  6
CONTINUOUS
370
-3
390
F
  0
LAYER
  5
20A
100
AcDbSymbolTableRecord
100
AcDbLayerTableRecord
  2
17_NO_PRINT
 70
0
 62
7
  6
CONTINUOUS
370
-3
390
F
  0
LAYER
  5
20B
100
AcDbSymbolTableRecord
100
AcDbLayerTableRecord
  2
18_DATUM_CAMS_JOINTS
 70
0
 62
7
  6
CONTINUOUS
370
-3
390
F
  0
LAYER
  5
20C
100
AcDbSymbolTableRecord
100
AcDbLayerTableRecord
  2
19_DATUM_FUNCTIONAL
 70
0
 62
7
  6
CONTINUOUS
370
-3
390
F
  0
LAYER
  5
20D
100
AcDbSymbolTableRecord
100
AcDbLayerTableRecord
  2
20_DATUM_KINEMATIC_SCHEME
 70
0
 62
7
  6
CONTINUOUS
370
-3
390
F
  0
ENDTAB
  0
TABLE
  2
STYLE
  5
3
100
AcDbSymbolTable
 70
1
  0
STYLE
  5
11
100
AcDbSymbolTableRecord
100
AcDbTextStyleTableRecord
  2
STANDARD
 70
0
 40
0.0
 41
1.0
 50
0.0
 71
0
 42
0.2
  3
ARIAL.TTF
  4

  0
STYLE
  5
20E
100
AcDbSymbolTableRecord
100
AcDbTextStyleTableRecord
  2
TEXTSTYLE_1
 70
0
 40
0.0
 41
0.8
 50
0.0
 71
0
 42
0.2
  3
gdt
  4

  0
ENDTAB
  0
TABLE
  2
VIEW
  5
6
100
AcDbSymbolTable
 70
0
  0
ENDTAB
  0
TABLE
  2
UCS
  5
7
100
AcDbSymbolTable
 70
0
  0
ENDTAB
  0
TABLE
  2
APPID
  5
9
100
AcDbSymbolTable
 70
1
  0
APPID
  5
20F
100
AcDbSymbolTableRecord
100
AcDbRegAppTableRecord
  2
ACAD
 70
0
  0
ENDTAB
  0
TABLE
  2
BLOCK_RECORD
  5
1
100
AcDbSymbolTable
 70
0
  0
BLOCK_RECORD
  5
210
100
AcDbSymbolTableRecord
100
AcDbBlockTableRecord
  2
*Model_Space
  0
BLOCK_RECORD
  5
211
100
AcDbSymbolTableRecord
100
AcDbBlockTableRecord
  2
*Paper_Space
  0
BLOCK_RECORD
  5
212
100
AcDbSymbolTableRecord
100
AcDbBlockTableRecord
  2
_FILLED
  0
ENDTAB
  0
TABLE
  2
DIMSTYLE
  5
A
100
AcDbSymbolTable
 70
1
100
AcDbDimStyleTable
 71
0
  0
DIMSTYLE
105
213
100
AcDbSymbolTableRecord
100
AcDbDimStyleTableRecord
  2
STANDARD
 70
0
  3

  4

 40
1.0
 41
6.7422591932
 42
1.0
 43
0.38
 44
1.0
 45
0.0
 46
0.0
 47
0.01
 48
0.01
140
9.4391628705
141
0.09
142
0.0
143
25.4
144
1.0
145
0.0
146
1.0
147
0.625
 71
1
 72
0
 73
0
 74
0
 75
0
 76
0
 77
1
 78
8
 79
2
170
0
171
1
172
0
173
0
174
0
175
0
176
0
177
0
178
0
270
2
179
2
271
2
272
2
273
2
274
2
275
0
280
0
281
0
282
0
283
1
284
8
285
0
286
0
287
3
288
0
340
11
278
46
341
212
342
212
343
212
344
212
  0
ENDTAB
  0
ENDSEC
  0
SECTION
  2
BLOCKS
  0
BLOCK
  5
20
100
AcDbEntity
  8
0
100
AcDbBlockBegin
  2
*Model_Space
 70
0
 10
0.0
 20
0.0
 30
0.0
  3
*Model_Space
  1

  0
ENDBLK
  5
21
100
AcDbEntity
  8
0
100
AcDbBlockEnd
  0
BLOCK
  5
1C
100
AcDbEntity
  8
0
100
AcDbBlockBegin
  2
*Paper_Space
 70
0
 10
0.0
 20
0.0
 30
0.0
  3
*Paper_Space
  1

  0
ENDBLK
  5
1D
100
AcDbEntity
  8
0
100
AcDbBlockEnd
  0
BLOCK
  5
214
100
AcDbEntity
  8
0
100
AcDbBlockBegin
  2
_FILLED
 70
64
 10
0.0
 20
0.0
  3
_FILLED
  1

  0
SOLID
  5
215
100
AcDbEntity
  8
0
  6
BYBLOCK
 62
0
100
AcDbTrace
 10
0.0
 20
0.0
 11
-1.0
 21
0.25
 12
-1.0
 22
-0.25
 13
-1.0
 23
-0.25
  0
ENDBLK
  5
216
100
AcDbEntity
  8
0
  6
BYBLOCK
 62
0
100
AcDbBlockEnd
  0
ENDSEC
  0
SECTION
  2
ENTITIES
  0
LINE
  5
217
100
AcDbEntity
  8
0
100
AcDbLine
 62
7
  6
BYLAYER
 10
62.5964547436
 20
727.022984101
 11
62.0964547436
 21
726.522984101
  0
LINE
  5
218
100
AcDbEntity
  8
0
100
AcDbLine
 62
7
  6
BYLAYER
 10
62.0964547435
 20
71.5226867119
 11
62.5964547435
 21
71.0226867119
  0
LINE
  5
219
100
AcDbEntity
  8
0
100
AcDbLine
 62
7
  6
BYLAYER
 10
92.7480081781
 20
663.8621683522
 11
92.8724120602
 21
663.9781893505
  0
LINE
  5
21A
100
AcDbEntity
  8
0
100
AcDbLine
 62
7
  6
BYLAYER
 10
92.3317203749
 20
663.6680501876
 11
92.7480166931
 21
663.862176286
  0
LINE
  5
21B
100
AcDbEntity
  8
0
100
AcDbLine
 62
7
  6
BYLAYER
 10
92.5007789755
 20
663.3055323402
 11
93.1658527701
 21
663.6156613439
  0
LINE
  5
21C
100
AcDbEntity
  8
0
100
AcDbLine
 62
7
  6
BYLAYER
 10
462.5964547435
 20
71.0162315853
 11
511.5964547435
 21
71.0162315853
  0
LINE
  5
21D
100
AcDbEntity
  8
0
100
AcDbLine
 62
7
  6
BYLAYER
 10
111.5964547435
 20
71.0226867119
 11
62.5964547435
 21
71.0226867119
  0
LINE
  5
21E
100
AcDbEntity
  8
0
100
AcDbLine
 62
7
  6
BYLAYER
 10
462.0964547435
 20
71.5162315853
 11
512.0964547435
 21
71.5162315853
  0
LINE
  5
21F
100
AcDbEntity
  8
0
100
AcDbLine
 62
7
  6
BYLAYER
 10
112.0964547435
 20
71.5226867119
 11
62.0964547435
 21
71.5226867119
  0
LINE
  5
220
100
AcDbEntity
  8
0
100
AcDbLine
 62
7
  6
BYLAYER
 10
462.0964547435
 20
74.0162315853
 11
464.5964547435
 21
74.0162315853
  0
LINE
  5
221
100
AcDbEntity
  8
0
100
AcDbLine
 62
7
  6
BYLAYER
 10
490.5964547435
 20
74.0162315853
 11
512.0964547435
 21
74.0162315853
  0
LINE
  5
222
100
AcDbEntity
  8
0
100
AcDbLine
 62
7
  6
BYLAYER
 10
62.0964547435
 20
74.0226867119
 11
83.5964547435
 21
74.0226867119
  0
LINE
  5
223
100
AcDbEntity
  8
0
100
AcDbLine
 62
7
  6
BYLAYER
 10
109.5964547435
 20
74.0226867119
 11
112.0964547435
 21
74.0226867119
  0
LINE
  5
224
100
AcDbEntity
  8
0
100
AcDbLine
 62
7
  6
BYLAYER
 10
112.0964547435
 20
74.0229837576
 11
110.0964547435
 21
74.0229837576
  0
LINE
  5
225
100
AcDbEntity
  8
0
100
AcDbLine
 62
7
  6
BYLAYER
 10
82.0964547435
 20
74.0229837576
 11
62.0964547435
 21
74.0229837576
  0
LINE
  5
226
100
AcDbEntity
  8
0
100
AcDbLine
 62
7
  6
BYLAYER
 10
464.5964547435
 20
77.0162315853
 11
491.0964547435
 21
77.0162315853
  0
LINE
  5
227
100
AcDbEntity
  8
0
100
AcDbLine
 62
7
  6
BYLAYER
 10
83.0964547435
 20
77.0226867119
 11
109.5964547435
 21
77.0226867119
  0
LINE
  5
228
100
AcDbEntity
  8
0
100
AcDbLine
 62
7
  6
BYLAYER
 10
92.7703711961
 20
134.2302360044
 11
92.3540762031
 21
134.4243608718
  0
LINE
  5
229
100
AcDbEntity
  8
0
100
AcDbLine
 62
7
  6
BYLAYER
 10
93.1882050124
 20
134.4767513876
 11
92.5231348039
 21
134.786878719
  0
LINE
  5
22A
100
AcDbEntity
  8
0
100
AcDbLine
 62
7
  6
BYLAYER
 10
92.8947743481
 20
134.1142156904
 11
92.7703640066
 21
134.2302427035
  0
LINE
  5
22B
100
AcDbEntity
  8
0
100
AcDbLine
 62
7
  6
BYLAYER
 10
92.3317310342
 20
690.3808545825
 11
92.5007789754
 21
690.7433790625
  0
LINE
  5
22C
100
AcDbEntity
  8
0
100
AcDbLine
 62
7
  6
BYLAYER
 10
92.917055536
 20
690.5492661143
 11
92.7480075948
 21
690.1867416344
  0
LINE
  5
22D
100
AcDbEntity
  8
0
100
AcDbLine
 62
7
  6
BYLAYER
 10
91.8980081904
 20
669.0777320894
 11
91.6788303241
 21
668.7431267893
  0
LINE
  5
22E
100
AcDbEntity
  8
0
100
AcDbLine
 62
7
  6
BYLAYER
 10
482.9599852969
 20
107.014759985
 11
491.0964547435
 21
107.014759985
  0
LINE
  5
22F
100
AcDbEntity
  8
0
100
AcDbLine
 62
7
  6
BYLAYER
 10
83.0964547435
 20
107.0679553579
 11
91.2552800186
 21
107.0679553579
  0
LINE
  5
230
100
AcDbEntity
  8
0
100
AcDbLine
 62
7
  6
BYLAYER
 10
487.4913114721
 20
107.414759985
 11
482.9599728318
 21
107.414759985
  0
LINE
  5
231
100
AcDbEntity
  8
0
100
AcDbLine
 62
7
  6
BYLAYER
 10
91.2552924838
 20
107.4679553579
 11
86.7239538426
 21
107.4679553579
  0
LINE
  5
232
100
AcDbEntity
  8
0
100
AcDbLine
 62
7
  6
BYLAYER
 10
484.2589805626
 20
108.5773509514
 11
484.3308220552
 21
108.5773509514
  0
LINE
  5
233
100
AcDbEntity
  8
0
100
AcDbLine
 62
7
  6
BYLAYER
 10
89.8844432603
 20
108.6305463245
 11
89.9562847529
 21
108.6305463245
  0
LINE
  5
234
100
AcDbEntity
  8
0
100
AcDbLine
 62
7
  6
BYLAYER
 10
483.0773151401
 20
109.7288392386
 11
483.5923138959
 21
109.7288392386
  0
LINE
  5
235
100
AcDbEntity
  8
0
100
AcDbLine
 62
7
  6
BYLAYER
 10
484.9974887219
 20
109.7288392386
 11
485.4521332072
 21
109.7288392386
  0
LINE
  5
236
100
AcDbEntity
  8
0
100
AcDbLine
 62
7
  6
BYLAYER
 10
88.7631321084
 20
109.7820346117
 11
89.2177765936
 21
109.7820346117
  0
LINE
  5
237
100
AcDbEntity
  8
0
100
AcDbLine
 62
7
  6
BYLAYER
 10
90.6229514196
 20
109.7820346117
 11
91.1379501754
 21
109.7820346117
  0
LINE
  5
238
100
AcDbEntity
  8
0
100
AcDbLine
 62
7
  6
BYLAYER
 10
481.044901309
 20
110.014759985
 11
481.4449013089
 21
110.014759985
  0
LINE
  5
239
100
AcDbEntity
  8
0
100
AcDbLine
 62
7
  6
BYLAYER
 10
487.1449013089
 20
110.014759985
 11
491.0964547435
 21
110.0147599853
  0
LINE
  5
23A
100
AcDbEntity
  8
0
100
AcDbLine
 62
7
  6
BYLAYER
 10
83.0964547435
 20
110.0679553581
 11
87.0703640066
 21
110.0679553579
  0
LINE
  5
23B
100
AcDbEntity
  8
0
100
AcDbLine
 62
7
  6
BYLAYER
 10
92.7703640066
 20
110.0679553579
 11
93.1703640065
 21
110.0679553579
  0
LINE
  5
23C
100
AcDbEntity
  8
0
100
AcDbLine
 62
7
  6
BYLAYER
 10
485.4521332072
 20
110.3006807312
 11
484.9974887219
 21
110.3006807312
  0
LINE
  5
23D
100
AcDbEntity
  8
0
100
AcDbLine
 62
7
  6
BYLAYER
 10
483.5923138959
 20
110.3006807312
 11
483.0773151401
 21
110.3006807312
  0
LINE
  5
23E
100
AcDbEntity
  8
0
100
AcDbLine
 62
7
  6
BYLAYER
 10
480.4062859035
 20
110.3248937419
 11
479.2949013089
 21
110.3248937419
  0
LINE
  5
23F
100
AcDbEntity
  8
0
100
AcDbLine
 62
7
  6
BYLAYER
 10
91.1379501754
 20
110.3538761043
 11
90.6229514196
 21
110.3538761043
  0
LINE
  5
240
100
AcDbEntity
  8
0
100
AcDbLine
 62
7
  6
BYLAYER
 10
89.2177765936
 20
110.3538761043
 11
88.7631321084
 21
110.3538761043
  0
LINE
  5
241
100
AcDbEntity
  8
0
100
AcDbLine
 62
7
  6
BYLAYER
 10
94.9203640066
 20
110.3780891148
 11
93.808982614
 21
110.3780891148
  0
LINE
  5
242
100
AcDbEntity
  8
0
100
AcDbLine
 62
7
  6
BYLAYER
 10
91.7011859248
 20
129.3492841208
 11
91.9203637538
 21
129.0146788167
  0
LINE
  5
243
100
AcDbEntity
  8
0
100
AcDbLine
 62
7
  6
BYLAYER
 10
92.5231348039
 20
107.3490319968
 11
92.3540867452
 21
107.7115567286
  0
LINE
  5
244
100
AcDbEntity
  8
0
100
AcDbLine
 62
7
  6
BYLAYER
 10
92.7703634297
 20
107.9056697344
 11
92.9394114884
 21
107.5431450027
  0
LINE
  5
245
100
AcDbEntity
  8
0
100
AcDbLine
 62
7
  6
BYLAYER
 10
484.3308220552
 20
111.4521690184
 11
484.2589805626
 21
111.4521690184
  0
LINE
  5
246
100
AcDbEntity
  8
0
100
AcDbLine
 62
7
  6
BYLAYER
 10
89.9562847529
 20
111.5053643915
 11
89.8844432603
 21
111.5053643915
  0
LINE
  5
247
100
AcDbEntity
  8
0
100
AcDbLine
 62
7
  6
BYLAYER
 10
484.2589805626
 20
130.5773509514
 11
484.3308220552
 21
130.5773509514
  0
LINE
  5
248
100
AcDbEntity
  8
0
100
AcDbLine
 62
7
  6
BYLAYER
 10
89.8844432603
 20
130.6305463245
 11
89.9562847529
 21
130.6305463245
  0
LINE
  5
249
100
AcDbEntity
  8
0
100
AcDbLine
 62
7
  6
BYLAYER
 10
479.2949013089
 20
131.7046262281
 11
480.4062827015
 21
131.7046262281
  0
LINE
  5
24A
100
AcDbEntity
  8
0
100
AcDbLine
 62
7
  6
BYLAYER
 10
483.0773151401
 20
131.7288392386
 11
483.5923138959
 21
131.7288392386
  0
LINE
  5
24B
100
AcDbEntity
  8
0
100
AcDbLine
 62
7
  6
BYLAYER
 10
484.9974887219
 20
131.7288392386
 11
485.4521332071
 21
131.7288392386
  0
LINE
  5
24C
100
AcDbEntity
  8
0
100
AcDbLine
 62
7
  6
BYLAYER
 10
93.808979412
 20
131.757821601
 11
94.9203640066
 21
131.757821601
  0
LINE
  5
24D
100
AcDbEntity
  8
0
100
AcDbLine
 62
7
  6
BYLAYER
 10
88.7631321084
 20
131.7820346117
 11
89.2177765936
 21
131.7820346117
  0
LINE
  5
24E
100
AcDbEntity
  8
0
100
AcDbLine
 62
7
  6
BYLAYER
 10
90.6229514196
 20
131.7820346117
 11
91.1379501754
 21
131.7820346117
  0
LINE
  5
24F
100
AcDbEntity
  8
0
100
AcDbLine
 62
7
  6
BYLAYER
 10
481.4449013089
 20
132.014759985
 11
481.044901309
 21
132.014759985
  0
LINE
  5
250
100
AcDbEntity
  8
0
100
AcDbLine
 62
7
  6
BYLAYER
 10
487.1449013089
 20
132.014759985
 11
491.0964547435
 21
132.0147599848
  0
LINE
  5
251
100
AcDbEntity
  8
0
100
AcDbLine
 62
7
  6
BYLAYER
 10
93.1703640065
 20
132.0679553579
 11
92.7703640066
 21
132.0679553579
  0
LINE
  5
252
100
AcDbEntity
  8
0
100
AcDbLine
 62
7
  6
BYLAYER
 10
83.0964547435
 20
132.0679553576
 11
87.0703640066
 21
132.0679553579
  0
LINE
  5
253
100
AcDbEntity
  8
0
100
AcDbLine
 62
7
  6
BYLAYER
 10
485.4521332071
 20
132.3006807312
 11
484.9974887219
 21
132.3006807312
  0
LINE
  5
254
100
AcDbEntity
  8
0
100
AcDbLine
 62
7
  6
BYLAYER
 10
483.5923138959
 20
132.3006807312
 11
483.0773151401
 21
132.3006807312
  0
LINE
  5
255
100
AcDbEntity
  8
0
100
AcDbLine
 62
7
  6
BYLAYER
 10
91.1379501754
 20
132.3538761043
 11
90.6229514196
 21
132.3538761043
  0
LINE
  5
256
100
AcDbEntity
  8
0
100
AcDbLine
 62
7
  6
BYLAYER
 10
89.2177765936
 20
132.3538761043
 11
88.7631321084
 21
132.3538761043
  0
LINE
  5
257
100
AcDbEntity
  8
0
100
AcDbLine
 62
7
  6
BYLAYER
 10
484.3308220552
 20
133.4521690184
 11
484.2589805626
 21
133.4521690184
  0
LINE
  5
258
100
AcDbEntity
  8
0
100
AcDbLine
 62
7
  6
BYLAYER
 10
89.9562847529
 20
133.5053643916
 11
89.8844432603
 21
133.5053643916
  0
LINE
  5
259
100
AcDbEntity
  8
0
100
AcDbLine
 62
7
  6
BYLAYER
 10
482.9599728318
 20
134.614759985
 11
487.4913114729
 21
134.614759985
  0
LINE
  5
25A
100
AcDbEntity
  8
0
100
AcDbLine
 62
7
  6
BYLAYER
 10
86.7239538434
 20
134.6679553579
 11
91.2552924838
 21
134.6679553579
  0
LINE
  5
25B
100
AcDbEntity
  8
0
100
AcDbLine
 62
7
  6
BYLAYER
 10
482.9599852969
 20
135.014759985
 11
491.0964547435
 21
135.014759985
  0
LINE
  5
25C
100
AcDbEntity
  8
0
100
AcDbLine
 62
7
  6
BYLAYER
 10
83.0964547435
 20
135.0679553579
 11
91.2552800186
 21
135.0679553579
  0
LINE
  5
25D
100
AcDbEntity
  8
0
100
AcDbLine
 62
7
  6
BYLAYER
 10
62.0964547436
 20
726.522984101
 11
62.0964547435
 21
367.022984101
  0
LINE
  5
25E
100
AcDbEntity
  8
0
100
AcDbLine
 62
7
  6
BYLAYER
 10
62.0964547435
 20
304.0229837576
 11
62.0964547435
 21
74.0229837576
  0
LINE
  5
25F
100
AcDbEntity
  8
0
100
AcDbLine
 62
7
  6
BYLAYER
 10
62.0964547435
 20
74.0226867119
 11
62.0964547435
 21
71.5226867119
  0
LINE
  5
260
100
AcDbEntity
  8
0
100
AcDbLine
 62
7
  6
BYLAYER
 10
63.0964547435
 20
311.0229837576
 11
63.0964547435
 21
304.0229837576
  0
LINE
  5
261
100
AcDbEntity
  8
0
100
AcDbLine
 62
7
  6
BYLAYER
 10
65.5964547435
 20
71.0226867119
 11
65.5964547435
 21
74.0226867119
  0
LINE
  5
262
100
AcDbEntity
  8
0
100
AcDbLine
 62
7
  6
BYLAYER
 10
65.5964547435
 20
74.0229837576
 11
65.5964547435
 21
304.0229837576
  0
LINE
  5
263
100
AcDbEntity
  8
0
100
AcDbLine
 62
7
  6
BYLAYER
 10
65.5964547435
 20
367.022984101
 11
65.5964547436
 21
727.022984101
  0
LINE
  5
264
100
AcDbEntity
  8
0
100
AcDbLine
 62
7
  6
BYLAYER
 10
66.5964547435
 20
304.0229837576
 11
66.5964547435
 21
311.0229837576
  0
LINE
  5
265
100
AcDbEntity
  8
0
100
AcDbLine
 62
7
  6
BYLAYER
 10
76.0964547435
 20
367.022984101
 11
76.0964547435
 21
365.522984101
  0
LINE
  5
266
100
AcDbEntity
  8
0
100
AcDbLine
 62
7
  6
BYLAYER
 10
76.0964547435
 20
311.0664532134
 11
76.0964547435
 21
312.5664532134
  0
LINE
  5
267
100
AcDbEntity
  8
0
100
AcDbLine
 62
7
  6
BYLAYER
 10
78.5964547435
 20
311.0229837576
 11
78.5964547435
 21
311.0664532134
  0
LINE
  5
268
100
AcDbEntity
  8
0
100
AcDbLine
 62
7
  6
BYLAYER
 10
81.5964547435
 20
724.022984101
 11
81.5964547435
 21
367.022984101
  0
LINE
  5
269
100
AcDbEntity
  8
0
100
AcDbLine
 62
7
  6
BYLAYER
 10
81.5964547435
 20
304.0229837576
 11
81.5964547435
 21
74.0229837576
  0
LINE
  5
26A
100
AcDbEntity
  8
0
100
AcDbLine
 62
7
  6
BYLAYER
 10
82.0964547436
 20
727.022984101
 11
82.0964547436
 21
724.022984101
  0
LINE
  5
26B
100
AcDbEntity
  8
0
100
AcDbLine
 62
7
  6
BYLAYER
 10
82.0964547435
 20
74.0226867119
 11
82.0964547435
 21
71.0226867119
  0
LINE
  5
26C
100
AcDbEntity
  8
0
100
AcDbLine
 62
7
  6
BYLAYER
 10
82.5964547435
 20
311.0229837576
 11
82.5964547435
 21
304.0229837576
  0
LINE
  5
26D
100
AcDbEntity
  8
0
100
AcDbLine
 62
7
  6
BYLAYER
 10
83.0964547435
 20
71.5226867119
 11
83.0964547435
 21
74.0226867119
  0
LINE
  5
26E
100
AcDbEntity
  8
0
100
AcDbLine
 62
7
  6
BYLAYER
 10
83.0964547435
 20
74.0229837576
 11
83.0964547435
 21
304.0229837576
  0
LINE
  5
26F
100
AcDbEntity
  8
0
100
AcDbLine
 62
7
  6
BYLAYER
 10
83.0964547435
 20
367.022984101
 11
83.0964547436
 21
726.522984101
  0
LINE
  5
270
100
AcDbEntity
  8
0
100
AcDbLine
 62
7
  6
BYLAYER
 10
83.5964547435
 20
377.02297661
 11
83.5964547435
 21
374.022984101
  0
LINE
  5
271
100
AcDbEntity
  8
0
100
AcDbLine
 62
7
  6
BYLAYER
 10
83.5964547435
 20
311.0664532134
 11
83.5964547435
 21
311.0229837576
  0
LINE
  5
272
100
AcDbEntity
  8
0
100
AcDbLine
 62
7
  6
BYLAYER
 10
83.5964547435
 20
304.0229837576
 11
83.5964547435
 21
301.0090822919
  0
LINE
  5
273
100
AcDbEntity
  8
0
100
AcDbLine
 62
7
  6
BYLAYER
 10
83.5964547435
 20
299.4090822919
 11
83.5964547435
 21
299.3830776441
  0
LINE
  5
274
100
AcDbEntity
  8
0
100
AcDbLine
 62
7
  6
BYLAYER
 10
83.5964547436
 20
71.0226867119
 11
83.5964547435
 21
77.0226867119
  0
LINE
  5
275
100
AcDbEntity
  8
0
100
AcDbLine
 62
7
  6
BYLAYER
 10
83.5964547436
 20
721.022984101
 11
83.5964547436
 21
727.022984101
  0
LINE
  5
276
100
AcDbEntity
  8
0
100
AcDbLine
 62
7
  6
BYLAYER
 10
83.9911915856
 20
299.3830776441
 11
83.9911915856
 21
295.1725513283
  0
LINE
  5
277
100
AcDbEntity
  8
0
100
AcDbLine
 62
7
  6
BYLAYER
 10
83.9911915856
 20
378.6230265111
 11
83.9911915856
 21
382.8335528269
  0
LINE
  5
278
100
AcDbEntity
  8
0
100
AcDbLine
 62
7
  6
BYLAYER
 10
84.0964547435
 20
304.0229837576
 11
84.0964547435
 21
311.0229837576
  0
LINE
  5
279
100
AcDbEntity
  8
0
100
AcDbLine
 62
7
  6
BYLAYER
 10
86.0964547435
 20
312.5664532134
 11
86.0964547435
 21
311.0664532134
  0
LINE
  5
27A
100
AcDbEntity
  8
0
100
AcDbLine
 62
7
  6
BYLAYER
 10
86.0964547435
 20
293.1725513283
 11
86.0964547435
 21
295.1725513283
  0
LINE
  5
27B
100
AcDbEntity
  8
0
100
AcDbLine
 62
7
  6
BYLAYER
 10
86.0964547435
 20
365.522984101
 11
86.0964547435
 21
367.022984101
  0
LINE
  5
27C
100
AcDbEntity
  8
0
100
AcDbLine
 62
7
  6
BYLAYER
 10
86.0964547435
 20
382.8335528269
 11
86.0964547435
 21
384.8335528269
  0
LINE
  5
27D
100
AcDbEntity
  8
0
100
AcDbLine
 62
7
  6
BYLAYER
 10
86.2480081781
 20
690.9887405233
 11
86.2480081781
 21
688.0244557013
  0
LINE
  5
27E
100
AcDbEntity
  8
0
100
AcDbLine
 62
7
  6
BYLAYER
 10
86.2480081781
 20
666.0244557013
 11
86.2480081781
 21
663.0601708764
  0
LINE
  5
27F
100
AcDbEntity
  8
0
100
AcDbLine
 62
7
  6
BYLAYER
 10
86.2703640066
 20
135.0322401799
 11
86.2703640066
 21
132.0679553579
  0
LINE
  5
280
100
AcDbEntity
  8
0
100
AcDbLine
 62
7
  6
BYLAYER
 10
86.2703640066
 20
110.0679553579
 11
86.2703640066
 21
107.103670533
  0
LINE
  5
281
100
AcDbEntity
  8
0
100
AcDbLine
 62
7
  6
BYLAYER
 10
86.6480081781
 20
690.5935055076
 11
86.6480081781
 21
688.0244557014
  0
LINE
  5
282
100
AcDbEntity
  8
0
100
AcDbLine
 62
7
  6
BYLAYER
 10
86.6480081781
 20
666.0244557012
 11
86.6480081781
 21
663.4554063114
  0
LINE
  5
283
100
AcDbEntity
  8
0
100
AcDbLine
 62
7
  6
BYLAYER
 10
86.6703640066
 20
134.6370051642
 11
86.6703640066
 21
132.067955358
  0
LINE
  5
284
100
AcDbEntity
  8
0
100
AcDbLine
 62
7
  6
BYLAYER
 10
86.6703640066
 20
110.0679553578
 11
86.6703640066
 21
107.498905968
  0
LINE
  5
285
100
AcDbEntity
  8
0
100
AcDbLine
 62
7
  6
BYLAYER
 10
86.7464547435
 20
721.022984101
 11
86.7464547435
 21
691.0244557013
  0
LINE
  5
286
100
AcDbEntity
  8
0
100
AcDbLine
 62
7
  6
BYLAYER
 10
86.7464547435
 20
663.0244557013
 11
86.7464547435
 21
382.8335528269
  0
LINE
  5
287
100
AcDbEntity
  8
0
100
AcDbLine
 62
7
  6
BYLAYER
 10
86.7464547435
 20
377.02297661
 11
86.7464547435
 21
374.022984101
  0
LINE
  5
288
100
AcDbEntity
  8
0
100
AcDbLine
 62
7
  6
BYLAYER
 10
86.7464547435
 20
304.0229837576
 11
86.7464547435
 21
301.0090822919
  0
LINE
  5
289
100
AcDbEntity
  8
0
100
AcDbLine
 62
7
  6
BYLAYER
 10
86.7464547435
 20
295.1725513283
 11
86.7464547435
 21
135.0679553579
  0
LINE
  5
28A
100
AcDbEntity
  8
0
100
AcDbLine
 62
7
  6
BYLAYER
 10
86.7464547435
 20
107.0679553579
 11
86.7464547435
 21
77.0226867119
  0
LINE
  5
28B
100
AcDbEntity
  8
0
100
AcDbLine
 62
7
  6
BYLAYER
 10
86.8859284277
 20
299.3830776441
 11
86.8859284277
 21
295.1725513283
  0
LINE
  5
28C
100
AcDbEntity
  8
0
100
AcDbLine
 62
7
  6
BYLAYER
 10
86.8859284277
 20
378.6230265111
 11
86.8859284277
 21
382.8335528269
  0
LINE
  5
28D
100
AcDbEntity
  8
0
100
AcDbLine
 62
7
  6
BYLAYER
 10
87.0480081781
 20
663.0244557013
 11
87.0480081781
 21
666.024452114
  0
LINE
  5
28E
100
AcDbEntity
  8
0
100
AcDbLine
 62
7
  6
BYLAYER
 10
87.0480081781
 20
688.0244595696
 11
87.0480081781
 21
691.0244557013
  0
LINE
  5
28F
100
AcDbEntity
  8
0
100
AcDbLine
 62
7
  6
BYLAYER
 10
87.0703640066
 20
107.0679553579
 11
87.0703640066
 21
110.0679517706
  0
LINE
  5
290
100
AcDbEntity
  8
0
100
AcDbLine
 62
7
  6
BYLAYER
 10
87.0703640066
 20
132.0679592262
 11
87.0703640066
 21
135.0679553579
  0
LINE
  5
291
100
AcDbEntity
  8
0
100
AcDbLine
 62
7
  6
BYLAYER
 10
87.0964547435
 20
299.4090822919
 11
87.0964547435
 21
301.0090822919
  0
LINE
  5
292
100
AcDbEntity
  8
0
100
AcDbLine
 62
7
  6
BYLAYER
 10
87.0964547435
 20
377.02297661
 11
87.0964547435
 21
378.62297661
  0
LINE
  5
293
100
AcDbEntity
  8
0
100
AcDbLine
 62
7
  6
BYLAYER
 10
87.2464547435
 20
77.0226867119
 11
87.2464547435
 21
107.0679553579
  0
LINE
  5
294
100
AcDbEntity
  8
0
100
AcDbLine
 62
7
  6
BYLAYER
 10
87.2464547435
 20
135.0679553579
 11
87.2464547435
 21
304.0229837576
  0
LINE
  5
295
100
AcDbEntity
  8
0
100
AcDbLine
 62
7
  6
BYLAYER
 10
87.2464547435
 20
374.022984101
 11
87.2464547435
 21
663.0244557013
  0
LINE
  5
296
100
AcDbEntity
  8
0
100
AcDbLine
 62
7
  6
BYLAYER
 10
87.2464547435
 20
691.0244557013
 11
87.2464547435
 21
721.022984101
  0
LINE
  5
297
100
AcDbEntity
  8
0
100
AcDbLine
 62
7
  6
BYLAYER
 10
88.4907762799
 20
688.0603764478
 11
88.4907762799
 21
687.9885349551
  0
LINE
  5
298
100
AcDbEntity
  8
0
100
AcDbLine
 62
7
  6
BYLAYER
 10
88.4907762799
 20
666.0603764477
 11
88.4907762799
 21
665.9885349551
  0
LINE
  5
299
100
AcDbEntity
  8
0
100
AcDbLine
 62
7
  6
BYLAYER
 10
88.5131321084
 20
132.1038761043
 11
88.5131321084
 21
132.0320346117
  0
LINE
  5
29A
100
AcDbEntity
  8
0
100
AcDbLine
 62
7
  6
BYLAYER
 10
88.5131321084
 20
110.1038761043
 11
88.5131321084
 21
110.0320346117
  0
LINE
  5
29B
100
AcDbEntity
  8
0
100
AcDbLine
 62
7
  6
BYLAYER
 10
88.9751344
 20
727.022984101
 11
88.9751344
 21
721.022984101
  0
LINE
  5
29C
100
AcDbEntity
  8
0
100
AcDbLine
 62
7
  6
BYLAYER
 10
88.9751344
 20
77.0226867119
 11
88.9751344
 21
71.0226867119
  0
LINE
  5
29D
100
AcDbEntity
  8
0
100
AcDbLine
 62
7
  6
BYLAYER
 10
89.5964547435
 20
367.022984101
 11
89.5964547435
 21
374.022984101
  0
LINE
  5
29E
100
AcDbEntity
  8
0
100
AcDbLine
 62
7
  6
BYLAYER
 10
89.6120874318
 20
689.211864735
 11
89.6120874318
 21
688.7270431144
  0
LINE
  5
29F
100
AcDbEntity
  8
0
100
AcDbLine
 62
7
  6
BYLAYER
 10
89.6120874318
 20
687.3218682885
 11
89.6120874318
 21
686.8370466679
  0
LINE
  5
2A0
100
AcDbEntity
  8
0
100
AcDbLine
 62
7
  6
BYLAYER
 10
89.6120874318
 20
667.2118647349
 11
89.6120874318
 21
666.7270431144
  0
LINE
  5
2A1
100
AcDbEntity
  8
0
100
AcDbLine
 62
7
  6
BYLAYER
 10
89.6120874318
 20
665.3218682884
 11
89.6120874318
 21
664.8370466679
  0
LINE
  5
2A2
100
AcDbEntity
  8
0
100
AcDbLine
 62
7
  6
BYLAYER
 10
89.6344432603
 20
133.2553643916
 11
89.6344432603
 21
132.770542771
  0
LINE
  5
2A3
100
AcDbEntity
  8
0
100
AcDbLine
 62
7
  6
BYLAYER
 10
89.6344432603
 20
131.3653679451
 11
89.6344432603
 21
130.8805463245
  0
LINE
  5
2A4
100
AcDbEntity
  8
0
100
AcDbLine
 62
7
  6
BYLAYER
 10
89.6344432603
 20
111.2553643915
 11
89.6344432603
 21
110.770542771
  0
LINE
  5
2A5
100
AcDbEntity
  8
0
100
AcDbLine
 62
7
  6
BYLAYER
 10
89.6344432603
 20
109.365367945
 11
89.6344432603
 21
108.8805463245
  0
LINE
  5
2A6
100
AcDbEntity
  8
0
100
AcDbLine
 62
7
  6
BYLAYER
 10
90.0357945718
 20
71.5226867119
 11
90.0357945718
 21
77.0226867119
  0
LINE
  5
2A7
100
AcDbEntity
  8
0
100
AcDbLine
 62
7
  6
BYLAYER
 10
90.0357945718
 20
721.022984101
 11
90.0357945718
 21
726.522984101
  0
LINE
  5
2A8
100
AcDbEntity
  8
0
100
AcDbLine
 62
7
  6
BYLAYER
 10
90.1839289245
 20
664.8370466679
 11
90.1839289245
 21
665.3218682884
  0
LINE
  5
2A9
100
AcDbEntity
  8
0
100
AcDbLine
 62
7
  6
BYLAYER
 10
90.1839289245
 20
666.7270431144
 11
90.1839289245
 21
667.2118647349
  0
LINE
  5
2AA
100
AcDbEntity
  8
0
100
AcDbLine
 62
7
  6
BYLAYER
 10
90.1839289244
 20
686.8370466679
 11
90.1839289244
 21
687.3218682885
  0
LINE
  5
2AB
100
AcDbEntity
  8
0
100
AcDbLine
 62
7
  6
BYLAYER
 10
90.1839289244
 20
688.7270431144
 11
90.1839289244
 21
689.211864735
  0
LINE
  5
2AC
100
AcDbEntity
  8
0
100
AcDbLine
 62
7
  6
BYLAYER
 10
90.2062847529
 20
108.8805463245
 11
90.2062847529
 21
109.365367945
  0
LINE
  5
2AD
100
AcDbEntity
  8
0
100
AcDbLine
 62
7
  6
BYLAYER
 10
90.2062847529
 20
110.770542771
 11
90.2062847529
 21
111.2553643915
  0
LINE
  5
2AE
100
AcDbEntity
  8
0
100
AcDbLine
 62
7
  6
BYLAYER
 10
90.2062847529
 20
130.8805463245
 11
90.2062847529
 21
131.3653679451
  0
LINE
  5
2AF
100
AcDbEntity
  8
0
100
AcDbLine
 62
7
  6
BYLAYER
 10
90.2062847529
 20
132.770542771
 11
90.2062847529
 21
133.2553643916
  0
LINE
  5
2B0
100
AcDbEntity
  8
0
100
AcDbLine
 62
7
  6
BYLAYER
 10
90.5964547435
 20
304.0229837576
 11
90.5964547435
 21
311.0229837576
  0
LINE
  5
2B1
100
AcDbEntity
  8
0
100
AcDbLine
 62
7
  6
BYLAYER
 10
91.2329241902
 20
691.0244557013
 11
91.2329241902
 21
690.6244557013
  0
LINE
  5
2B2
100
AcDbEntity
  8
0
100
AcDbLine
 62
7
  6
BYLAYER
 10
91.2329241902
 20
663.4244557013
 11
91.2329241902
 21
663.0244557013
  0
LINE
  5
2B3
100
AcDbEntity
  8
0
100
AcDbLine
 62
7
  6
BYLAYER
 10
91.2552800187
 20
135.0679553579
 11
91.2552800187
 21
134.6679553579
  0
LINE
  5
2B4
100
AcDbEntity
  8
0
100
AcDbLine
 62
7
  6
BYLAYER
 10
91.2552800187
 20
107.4679553579
 11
91.2552800187
 21
107.0679553579
  0
LINE
  5
2B5
100
AcDbEntity
  8
0
100
AcDbLine
 62
7
  6
BYLAYER
 10
91.3655943469
 20
665.9885349551
 11
91.3655943469
 21
666.0603764477
  0
LINE
  5
2B6
100
AcDbEntity
  8
0
100
AcDbLine
 62
7
  6
BYLAYER
 10
91.3655943469
 20
687.9885349551
 11
91.3655943469
 21
688.0603764478
  0
LINE
  5
2B7
100
AcDbEntity
  8
0
100
AcDbLine
 62
7
  6
BYLAYER
 10
91.3879501754
 20
110.0320346117
 11
91.3879501754
 21
110.1038761043
  0
LINE
  5
2B8
100
AcDbEntity
  8
0
100
AcDbLine
 62
7
  6
BYLAYER
 10
91.3879501754
 20
132.0320346117
 11
91.3879501754
 21
132.1038761043
  0
LINE
  5
2B9
100
AcDbEntity
  8
0
100
AcDbLine
 62
7
  6
BYLAYER
 10
91.897974862
 20
669.0777513789
 11
91.8979758586
 21
684.9711543273
  0
LINE
  5
2BA
100
AcDbEntity
  8
0
100
AcDbLine
 62
7
  6
BYLAYER
 10
91.9203306905
 20
113.1212510355
 11
91.920331687
 21
129.0146539839
  0
LINE
  5
2BB
100
AcDbEntity
  8
0
100
AcDbLine
 62
7
  6
BYLAYER
 10
92.7480153677
 20
690.1867363478
 11
92.7480081782
 21
688.0244592888
  0
LINE
  5
2BC
100
AcDbEntity
  8
0
100
AcDbLine
 62
7
  6
BYLAYER
 10
92.7480081782
 20
666.024451833
 11
92.7480166931
 21
663.862176286
  0
LINE
  5
2BD
100
AcDbEntity
  8
0
100
AcDbLine
 62
7
  6
BYLAYER
 10
92.7703640066
 20
110.0679514896
 11
92.7703725216
 21
107.9056759426
  0
LINE
  5
2BE
100
AcDbEntity
  8
0
100
AcDbLine
 62
7
  6
BYLAYER
 10
92.7703711961
 20
134.2302360044
 11
92.7703640066
 21
132.0679589454
  0
LINE
  5
2BF
100
AcDbEntity
  8
0
100
AcDbLine
 62
7
  6
BYLAYER
 10
93.1480081781
 20
664.3654489168
 11
93.1480081781
 21
666.0243743303
  0
LINE
  5
2C0
100
AcDbEntity
  8
0
100
AcDbLine
 62
7
  6
BYLAYER
 10
93.1480081781
 20
688.0244627132
 11
93.1480081781
 21
689.6834645255
  0
LINE
  5
2C1
100
AcDbEntity
  8
0
100
AcDbLine
 62
7
  6
BYLAYER
 10
93.1703640066
 20
108.4089485734
 11
93.1703640066
 21
110.0678739869
  0
LINE
  5
2C2
100
AcDbEntity
  8
0
100
AcDbLine
 62
7
  6
BYLAYER
 10
93.1703640066
 20
132.0679623698
 11
93.1703640066
 21
133.7269641821
  0
LINE
  5
2C3
100
AcDbEntity
  8
0
100
AcDbLine
 62
7
  6
BYLAYER
 10
93.801854332
 20
664.0624028313
 11
93.801854332
 21
665.9767428022
  0
LINE
  5
2C4
100
AcDbEntity
  8
0
100
AcDbLine
 62
7
  6
BYLAYER
 10
93.801854332
 20
688.0721685835
 11
93.801854332
 21
689.9865985945
  0
LINE
  5
2C5
100
AcDbEntity
  8
0
100
AcDbLine
 62
7
  6
BYLAYER
 10
93.8242101605
 20
108.1059024879
 11
93.8242101605
 21
110.0202424588
  0
LINE
  5
2C6
100
AcDbEntity
  8
0
100
AcDbLine
 62
7
  6
BYLAYER
 10
93.8242101605
 20
132.1156682401
 11
93.8242101605
 21
134.0300982511
  0
LINE
  5
2C7
100
AcDbEntity
  8
0
100
AcDbLine
 62
7
  6
BYLAYER
 10
94.5964547435
 20
721.022984101
 11
94.5964547435
 21
688.9969030554
  0
LINE
  5
2C8
100
AcDbEntity
  8
0
100
AcDbLine
 62
7
  6
BYLAYER
 10
94.5964547435
 20
665.0520075235
 11
94.5964547435
 21
374.022984101
  0
LINE
  5
2C9
100
AcDbEntity
  8
0
100
AcDbLine
 62
7
  6
BYLAYER
 10
94.5964547435
 20
304.0229837576
 11
94.5964547435
 21
133.0846605152
  0
LINE
  5
2CA
100
AcDbEntity
  8
0
100
AcDbLine
 62
7
  6
BYLAYER
 10
94.5964547435
 20
109.0512519586
 11
94.5964547435
 21
77.0226867119
  0
LINE
  5
2CB
100
AcDbEntity
  8
0
100
AcDbLine
 62
7
  6
BYLAYER
 10
94.8980081781
 20
666.3345894583
 11
94.8980081781
 21
687.7143219443
  0
LINE
  5
2CC
100
AcDbEntity
  8
0
100
AcDbLine
 62
7
  6
BYLAYER
 10
94.9203640066
 20
110.3780891149
 11
94.9203640066
 21
131.7578216009
  0
LINE
  5
2CD
100
AcDbEntity
  8
0
100
AcDbLine
 62
7
  6
BYLAYER
 10
95.0964547435
 20
77.0226867119
 11
95.0964547435
 21
304.0229837576
  0
LINE
  5
2CE
100
AcDbEntity
  8
0
100
AcDbLine
 62
7
  6
BYLAYER
 10
95.0964547435
 20
374.022984101
 11
95.0964547435
 21
721.022984101
  0
LINE
  5
2CF
100
AcDbEntity
  8
0
100
AcDbLine
 62
7
  6
BYLAYER
 10
96.0964547435
 20
721.022984101
 11
96.0964547435
 21
374.022984101
  0
LINE
  5
2D0
100
AcDbEntity
  8
0
100
AcDbLine
 62
7
  6
BYLAYER
 10
96.0964547435
 20
304.0229837576
 11
96.0964547435
 21
77.0226867119
  0
LINE
  5
2D1
100
AcDbEntity
  8
0
100
AcDbLine
 62
7
  6
BYLAYER
 10
96.5964547435
 20
721.022984101
 11
96.5964547435
 21
374.022984101
  0
LINE
  5
2D2
100
AcDbEntity
  8
0
100
AcDbLine
 62
7
  6
BYLAYER
 10
96.5964547435
 20
304.0229837576
 11
96.5964547435
 21
77.0226867119
  0
LINE
  5
2D3
100
AcDbEntity
  8
0
100
AcDbLine
 62
7
  6
BYLAYER
 10
97.0964547435
 20
77.0226867119
 11
97.0964547435
 21
304.0229837576
  0
LINE
  5
2D4
100
AcDbEntity
  8
0
100
AcDbLine
 62
7
  6
BYLAYER
 10
97.0964547435
 20
374.022984101
 11
97.0964547435
 21
721.022984101
  0
LINE
  5
2D5
100
AcDbEntity
  8
0
100
AcDbLine
 62
7
  6
BYLAYER
 10
97.8464547435
 20
721.022984101
 11
97.8464547435
 21
374.022984101
  0
LINE
  5
2D6
100
AcDbEntity
  8
0
100
AcDbLine
 62
7
  6
BYLAYER
 10
97.8464547435
 20
304.0229837576
 11
97.8464547435
 21
77.0226867119
  0
LINE
  5
2D7
100
AcDbEntity
  8
0
100
AcDbLine
 62
7
  6
BYLAYER
 10
98.3464547435
 20
77.0226867119
 11
98.3464547435
 21
304.0229837576
  0
LINE
  5
2D8
100
AcDbEntity
  8
0
100
AcDbLine
 62
7
  6
BYLAYER
 10
98.3464547435
 20
374.022984101
 11
98.3464547435
 21
721.022984101
  0
LINE
  5
2D9
100
AcDbEntity
  8
0
100
AcDbLine
 62
7
  6
BYLAYER
 10
99.1571149154
 20
726.522984101
 11
99.1571149154
 21
721.022984101
  0
LINE
  5
2DA
100
AcDbEntity
  8
0
100
AcDbLine
 62
7
  6
BYLAYER
 10
99.1571149153
 20
77.0226867119
 11
99.1571149153
 21
71.5226867119
  0
LINE
  5
2DB
100
AcDbEntity
  8
0
100
AcDbLine
 62
7
  6
BYLAYER
 10
99.3035615247
 20
374.022984101
 11
99.3035615247
 21
367.022984101
  0
LINE
  5
2DC
100
AcDbEntity
  8
0
100
AcDbLine
 62
7
  6
BYLAYER
 10
99.5964547435
 20
71.5226867119
 11
99.5964547435
 21
77.0226867119
  0
LINE
  5
2DD
100
AcDbEntity
  8
0
100
AcDbLine
 62
7
  6
BYLAYER
 10
99.5964547435
 20
367.022984101
 11
99.5964547435
 21
374.022984101
  0
LINE
  5
2DE
100
AcDbEntity
  8
0
100
AcDbLine
 62
7
  6
BYLAYER
 10
99.5964547436
 20
721.022984101
 11
99.5964547436
 21
726.522984101
  0
LINE
  5
2DF
100
AcDbEntity
  8
0
100
AcDbLine
 62
7
  6
BYLAYER
 10
99.8464547435
 20
721.022984101
 11
99.8464547435
 21
374.022984101
  0
LINE
  5
2E0
100
AcDbEntity
  8
0
100
AcDbLine
 62
7
  6
BYLAYER
 10
99.8464547435
 20
304.0229837576
 11
99.8464547435
 21
77.0226867119
  0
LINE
  5
2E1
100
AcDbEntity
  8
0
100
AcDbLine
 62
7
  6
BYLAYER
 10
100.0357945718
 20
71.5226867119
 11
100.0357945718
 21
77.0226867119
  0
LINE
  5
2E2
100
AcDbEntity
  8
0
100
AcDbLine
 62
7
  6
BYLAYER
 10
100.0357945718
 20
721.022984101
 11
100.0357945718
 21
726.522984101
  0
LINE
  5
2E3
100
AcDbEntity
  8
0
100
AcDbLine
 62
7
  6
BYLAYER
 10
100.3035615247
 20
311.0229837576
 11
100.3035615247
 21
304.0229837576
  0
LINE
  5
2E4
100
AcDbEntity
  8
0
100
AcDbLine
 62
7
  6
BYLAYER
 10
100.3464547435
 20
77.0226867119
 11
100.3464547435
 21
304.0229837576
  0
LINE
  5
2E5
100
AcDbEntity
  8
0
100
AcDbLine
 62
7
  6
BYLAYER
 10
100.3464547435
 20
374.022984101
 11
100.3464547435
 21
721.022984101
  0
LINE
  5
2E6
100
AcDbEntity
  8
0
100
AcDbLine
 62
7
  6
BYLAYER
 10
100.5964547435
 20
304.0229837576
 11
100.5964547435
 21
311.0229837576
  0
LINE
  5
2E7
100
AcDbEntity
  8
0
100
AcDbLine
 62
7
  6
BYLAYER
 10
101.5964547435
 20
721.022984101
 11
101.5964547435
 21
374.022984101
  0
LINE
  5
2E8
100
AcDbEntity
  8
0
100
AcDbLine
 62
7
  6
BYLAYER
 10
101.5964547435
 20
304.0229837576
 11
101.5964547435
 21
77.0226867119
  0
LINE
  5
2E9
100
AcDbEntity
  8
0
100
AcDbLine
 62
7
  6
BYLAYER
 10
102.0964547435
 20
77.0226867119
 11
102.0964547435
 21
304.0229837576
  0
LINE
  5
2EA
100
AcDbEntity
  8
0
100
AcDbLine
 62
7
  6
BYLAYER
 10
102.0964547435
 20
374.022984101
 11
102.0964547435
 21
721.022984101
  0
LINE
  5
2EB
100
AcDbEntity
  8
0
100
AcDbLine
 62
7
  6
BYLAYER
 10
102.5964547435
 20
77.0226867119
 11
102.5964547435
 21
304.0229837576
  0
LINE
  5
2EC
100
AcDbEntity
  8
0
100
AcDbLine
 62
7
  6
BYLAYER
 10
102.5964547435
 20
374.022984101
 11
102.5964547435
 21
721.022984101
  0
LINE
  5
2ED
100
AcDbEntity
  8
0
100
AcDbLine
 62
7
  6
BYLAYER
 10
104.4685804811
 20
721.022984101
 11
104.4685804811
 21
374.022984101
  0
LINE
  5
2EE
100
AcDbEntity
  8
0
100
AcDbLine
 62
7
  6
BYLAYER
 10
104.4685804811
 20
304.0229837576
 11
104.4685804811
 21
77.0226867119
  0
LINE
  5
2EF
100
AcDbEntity
  8
0
100
AcDbLine
 62
7
  6
BYLAYER
 10
104.7202143329
 20
77.0226867119
 11
104.7202143329
 21
304.0229837576
  0
LINE
  5
2F0
100
AcDbEntity
  8
0
100
AcDbLine
 62
7
  6
BYLAYER
 10
104.7202143329
 20
374.022984101
 11
104.7202143329
 21
721.022984101
  0
LINE
  5
2F1
100
AcDbEntity
  8
0
100
AcDbLine
 62
7
  6
BYLAYER
 10
481.6697746831
 20
690.6901836895
 11
481.0047008885
 21
690.3800546858
  0
LINE
  5
2F2
100
AcDbEntity
  8
0
100
AcDbLine
 62
7
  6
BYLAYER
 10
481.0270603031
 20
107.6059639553
 11
481.6921305116
 21
107.2958366239
  0
LINE
  5
2F3
100
AcDbEntity
  8
0
100
AcDbLine
 62
7
  6
BYLAYER
 10
109.1571149154
 20
726.522984101
 11
109.1571149154
 21
721.022984101
  0
LINE
  5
2F4
100
AcDbEntity
  8
0
100
AcDbLine
 62
7
  6
BYLAYER
 10
109.1571149153
 20
77.0226867119
 11
109.1571149153
 21
71.5226867119
  0
LINE
  5
2F5
100
AcDbEntity
  8
0
100
AcDbLine
 62
7
  6
BYLAYER
 10
109.2222716694
 20
721.022984101
 11
109.2222716694
 21
374.022984101
  0
LINE
  5
2F6
100
AcDbEntity
  8
0
100
AcDbLine
 62
7
  6
BYLAYER
 10
109.2222716694
 20
304.0229837576
 11
109.2222716694
 21
77.0226867119
  0
LINE
  5
2F7
100
AcDbEntity
  8
0
100
AcDbLine
 62
7
  6
BYLAYER
 10
109.3035615247
 20
374.022984101
 11
109.3035615247
 21
367.022984101
  0
LINE
  5
2F8
100
AcDbEntity
  8
0
100
AcDbLine
 62
7
  6
BYLAYER
 10
109.5964547435
 20
71.5226867119
 11
109.5964547435
 21
304.0229837576
  0
LINE
  5
2F9
100
AcDbEntity
  8
0
100
AcDbLine
 62
7
  6
BYLAYER
 10
109.5964547435
 20
367.022984101
 11
109.5964547436
 21
726.522984101
  0
LINE
  5
2FA
100
AcDbEntity
  8
0
100
AcDbLine
 62
7
  6
BYLAYER
 10
110.0964547436
 20
71.0226867119
 11
110.0964547435
 21
74.0226867119
  0
LINE
  5
2FB
100
AcDbEntity
  8
0
100
AcDbLine
 62
7
  6
BYLAYER
 10
110.0964547436
 20
724.022984101
 11
110.0964547436
 21
727.022984101
  0
LINE
  5
2FC
100
AcDbEntity
  8
0
100
AcDbLine
 62
7
  6
BYLAYER
 10
110.3035615247
 20
311.0229837576
 11
110.3035615247
 21
304.0229837576
  0
LINE
  5
2FD
100
AcDbEntity
  8
0
100
AcDbLine
 62
7
  6
BYLAYER
 10
110.5964547435
 20
304.0229837576
 11
110.5964547435
 21
311.0229837576
  0
LINE
  5
2FE
100
AcDbEntity
  8
0
100
AcDbLine
 62
7
  6
BYLAYER
 10
110.5964547435
 20
367.022984101
 11
110.5964547435
 21
374.022984101
  0
LINE
  5
2FF
100
AcDbEntity
  8
0
100
AcDbLine
 62
7
  6
BYLAYER
 10
110.8464547436
 20
727.022984101
 11
110.8464547436
 21
724.022984101
  0
LINE
  5
300
100
AcDbEntity
  8
0
100
AcDbLine
 62
7
  6
BYLAYER
 10
110.8464547435
 20
374.022984101
 11
110.8464547435
 21
367.022984101
  0
LINE
  5
301
100
AcDbEntity
  8
0
100
AcDbLine
 62
7
  6
BYLAYER
 10
110.8464547435
 20
74.0226867119
 11
110.8464547435
 21
71.0226867119
  0
LINE
  5
302
100
AcDbEntity
  8
0
100
AcDbLine
 62
7
  6
BYLAYER
 10
111.5964547435
 20
304.0229837576
 11
111.5964547435
 21
311.0229837576
  0
LINE
  5
303
100
AcDbEntity
  8
0
100
AcDbLine
 62
7
  6
BYLAYER
 10
111.8464547435
 20
311.0229837576
 11
111.8464547435
 21
304.0229837576
  0
LINE
  5
304
100
AcDbEntity
  8
0
100
AcDbLine
 62
7
  6
BYLAYER
 10
112.0964547435
 20
71.5226867119
 11
112.0964547435
 21
74.0226867119
  0
LINE
  5
305
100
AcDbEntity
  8
0
100
AcDbLine
 62
7
  6
BYLAYER
 10
112.0964547435
 20
74.0229837576
 11
112.0964547435
 21
304.0229837576
  0
LINE
  5
306
100
AcDbEntity
  8
0
100
AcDbLine
 62
7
  6
BYLAYER
 10
112.0964547435
 20
367.022984101
 11
112.0964547436
 21
726.522984101
  0
LINE
  5
307
100
AcDbEntity
  8
0
100
AcDbLine
 62
7
  6
BYLAYER
 10
113.0964547435
 20
304.0229837576
 11
113.0964547435
 21
311.0229837576
  0
LINE
  5
308
100
AcDbEntity
  8
0
100
AcDbLine
 62
7
  6
BYLAYER
 10
481.8388332837
 20
690.3276658421
 11
481.4225369655
 21
690.1335397438
  0
LINE
  5
309
100
AcDbEntity
  8
0
100
AcDbLine
 62
7
  6
BYLAYER
 10
481.4448941194
 20
107.8524793385
 11
481.8611891125
 21
107.6583544711
  0
LINE
  5
30A
100
AcDbEntity
  8
0
100
AcDbLine
 62
7
  6
BYLAYER
 10
462.5964547435
 20
727.0165289744
 11
462.0964547435
 21
726.5165289744
  0
LINE
  5
30B
100
AcDbEntity
  8
0
100
AcDbLine
 62
7
  6
BYLAYER
 10
465.0964547435
 20
727.0165289744
 11
464.5964547435
 21
726.5165289744
  0
LINE
  5
30C
100
AcDbEntity
  8
0
100
AcDbLine
 62
7
  6
BYLAYER
 10
86.0964547435
 20
293.1725513283
 11
83.0964547435
 21
293.1725513283
  0
LINE
  5
30D
100
AcDbEntity
  8
0
100
AcDbLine
 62
7
  6
BYLAYER
 10
491.0964547435
 20
293.2056628594
 11
488.0964547435
 21
293.2056628594
  0
LINE
  5
30E
100
AcDbEntity
  8
0
100
AcDbLine
 62
7
  6
BYLAYER
 10
86.8859284277
 20
295.1725513283
 11
83.0964547435
 21
295.1725513283
  0
LINE
  5
30F
100
AcDbEntity
  8
0
100
AcDbLine
 62
7
  6
BYLAYER
 10
487.3069810593
 20
295.2056628594
 11
491.0964547435
 21
295.2056628594
  0
LINE
  5
310
100
AcDbEntity
  8
0
100
AcDbLine
 62
7
  6
BYLAYER
 10
462.0964547435
 20
71.5162315853
 11
462.5964547435
 21
71.0162315853
  0
LINE
  5
311
100
AcDbEntity
  8
0
100
AcDbLine
 62
7
  6
BYLAYER
 10
464.5964547435
 20
71.5162315853
 11
465.0964547435
 21
71.0162315853
  0
LINE
  5
312
100
AcDbEntity
  8
0
100
AcDbLine
 62
7
  6
BYLAYER
 10
475.0964547435
 20
727.0165289744
 11
474.5964547435
 21
726.5165289744
  0
LINE
  5
313
100
AcDbEntity
  8
0
100
AcDbLine
 62
7
  6
BYLAYER
 10
491.5964547435
 20
727.0165289744
 11
491.0964547435
 21
726.5165289744
  0
LINE
  5
314
100
AcDbEntity
  8
0
100
AcDbLine
 62
7
  6
BYLAYER
 10
481.4225454804
 20
690.1335476775
 11
481.2981415987
 21
690.0175266796
  0
LINE
  5
315
100
AcDbEntity
  8
0
100
AcDbLine
 62
7
  6
BYLAYER
 10
83.0964547435
 20
299.3830776441
 11
86.8859284277
 21
299.3830776441
  0
LINE
  5
316
100
AcDbEntity
  8
0
100
AcDbLine
 62
7
  6
BYLAYER
 10
87.0964547435
 20
299.4090822919
 11
83.0964547435
 21
299.4090822919
  0
LINE
  5
317
100
AcDbEntity
  8
0
100
AcDbLine
 62
7
  6
BYLAYER
 10
491.0964547435
 20
299.4162390763
 11
487.0964547435
 21
299.4162390763
  0
LINE
  5
318
100
AcDbEntity
  8
0
100
AcDbLine
 62
7
  6
BYLAYER
 10
83.0964547435
 20
301.0090822919
 11
87.0964547435
 21
301.0090822919
  0
LINE
  5
319
100
AcDbEntity
  8
0
100
AcDbLine
 62
7
  6
BYLAYER
 10
487.0964547435
 20
301.0162390763
 11
491.0964547435
 21
301.0162390763
  0
LINE
  5
31A
100
AcDbEntity
  8
0
100
AcDbLine
 62
7
  6
BYLAYER
 10
512.0964547435
 20
304.0162315853
 11
462.0964547435
 21
304.0162315853
  0
LINE
  5
31B
100
AcDbEntity
  8
0
100
AcDbLine
 62
7
  6
BYLAYER
 10
62.0964547435
 20
304.0229837576
 11
113.0964547435
 21
304.0229837576
  0
LINE
  5
31C
100
AcDbEntity
  8
0
100
AcDbLine
 62
7
  6
BYLAYER
 10
462.0964547435
 20
311.0162315853
 11
512.0964547435
 21
311.0162315853
  0
LINE
  5
31D
100
AcDbEntity
  8
0
100
AcDbLine
 62
7
  6
BYLAYER
 10
63.0964547435
 20
311.0229837576
 11
113.0964547435
 21
311.0229837576
  0
LINE
  5
31E
100
AcDbEntity
  8
0
100
AcDbLine
 62
7
  6
BYLAYER
 10
86.0964547435
 20
311.0664532134
 11
76.0964547435
 21
311.0664532134
  0
LINE
  5
31F
100
AcDbEntity
  8
0
100
AcDbLine
 62
7
  6
BYLAYER
 10
488.0964547435
 20
311.2162315853
 11
498.0964547435
 21
311.2162315853
  0
LINE
  5
320
100
AcDbEntity
  8
0
100
AcDbLine
 62
7
  6
BYLAYER
 10
76.0964547435
 20
312.5664532134
 11
86.0964547435
 21
312.5664532134
  0
LINE
  5
321
100
AcDbEntity
  8
0
100
AcDbLine
 62
7
  6
BYLAYER
 10
498.0964547435
 20
312.7162315853
 11
488.0964547435
 21
312.7162315853
  0
LINE
  5
322
100
AcDbEntity
  8
0
100
AcDbLine
 62
7
  6
BYLAYER
 10
481.3204909674
 20
107.9684996525
 11
481.4449013089
 21
107.8524726395
  0
LINE
  5
323
100
AcDbEntity
  8
0
100
AcDbLine
 62
7
  6
BYLAYER
 10
474.5964547435
 20
71.5162315853
 11
475.0964547435
 21
71.0162315853
  0
LINE
  5
324
100
AcDbEntity
  8
0
100
AcDbLine
 62
7
  6
BYLAYER
 10
491.0964547435
 20
71.5162315853
 11
491.5964547435
 21
71.0162315853
  0
LINE
  5
325
100
AcDbEntity
  8
0
100
AcDbLine
 62
7
  6
BYLAYER
 10
92.3540868626
 20
134.4243542391
 11
92.5231348039
 21
134.7868787191
  0
LINE
  5
326
100
AcDbEntity
  8
0
100
AcDbLine
 62
7
  6
BYLAYER
 10
92.9394113645
 20
134.5927657709
 11
92.7703634232
 21
134.230241291
  0
LINE
  5
327
100
AcDbEntity
  8
0
100
AcDbLine
 62
7
  6
BYLAYER
 10
92.5007789754
 20
663.3055323402
 11
92.3317309168
 21
663.668057072
  0
LINE
  5
328
100
AcDbEntity
  8
0
100
AcDbLine
 62
7
  6
BYLAYER
 10
92.7480076013
 20
663.8621700778
 11
92.9170556599
 21
663.4996453461
  0
LINE
  5
329
100
AcDbEntity
  8
0
100
AcDbLine
 62
7
  6
BYLAYER
 10
465.3893479623
 20
727.0165289744
 11
465.0357945717
 21
726.5165289745
  0
LINE
  5
32A
100
AcDbEntity
  8
0
100
AcDbLine
 62
7
  6
BYLAYER
 10
474.1571149153
 20
726.5165289744
 11
474.5106683058
 21
727.0165289744
  0
LINE
  5
32B
100
AcDbEntity
  8
0
100
AcDbLine
 62
7
  6
BYLAYER
 10
475.3893479623
 20
727.0165289744
 11
475.0357945717
 21
726.5165289744
  0
LINE
  5
32C
100
AcDbEntity
  8
0
100
AcDbLine
 62
7
  6
BYLAYER
 10
484.1571149153
 20
726.5165289744
 11
484.5106683059
 21
727.0165289744
  0
LINE
  5
32D
100
AcDbEntity
  8
0
100
AcDbLine
 62
7
  6
BYLAYER
 10
498.0964547435
 20
365.1821689815
 11
488.0964547435
 21
365.1821689815
  0
LINE
  5
32E
100
AcDbEntity
  8
0
100
AcDbLine
 62
7
  6
BYLAYER
 10
76.0964547435
 20
365.522984101
 11
86.0964547435
 21
365.522984101
  0
LINE
  5
32F
100
AcDbEntity
  8
0
100
AcDbLine
 62
7
  6
BYLAYER
 10
488.0964547435
 20
366.6821689815
 11
498.0964547435
 21
366.6821689815
  0
LINE
  5
330
100
AcDbEntity
  8
0
100
AcDbLine
 62
7
  6
BYLAYER
 10
512.0964547435
 20
367.0162319287
 11
462.0964547435
 21
367.0162319287
  0
LINE
  5
331
100
AcDbEntity
  8
0
100
AcDbLine
 62
7
  6
BYLAYER
 10
112.0964547435
 20
367.022984101
 11
62.0964547435
 21
367.022984101
  0
LINE
  5
332
100
AcDbEntity
  8
0
100
AcDbLine
 62
7
  6
BYLAYER
 10
462.0964547435
 20
374.0162319287
 11
512.0964547435
 21
374.0162319287
  0
LINE
  5
333
100
AcDbEntity
  8
0
100
AcDbLine
 62
7
  6
BYLAYER
 10
62.0964547435
 20
374.022984101
 11
112.0964547435
 21
374.022984101
  0
LINE
  5
334
100
AcDbEntity
  8
0
100
AcDbLine
 62
7
  6
BYLAYER
 10
465.0357945717
 20
71.5162315853
 11
465.3893479623
 21
71.0162315853
  0
LINE
  5
335
100
AcDbEntity
  8
0
100
AcDbLine
 62
7
  6
BYLAYER
 10
474.5106683058
 20
71.0162315853
 11
474.1571149152
 21
71.5162315853
  0
LINE
  5
336
100
AcDbEntity
  8
0
100
AcDbLine
 62
7
  6
BYLAYER
 10
475.0357945717
 20
71.5162315853
 11
475.3893479623
 21
71.0162315853
  0
LINE
  5
337
100
AcDbEntity
  8
0
100
AcDbLine
 62
7
  6
BYLAYER
 10
484.5106683058
 20
71.0162315853
 11
484.1571149152
 21
71.5162315853
  0
LINE
  5
338
100
AcDbEntity
  8
0
100
AcDbLine
 62
7
  6
BYLAYER
 10
91.9203640189
 20
113.1212317459
 11
91.7011861525
 21
112.7866264459
  0
LINE
  5
339
100
AcDbEntity
  8
0
100
AcDbLine
 62
7
  6
BYLAYER
 10
87.0964547435
 20
377.02297661
 11
83.0964547435
 21
377.02297661
  0
LINE
  5
33A
100
AcDbEntity
  8
0
100
AcDbLine
 62
7
  6
BYLAYER
 10
491.0964547435
 20
377.0301333945
 11
487.0964547435
 21
377.0301333945
  0
LINE
  5
33B
100
AcDbEntity
  8
0
100
AcDbLine
 62
7
  6
BYLAYER
 10
83.0964547435
 20
378.62297661
 11
87.0964547435
 21
378.62297661
  0
LINE
  5
33C
100
AcDbEntity
  8
0
100
AcDbLine
 62
7
  6
BYLAYER
 10
487.0964547435
 20
378.6301333945
 11
491.0964547435
 21
378.6301333945
  0
LINE
  5
33D
100
AcDbEntity
  8
0
100
AcDbLine
 62
7
  6
BYLAYER
 10
491.0964547435
 20
378.6561380422
 11
487.3069810593
 21
378.6561380422
  0
LINE
  5
33E
100
AcDbEntity
  8
0
100
AcDbLine
 62
7
  6
BYLAYER
 10
83.0964547435
 20
382.8335528269
 11
86.8859284277
 21
382.8335528269
  0
LINE
  5
33F
100
AcDbEntity
  8
0
100
AcDbLine
 62
7
  6
BYLAYER
 10
487.3069810593
 20
382.866664358
 11
491.0964547435
 21
382.866664358
  0
LINE
  5
340
100
AcDbEntity
  8
0
100
AcDbLine
 62
7
  6
BYLAYER
 10
83.0964547435
 20
384.8335528269
 11
86.0964547435
 21
384.8335528269
  0
LINE
  5
341
100
AcDbEntity
  8
0
100
AcDbLine
 62
7
  6
BYLAYER
 10
488.0964547435
 20
384.866664358
 11
491.0964547435
 21
384.866664358
  0
LINE
  5
342
100
AcDbEntity
  8
0
100
AcDbLine
 62
7
  6
BYLAYER
 10
91.6788300963
 20
685.3057844642
 11
91.8980079253
 21
684.9711791601
  0
LINE
  5
343
100
AcDbEntity
  8
0
100
AcDbLine
 62
7
  6
BYLAYER
 10
482.2725454682
 20
684.9179839404
 11
482.4917233345
 21
685.2525892404
  0
LINE
  5
344
100
AcDbEntity
  8
0
100
AcDbLine
 62
7
  6
BYLAYER
 10
89.6822411812
 20
71.0226867119
 11
90.0357945718
 21
71.5226867119
  0
LINE
  5
345
100
AcDbEntity
  8
0
100
AcDbLine
 62
7
  6
BYLAYER
 10
90.0357945718
 20
726.522984101
 11
89.6822411812
 21
727.022984101
  0
LINE
  5
346
100
AcDbEntity
  8
0
100
AcDbLine
 62
7
  6
BYLAYER
 10
482.5140793907
 20
112.7334312221
 11
482.2949015617
 21
113.0680365262
  0
LINE
  5
347
100
AcDbEntity
  8
0
100
AcDbLine
 62
7
  6
BYLAYER
 10
99.1571149153
 20
71.5226867119
 11
98.8035615247
 21
71.0226867119
  0
LINE
  5
348
100
AcDbEntity
  8
0
100
AcDbLine
 62
7
  6
BYLAYER
 10
99.6822411812
 20
71.0226867119
 11
100.0357945718
 21
71.5226867119
  0
LINE
  5
349
100
AcDbEntity
  8
0
100
AcDbLine
 62
7
  6
BYLAYER
 10
109.1571149153
 20
71.5226867119
 11
108.8035615247
 21
71.0226867119
  0
LINE
  5
34A
100
AcDbEntity
  8
0
100
AcDbLine
 62
7
  6
BYLAYER
 10
98.8035615248
 20
727.022984101
 11
99.1571149154
 21
726.522984101
  0
LINE
  5
34B
100
AcDbEntity
  8
0
100
AcDbLine
 62
7
  6
BYLAYER
 10
100.0357945718
 20
726.522984101
 11
99.6822411813
 21
727.022984101
  0
LINE
  5
34C
100
AcDbEntity
  8
0
100
AcDbLine
 62
7
  6
BYLAYER
 10
108.8035615248
 20
727.022984101
 11
109.1571149154
 21
726.522984101
  0
LINE
  5
34D
100
AcDbEntity
  8
0
100
AcDbLine
 62
7
  6
BYLAYER
 10
481.2534981226
 20
663.4464499154
 11
481.4225460638
 21
663.8089743953
  0
LINE
  5
34E
100
AcDbEntity
  8
0
100
AcDbLine
 62
7
  6
BYLAYER
 10
481.8388226244
 20
663.6148614472
 11
481.6697746832
 21
663.2523369673
  0
LINE
  5
34F
100
AcDbEntity
  8
0
100
AcDbLine
 62
7
  6
BYLAYER
 10
92.7703640066
 20
107.9056680088
 11
92.8947678884
 21
108.0216890068
  0
LINE
  5
350
100
AcDbEntity
  8
0
100
AcDbLine
 62
7
  6
BYLAYER
 10
92.8724185192
 20
690.0707160343
 11
92.7480081781
 21
690.1867430469
  0
LINE
  5
351
100
AcDbEntity
  8
0
100
AcDbLine
 62
7
  6
BYLAYER
 10
481.4449018858
 20
134.1770456085
 11
481.2758538271
 21
134.5395703402
  0
LINE
  5
352
100
AcDbEntity
  8
0
100
AcDbLine
 62
7
  6
BYLAYER
 10
481.6921305116
 20
134.7336833461
 11
481.8611785703
 21
134.3711586144
  0
LINE
  5
353
100
AcDbEntity
  8
0
100
AcDbLine
 62
7
  6
BYLAYER
 10
82.5964547435
 20
71.0226867119
 11
83.0964547435
 21
71.5226867119
  0
LINE
  5
354
100
AcDbEntity
  8
0
100
AcDbLine
 62
7
  6
BYLAYER
 10
99.0964547435
 20
71.0226867119
 11
99.5964547435
 21
71.5226867119
  0
LINE
  5
355
100
AcDbEntity
  8
0
100
AcDbLine
 62
7
  6
BYLAYER
 10
109.0964547435
 20
71.0226867119
 11
109.5964547435
 21
71.5226867119
  0
LINE
  5
356
100
AcDbEntity
  8
0
100
AcDbLine
 62
7
  6
BYLAYER
 10
111.5964547435
 20
71.0226867119
 11
112.0964547435
 21
71.5226867119
  0
LINE
  5
357
100
AcDbEntity
  8
0
100
AcDbLine
 62
7
  6
BYLAYER
 10
83.0964547436
 20
726.522984101
 11
82.5964547436
 21
727.022984101
  0
LINE
  5
358
100
AcDbEntity
  8
0
100
AcDbLine
 62
7
  6
BYLAYER
 10
99.5964547436
 20
726.522984101
 11
99.0964547436
 21
727.022984101
  0
LINE
  5
359
100
AcDbEntity
  8
0
100
AcDbLine
 62
7
  6
BYLAYER
 10
109.5964547436
 20
726.522984101
 11
109.0964547436
 21
727.022984101
  0
LINE
  5
35A
100
AcDbEntity
  8
0
100
AcDbLine
 62
7
  6
BYLAYER
 10
112.0964547436
 20
726.522984101
 11
111.5964547436
 21
727.022984101
  0
LINE
  5
35B
100
AcDbEntity
  8
0
100
AcDbLine
 62
7
  6
BYLAYER
 10
462.0964547435
 20
726.5165289744
 11
462.0964547435
 21
724.0165289744
  0
LINE
  5
35C
100
AcDbEntity
  8
0
100
AcDbLine
 62
7
  6
BYLAYER
 10
462.0964547435
 20
724.0162319287
 11
462.0964547435
 21
367.0162319287
  0
LINE
  5
35D
100
AcDbEntity
  8
0
100
AcDbLine
 62
7
  6
BYLAYER
 10
462.0964547435
 20
311.0162315853
 11
462.0964547435
 21
71.5162315853
  0
LINE
  5
35E
100
AcDbEntity
  8
0
100
AcDbLine
 62
7
  6
BYLAYER
 10
463.3464547435
 20
71.0162315853
 11
463.3464547435
 21
74.0162315853
  0
LINE
  5
35F
100
AcDbEntity
  8
0
100
AcDbLine
 62
7
  6
BYLAYER
 10
463.3464547435
 20
304.0162315853
 11
463.3464547435
 21
311.0162315853
  0
LINE
  5
360
100
AcDbEntity
  8
0
100
AcDbLine
 62
7
  6
BYLAYER
 10
463.3464547435
 20
367.0162319287
 11
463.3464547435
 21
374.0162319287
  0
LINE
  5
361
100
AcDbEntity
  8
0
100
AcDbLine
 62
7
  6
BYLAYER
 10
463.3464547435
 20
724.0165289744
 11
463.3464547435
 21
727.0165289745
  0
LINE
  5
362
100
AcDbEntity
  8
0
100
AcDbLine
 62
7
  6
BYLAYER
 10
463.5964547435
 20
374.0162319287
 11
463.5964547435
 21
367.0162319287
  0
LINE
  5
363
100
AcDbEntity
  8
0
100
AcDbLine
 62
7
  6
BYLAYER
 10
463.5964547435
 20
311.0162315853
 11
463.5964547435
 21
304.0162315853
  0
LINE
  5
364
100
AcDbEntity
  8
0
100
AcDbLine
 62
7
  6
BYLAYER
 10
464.0964547435
 20
727.0165289744
 11
464.0964547435
 21
724.0165289744
  0
LINE
  5
365
100
AcDbEntity
  8
0
100
AcDbLine
 62
7
  6
BYLAYER
 10
464.0964547435
 20
74.0162315853
 11
464.0964547434
 21
71.0162315853
  0
LINE
  5
366
100
AcDbEntity
  8
0
100
AcDbLine
 62
7
  6
BYLAYER
 10
464.5964547435
 20
71.5162315853
 11
464.5964547435
 21
311.0162315853
  0
LINE
  5
367
100
AcDbEntity
  8
0
100
AcDbLine
 62
7
  6
BYLAYER
 10
464.5964547435
 20
367.0162319287
 11
464.5964547435
 21
726.5165289744
  0
LINE
  5
368
100
AcDbEntity
  8
0
100
AcDbLine
 62
7
  6
BYLAYER
 10
464.8893479623
 20
304.0162315853
 11
464.8893479623
 21
311.0162315853
  0
LINE
  5
369
100
AcDbEntity
  8
0
100
AcDbLine
 62
7
  6
BYLAYER
 10
464.8893479623
 20
367.0162319287
 11
464.8893479623
 21
374.0162319287
  0
LINE
  5
36A
100
AcDbEntity
  8
0
100
AcDbLine
 62
7
  6
BYLAYER
 10
464.9706378176
 20
77.0162315853
 11
464.9706378176
 21
304.0162315853
  0
LINE
  5
36B
100
AcDbEntity
  8
0
100
AcDbLine
 62
7
  6
BYLAYER
 10
464.9706378176
 20
374.0162319287
 11
464.9706378176
 21
721.0165289744
  0
LINE
  5
36C
100
AcDbEntity
  8
0
100
AcDbLine
 62
7
  6
BYLAYER
 10
465.0357945717
 20
71.5162315853
 11
465.0357945717
 21
77.0162315853
  0
LINE
  5
36D
100
AcDbEntity
  8
0
100
AcDbLine
 62
7
  6
BYLAYER
 10
465.0357945717
 20
721.0165289744
 11
465.0357945717
 21
726.5165289744
  0
LINE
  5
36E
100
AcDbEntity
  8
0
100
AcDbLine
 62
7
  6
BYLAYER
 10
469.4726951542
 20
721.0165289744
 11
469.4726951542
 21
374.0162319287
  0
LINE
  5
36F
100
AcDbEntity
  8
0
100
AcDbLine
 62
7
  6
BYLAYER
 10
469.4726951542
 20
304.0162315853
 11
469.4726951542
 21
77.0162315853
  0
LINE
  5
370
100
AcDbEntity
  8
0
100
AcDbLine
 62
7
  6
BYLAYER
 10
469.7243290059
 20
77.0162315853
 11
469.7243290059
 21
304.0162315853
  0
LINE
  5
371
100
AcDbEntity
  8
0
100
AcDbLine
 62
7
  6
BYLAYER
 10
469.7243290059
 20
374.0162319287
 11
469.7243290059
 21
721.0165289744
  0
LINE
  5
372
100
AcDbEntity
  8
0
100
AcDbLine
 62
7
  6
BYLAYER
 10
471.5964547435
 20
721.0165289744
 11
471.5964547435
 21
374.0162319287
  0
LINE
  5
373
100
AcDbEntity
  8
0
100
AcDbLine
 62
7
  6
BYLAYER
 10
471.5964547435
 20
304.0162315853
 11
471.5964547435
 21
77.0162315853
  0
LINE
  5
374
100
AcDbEntity
  8
0
100
AcDbLine
 62
7
  6
BYLAYER
 10
472.0964547435
 20
721.0165289744
 11
472.0964547435
 21
374.0162319287
  0
LINE
  5
375
100
AcDbEntity
  8
0
100
AcDbLine
 62
7
  6
BYLAYER
 10
472.0964547435
 20
304.0162315853
 11
472.0964547435
 21
77.0162315853
  0
LINE
  5
376
100
AcDbEntity
  8
0
100
AcDbLine
 62
7
  6
BYLAYER
 10
472.5964547435
 20
77.0162315853
 11
472.5964547435
 21
304.0162315853
  0
LINE
  5
377
100
AcDbEntity
  8
0
100
AcDbLine
 62
7
  6
BYLAYER
 10
472.5964547435
 20
374.0162319287
 11
472.5964547435
 21
721.0165289744
  0
LINE
  5
378
100
AcDbEntity
  8
0
100
AcDbLine
 62
7
  6
BYLAYER
 10
473.8464547435
 20
721.0165289744
 11
473.8464547435
 21
374.0162319287
  0
LINE
  5
379
100
AcDbEntity
  8
0
100
AcDbLine
 62
7
  6
BYLAYER
 10
473.8464547435
 20
304.0162315853
 11
473.8464547435
 21
77.0162315853
  0
LINE
  5
37A
100
AcDbEntity
  8
0
100
AcDbLine
 62
7
  6
BYLAYER
 10
474.1571149153
 20
726.5165289744
 11
474.1571149153
 21
721.0165289744
  0
LINE
  5
37B
100
AcDbEntity
  8
0
100
AcDbLine
 62
7
  6
BYLAYER
 10
474.1571149153
 20
77.0162315853
 11
474.1571149152
 21
71.5162315853
  0
LINE
  5
37C
100
AcDbEntity
  8
0
100
AcDbLine
 62
7
  6
BYLAYER
 10
474.3464547435
 20
77.0162315853
 11
474.3464547435
 21
304.0162315853
  0
LINE
  5
37D
100
AcDbEntity
  8
0
100
AcDbLine
 62
7
  6
BYLAYER
 10
474.3464547435
 20
374.0162319287
 11
474.3464547435
 21
721.0165289744
  0
LINE
  5
37E
100
AcDbEntity
  8
0
100
AcDbLine
 62
7
  6
BYLAYER
 10
474.5964547435
 20
726.5165289744
 11
474.5964547435
 21
721.0165289744
  0
LINE
  5
37F
100
AcDbEntity
  8
0
100
AcDbLine
 62
7
  6
BYLAYER
 10
474.5964547435
 20
374.0162319287
 11
474.5964547435
 21
367.0162319287
  0
LINE
  5
380
100
AcDbEntity
  8
0
100
AcDbLine
 62
7
  6
BYLAYER
 10
474.5964547435
 20
311.0162315853
 11
474.5964547435
 21
304.0162315853
  0
LINE
  5
381
100
AcDbEntity
  8
0
100
AcDbLine
 62
7
  6
BYLAYER
 10
474.5964547435
 20
77.0162315853
 11
474.5964547435
 21
71.5162315853
  0
LINE
  5
382
100
AcDbEntity
  8
0
100
AcDbLine
 62
7
  6
BYLAYER
 10
474.8893479623
 20
304.0162315853
 11
474.8893479623
 21
311.0162315853
  0
LINE
  5
383
100
AcDbEntity
  8
0
100
AcDbLine
 62
7
  6
BYLAYER
 10
474.8893479623
 20
367.0162319287
 11
474.8893479623
 21
374.0162319287
  0
LINE
  5
384
100
AcDbEntity
  8
0
100
AcDbLine
 62
7
  6
BYLAYER
 10
475.0357945717
 20
71.5162315853
 11
475.0357945717
 21
77.0162315853
  0
LINE
  5
385
100
AcDbEntity
  8
0
100
AcDbLine
 62
7
  6
BYLAYER
 10
475.0357945717
 20
721.0165289744
 11
475.0357945717
 21
726.5165289744
  0
LINE
  5
386
100
AcDbEntity
  8
0
100
AcDbLine
 62
7
  6
BYLAYER
 10
475.8464547435
 20
721.0165289744
 11
475.8464547435
 21
374.0162319287
  0
LINE
  5
387
100
AcDbEntity
  8
0
100
AcDbLine
 62
7
  6
BYLAYER
 10
475.8464547435
 20
304.0162315853
 11
475.8464547435
 21
77.0162315853
  0
LINE
  5
388
100
AcDbEntity
  8
0
100
AcDbLine
 62
7
  6
BYLAYER
 10
92.3540762033
 20
107.7115498442
 11
92.7703725216
 21
107.9056759426
  0
LINE
  5
389
100
AcDbEntity
  8
0
100
AcDbLine
 62
7
  6
BYLAYER
 10
92.5231348039
 20
107.3490319968
 11
93.1882085986
 21
107.6591610005
  0
LINE
  5
38A
100
AcDbEntity
  8
0
100
AcDbLine
 62
7
  6
BYLAYER
 10
92.7480153677
 20
690.1867363478
 11
92.3317203746
 21
690.3808612152
  0
LINE
  5
38B
100
AcDbEntity
  8
0
100
AcDbLine
 62
7
  6
BYLAYER
 10
93.165849184
 20
690.433251731
 11
92.5007789755
 21
690.7433790624
  0
LINE
  5
38C
100
AcDbEntity
  8
0
100
AcDbLine
 62
7
  6
BYLAYER
 10
476.3464547435
 20
77.0162315853
 11
476.3464547435
 21
304.0162315853
  0
LINE
  5
38D
100
AcDbEntity
  8
0
100
AcDbLine
 62
7
  6
BYLAYER
 10
476.3464547435
 20
374.0162319287
 11
476.3464547435
 21
721.0165289744
  0
LINE
  5
38E
100
AcDbEntity
  8
0
100
AcDbLine
 62
7
  6
BYLAYER
 10
477.0964547435
 20
721.0165289744
 11
477.0964547435
 21
374.0162319287
  0
LINE
  5
38F
100
AcDbEntity
  8
0
100
AcDbLine
 62
7
  6
BYLAYER
 10
477.0964547435
 20
304.0162315853
 11
477.0964547435
 21
77.0162315853
  0
LINE
  5
390
100
AcDbEntity
  8
0
100
AcDbLine
 62
7
  6
BYLAYER
 10
477.5964547435
 20
77.0162315853
 11
477.5964547435
 21
304.0162315853
  0
LINE
  5
391
100
AcDbEntity
  8
0
100
AcDbLine
 62
7
  6
BYLAYER
 10
477.5964547435
 20
374.0162319287
 11
477.5964547435
 21
721.0165289744
  0
LINE
  5
392
100
AcDbEntity
  8
0
100
AcDbLine
 62
7
  6
BYLAYER
 10
478.0964547435
 20
77.0162315853
 11
478.0964547435
 21
304.0162315853
  0
LINE
  5
393
100
AcDbEntity
  8
0
100
AcDbLine
 62
7
  6
BYLAYER
 10
478.0964547435
 20
374.0162319287
 11
478.0964547435
 21
721.0165289744
  0
LINE
  5
394
100
AcDbEntity
  8
0
100
AcDbLine
 62
7
  6
BYLAYER
 10
479.0964547435
 20
721.0165289744
 11
479.0964547435
 21
374.0162319287
  0
LINE
  5
395
100
AcDbEntity
  8
0
100
AcDbLine
 62
7
  6
BYLAYER
 10
479.0964547435
 20
304.0162315853
 11
479.0964547435
 21
77.0162315853
  0
LINE
  5
396
100
AcDbEntity
  8
0
100
AcDbLine
 62
7
  6
BYLAYER
 10
479.2725454804
 20
687.6611265714
 11
479.2725454804
 21
666.2813940854
  0
LINE
  5
397
100
AcDbEntity
  8
0
100
AcDbLine
 62
7
  6
BYLAYER
 10
479.2949013089
 20
131.704626228
 11
479.2949013089
 21
110.324893742
  0
LINE
  5
398
100
AcDbEntity
  8
0
100
AcDbLine
 62
7
  6
BYLAYER
 10
479.5964547435
 20
77.0162315853
 11
479.5964547435
 21
109.0423126309
  0
LINE
  5
399
100
AcDbEntity
  8
0
100
AcDbLine
 62
7
  6
BYLAYER
 10
479.5964547435
 20
132.9872081628
 11
479.5964547435
 21
304.0162315853
  0
LINE
  5
39A
100
AcDbEntity
  8
0
100
AcDbLine
 62
7
  6
BYLAYER
 10
479.5964547435
 20
374.0162319287
 11
479.5964547435
 21
664.9545551711
  0
LINE
  5
39B
100
AcDbEntity
  8
0
100
AcDbLine
 62
7
  6
BYLAYER
 10
479.5964547435
 20
688.9879637277
 11
479.5964547435
 21
721.0165289744
  0
LINE
  5
39C
100
AcDbEntity
  8
0
100
AcDbLine
 62
7
  6
BYLAYER
 10
480.3686993266
 20
689.9333131985
 11
480.3686993266
 21
688.0189732275
  0
LINE
  5
39D
100
AcDbEntity
  8
0
100
AcDbLine
 62
7
  6
BYLAYER
 10
480.3686993266
 20
665.9235474462
 11
480.3686993266
 21
664.0091174352
  0
LINE
  5
39E
100
AcDbEntity
  8
0
100
AcDbLine
 62
7
  6
BYLAYER
 10
480.3910551551
 20
133.9768128551
 11
480.3910551551
 21
132.0624728841
  0
LINE
  5
39F
100
AcDbEntity
  8
0
100
AcDbLine
 62
7
  6
BYLAYER
 10
480.3910551551
 20
109.9670471028
 11
480.3910551551
 21
108.0526170918
  0
LINE
  5
3A0
100
AcDbEntity
  8
0
100
AcDbLine
 62
7
  6
BYLAYER
 10
481.0225454804
 20
689.6302671129
 11
481.0225454804
 21
687.9713416994
  0
LINE
  5
3A1
100
AcDbEntity
  8
0
100
AcDbLine
 62
7
  6
BYLAYER
 10
481.0225454804
 20
665.9712533165
 11
481.0225454804
 21
664.3122515042
  0
LINE
  5
3A2
100
AcDbEntity
  8
0
100
AcDbLine
 62
7
  6
BYLAYER
 10
481.0449013089
 20
133.6737667695
 11
481.0449013089
 21
132.014841356
  0
LINE
  5
3A3
100
AcDbEntity
  8
0
100
AcDbLine
 62
7
  6
BYLAYER
 10
481.0449013089
 20
110.0147529731
 11
481.0449013089
 21
108.3557511608
  0
LINE
  5
3A4
100
AcDbEntity
  8
0
100
AcDbLine
 62
7
  6
BYLAYER
 10
481.4225382909
 20
663.8089796819
 11
481.4225454804
 21
665.9712567409
  0
LINE
  5
3A5
100
AcDbEntity
  8
0
100
AcDbLine
 62
7
  6
BYLAYER
 10
481.4225454804
 20
687.9712641968
 11
481.4225369655
 21
690.1335397438
  0
LINE
  5
3A6
100
AcDbEntity
  8
0
100
AcDbLine
 62
7
  6
BYLAYER
 10
481.4449013089
 20
132.0147638534
 11
481.4448927939
 21
134.1770394004
  0
LINE
  5
3A7
100
AcDbEntity
  8
0
100
AcDbLine
 62
7
  6
BYLAYER
 10
481.4448941194
 20
107.8524793385
 11
481.4449013089
 21
110.0147563976
  0
LINE
  5
3A8
100
AcDbEntity
  8
0
100
AcDbLine
 62
7
  6
BYLAYER
 10
482.2725787966
 20
684.9179646508
 11
482.2725778
 21
669.0245617024
  0
LINE
  5
3A9
100
AcDbEntity
  8
0
100
AcDbLine
 62
7
  6
BYLAYER
 10
482.294934625
 20
128.9614643074
 11
482.2949336285
 21
113.068061359
  0
LINE
  5
3AA
100
AcDbEntity
  8
0
100
AcDbLine
 62
7
  6
BYLAYER
 10
482.8049593117
 20
688.0071810746
 11
482.8049593117
 21
687.935339582
  0
LINE
  5
3AB
100
AcDbEntity
  8
0
100
AcDbLine
 62
7
  6
BYLAYER
 10
482.8049593117
 20
666.0071810746
 11
482.8049593117
 21
665.935339582
  0
LINE
  5
3AC
100
AcDbEntity
  8
0
100
AcDbLine
 62
7
  6
BYLAYER
 10
482.8273151401
 20
132.0506807312
 11
482.8273151401
 21
131.9788392386
  0
LINE
  5
3AD
100
AcDbEntity
  8
0
100
AcDbLine
 62
7
  6
BYLAYER
 10
482.8273151401
 20
110.0506807312
 11
482.8273151401
 21
109.9788392386
  0
LINE
  5
3AE
100
AcDbEntity
  8
0
100
AcDbLine
 62
7
  6
BYLAYER
 10
482.9376294684
 20
662.9712603284
 11
482.9376294684
 21
663.3712603284
  0
LINE
  5
3AF
100
AcDbEntity
  8
0
100
AcDbLine
 62
7
  6
BYLAYER
 10
482.9376294684
 20
690.5712603284
 11
482.9376294684
 21
690.9712603284
  0
LINE
  5
3B0
100
AcDbEntity
  8
0
100
AcDbLine
 62
7
  6
BYLAYER
 10
482.9599852968
 20
107.014759985
 11
482.9599852968
 21
107.414759985
  0
LINE
  5
3B1
100
AcDbEntity
  8
0
100
AcDbLine
 62
7
  6
BYLAYER
 10
482.9599852968
 20
134.614759985
 11
482.9599852968
 21
135.014759985
  0
LINE
  5
3B2
100
AcDbEntity
  8
0
100
AcDbLine
 62
7
  6
BYLAYER
 10
483.9866247341
 20
689.1586693618
 11
483.9866247341
 21
688.6738477413
  0
LINE
  5
3B3
100
AcDbEntity
  8
0
100
AcDbLine
 62
7
  6
BYLAYER
 10
483.9866247341
 20
687.2686729153
 11
483.9866247341
 21
686.7838512948
  0
LINE
  5
3B4
100
AcDbEntity
  8
0
100
AcDbLine
 62
7
  6
BYLAYER
 10
483.9866247341
 20
667.1586693618
 11
483.9866247341
 21
666.6738477413
  0
LINE
  5
3B5
100
AcDbEntity
  8
0
100
AcDbLine
 62
7
  6
BYLAYER
 10
483.9866247341
 20
665.2686729153
 11
483.9866247341
 21
664.7838512948
  0
LINE
  5
3B6
100
AcDbEntity
  8
0
100
AcDbLine
 62
7
  6
BYLAYER
 10
484.0089805626
 20
133.2021690184
 11
484.0089805626
 21
132.7173473979
  0
LINE
  5
3B7
100
AcDbEntity
  8
0
100
AcDbLine
 62
7
  6
BYLAYER
 10
484.0089805626
 20
131.3121725719
 11
484.0089805626
 21
130.8273509514
  0
LINE
  5
3B8
100
AcDbEntity
  8
0
100
AcDbLine
 62
7
  6
BYLAYER
 10
484.0089805626
 20
111.2021690184
 11
484.0089805626
 21
110.7173473979
  0
LINE
  5
3B9
100
AcDbEntity
  8
0
100
AcDbLine
 62
7
  6
BYLAYER
 10
484.0089805626
 20
109.3121725719
 11
484.0089805626
 21
108.8273509514
  0
LINE
  5
3BA
100
AcDbEntity
  8
0
100
AcDbLine
 62
7
  6
BYLAYER
 10
484.1571149153
 20
726.5165289744
 11
484.1571149153
 21
721.0165289744
  0
LINE
  5
3BB
100
AcDbEntity
  8
0
100
AcDbLine
 62
7
  6
BYLAYER
 10
484.1571149152
 20
77.0162315853
 11
484.1571149152
 21
71.5162315853
  0
LINE
  5
3BC
100
AcDbEntity
  8
0
100
AcDbLine
 62
7
  6
BYLAYER
 10
484.5584662268
 20
664.7838512948
 11
484.5584662268
 21
665.2686729153
  0
LINE
  5
3BD
100
AcDbEntity
  8
0
100
AcDbLine
 62
7
  6
BYLAYER
 10
484.5584662268
 20
666.6738477413
 11
484.5584662268
 21
667.1586693618
  0
LINE
  5
3BE
100
AcDbEntity
  8
0
100
AcDbLine
 62
7
  6
BYLAYER
 10
484.5584662268
 20
686.7838512948
 11
484.5584662268
 21
687.2686729153
  0
LINE
  5
3BF
100
AcDbEntity
  8
0
100
AcDbLine
 62
7
  6
BYLAYER
 10
484.5584662268
 20
688.6738477413
 11
484.5584662268
 21
689.1586693618
  0
LINE
  5
3C0
100
AcDbEntity
  8
0
100
AcDbLine
 62
7
  6
BYLAYER
 10
484.5808220552
 20
108.8273509514
 11
484.5808220552
 21
109.3121725719
  0
LINE
  5
3C1
100
AcDbEntity
  8
0
100
AcDbLine
 62
7
  6
BYLAYER
 10
484.5808220552
 20
110.7173473979
 11
484.5808220552
 21
111.2021690184
  0
LINE
  5
3C2
100
AcDbEntity
  8
0
100
AcDbLine
 62
7
  6
BYLAYER
 10
484.5808220552
 20
130.8273509514
 11
484.5808220552
 21
131.3121725719
  0
LINE
  5
3C3
100
AcDbEntity
  8
0
100
AcDbLine
 62
7
  6
BYLAYER
 10
484.5808220552
 20
132.7173473979
 11
484.5808220552
 21
133.2021690184
  0
LINE
  5
3C4
100
AcDbEntity
  8
0
100
AcDbLine
 62
7
  6
BYLAYER
 10
484.5964547435
 20
374.0162319287
 11
484.5964547435
 21
367.0162319287
  0
LINE
  5
3C5
100
AcDbEntity
  8
0
100
AcDbLine
 62
7
  6
BYLAYER
 10
484.5964547435
 20
311.0162315853
 11
484.5964547435
 21
304.0162315853
  0
LINE
  5
3C6
100
AcDbEntity
  8
0
100
AcDbLine
 62
7
  6
BYLAYER
 10
485.217775087
 20
71.0162315853
 11
485.217775087
 21
77.0162315853
  0
LINE
  5
3C7
100
AcDbEntity
  8
0
100
AcDbLine
 62
7
  6
BYLAYER
 10
485.2177750871
 20
721.0165289744
 11
485.2177750871
 21
727.0165289745
  0
LINE
  5
3C8
100
AcDbEntity
  8
0
100
AcDbLine
 62
7
  6
BYLAYER
 10
485.6797773787
 20
665.935339582
 11
485.6797773787
 21
666.0071810746
  0
LINE
  5
3C9
100
AcDbEntity
  8
0
100
AcDbLine
 62
7
  6
BYLAYER
 10
485.6797773787
 20
687.935339582
 11
485.6797773787
 21
688.0071810746
  0
LINE
  5
3CA
100
AcDbEntity
  8
0
100
AcDbLine
 62
7
  6
BYLAYER
 10
485.7021332072
 20
109.9788392386
 11
485.7021332072
 21
110.0506807312
  0
LINE
  5
3CB
100
AcDbEntity
  8
0
100
AcDbLine
 62
7
  6
BYLAYER
 10
485.7021332071
 20
131.9788392386
 11
485.7021332071
 21
132.0506807312
  0
LINE
  5
3CC
100
AcDbEntity
  8
0
100
AcDbLine
 62
7
  6
BYLAYER
 10
486.9464547435
 20
721.0165289744
 11
486.9464547435
 21
690.9712603284
  0
LINE
  5
3CD
100
AcDbEntity
  8
0
100
AcDbLine
 62
7
  6
BYLAYER
 10
486.9464547435
 20
662.9712603284
 11
486.9464547435
 21
374.0162319287
  0
LINE
  5
3CE
100
AcDbEntity
  8
0
100
AcDbLine
 62
7
  6
BYLAYER
 10
486.9464547435
 20
304.0162315853
 11
486.9464547435
 21
135.014759985
  0
LINE
  5
3CF
100
AcDbEntity
  8
0
100
AcDbLine
 62
7
  6
BYLAYER
 10
486.9464547435
 20
107.014759985
 11
486.9464547435
 21
77.0162315853
  0
LINE
  5
3D0
100
AcDbEntity
  8
0
100
AcDbLine
 62
7
  6
BYLAYER
 10
487.0964547435
 20
378.6301333945
 11
487.0964547435
 21
377.0301333945
  0
LINE
  5
3D1
100
AcDbEntity
  8
0
100
AcDbLine
 62
7
  6
BYLAYER
 10
487.0964547435
 20
301.0162390763
 11
487.0964547435
 21
299.4162390763
  0
LINE
  5
3D2
100
AcDbEntity
  8
0
100
AcDbLine
 62
7
  6
BYLAYER
 10
487.1225454804
 20
690.9712603284
 11
487.1225454804
 21
687.9712639157
  0
LINE
  5
3D3
100
AcDbEntity
  8
0
100
AcDbLine
 62
7
  6
BYLAYER
 10
487.1225454804
 20
665.9712564601
 11
487.1225454804
 21
662.9712603284
  0
LINE
  5
3D4
100
AcDbEntity
  8
0
100
AcDbLine
 62
7
  6
BYLAYER
 10
487.1449013089
 20
135.014759985
 11
487.1449013089
 21
132.0147635723
  0
LINE
  5
3D5
100
AcDbEntity
  8
0
100
AcDbLine
 62
7
  6
BYLAYER
 10
487.1449013089
 20
110.0147561167
 11
487.1449013089
 21
107.014759985
  0
LINE
  5
3D6
100
AcDbEntity
  8
0
100
AcDbLine
 62
7
  6
BYLAYER
 10
487.3069810593
 20
299.4161891752
 11
487.3069810593
 21
295.2056628594
  0
LINE
  5
3D7
100
AcDbEntity
  8
0
100
AcDbLine
 62
7
  6
BYLAYER
 10
487.3069810593
 20
378.6561380422
 11
487.3069810593
 21
382.866664358
  0
LINE
  5
3D8
100
AcDbEntity
  8
0
100
AcDbLine
 62
7
  6
BYLAYER
 10
487.4464547435
 20
77.0162315853
 11
487.4464547435
 21
107.014759985
  0
LINE
  5
3D9
100
AcDbEntity
  8
0
100
AcDbLine
 62
7
  6
BYLAYER
 10
487.4464547435
 20
135.014759985
 11
487.4464547435
 21
295.2056628594
  0
LINE
  5
3DA
100
AcDbEntity
  8
0
100
AcDbLine
 62
7
  6
BYLAYER
 10
487.4464547435
 20
301.0162390763
 11
487.4464547435
 21
304.0162315853
  0
LINE
  5
3DB
100
AcDbEntity
  8
0
100
AcDbLine
 62
7
  6
BYLAYER
 10
487.4464547435
 20
374.0162319287
 11
487.4464547435
 21
377.0301333945
  0
LINE
  5
3DC
100
AcDbEntity
  8
0
100
AcDbLine
 62
7
  6
BYLAYER
 10
487.4464547435
 20
382.866664358
 11
487.4464547435
 21
662.9712603284
  0
LINE
  5
3DD
100
AcDbEntity
  8
0
100
AcDbLine
 62
7
  6
BYLAYER
 10
487.4464547435
 20
690.9712603284
 11
487.4464547435
 21
721.0165289744
  0
LINE
  5
3DE
100
AcDbEntity
  8
0
100
AcDbLine
 62
7
  6
BYLAYER
 10
487.5225454804
 20
663.4022105221
 11
487.5225454804
 21
665.9712603283
  0
LINE
  5
3DF
100
AcDbEntity
  8
0
100
AcDbLine
 62
7
  6
BYLAYER
 10
487.5225454804
 20
687.9712603285
 11
487.5225454804
 21
690.5403097183
  0
LINE
  5
3E0
100
AcDbEntity
  8
0
100
AcDbLine
 62
7
  6
BYLAYER
 10
487.5449013089
 20
107.4457101787
 11
487.5449013089
 21
110.0147599849
  0
LINE
  5
3E1
100
AcDbEntity
  8
0
100
AcDbLine
 62
7
  6
BYLAYER
 10
487.5449013089
 20
132.0147599851
 11
487.5449013089
 21
134.5838093749
  0
LINE
  5
3E2
100
AcDbEntity
  8
0
100
AcDbLine
 62
7
  6
BYLAYER
 10
487.9225454804
 20
663.0069755064
 11
487.9225454804
 21
665.9712603284
  0
LINE
  5
3E3
100
AcDbEntity
  8
0
100
AcDbLine
 62
7
  6
BYLAYER
 10
487.9225454804
 20
687.9712603284
 11
487.9225454804
 21
690.9355451533
  0
LINE
  5
3E4
100
AcDbEntity
  8
0
100
AcDbLine
 62
7
  6
BYLAYER
 10
487.9449013089
 20
107.050475163
 11
487.9449013089
 21
110.014759985
  0
LINE
  5
3E5
100
AcDbEntity
  8
0
100
AcDbLine
 62
7
  6
BYLAYER
 10
487.9449013089
 20
132.014759985
 11
487.9449013089
 21
134.9790448099
  0
LINE
  5
3E6
100
AcDbEntity
  8
0
100
AcDbLine
 62
7
  6
BYLAYER
 10
488.0964547435
 20
384.866664358
 11
488.0964547435
 21
382.866664358
  0
LINE
  5
3E7
100
AcDbEntity
  8
0
100
AcDbLine
 62
7
  6
BYLAYER
 10
488.0964547435
 20
312.7162315853
 11
488.0964547435
 21
311.2162315853
  0
LINE
  5
3E8
100
AcDbEntity
  8
0
100
AcDbLine
 62
7
  6
BYLAYER
 10
488.0964547435
 20
295.2056628594
 11
488.0964547435
 21
293.2056628594
  0
LINE
  5
3E9
100
AcDbEntity
  8
0
100
AcDbLine
 62
7
  6
BYLAYER
 10
488.0964547435
 20
365.1821689815
 11
488.0964547435
 21
366.6821689815
  0
LINE
  5
3EA
100
AcDbEntity
  8
0
100
AcDbLine
 62
7
  6
BYLAYER
 10
490.2017179014
 20
299.4161891752
 11
490.2017179014
 21
295.2056628594
  0
LINE
  5
3EB
100
AcDbEntity
  8
0
100
AcDbLine
 62
7
  6
BYLAYER
 10
490.2017179014
 20
378.6561380422
 11
490.2017179014
 21
382.866664358
  0
LINE
  5
3EC
100
AcDbEntity
  8
0
100
AcDbLine
 62
7
  6
BYLAYER
 10
490.5964547435
 20
727.0165289744
 11
490.5964547435
 21
721.0165289744
  0
LINE
  5
3ED
100
AcDbEntity
  8
0
100
AcDbLine
 62
7
  6
BYLAYER
 10
490.5964547435
 20
77.0162315853
 11
490.5964547434
 21
71.0162315853
  0
LINE
  5
3EE
100
AcDbEntity
  8
0
100
AcDbLine
 62
7
  6
BYLAYER
 10
490.5964547435
 20
301.0162390763
 11
490.5964547435
 21
304.0162315853
  0
LINE
  5
3EF
100
AcDbEntity
  8
0
100
AcDbLine
 62
7
  6
BYLAYER
 10
490.5964547435
 20
311.0162315853
 11
490.5964547435
 21
311.2162315853
  0
LINE
  5
3F0
100
AcDbEntity
  8
0
100
AcDbLine
 62
7
  6
BYLAYER
 10
490.5964547435
 20
366.6821689815
 11
490.5964547435
 21
367.0162319287
  0
LINE
  5
3F1
100
AcDbEntity
  8
0
100
AcDbLine
 62
7
  6
BYLAYER
 10
490.5964547435
 20
374.0162319287
 11
490.5964547435
 21
377.0301333945
  0
LINE
  5
3F2
100
AcDbEntity
  8
0
100
AcDbLine
 62
7
  6
BYLAYER
 10
490.5964547435
 20
378.6301333945
 11
490.5964547435
 21
378.6561380422
  0
LINE
  5
3F3
100
AcDbEntity
  8
0
100
AcDbLine
 62
7
  6
BYLAYER
 10
491.0964547435
 20
726.5165289744
 11
491.0964547435
 21
724.0165289744
  0
LINE
  5
3F4
100
AcDbEntity
  8
0
100
AcDbLine
 62
7
  6
BYLAYER
 10
491.0964547435
 20
724.0162319287
 11
491.0964547435
 21
367.0162319287
  0
LINE
  5
3F5
100
AcDbEntity
  8
0
100
AcDbLine
 62
7
  6
BYLAYER
 10
491.0964547435
 20
311.0162315853
 11
491.0964547435
 21
71.5162315853
  0
LINE
  5
3F6
100
AcDbEntity
  8
0
100
AcDbLine
 62
7
  6
BYLAYER
 10
492.0964547435
 20
71.0162315853
 11
492.0964547435
 21
74.0162315853
  0
LINE
  5
3F7
100
AcDbEntity
  8
0
100
AcDbLine
 62
7
  6
BYLAYER
 10
492.0964547435
 20
724.0165289744
 11
492.0964547435
 21
727.0165289744
  0
LINE
  5
3F8
100
AcDbEntity
  8
0
100
AcDbLine
 62
7
  6
BYLAYER
 10
492.5964547435
 20
74.0162315853
 11
492.5964547435
 21
311.0162315853
  0
LINE
  5
3F9
100
AcDbEntity
  8
0
100
AcDbLine
 62
7
  6
BYLAYER
 10
492.5964547435
 20
367.0162319287
 11
492.5964547435
 21
724.0162319287
  0
LINE
  5
3FA
100
AcDbEntity
  8
0
100
AcDbLine
 62
7
  6
BYLAYER
 10
495.5964547435
 20
367.0162319287
 11
495.5964547435
 21
366.6821689815
  0
LINE
  5
3FB
100
AcDbEntity
  8
0
100
AcDbLine
 62
7
  6
BYLAYER
 10
495.5964547435
 20
311.2162315853
 11
495.5964547435
 21
311.0162315853
  0
LINE
  5
3FC
100
AcDbEntity
  8
0
100
AcDbLine
 62
7
  6
BYLAYER
 10
498.0964547435
 20
366.6821689815
 11
498.0964547435
 21
365.1821689815
  0
LINE
  5
3FD
100
AcDbEntity
  8
0
100
AcDbLine
 62
7
  6
BYLAYER
 10
498.0964547435
 20
311.2162315853
 11
498.0964547435
 21
312.7162315853
  0
LINE
  5
3FE
100
AcDbEntity
  8
0
100
AcDbLine
 62
7
  6
BYLAYER
 10
508.5964547435
 20
727.0165289744
 11
508.5964547435
 21
724.0165289744
  0
LINE
  5
3FF
100
AcDbEntity
  8
0
100
AcDbLine
 62
7
  6
BYLAYER
 10
508.5964547435
 20
724.0162319287
 11
508.5964547435
 21
367.0162319287
  0
LINE
  5
400
100
AcDbEntity
  8
0
100
AcDbLine
 62
7
  6
BYLAYER
 10
508.5964547435
 20
311.0162315853
 11
508.5964547435
 21
71.0162315853
  0
LINE
  5
401
100
AcDbEntity
  8
0
100
AcDbLine
 62
7
  6
BYLAYER
 10
512.0964547435
 20
71.5162315853
 11
512.0964547435
 21
311.0162315853
  0
LINE
  5
402
100
AcDbEntity
  8
0
100
AcDbLine
 62
7
  6
BYLAYER
 10
512.0964547435
 20
367.0162319287
 11
512.0964547435
 21
724.0162319287
  0
LINE
  5
403
100
AcDbEntity
  8
0
100
AcDbLine
 62
7
  6
BYLAYER
 10
512.0964547435
 20
724.0165289744
 11
512.0964547435
 21
726.5165289744
  0
LINE
  5
404
100
AcDbEntity
  8
0
100
AcDbLine
 62
7
  6
BYLAYER
 10
482.9376294684
 20
662.9712603284
 11
491.0964547435
 21
662.9712603284
  0
LINE
  5
405
100
AcDbEntity
  8
0
100
AcDbLine
 62
7
  6
BYLAYER
 10
83.0964547435
 20
663.0244557013
 11
91.2329241902
 21
663.0244557013
  0
LINE
  5
406
100
AcDbEntity
  8
0
100
AcDbLine
 62
7
  6
BYLAYER
 10
487.4689556436
 20
663.3712603284
 11
482.9376170033
 21
663.3712603284
  0
LINE
  5
407
100
AcDbEntity
  8
0
100
AcDbLine
 62
7
  6
BYLAYER
 10
91.2329366553
 20
663.4244557013
 11
86.7015980142
 21
663.4244557013
  0
LINE
  5
408
100
AcDbEntity
  8
0
100
AcDbLine
 62
7
  6
BYLAYER
 10
484.2366247341
 20
664.5338512948
 11
484.3084662268
 21
664.5338512948
  0
LINE
  5
409
100
AcDbEntity
  8
0
100
AcDbLine
 62
7
  6
BYLAYER
 10
89.8620874318
 20
664.5870466679
 11
89.9339289245
 21
664.5870466679
  0
LINE
  5
40A
100
AcDbEntity
  8
0
100
AcDbLine
 62
7
  6
BYLAYER
 10
483.0549593117
 20
665.685339582
 11
483.5699580675
 21
665.685339582
  0
LINE
  5
40B
100
AcDbEntity
  8
0
100
AcDbLine
 62
7
  6
BYLAYER
 10
484.9751328934
 20
665.685339582
 11
485.4297773787
 21
665.685339582
  0
LINE
  5
40C
100
AcDbEntity
  8
0
100
AcDbLine
 62
7
  6
BYLAYER
 10
88.7407762799
 20
665.7385349551
 11
89.1954207652
 21
665.7385349551
  0
LINE
  5
40D
100
AcDbEntity
  8
0
100
AcDbLine
 62
7
  6
BYLAYER
 10
90.6005955911
 20
665.7385349551
 11
91.1155943469
 21
665.7385349551
  0
LINE
  5
40E
100
AcDbEntity
  8
0
100
AcDbLine
 62
7
  6
BYLAYER
 10
481.0225454806
 20
665.9712603284
 11
481.4225454804
 21
665.9712603284
  0
LINE
  5
40F
100
AcDbEntity
  8
0
100
AcDbLine
 62
7
  6
BYLAYER
 10
487.1225454804
 20
665.9712603284
 11
491.0964547435
 21
665.9712603287
  0
LINE
  5
410
100
AcDbEntity
  8
0
100
AcDbLine
 62
7
  6
BYLAYER
 10
83.0964547435
 20
666.0244557015
 11
87.0480081781
 21
666.0244557013
  0
LINE
  5
411
100
AcDbEntity
  8
0
100
AcDbLine
 62
7
  6
BYLAYER
 10
92.7480081781
 20
666.0244557013
 11
93.148008178
 21
666.0244557013
  0
LINE
  5
412
100
AcDbEntity
  8
0
100
AcDbLine
 62
7
  6
BYLAYER
 10
485.4297773787
 20
666.2571810746
 11
484.9751328934
 21
666.2571810746
  0
LINE
  5
413
100
AcDbEntity
  8
0
100
AcDbLine
 62
7
  6
BYLAYER
 10
483.5699580675
 20
666.2571810746
 11
483.0549593117
 21
666.2571810746
  0
LINE
  5
414
100
AcDbEntity
  8
0
100
AcDbLine
 62
7
  6
BYLAYER
 10
480.383930075
 20
666.2813940853
 11
479.2725454804
 21
666.2813940853
  0
LINE
  5
415
100
AcDbEntity
  8
0
100
AcDbLine
 62
7
  6
BYLAYER
 10
91.1155943469
 20
666.3103764477
 11
90.6005955911
 21
666.3103764477
  0
LINE
  5
416
100
AcDbEntity
  8
0
100
AcDbLine
 62
7
  6
BYLAYER
 10
89.1954207652
 20
666.3103764477
 11
88.7407762799
 21
666.3103764477
  0
LINE
  5
417
100
AcDbEntity
  8
0
100
AcDbLine
 62
7
  6
BYLAYER
 10
94.8980081781
 20
666.3345894582
 11
93.7866267856
 21
666.3345894582
  0
LINE
  5
418
100
AcDbEntity
  8
0
100
AcDbLine
 62
7
  6
BYLAYER
 10
484.3084662268
 20
667.4086693618
 11
484.2366247341
 21
667.4086693618
  0
LINE
  5
419
100
AcDbEntity
  8
0
100
AcDbLine
 62
7
  6
BYLAYER
 10
89.9339289245
 20
667.4618647349
 11
89.8620874318
 21
667.4618647349
  0
LINE
  5
41A
100
AcDbEntity
  8
0
100
AcDbLine
 62
7
  6
BYLAYER
 10
484.2366247341
 20
686.5338512948
 11
484.3084662268
 21
686.5338512948
  0
LINE
  5
41B
100
AcDbEntity
  8
0
100
AcDbLine
 62
7
  6
BYLAYER
 10
89.8620874318
 20
686.5870466679
 11
89.9339289244
 21
686.5870466679
  0
LINE
  5
41C
100
AcDbEntity
  8
0
100
AcDbLine
 62
7
  6
BYLAYER
 10
479.2725454804
 20
687.6611265715
 11
480.383926873
 21
687.6611265715
  0
LINE
  5
41D
100
AcDbEntity
  8
0
100
AcDbLine
 62
7
  6
BYLAYER
 10
483.0549593117
 20
687.685339582
 11
483.5699580675
 21
687.685339582
  0
LINE
  5
41E
100
AcDbEntity
  8
0
100
AcDbLine
 62
7
  6
BYLAYER
 10
484.9751328934
 20
687.685339582
 11
485.4297773787
 21
687.685339582
  0
LINE
  5
41F
100
AcDbEntity
  8
0
100
AcDbLine
 62
7
  6
BYLAYER
 10
93.7866235836
 20
687.7143219444
 11
94.8980081781
 21
687.7143219444
  0
LINE
  5
420
100
AcDbEntity
  8
0
100
AcDbLine
 62
7
  6
BYLAYER
 10
88.7407762799
 20
687.7385349551
 11
89.1954207652
 21
687.7385349551
  0
LINE
  5
421
100
AcDbEntity
  8
0
100
AcDbLine
 62
7
  6
BYLAYER
 10
90.6005955911
 20
687.7385349551
 11
91.1155943469
 21
687.7385349551
  0
LINE
  5
422
100
AcDbEntity
  8
0
100
AcDbLine
 62
7
  6
BYLAYER
 10
481.4225454804
 20
687.9712603284
 11
481.0225454806
 21
687.9712603284
  0
LINE
  5
423
100
AcDbEntity
  8
0
100
AcDbLine
 62
7
  6
BYLAYER
 10
487.1225454804
 20
687.9712603284
 11
491.0964547435
 21
687.9712603282
  0
LINE
  5
424
100
AcDbEntity
  8
0
100
AcDbLine
 62
7
  6
BYLAYER
 10
93.148008178
 20
688.0244557013
 11
92.7480081781
 21
688.0244557013
  0
LINE
  5
425
100
AcDbEntity
  8
0
100
AcDbLine
 62
7
  6
BYLAYER
 10
83.0964547435
 20
688.024455701
 11
87.0480081781
 21
688.0244557013
  0
LINE
  5
426
100
AcDbEntity
  8
0
100
AcDbLine
 62
7
  6
BYLAYER
 10
485.4297773787
 20
688.2571810746
 11
484.9751328934
 21
688.2571810746
  0
LINE
  5
427
100
AcDbEntity
  8
0
100
AcDbLine
 62
7
  6
BYLAYER
 10
483.5699580675
 20
688.2571810746
 11
483.0549593117
 21
688.2571810746
  0
LINE
  5
428
100
AcDbEntity
  8
0
100
AcDbLine
 62
7
  6
BYLAYER
 10
91.1155943469
 20
688.3103764478
 11
90.6005955911
 21
688.3103764478
  0
LINE
  5
429
100
AcDbEntity
  8
0
100
AcDbLine
 62
7
  6
BYLAYER
 10
89.1954207652
 20
688.3103764478
 11
88.7407762799
 21
688.3103764478
  0
LINE
  5
42A
100
AcDbEntity
  8
0
100
AcDbLine
 62
7
  6
BYLAYER
 10
484.3084662268
 20
689.4086693618
 11
484.2366247341
 21
689.4086693618
  0
LINE
  5
42B
100
AcDbEntity
  8
0
100
AcDbLine
 62
7
  6
BYLAYER
 10
89.9339289244
 20
689.461864735
 11
89.8620874318
 21
689.461864735
  0
LINE
  5
42C
100
AcDbEntity
  8
0
100
AcDbLine
 62
7
  6
BYLAYER
 10
482.9376170033
 20
690.5712603284
 11
487.4689556445
 21
690.5712603284
  0
LINE
  5
42D
100
AcDbEntity
  8
0
100
AcDbLine
 62
7
  6
BYLAYER
 10
86.701598015
 20
690.6244557013
 11
91.2329366553
 21
690.6244557013
  0
LINE
  5
42E
100
AcDbEntity
  8
0
100
AcDbLine
 62
7
  6
BYLAYER
 10
482.9376294684
 20
690.9712603284
 11
491.0964547435
 21
690.9712603284
  0
LINE
  5
42F
100
AcDbEntity
  8
0
100
AcDbLine
 62
7
  6
BYLAYER
 10
83.0964547435
 20
691.0244557013
 11
91.2329241902
 21
691.0244557013
  0
LINE
  5
430
100
AcDbEntity
  8
0
100
AcDbLine
 62
7
  6
BYLAYER
 10
481.275853951
 20
107.489949572
 11
481.4449018923
 21
107.8524740519
  0
LINE
  5
431
100
AcDbEntity
  8
0
100
AcDbLine
 62
7
  6
BYLAYER
 10
481.8611784529
 20
107.6583611038
 11
481.6921305116
 21
107.2958366239
  0
LINE
  5
432
100
AcDbEntity
  8
0
100
AcDbLine
 62
7
  6
BYLAYER
 10
482.2949012966
 20
128.961483597
 11
482.514079163
 21
129.296088897
  0
LINE
  5
433
100
AcDbEntity
  8
0
100
AcDbLine
 62
7
  6
BYLAYER
 10
481.6921305116
 20
134.7336833461
 11
481.027056717
 21
134.4235543424
  0
LINE
  5
434
100
AcDbEntity
  8
0
100
AcDbLine
 62
7
  6
BYLAYER
 10
481.0047044746
 20
663.5624642987
 11
481.6697746831
 21
663.2523369673
  0
LINE
  5
435
100
AcDbEntity
  8
0
100
AcDbLine
 62
7
  6
BYLAYER
 10
482.4917235623
 20
668.6899315655
 11
482.2725457333
 21
669.0245368696
  0
LINE
  5
436
100
AcDbEntity
  8
0
100
AcDbLine
 62
7
  6
BYLAYER
 10
481.4225460573
 20
690.1335459519
 11
481.2534979987
 21
690.4960706836
  0
LINE
  5
437
100
AcDbEntity
  8
0
100
AcDbLine
 62
7
  6
BYLAYER
 10
481.6697746832
 20
690.6901836895
 11
481.8388227418
 21
690.3276589578
  0
LINE
  5
438
100
AcDbEntity
  8
0
100
AcDbLine
 62
7
  6
BYLAYER
 10
481.4449013089
 20
134.1770473341
 11
481.3204974271
 21
134.0610263361
  0
LINE
  5
439
100
AcDbEntity
  8
0
100
AcDbLine
 62
7
  6
BYLAYER
 10
481.8611891122
 20
134.3711654987
 11
481.4448927939
 21
134.1770394004
  0
LINE
  5
43A
100
AcDbEntity
  8
0
100
AcDbLine
 62
7
  6
BYLAYER
 10
464.5964547435
 20
721.0165289744
 11
491.0964547435
 21
721.0165289744
  0
LINE
  5
43B
100
AcDbEntity
  8
0
100
AcDbLine
 62
7
  6
BYLAYER
 10
109.5964547436
 20
721.022984101
 11
83.0964547436
 21
721.022984101
  0
LINE
  5
43C
100
AcDbEntity
  8
0
100
AcDbLine
 62
7
  6
BYLAYER
 10
462.0964547435
 20
724.0162319287
 11
464.0964547435
 21
724.0162319287
  0
LINE
  5
43D
100
AcDbEntity
  8
0
100
AcDbLine
 62
7
  6
BYLAYER
 10
492.0964547435
 20
724.0162319287
 11
512.0964547435
 21
724.0162319287
  0
LINE
  5
43E
100
AcDbEntity
  8
0
100
AcDbLine
 62
7
  6
BYLAYER
 10
462.0964547435
 20
724.0165289744
 11
464.5964547435
 21
724.0165289744
  0
LINE
  5
43F
100
AcDbEntity
  8
0
100
AcDbLine
 62
7
  6
BYLAYER
 10
490.5964547435
 20
724.0165289744
 11
512.0964547435
 21
724.0165289744
  0
LINE
  5
440
100
AcDbEntity
  8
0
100
AcDbLine
 62
7
  6
BYLAYER
 10
112.0964547436
 20
724.022984101
 11
109.5964547436
 21
724.022984101
  0
LINE
  5
441
100
AcDbEntity
  8
0
100
AcDbLine
 62
7
  6
BYLAYER
 10
83.5964547436
 20
724.022984101
 11
62.0964547436
 21
724.022984101
  0
LINE
  5
442
100
AcDbEntity
  8
0
100
AcDbLine
 62
7
  6
BYLAYER
 10
462.0964547435
 20
726.5165289744
 11
512.0964547435
 21
726.5165289744
  0
LINE
  5
443
100
AcDbEntity
  8
0
100
AcDbLine
 62
7
  6
BYLAYER
 10
62.0964547436
 20
726.522984101
 11
112.0964547436
 21
726.522984101
  0
LINE
  5
444
100
AcDbEntity
  8
0
100
AcDbLine
 62
7
  6
BYLAYER
 10
462.5964547435
 20
727.0165289744
 11
511.5964547435
 21
727.0165289744
  0
LINE
  5
445
100
AcDbEntity
  8
0
100
AcDbLine
 62
7
  6
BYLAYER
 10
62.5964547436
 20
727.022984101
 11
111.5964547436
 21
727.022984101
  0
LINE
  5
446
100
AcDbEntity
  8
0
100
AcDbLine
 62
7
  6
BYLAYER
 10
481.4225382909
 20
663.8089796819
 11
481.838833284
 21
663.6148548145
  0
LINE
  5
447
100
AcDbEntity
  8
0
100
AcDbLine
 62
7
  6
BYLAYER
 10
481.298135139
 20
663.9249999959
 11
481.4225454804
 21
663.8089729829
  0
LINE
  5
448
100
AcDbEntity
  8
0
100
AcDbLine
 62
7
  6
BYLAYER
 10
511.5964547435
 20
71.0162315853
 11
512.0964547435
 21
71.5162315853
  0
LINE
  5
449
100
AcDbEntity
  8
0
100
AcDbLine
 62
7
  6
BYLAYER
 10
512.0964547435
 20
726.5165289744
 11
511.5964547435
 21
727.0165289744
  0
ARC
  5
44A
100
AcDbEntity
  8
0
100
AcDbCircle
 62
7
  6
BYLAYER
 10
81.0964547435
 20
294.3430888798
 40
4.4217881419
100
AcDbArc
 50
297.0495622593
 51
344.6496587003
  0
ARC
  5
44B
100
AcDbEntity
  8
0
100
AcDbCircle
 62
7
  6
BYLAYER
 10
81.0964547435
 20
383.6630152754
 40
4.4217881419
100
AcDbArc
 50
15.3503412997
 51
62.9504377407
  0
ARC
  5
44C
100
AcDbEntity
  8
0
100
AcDbCircle
 62
7
  6
BYLAYER
 10
89.6043993886
 20
110.0198697215
 40
4.2198107883
100
AcDbArc
 50
0.0050612111
 51
4.8696947742
  0
ARC
  5
44D
100
AcDbEntity
  8
0
100
AcDbCircle
 62
7
  6
BYLAYER
 10
89.9203640066
 20
110.0679553579
 40
3.6499995549
100
AcDbArc
 50
56.7744393816
 51
179.9999999978
  0
ARC
  5
44E
100
AcDbEntity
  8
0
100
AcDbCircle
 62
7
  6
BYLAYER
 10
89.9203640066
 20
110.0679553579
 40
3.25
100
AcDbArc
 50
359.9992827393
 51
180.0000000026
  0
ARC
  5
44F
100
AcDbEntity
  8
0
100
AcDbCircle
 62
7
  6
BYLAYER
 10
89.9203640066
 20
110.0679553579
 40
2.8499996326
100
AcDbArc
 50
359.9999222308
 51
180.0000721184
  0
CIRCLE
  5
450
100
AcDbEntity
  8
0
100
AcDbCircle
 62
7
  6
BYLAYER
 10
89.9203640066
 20
110.067955358
 40
2.5
  0
CIRCLE
  5
451
100
AcDbEntity
  8
0
100
AcDbCircle
 62
7
  6
BYLAYER
 10
89.9203640066
 20
110.067955358
 40
1.6666666667
  0
ARC
  5
452
100
AcDbEntity
  8
0
100
AcDbCircle
 62
7
  6
BYLAYER
 10
89.2177765936
 20
110.770542771
 40
0.4166666667
100
AcDbArc
 50
269.9999999996
 51
359.9999999999
  0
ARC
  5
453
100
AcDbEntity
  8
0
100
AcDbCircle
 62
7
  6
BYLAYER
 10
89.2177765936
 20
109.365367945
 40
0.4166666667
100
AcDbArc
 50
0.0
 51
90.0000000004
  0
ARC
  5
454
100
AcDbEntity
  8
0
100
AcDbCircle
 62
7
  6
BYLAYER
 10
88.7631321084
 20
110.1038761043
 40
0.25
100
AcDbArc
 50
90.0
 51
180.0
  0
ARC
  5
455
100
AcDbEntity
  8
0
100
AcDbCircle
 62
7
  6
BYLAYER
 10
88.7631321084
 20
110.0320346117
 40
0.25
100
AcDbArc
 50
180.0
 51
270.0
  0
ARC
  5
456
100
AcDbEntity
  8
0
100
AcDbCircle
 62
7
  6
BYLAYER
 10
89.8844432603
 20
108.8805463245
 40
0.25
100
AcDbArc
 50
180.0
 51
270.0
  0
ARC
  5
457
100
AcDbEntity
  8
0
100
AcDbCircle
 62
7
  6
BYLAYER
 10
89.9562847529
 20
108.8805463245
 40
0.25
100
AcDbArc
 50
270.0
 51
360.0
  0
ARC
  5
458
100
AcDbEntity
  8
0
100
AcDbCircle
 62
7
  6
BYLAYER
 10
89.9562847529
 20
111.2553643915
 40
0.25
100
AcDbArc
 50
0.0
 51
90.0
  0
ARC
  5
459
100
AcDbEntity
  8
0
100
AcDbCircle
 62
7
  6
BYLAYER
 10
89.8844432603
 20
111.2553643915
 40
0.25
100
AcDbArc
 50
90.0
 51
180.0
  0
ARC
  5
45A
100
AcDbEntity
  8
0
100
AcDbCircle
 62
7
  6
BYLAYER
 10
89.6102692222
 20
132.1157597267
 40
4.2139409392
100
AcDbArc
 50
355.1273437234
 51
359.9987560694
  0
ARC
  5
45B
100
AcDbEntity
  8
0
100
AcDbCircle
 62
7
  6
BYLAYER
 10
89.9203640066
 20
132.0679553579
 40
3.6499995378
100
AcDbArc
 50
180.0000000058
 51
303.2255247079
  0
ARC
  5
45C
100
AcDbEntity
  8
0
100
AcDbCircle
 62
7
  6
BYLAYER
 10
89.9203640066
 20
132.0679553579
 40
3.25
100
AcDbArc
 50
179.9999999965
 51
0.0000618108
  0
ARC
  5
45D
100
AcDbEntity
  8
0
100
AcDbCircle
 62
7
  6
BYLAYER
 10
89.9203640066
 20
132.0679553579
 40
2.8499996326
100
AcDbArc
 50
179.9999222335
 51
0.0000721208
  0
CIRCLE
  5
45E
100
AcDbEntity
  8
0
100
AcDbCircle
 62
7
  6
BYLAYER
 10
89.9203640066
 20
132.067955358
 40
2.5
  0
CIRCLE
  5
45F
100
AcDbEntity
  8
0
100
AcDbCircle
 62
7
  6
BYLAYER
 10
89.9203640066
 20
132.067955358
 40
1.6666666667
  0
ARC
  5
460
100
AcDbEntity
  8
0
100
AcDbCircle
 62
7
  6
BYLAYER
 10
89.2177765936
 20
132.770542771
 40
0.4166666667
100
AcDbArc
 50
269.9999999996
 51
360.0
  0
ARC
  5
461
100
AcDbEntity
  8
0
100
AcDbCircle
 62
7
  6
BYLAYER
 10
89.2177765936
 20
131.3653679451
 40
0.4166666667
100
AcDbArc
 50
0.0
 51
89.9999999993
  0
ARC
  5
462
100
AcDbEntity
  8
0
100
AcDbCircle
 62
7
  6
BYLAYER
 10
88.7631321084
 20
132.1038761043
 40
0.25
100
AcDbArc
 50
90.0
 51
180.0000000002
  0
ARC
  5
463
100
AcDbEntity
  8
0
100
AcDbCircle
 62
7
  6
BYLAYER
 10
88.7631321084
 20
132.0320346117
 40
0.25
100
AcDbArc
 50
179.9999999998
 51
270.0
  0
ARC
  5
464
100
AcDbEntity
  8
0
100
AcDbCircle
 62
7
  6
BYLAYER
 10
89.8844432603
 20
130.8805463245
 40
0.25
100
AcDbArc
 50
180.0
 51
270.0
  0
ARC
  5
465
100
AcDbEntity
  8
0
100
AcDbCircle
 62
7
  6
BYLAYER
 10
89.9562847529
 20
130.8805463245
 40
0.25
100
AcDbArc
 50
270.0
 51
360.0
  0
ARC
  5
466
100
AcDbEntity
  8
0
100
AcDbCircle
 62
7
  6
BYLAYER
 10
89.9562847529
 20
133.2553643916
 40
0.25
100
AcDbArc
 50
0.0
 51
90.0
  0
ARC
  5
467
100
AcDbEntity
  8
0
100
AcDbCircle
 62
7
  6
BYLAYER
 10
89.8844432603
 20
133.2553643916
 40
0.25
100
AcDbArc
 50
90.0
 51
180.0
  0
ARC
  5
468
100
AcDbEntity
  8
0
100
AcDbCircle
 62
7
  6
BYLAYER
 10
91.9203640066
 20
110.3780891148
 40
3.0
100
AcDbArc
 50
294.9998925987
 51
360.0
  0
ARC
  5
469
100
AcDbEntity
  8
0
100
AcDbCircle
 62
7
  6
BYLAYER
 10
91.2552800187
 20
110.0679553579
 40
3.0
100
AcDbArc
 50
270.0
 51
295.0000000005
  0
ARC
  5
46A
100
AcDbEntity
  8
0
100
AcDbCircle
 62
7
  6
BYLAYER
 10
91.2552800187
 20
110.0679553579
 40
2.6000009081
100
AcDbArc
 50
270.000274691
 51
294.9997253401
  0
ARC
  5
46B
100
AcDbEntity
  8
0
100
AcDbCircle
 62
7
  6
BYLAYER
 10
90.6229514196
 20
109.365367945
 40
0.4166666667
100
AcDbArc
 50
89.9999999996
 51
180.0
  0
ARC
  5
46C
100
AcDbEntity
  8
0
100
AcDbCircle
 62
7
  6
BYLAYER
 10
90.6229514196
 20
110.770542771
 40
0.4166666667
100
AcDbArc
 50
180.0000000001
 51
270.0000000004
  0
ARC
  5
46D
100
AcDbEntity
  8
0
100
AcDbCircle
 62
7
  6
BYLAYER
 10
91.1379501754
 20
110.0320346117
 40
0.25
100
AcDbArc
 50
270.0
 51
360.0
  0
ARC
  5
46E
100
AcDbEntity
  8
0
100
AcDbCircle
 62
7
  6
BYLAYER
 10
91.1379501754
 20
110.1038761043
 40
0.25
100
AcDbArc
 50
0.0
 51
90.0
  0
ARC
  5
46F
100
AcDbEntity
  8
0
100
AcDbCircle
 62
7
  6
BYLAYER
 10
91.9203640066
 20
131.757821601
 40
3.0
100
AcDbArc
 50
0.0
 51
65.0001451867
  0
ARC
  5
470
100
AcDbEntity
  8
0
100
AcDbCircle
 62
7
  6
BYLAYER
 10
91.2552800187
 20
132.0679553579
 40
3.0
100
AcDbArc
 50
64.9999999997
 51
90.0
  0
ARC
  5
471
100
AcDbEntity
  8
0
100
AcDbCircle
 62
7
  6
BYLAYER
 10
91.2552800187
 20
132.0679553579
 40
2.6000009081
100
AcDbArc
 50
65.0002746661
 51
89.999725309
  0
ARC
  5
472
100
AcDbEntity
  8
0
100
AcDbCircle
 62
7
  6
BYLAYER
 10
90.6229514196
 20
131.3653679451
 40
0.4166666667
100
AcDbArc
 50
90.0000000007
 51
180.0
  0
ARC
  5
473
100
AcDbEntity
  8
0
100
AcDbCircle
 62
7
  6
BYLAYER
 10
90.6229514196
 20
132.770542771
 40
0.4166666667
100
AcDbArc
 50
180.0000000001
 51
270.0000000004
  0
ARC
  5
474
100
AcDbEntity
  8
0
100
AcDbCircle
 62
7
  6
BYLAYER
 10
91.1379501754
 20
132.0320346117
 40
0.25
100
AcDbArc
 50
270.0
 51
360.0
  0
ARC
  5
475
100
AcDbEntity
  8
0
100
AcDbCircle
 62
7
  6
BYLAYER
 10
91.1379501754
 20
132.1038761043
 40
0.25
100
AcDbArc
 50
0.0
 51
90.0
  0
ARC
  5
476
100
AcDbEntity
  8
0
100
AcDbCircle
 62
7
  6
BYLAYER
 10
89.58204356
 20
665.9763700649
 40
4.2198107884
100
AcDbArc
 50
0.0050612114
 51
4.8696947741
  0
ARC
  5
477
100
AcDbEntity
  8
0
100
AcDbCircle
 62
7
  6
BYLAYER
 10
89.8980081781
 20
666.0244557013
 40
3.6499995549
100
AcDbArc
 50
56.7744393816
 51
179.9999999978
  0
ARC
  5
478
100
AcDbEntity
  8
0
100
AcDbCircle
 62
7
  6
BYLAYER
 10
89.8980081781
 20
666.0244557013
 40
3.25
100
AcDbArc
 50
359.9992827393
 51
180.0000000026
  0
ARC
  5
479
100
AcDbEntity
  8
0
100
AcDbCircle
 62
7
  6
BYLAYER
 10
89.8980081781
 20
666.0244557013
 40
2.8499996326
100
AcDbArc
 50
359.9999222308
 51
180.0000721184
  0
CIRCLE
  5
47A
100
AcDbEntity
  8
0
100
AcDbCircle
 62
7
  6
BYLAYER
 10
89.8980081782
 20
666.0244557014
 40
2.5
  0
CIRCLE
  5
47B
100
AcDbEntity
  8
0
100
AcDbCircle
 62
7
  6
BYLAYER
 10
89.8980081782
 20
666.0244557014
 40
1.6666666667
  0
ARC
  5
47C
100
AcDbEntity
  8
0
100
AcDbCircle
 62
7
  6
BYLAYER
 10
89.1954207652
 20
666.7270431144
 40
0.4166666667
100
AcDbArc
 50
270.0000000069
 51
360.0
  0
ARC
  5
47D
100
AcDbEntity
  8
0
100
AcDbCircle
 62
7
  6
BYLAYER
 10
89.1954207652
 20
665.3218682884
 40
0.4166666667
100
AcDbArc
 50
0.0
 51
90.0000000033
  0
ARC
  5
47E
100
AcDbEntity
  8
0
100
AcDbCircle
 62
7
  6
BYLAYER
 10
88.7407762799
 20
666.0603764477
 40
0.25
100
AcDbArc
 50
90.0
 51
180.0
  0
ARC
  5
47F
100
AcDbEntity
  8
0
100
AcDbCircle
 62
7
  6
BYLAYER
 10
88.7407762799
 20
665.9885349551
 40
0.25
100
AcDbArc
 50
180.0
 51
270.0
  0
ARC
  5
480
100
AcDbEntity
  8
0
100
AcDbCircle
 62
7
  6
BYLAYER
 10
89.8620874318
 20
664.8370466679
 40
0.25
100
AcDbArc
 50
180.0
 51
270.0
  0
ARC
  5
481
100
AcDbEntity
  8
0
100
AcDbCircle
 62
7
  6
BYLAYER
 10
89.9339289245
 20
664.8370466679
 40
0.25
100
AcDbArc
 50
270.0
 51
360.0
  0
ARC
  5
482
100
AcDbEntity
  8
0
100
AcDbCircle
 62
7
  6
BYLAYER
 10
89.9339289245
 20
667.2118647349
 40
0.25
100
AcDbArc
 50
0.0
 51
90.0
  0
ARC
  5
483
100
AcDbEntity
  8
0
100
AcDbCircle
 62
7
  6
BYLAYER
 10
89.8620874318
 20
667.2118647349
 40
0.25
100
AcDbArc
 50
90.0
 51
180.0
  0
ARC
  5
484
100
AcDbEntity
  8
0
100
AcDbCircle
 62
7
  6
BYLAYER
 10
89.5879133934
 20
688.0722600701
 40
4.2139409396
100
AcDbArc
 50
355.1273437235
 51
359.9987560693
  0
ARC
  5
485
100
AcDbEntity
  8
0
100
AcDbCircle
 62
7
  6
BYLAYER
 10
89.8980081781
 20
688.0244557013
 40
3.6499995378
100
AcDbArc
 50
180.0000000058
 51
303.2255247079
  0
ARC
  5
486
100
AcDbEntity
  8
0
100
AcDbCircle
 62
7
  6
BYLAYER
 10
89.8980081781
 20
688.0244557013
 40
3.25
100
AcDbArc
 50
179.9999999965
 51
0.0000618108
  0
ARC
  5
487
100
AcDbEntity
  8
0
100
AcDbCircle
 62
7
  6
BYLAYER
 10
89.8980081781
 20
688.0244557013
 40
2.8499996326
100
AcDbArc
 50
179.9999222335
 51
0.0000721208
  0
CIRCLE
  5
488
100
AcDbEntity
  8
0
100
AcDbCircle
 62
7
  6
BYLAYER
 10
89.8980081781
 20
688.0244557014
 40
2.5
  0
CIRCLE
  5
489
100
AcDbEntity
  8
0
100
AcDbCircle
 62
7
  6
BYLAYER
 10
89.8980081781
 20
688.0244557014
 40
1.6666666667
  0
ARC
  5
48A
100
AcDbEntity
  8
0
100
AcDbCircle
 62
7
  6
BYLAYER
 10
89.1954207652
 20
688.7270431144
 40
0.4166666667
100
AcDbArc
 50
270.0000000071
 51
360.0
  0
ARC
  5
48B
100
AcDbEntity
  8
0
100
AcDbCircle
 62
7
  6
BYLAYER
 10
89.1954207652
 20
687.3218682885
 40
0.4166666667
100
AcDbArc
 50
0.0
 51
90.0000000033
  0
ARC
  5
48C
100
AcDbEntity
  8
0
100
AcDbCircle
 62
7
  6
BYLAYER
 10
88.7407762799
 20
688.0603764478
 40
0.25
100
AcDbArc
 50
90.0
 51
180.0000000002
  0
ARC
  5
48D
100
AcDbEntity
  8
0
100
AcDbCircle
 62
7
  6
BYLAYER
 10
88.7407762799
 20
687.9885349551
 40
0.25
100
AcDbArc
 50
179.9999999998
 51
270.0
  0
ARC
  5
48E
100
AcDbEntity
  8
0
100
AcDbCircle
 62
7
  6
BYLAYER
 10
89.8620874318
 20
686.8370466679
 40
0.25
100
AcDbArc
 50
180.0
 51
270.0
  0
ARC
  5
48F
100
AcDbEntity
  8
0
100
AcDbCircle
 62
7
  6
BYLAYER
 10
89.9339289244
 20
686.8370466679
 40
0.25
100
AcDbArc
 50
270.0
 51
360.0
  0
ARC
  5
490
100
AcDbEntity
  8
0
100
AcDbCircle
 62
7
  6
BYLAYER
 10
89.9339289244
 20
689.211864735
 40
0.25
100
AcDbArc
 50
0.0
 51
90.0
  0
ARC
  5
491
100
AcDbEntity
  8
0
100
AcDbCircle
 62
7
  6
BYLAYER
 10
89.8620874318
 20
689.211864735
 40
0.25
100
AcDbArc
 50
90.0
 51
180.0
  0
ARC
  5
492
100
AcDbEntity
  8
0
100
AcDbCircle
 62
7
  6
BYLAYER
 10
91.8980081781
 20
666.3345894582
 40
3.0
100
AcDbArc
 50
294.9998925987
 51
360.0
  0
ARC
  5
493
100
AcDbEntity
  8
0
100
AcDbCircle
 62
7
  6
BYLAYER
 10
91.2329241902
 20
666.0244557013
 40
3.0
100
AcDbArc
 50
270.0
 51
295.0000000005
  0
ARC
  5
494
100
AcDbEntity
  8
0
100
AcDbCircle
 62
7
  6
BYLAYER
 10
91.2329241902
 20
666.0244557013
 40
2.6000009081
100
AcDbArc
 50
270.000274691
 51
294.9997253401
  0
ARC
  5
495
100
AcDbEntity
  8
0
100
AcDbCircle
 62
7
  6
BYLAYER
 10
90.6005955911
 20
665.3218682884
 40
0.4166666667
100
AcDbArc
 50
89.9999999967
 51
180.0
  0
ARC
  5
496
100
AcDbEntity
  8
0
100
AcDbCircle
 62
7
  6
BYLAYER
 10
90.6005955911
 20
666.7270431144
 40
0.4166666667
100
AcDbArc
 50
180.0
 51
269.9999999931
  0
ARC
  5
497
100
AcDbEntity
  8
0
100
AcDbCircle
 62
7
  6
BYLAYER
 10
91.1155943469
 20
665.9885349551
 40
0.25
100
AcDbArc
 50
270.0
 51
360.0
  0
ARC
  5
498
100
AcDbEntity
  8
0
100
AcDbCircle
 62
7
  6
BYLAYER
 10
91.1155943469
 20
666.0603764477
 40
0.25
100
AcDbArc
 50
0.0
 51
90.0
  0
ARC
  5
499
100
AcDbEntity
  8
0
100
AcDbCircle
 62
7
  6
BYLAYER
 10
91.8980081781
 20
687.7143219444
 40
3.0
100
AcDbArc
 50
0.0
 51
65.0001451867
  0
ARC
  5
49A
100
AcDbEntity
  8
0
100
AcDbCircle
 62
7
  6
BYLAYER
 10
91.2329241902
 20
688.0244557013
 40
3.0
100
AcDbArc
 50
64.9999999997
 51
90.0
  0
ARC
  5
49B
100
AcDbEntity
  8
0
100
AcDbCircle
 62
7
  6
BYLAYER
 10
91.2329241902
 20
688.0244557013
 40
2.6000009081
100
AcDbArc
 50
65.0002746661
 51
89.999725309
  0
ARC
  5
49C
100
AcDbEntity
  8
0
100
AcDbCircle
 62
7
  6
BYLAYER
 10
90.6005955911
 20
687.3218682885
 40
0.4166666667
100
AcDbArc
 50
89.9999999967
 51
180.0
  0
ARC
  5
49D
100
AcDbEntity
  8
0
100
AcDbCircle
 62
7
  6
BYLAYER
 10
90.6005955911
 20
688.7270431144
 40
0.4166666667
100
AcDbArc
 50
180.0
 51
269.9999999929
  0
ARC
  5
49E
100
AcDbEntity
  8
0
100
AcDbCircle
 62
7
  6
BYLAYER
 10
91.1155943469
 20
687.9885349551
 40
0.25
100
AcDbArc
 50
270.0
 51
360.0
  0
ARC
  5
49F
100
AcDbEntity
  8
0
100
AcDbCircle
 62
7
  6
BYLAYER
 10
91.1155943469
 20
688.0603764478
 40
0.25
100
AcDbArc
 50
0.0
 51
90.0
  0
ARC
  5
4A0
100
AcDbEntity
  8
0
100
AcDbCircle
 62
7
  6
BYLAYER
 10
482.2949013089
 20
110.3248937419
 40
3.0
100
AcDbArc
 50
180.0
 51
245.0001451867
  0
ARC
  5
4A1
100
AcDbEntity
  8
0
100
AcDbCircle
 62
7
  6
BYLAYER
 10
482.9599852968
 20
110.014759985
 40
3.0
100
AcDbArc
 50
244.9999999997
 51
270.0
  0
ARC
  5
4A2
100
AcDbEntity
  8
0
100
AcDbCircle
 62
7
  6
BYLAYER
 10
482.9599852968
 20
110.014759985
 40
2.6000009081
100
AcDbArc
 50
245.0002746661
 51
269.999725309
  0
ARC
  5
4A3
100
AcDbEntity
  8
0
100
AcDbCircle
 62
7
  6
BYLAYER
 10
483.5923138959
 20
110.7173473979
 40
0.4166666667
100
AcDbArc
 50
269.9999999995
 51
360.0
  0
ARC
  5
4A4
100
AcDbEntity
  8
0
100
AcDbCircle
 62
7
  6
BYLAYER
 10
483.5923138959
 20
109.3121725719
 40
0.4166666667
100
AcDbArc
 50
0.0
 51
89.9999999994
  0
ARC
  5
4A5
100
AcDbEntity
  8
0
100
AcDbCircle
 62
7
  6
BYLAYER
 10
483.0773151401
 20
110.0506807312
 40
0.25
100
AcDbArc
 50
90.0
 51
180.0
  0
ARC
  5
4A6
100
AcDbEntity
  8
0
100
AcDbCircle
 62
7
  6
BYLAYER
 10
483.0773151401
 20
109.9788392386
 40
0.25
100
AcDbArc
 50
180.0
 51
270.0
  0
ARC
  5
4A7
100
AcDbEntity
  8
0
100
AcDbCircle
 62
7
  6
BYLAYER
 10
482.2949013089
 20
131.7046262281
 40
3.0
100
AcDbArc
 50
114.9998925986
 51
180.0
  0
ARC
  5
4A8
100
AcDbEntity
  8
0
100
AcDbCircle
 62
7
  6
BYLAYER
 10
482.9599852968
 20
132.014759985
 40
3.0
100
AcDbArc
 50
90.0
 51
115.0000000005
  0
ARC
  5
4A9
100
AcDbEntity
  8
0
100
AcDbCircle
 62
7
  6
BYLAYER
 10
482.9599852968
 20
132.014759985
 40
2.6000009081
100
AcDbArc
 50
90.000274691
 51
114.9997253401
  0
ARC
  5
4AA
100
AcDbEntity
  8
0
100
AcDbCircle
 62
7
  6
BYLAYER
 10
483.5923138959
 20
132.7173473979
 40
0.4166666667
100
AcDbArc
 50
270.0000000006
 51
360.0
  0
ARC
  5
4AB
100
AcDbEntity
  8
0
100
AcDbCircle
 62
7
  6
BYLAYER
 10
483.5923138959
 20
131.3121725719
 40
0.4166666667
100
AcDbArc
 50
0.0
 51
89.9999999994
  0
ARC
  5
4AC
100
AcDbEntity
  8
0
100
AcDbCircle
 62
7
  6
BYLAYER
 10
483.0773151401
 20
132.0506807312
 40
0.25
100
AcDbArc
 50
90.0
 51
180.0
  0
ARC
  5
4AD
100
AcDbEntity
  8
0
100
AcDbCircle
 62
7
  6
BYLAYER
 10
483.0773151401
 20
131.9788392386
 40
0.25
100
AcDbArc
 50
180.0
 51
270.0
  0
ARC
  5
4AE
100
AcDbEntity
  8
0
100
AcDbCircle
 62
7
  6
BYLAYER
 10
484.6049960933
 20
109.9669556162
 40
4.2139409392
100
AcDbArc
 50
175.1273437234
 51
179.9987560692
  0
ARC
  5
4AF
100
AcDbEntity
  8
0
100
AcDbCircle
 62
7
  6
BYLAYER
 10
484.2949013089
 20
110.014759985
 40
3.6499995378
100
AcDbArc
 50
0.0000000058
 51
123.2255247079
  0
ARC
  5
4B0
100
AcDbEntity
  8
0
100
AcDbCircle
 62
7
  6
BYLAYER
 10
484.2949013089
 20
110.014759985
 40
3.25
100
AcDbArc
 50
0.0
 51
180.0000618108
  0
ARC
  5
4B1
100
AcDbEntity
  8
0
100
AcDbCircle
 62
7
  6
BYLAYER
 10
484.2949013089
 20
110.014759985
 40
2.8499996326
100
AcDbArc
 50
359.9999222336
 51
180.0000721207
  0
CIRCLE
  5
4B2
100
AcDbEntity
  8
0
100
AcDbCircle
 62
7
  6
BYLAYER
 10
484.2949013089
 20
110.0147599849
 40
2.5
  0
CIRCLE
  5
4B3
100
AcDbEntity
  8
0
100
AcDbCircle
 62
7
  6
BYLAYER
 10
484.2949013089
 20
110.0147599849
 40
1.6666666667
  0
ARC
  5
4B4
100
AcDbEntity
  8
0
100
AcDbCircle
 62
7
  6
BYLAYER
 10
484.9974887219
 20
109.3121725719
 40
0.4166666667
100
AcDbArc
 50
90.0000000006
 51
179.9999999993
  0
ARC
  5
4B5
100
AcDbEntity
  8
0
100
AcDbCircle
 62
7
  6
BYLAYER
 10
484.9974887219
 20
110.7173473979
 40
0.4166666667
100
AcDbArc
 50
180.0000000007
 51
270.0000000005
  0
ARC
  5
4B6
100
AcDbEntity
  8
0
100
AcDbCircle
 62
7
  6
BYLAYER
 10
485.4521332072
 20
109.9788392386
 40
0.25
100
AcDbArc
 50
270.0
 51
360.0
  0
ARC
  5
4B7
100
AcDbEntity
  8
0
100
AcDbCircle
 62
7
  6
BYLAYER
 10
485.4521332072
 20
110.0506807312
 40
0.25
100
AcDbArc
 50
0.0
 51
90.0
  0
ARC
  5
4B8
100
AcDbEntity
  8
0
100
AcDbCircle
 62
7
  6
BYLAYER
 10
484.3308220552
 20
111.2021690184
 40
0.25
100
AcDbArc
 50
0.0
 51
90.0
  0
ARC
  5
4B9
100
AcDbEntity
  8
0
100
AcDbCircle
 62
7
  6
BYLAYER
 10
484.2589805626
 20
111.2021690184
 40
0.25
100
AcDbArc
 50
90.0
 51
180.0
  0
ARC
  5
4BA
100
AcDbEntity
  8
0
100
AcDbCircle
 62
7
  6
BYLAYER
 10
484.2589805626
 20
108.8273509514
 40
0.25
100
AcDbArc
 50
180.0
 51
270.0
  0
ARC
  5
4BB
100
AcDbEntity
  8
0
100
AcDbCircle
 62
7
  6
BYLAYER
 10
484.3308220552
 20
108.8273509514
 40
0.25
100
AcDbArc
 50
270.0
 51
360.0
  0
ARC
  5
4BC
100
AcDbEntity
  8
0
100
AcDbCircle
 62
7
  6
BYLAYER
 10
484.6108659272
 20
132.0628456214
 40
4.2198107886
100
AcDbArc
 50
180.0050612111
 51
184.869694774
  0
ARC
  5
4BD
100
AcDbEntity
  8
0
100
AcDbCircle
 62
7
  6
BYLAYER
 10
484.2949013089
 20
132.014759985
 40
3.6499995549
100
AcDbArc
 50
236.7744393816
 51
359.9999999978
  0
ARC
  5
4BE
100
AcDbEntity
  8
0
100
AcDbCircle
 62
7
  6
BYLAYER
 10
484.2949013089
 20
132.014759985
 40
3.25
100
AcDbArc
 50
179.9992827393
 51
360.0
  0
ARC
  5
4BF
100
AcDbEntity
  8
0
100
AcDbCircle
 62
7
  6
BYLAYER
 10
484.2949013089
 20
132.014759985
 40
2.8499996326
100
AcDbArc
 50
179.9999222308
 51
0.0000721184
  0
CIRCLE
  5
4C0
100
AcDbEntity
  8
0
100
AcDbCircle
 62
7
  6
BYLAYER
 10
484.2949013089
 20
132.0147599849
 40
2.5
  0
CIRCLE
  5
4C1
100
AcDbEntity
  8
0
100
AcDbCircle
 62
7
  6
BYLAYER
 10
484.2949013089
 20
132.0147599849
 40
1.6666666667
  0
ARC
  5
4C2
100
AcDbEntity
  8
0
100
AcDbCircle
 62
7
  6
BYLAYER
 10
484.9974887219
 20
131.3121725719
 40
0.4166666667
100
AcDbArc
 50
90.0000000006
 51
180.0000000003
  0
ARC
  5
4C3
100
AcDbEntity
  8
0
100
AcDbCircle
 62
7
  6
BYLAYER
 10
484.9974887219
 20
132.7173473979
 40
0.4166666667
100
AcDbArc
 50
179.9999999997
 51
269.9999999994
  0
ARC
  5
4C4
100
AcDbEntity
  8
0
100
AcDbCircle
 62
7
  6
BYLAYER
 10
485.4521332071
 20
131.9788392386
 40
0.25
100
AcDbArc
 50
270.0
 51
360.0
  0
ARC
  5
4C5
100
AcDbEntity
  8
0
100
AcDbCircle
 62
7
  6
BYLAYER
 10
485.4521332071
 20
132.0506807312
 40
0.25
100
AcDbArc
 50
0.0
 51
90.0
  0
ARC
  5
4C6
100
AcDbEntity
  8
0
100
AcDbCircle
 62
7
  6
BYLAYER
 10
484.3308220552
 20
133.2021690184
 40
0.25
100
AcDbArc
 50
0.0
 51
90.0
  0
ARC
  5
4C7
100
AcDbEntity
  8
0
100
AcDbCircle
 62
7
  6
BYLAYER
 10
484.2589805626
 20
133.2021690184
 40
0.25
100
AcDbArc
 50
90.0
 51
180.0
  0
ARC
  5
4C8
100
AcDbEntity
  8
0
100
AcDbCircle
 62
7
  6
BYLAYER
 10
484.2589805626
 20
130.8273509514
 40
0.25
100
AcDbArc
 50
180.0
 51
270.0
  0
ARC
  5
4C9
100
AcDbEntity
  8
0
100
AcDbCircle
 62
7
  6
BYLAYER
 10
484.3308220552
 20
130.8273509514
 40
0.25
100
AcDbArc
 50
270.0
 51
360.0
  0
ARC
  5
4CA
100
AcDbEntity
  8
0
100
AcDbCircle
 62
7
  6
BYLAYER
 10
493.0964547435
 20
383.6961268065
 40
4.4217881419
100
AcDbArc
 50
117.0495633292
 51
164.6496202964
  0
ARC
  5
4CB
100
AcDbEntity
  8
0
100
AcDbCircle
 62
7
  6
BYLAYER
 10
493.0964547435
 20
294.3762004109
 40
4.4217881419
100
AcDbArc
 50
195.3503797035
 51
242.9504366708
  0
ARC
  5
4CC
100
AcDbEntity
  8
0
100
AcDbCircle
 62
7
  6
BYLAYER
 10
482.2725454804
 20
666.2813940853
 40
3.0
100
AcDbArc
 50
180.0
 51
245.0001451867
  0
ARC
  5
4CD
100
AcDbEntity
  8
0
100
AcDbCircle
 62
7
  6
BYLAYER
 10
482.9376294684
 20
665.9712603284
 40
3.0
100
AcDbArc
 50
244.9999999997
 51
270.0
  0
ARC
  5
4CE
100
AcDbEntity
  8
0
100
AcDbCircle
 62
7
  6
BYLAYER
 10
482.9376294684
 20
665.9712603284
 40
2.6000009081
100
AcDbArc
 50
245.0002746661
 51
269.999725309
  0
ARC
  5
4CF
100
AcDbEntity
  8
0
100
AcDbCircle
 62
7
  6
BYLAYER
 10
483.5699580675
 20
666.6738477413
 40
0.4166666667
100
AcDbArc
 50
270.0000000071
 51
360.0
  0
ARC
  5
4D0
100
AcDbEntity
  8
0
100
AcDbCircle
 62
7
  6
BYLAYER
 10
483.5699580675
 20
665.2686729153
 40
0.4166666667
100
AcDbArc
 50
0.0
 51
90.0000000033
  0
ARC
  5
4D1
100
AcDbEntity
  8
0
100
AcDbCircle
 62
7
  6
BYLAYER
 10
483.0549593117
 20
666.0071810746
 40
0.25
100
AcDbArc
 50
90.0
 51
180.0
  0
ARC
  5
4D2
100
AcDbEntity
  8
0
100
AcDbCircle
 62
7
  6
BYLAYER
 10
483.0549593117
 20
665.935339582
 40
0.25
100
AcDbArc
 50
180.0
 51
270.0
  0
ARC
  5
4D3
100
AcDbEntity
  8
0
100
AcDbCircle
 62
7
  6
BYLAYER
 10
482.2725454804
 20
687.6611265715
 40
3.0
100
AcDbArc
 50
114.9998925987
 51
180.0
  0
ARC
  5
4D4
100
AcDbEntity
  8
0
100
AcDbCircle
 62
7
  6
BYLAYER
 10
482.9376294684
 20
687.9712603284
 40
3.0
100
AcDbArc
 50
90.0
 51
115.0000000005
  0
ARC
  5
4D5
100
AcDbEntity
  8
0
100
AcDbCircle
 62
7
  6
BYLAYER
 10
482.9376294684
 20
687.9712603284
 40
2.6000009081
100
AcDbArc
 50
90.000274691
 51
114.9997253401
  0
ARC
  5
4D6
100
AcDbEntity
  8
0
100
AcDbCircle
 62
7
  6
BYLAYER
 10
483.5699580675
 20
688.6738477413
 40
0.4166666667
100
AcDbArc
 50
270.0000000071
 51
360.0
  0
ARC
  5
4D7
100
AcDbEntity
  8
0
100
AcDbCircle
 62
7
  6
BYLAYER
 10
483.5699580675
 20
687.2686729153
 40
0.4166666667
100
AcDbArc
 50
0.0
 51
90.0000000033
  0
ARC
  5
4D8
100
AcDbEntity
  8
0
100
AcDbCircle
 62
7
  6
BYLAYER
 10
483.0549593117
 20
688.0071810746
 40
0.25
100
AcDbArc
 50
90.0
 51
180.0
  0
ARC
  5
4D9
100
AcDbEntity
  8
0
100
AcDbCircle
 62
7
  6
BYLAYER
 10
483.0549593117
 20
687.935339582
 40
0.25
100
AcDbArc
 50
180.0
 51
270.0
  0
ARC
  5
4DA
100
AcDbEntity
  8
0
100
AcDbCircle
 62
7
  6
BYLAYER
 10
484.5826402632
 20
665.9234559597
 40
4.2139409375
100
AcDbArc
 50
175.1273437223
 51
179.9987560707
  0
ARC
  5
4DB
100
AcDbEntity
  8
0
100
AcDbCircle
 62
7
  6
BYLAYER
 10
484.2725454804
 20
665.9712603284
 40
3.6499995378
100
AcDbArc
 50
0.0000000058
 51
123.2255247079
  0
ARC
  5
4DC
100
AcDbEntity
  8
0
100
AcDbCircle
 62
7
  6
BYLAYER
 10
484.2725454804
 20
665.9712603284
 40
3.25
100
AcDbArc
 50
0.0
 51
180.0000618108
  0
ARC
  5
4DD
100
AcDbEntity
  8
0
100
AcDbCircle
 62
7
  6
BYLAYER
 10
484.2725454804
 20
665.9712603284
 40
2.8499996326
100
AcDbArc
 50
359.9999222336
 51
180.0000721209
  0
CIRCLE
  5
4DE
100
AcDbEntity
  8
0
100
AcDbCircle
 62
7
  6
BYLAYER
 10
484.2725454805
 20
665.9712603283
 40
2.5
  0
CIRCLE
  5
4DF
100
AcDbEntity
  8
0
100
AcDbCircle
 62
7
  6
BYLAYER
 10
484.2725454805
 20
665.9712603283
 40
1.6666666667
  0
ARC
  5
4E0
100
AcDbEntity
  8
0
100
AcDbCircle
 62
7
  6
BYLAYER
 10
484.9751328934
 20
665.2686729153
 40
0.4166666667
100
AcDbArc
 50
89.9999999967
 51
179.9999999993
  0
ARC
  5
4E1
100
AcDbEntity
  8
0
100
AcDbCircle
 62
7
  6
BYLAYER
 10
484.9751328934
 20
666.6738477413
 40
0.4166666667
100
AcDbArc
 50
180.0000000007
 51
269.9999999929
  0
ARC
  5
4E2
100
AcDbEntity
  8
0
100
AcDbCircle
 62
7
  6
BYLAYER
 10
485.4297773787
 20
665.935339582
 40
0.25
100
AcDbArc
 50
270.0
 51
360.0
  0
ARC
  5
4E3
100
AcDbEntity
  8
0
100
AcDbCircle
 62
7
  6
BYLAYER
 10
485.4297773787
 20
666.0071810746
 40
0.25
100
AcDbArc
 50
0.0
 51
90.0
  0
ARC
  5
4E4
100
AcDbEntity
  8
0
100
AcDbCircle
 62
7
  6
BYLAYER
 10
484.3084662268
 20
667.1586693618
 40
0.25
100
AcDbArc
 50
0.0
 51
90.0
  0
ARC
  5
4E5
100
AcDbEntity
  8
0
100
AcDbCircle
 62
7
  6
BYLAYER
 10
484.2366247341
 20
667.1586693618
 40
0.25
100
AcDbArc
 50
90.0
 51
180.0
  0
ARC
  5
4E6
100
AcDbEntity
  8
0
100
AcDbCircle
 62
7
  6
BYLAYER
 10
484.2366247341
 20
664.7838512948
 40
0.25
100
AcDbArc
 50
180.0
 51
270.0
  0
ARC
  5
4E7
100
AcDbEntity
  8
0
100
AcDbCircle
 62
7
  6
BYLAYER
 10
484.3084662268
 20
664.7838512948
 40
0.25
100
AcDbArc
 50
270.0
 51
360.0
  0
ARC
  5
4E8
100
AcDbEntity
  8
0
100
AcDbCircle
 62
7
  6
BYLAYER
 10
484.5885100985
 20
688.0193459648
 40
4.2198107883
100
AcDbArc
 50
180.0050612106
 51
184.8696947743
  0
ARC
  5
4E9
100
AcDbEntity
  8
0
100
AcDbCircle
 62
7
  6
BYLAYER
 10
484.2725454804
 20
687.9712603284
 40
3.6499995549
100
AcDbArc
 50
236.7744393816
 51
359.9999999978
  0
ARC
  5
4EA
100
AcDbEntity
  8
0
100
AcDbCircle
 62
7
  6
BYLAYER
 10
484.2725454804
 20
687.9712603284
 40
3.25
100
AcDbArc
 50
179.9992827393
 51
360.0
  0
ARC
  5
4EB
100
AcDbEntity
  8
0
100
AcDbCircle
 62
7
  6
BYLAYER
 10
484.2725454804
 20
687.9712603284
 40
2.8499996326
100
AcDbArc
 50
179.9999222308
 51
0.0000721184
  0
CIRCLE
  5
4EC
100
AcDbEntity
  8
0
100
AcDbCircle
 62
7
  6
BYLAYER
 10
484.2725454804
 20
687.9712603283
 40
2.5
  0
CIRCLE
  5
4ED
100
AcDbEntity
  8
0
100
AcDbCircle
 62
7
  6
BYLAYER
 10
484.2725454804
 20
687.9712603283
 40
1.6666666667
  0
ARC
  5
4EE
100
AcDbEntity
  8
0
100
AcDbCircle
 62
7
  6
BYLAYER
 10
484.9751328934
 20
687.2686729153
 40
0.4166666667
100
AcDbArc
 50
89.9999999967
 51
180.0000000003
  0
ARC
  5
4EF
100
AcDbEntity
  8
0
100
AcDbCircle
 62
7
  6
BYLAYER
 10
484.9751328934
 20
688.6738477413
 40
0.4166666667
100
AcDbArc
 50
179.9999999996
 51
269.9999999929
  0
ARC
  5
4F0
100
AcDbEntity
  8
0
100
AcDbCircle
 62
7
  6
BYLAYER
 10
485.4297773787
 20
687.935339582
 40
0.25
100
AcDbArc
 50
270.0
 51
360.0
  0
ARC
  5
4F1
100
AcDbEntity
  8
0
100
AcDbCircle
 62
7
  6
BYLAYER
 10
485.4297773787
 20
688.0071810746
 40
0.25
100
AcDbArc
 50
0.0
 51
90.0
  0
ARC
  5
4F2
100
AcDbEntity
  8
0
100
AcDbCircle
 62
7
  6
BYLAYER
 10
484.3084662268
 20
689.1586693618
 40
0.25
100
AcDbArc
 50
0.0
 51
90.0
  0
ARC
  5
4F3
100
AcDbEntity
  8
0
100
AcDbCircle
 62
7
  6
BYLAYER
 10
484.2366247341
 20
689.1586693618
 40
0.25
100
AcDbArc
 50
90.0
 51
180.0
  0
ARC
  5
4F4
100
AcDbEntity
  8
0
100
AcDbCircle
 62
7
  6
BYLAYER
 10
484.2366247341
 20
686.7838512948
 40
0.25
100
AcDbArc
 50
180.0
 51
270.0
  0
ARC
  5
4F5
100
AcDbEntity
  8
0
100
AcDbCircle
 62
7
  6
BYLAYER
 10
484.3084662268
 20
686.7838512948
 40
0.25
100
AcDbArc
 50
270.0
 51
360.0
  0
SPLINE
  5
4F6
100
AcDbEntity
  8
0
100
AcDbSpline
 62
7
  6
BYLAYER
 70
0
 71
3
 72
12
 73
8
 74
0
 42
0.0000001
 43
0.0000001
 44
0.0000000001
 40
0.0
 40
0.0
 40
0.0
 40
0.0
 40
0.1140477002
 40
0.2142400311
 40
0.3447704465
 40
0.6689109959
 40
1.0
 40
1.0
 40
1.0
 40
1.0
 10
481.027048202
 20
134.423548822
 30
0.0
 10
481.0437716256
 20
134.4313479937
 30
0.0
 10
481.0827955097
 20
134.4159977739
 30
0.0
 10
481.123418699
 20
134.3805655467
 30
0.0
 10
481.1843279515
 20
134.3131099846
 30
0.0
 10
481.2527136704
 20
134.2057575282
 30
0.0
 10
481.2997043887
 20
134.110395892
 30
0.0
 10
481.3204986127
 20
134.0610270688
 30
0.0
  0
SPLINE
  5
4F7
100
AcDbEntity
  8
0
100
AcDbSpline
 62
7
  6
BYLAYER
 70
0
 71
3
 72
9
 73
5
 74
0
 42
0.0000001
 43
0.0000001
 44
0.0000000001
 40
0.0
 40
0.0
 40
0.0
 40
0.0
 40
0.2966377822
 40
1.0
 40
1.0
 40
1.0
 40
1.0
 10
480.6449013089
 20
132.0764976213
 30
0.0
 10
480.6197545927
 20
132.0764975709
 30
0.0
 10
480.5350016584
 20
132.075196872
 30
0.0
 10
480.4502110619
 20
132.0699694465
 30
0.0
 10
480.3910585301
 20
132.0624722473
 30
0.0
  0
SPLINE
  5
4F8
100
AcDbEntity
  8
0
100
AcDbSpline
 62
7
  6
BYLAYER
 70
0
 71
3
 72
13
 73
9
 74
0
 42
0.0000001
 43
0.0000001
 44
0.0000000001
 40
0.0
 40
0.0
 40
0.0
 40
0.0
 40
0.0269725314
 40
0.0757739678
 40
0.1565629412
 40
0.2727285561
 40
0.6031450231
 40
1.0
 40
1.0
 40
1.0
 40
1.0
 10
481.0449057174
 20
132.0147600276
 30
0.0
 10
481.0449056148
 20
132.0184704009
 30
0.0
 10
481.038167917
 20
132.0280336912
 30
0.0
 10
481.0187260143
 20
132.0373087613
 30
0.0
 10
480.9864271186
 20
132.0477213984
 30
0.0
 10
480.9152073009
 20
132.0619004255
 30
0.0
 10
480.799540725
 20
132.0734096233
 30
0.0
 10
480.6994931473
 20
132.076497694
 30
0.0
 10
480.6449013089
 20
132.0764975841
 30
0.0
  0
SPLINE
  5
4F9
100
AcDbEntity
  8
0
100
AcDbSpline
 62
7
  6
BYLAYER
 70
0
 71
3
 72
9
 73
5
 74
0
 42
0.0000001
 43
0.0000001
 44
0.0000000001
 40
0.0
 40
0.0
 40
0.0
 40
0.0
 40
0.5895033168
 40
1.0
 40
1.0
 40
1.0
 40
1.0
 10
481.0984999127
 20
133.7974000923
 30
0.0
 10
481.083516616
 20
133.7753029068
 30
0.0
 10
481.0605067513
 20
133.7365931328
 30
0.0
 10
481.0449053844
 20
133.6923614597
 30
0.0
 10
481.0449129288
 20
133.6737704673
 30
0.0
  0
SPLINE
  5
4FA
100
AcDbEntity
  8
0
100
AcDbSpline
 62
7
  6
BYLAYER
 70
0
 71
3
 72
9
 73
5
 74
0
 42
0.0000001
 43
0.0000001
 44
0.0000000001
 40
0.0
 40
0.0
 40
0.0
 40
0.0
 40
0.2704838407
 40
1.0
 40
1.0
 40
1.0
 40
1.0
 10
481.3205093381
 20
134.0610133045
 30
0.0
 10
481.2977572285
 20
134.0397894979
 30
0.0
 10
481.216614406
 20
133.9581354525
 30
0.0
 10
481.1456013337
 20
133.8668506646
 30
0.0
 10
481.0984999827
 20
133.7973977392
 30
0.0
  0
SPLINE
  5
4FB
100
AcDbEntity
  8
0
100
AcDbSpline
 62
7
  6
BYLAYER
 70
0
 71
3
 72
11
 73
7
 74
0
 42
0.0000001
 43
0.0000001
 44
0.0000000001
 40
0.0
 40
0.0
 40
0.0
 40
0.0
 40
0.3375389512
 40
0.5925627711
 40
0.7940768015
 40
1.0
 40
1.0
 40
1.0
 40
1.0
 10
487.4913011945
 20
107.4147782809
 30
0.0
 10
487.4991010157
 20
107.4147792711
 30
0.0
 10
487.5128168386
 20
107.415551951
 30
0.0
 10
487.5307937286
 20
107.4204980882
 30
0.0
 10
487.5429315294
 20
107.4311267139
 30
0.0
 10
487.544891825
 20
107.4409755155
 30
0.0
 10
487.5448906444
 20
107.4457339711
 30
0.0
  0
SPLINE
  5
4FC
100
AcDbEntity
  8
0
100
AcDbSpline
 62
7
  6
BYLAYER
 70
0
 71
3
 72
11
 73
7
 74
0
 42
0.0000001
 43
0.0000001
 44
0.0000000001
 40
0.0
 40
0.0
 40
0.0
 40
0.0
 40
0.2523710741
 40
0.503320698
 40
0.7523293402
 40
1.0
 40
1.0
 40
1.0
 40
1.0
 10
480.6449013089
 20
134.0657994561
 30
0.0
 10
480.6968944977
 20
134.0657979074
 30
0.0
 10
480.8016931975
 20
134.0455093883
 30
0.0
 10
480.9345807627
 20
133.9585346677
 30
0.0
 10
481.0239411397
 20
133.8282737275
 30
0.0
 10
481.0449014978
 20
133.7247918792
 30
0.0
 10
481.0449013089
 20
133.6737670642
 30
0.0
  0
SPLINE
  5
4FD
100
AcDbEntity
  8
0
100
AcDbSpline
 62
7
  6
BYLAYER
 70
0
 71
3
 72
11
 73
7
 74
0
 42
0.0000001
 43
0.0000001
 44
0.0000000001
 40
0.0
 40
0.0
 40
0.0
 40
0.0
 40
0.223878454
 40
0.4766114939
 40
0.7441160033
 40
1.0
 40
1.0
 40
1.0
 40
1.0
 10
487.8377199342
 20
107.0147886102
 30
0.0
 10
487.7941983935
 20
107.014785599
 30
0.0
 10
487.7004661722
 20
107.0358164516
 30
0.0
 10
487.5829155355
 20
107.1275283378
 30
0.0
 10
487.5078478436
 20
107.2625037436
 30
0.0
 10
487.4912991327
 20
107.3650166278
 30
0.0
 10
487.491297308
 20
107.4147599844
 30
0.0
  0
SPLINE
  5
4FE
100
AcDbEntity
  8
0
100
AcDbSpline
 62
7
  6
BYLAYER
 70
0
 71
3
 72
9
 73
5
 74
0
 42
0.0000001
 43
0.0000001
 44
0.0000000001
 40
0.0
 40
0.0
 40
0.0
 40
0.0
 40
0.4989154126
 40
1.0
 40
1.0
 40
1.0
 40
1.0
 10
480.3910551551
 20
133.9768128551
 30
0.0
 10
480.426417409
 20
134.0052585415
 30
0.0
 10
480.5076872504
 20
134.0503956865
 30
0.0
 10
480.5993206693
 20
134.0658086806
 30
0.0
 10
480.6449013089
 20
134.0657994561
 30
0.0
  0
SPLINE
  5
4FF
100
AcDbEntity
  8
0
100
AcDbSpline
 62
7
  6
BYLAYER
 70
0
 71
3
 72
10
 73
6
 74
0
 42
0.0000001
 43
0.0000001
 44
0.0000000001
 40
0.0
 40
0.0
 40
0.0
 40
0.0
 40
0.6322330962
 40
0.8474161435
 40
1.0
 40
1.0
 40
1.0
 40
1.0
 10
480.5147239191
 20
134.119366061
 30
0.0
 10
480.4820302155
 20
134.0952578781
 30
0.0
 10
480.4389815363
 20
134.0606399089
 30
0.0
 10
480.3997460831
 20
134.0097060275
 30
0.0
 10
480.3910788028
 20
133.9865716397
 30
0.0
 10
480.391055155
 20
133.9767680989
 30
0.0
  0
SPLINE
  5
500
100
AcDbEntity
  8
0
100
AcDbSpline
 62
7
  6
BYLAYER
 70
0
 71
3
 72
11
 73
7
 74
0
 42
0.0000001
 43
0.0000001
 44
0.0000000001
 40
0.0
 40
0.0
 40
0.0
 40
0.0
 40
0.2414461237
 40
0.5019587126
 40
0.7612325544
 40
1.0
 40
1.0
 40
1.0
 40
1.0
 10
487.9449013063
 20
107.0505187174
 30
0.0
 10
487.8949592231
 20
107.0505158662
 30
0.0
 10
487.7901409066
 20
107.0701103931
 30
0.0
 10
487.6544053955
 20
107.1581154219
 30
0.0
 10
487.5648941615
 20
107.2922908675
 30
0.0
 10
487.5448925595
 20
107.3963271527
 30
0.0
 10
487.5448906426
 20
107.445715163
 30
0.0
  0
SPLINE
  5
501
100
AcDbEntity
  8
0
100
AcDbSpline
 62
7
  6
BYLAYER
 70
0
 71
3
 72
11
 73
7
 74
0
 42
0.0000001
 43
0.0000001
 44
0.0000000001
 40
0.0
 40
0.0
 40
0.0
 40
0.0
 40
0.3873031076
 40
0.6683530788
 40
0.8570539417
 40
1.0
 40
1.0
 40
1.0
 40
1.0
 10
487.8377216372
 20
107.014759985
 30
0.0
 10
487.8534065787
 20
107.0147600029
 30
0.0
 10
487.8806168212
 20
107.0154856219
 30
0.0
 10
487.9147078701
 20
107.020951587
 30
0.0
 10
487.9386590105
 20
107.0310048958
 30
0.0
 10
487.9449038815
 20
107.0446861562
 30
0.0
 10
487.9449013089
 20
107.050475163
 30
0.0
  0
SPLINE
  5
502
100
AcDbEntity
  8
0
100
AcDbSpline
 62
7
  6
BYLAYER
 70
0
 71
3
 72
11
 73
7
 74
0
 42
0.0000001
 43
0.0000001
 44
0.0000000001
 40
0.0
 40
0.0
 40
0.0
 40
0.0
 40
0.2539753862
 40
0.5023672
 40
0.7487291455
 40
1.0
 40
1.0
 40
1.0
 40
1.0
 10
482.2949013089
 20
113.0680448499
 30
0.0
 10
482.0406667328
 20
112.9237012631
 30
0.0
 10
481.5650177552
 20
112.586001594
 30
0.0
 10
480.9830995209
 20
111.9403942168
 30
0.0
 10
480.5701722354
 20
111.1778628875
 30
0.0
 10
480.4346276612
 20
110.612741647
 30
0.0
 10
480.4062859035
 20
110.3248937419
 30
0.0
  0
SPLINE
  5
503
100
AcDbEntity
  8
0
100
AcDbSpline
 62
7
  6
BYLAYER
 70
0
 71
3
 72
16
 73
12
 74
0
 42
0.0000001
 43
0.0000001
 44
0.0000000001
 40
0.0
 40
0.0
 40
0.0
 40
0.0
 40
0.2838971917
 40
0.4653768133
 40
0.6477535025
 40
0.8047031984
 40
0.9168466336
 40
0.95375835
 40
0.9788056948
 40
0.9934804045
 40
1.0
 40
1.0
 40
1.0
 40
1.0
 10
480.4062845843
 20
110.3248946519
 30
0.0
 10
480.4675761315
 20
110.3162367475
 30
0.0
 10
480.5684646403
 20
110.3049816336
 30
0.0
 10
480.7091635932
 20
110.2927995967
 30
0.0
 10
480.8225176045
 20
110.2853715738
 30
0.0
 10
480.9207928738
 20
110.2813352477
 30
0.0
 10
480.9877282038
 20
110.2809739987
 30
0.0
 10
481.0254252563
 20
110.2827368668
 30
0.0
 10
481.0423886466
 20
110.2848754175
 30
0.0
 10
481.0516460508
 20
110.2866691849
 30
0.0
 10
481.0565356963
 20
110.2894894526
 30
0.0
 10
481.0566563082
 20
110.2909058381
 30
0.0
  0
SPLINE
  5
504
100
AcDbEntity
  8
0
100
AcDbSpline
 62
7
  6
BYLAYER
 70
0
 71
3
 72
9
 73
5
 74
0
 42
0.0000001
 43
0.0000001
 44
0.0000000001
 40
0.0
 40
0.0
 40
0.0
 40
0.0
 40
0.1977562152
 40
1.0
 40
1.0
 40
1.0
 40
1.0
 10
480.3910557186
 20
109.9670472091
 30
0.0
 10
480.4076870816
 20
109.9649393131
 30
0.0
 10
480.4920019893
 20
109.9560029506
 30
0.0
 10
480.5768926037
 20
109.953022049
 30
0.0
 10
480.6449013089
 20
109.9530220259
 30
0.0
  0
SPLINE
  5
505
100
AcDbEntity
  8
0
100
AcDbSpline
 62
7
  6
BYLAYER
 70
0
 71
3
 72
13
 73
9
 74
0
 42
0.0000001
 43
0.0000001
 44
0.0000000001
 40
0.0
 40
0.0
 40
0.0
 40
0.0
 40
0.396856725
 40
0.7272729887
 40
0.8434381313
 40
0.9242265911
 40
0.9730275955
 40
1.0
 40
1.0
 40
1.0
 40
1.0
 10
480.6449013089
 20
109.9530220284
 30
0.0
 10
480.6994929375
 20
109.9530220098
 30
0.0
 10
480.7995399002
 20
109.9561102189
 30
0.0
 10
480.915205642
 20
109.9676195466
 30
0.0
 10
480.9864246863
 20
109.9817986336
 30
0.0
 10
481.0187230624
 20
109.9922112732
 30
0.0
 10
481.0381646503
 20
110.0014863423
 30
0.0
 10
481.044902041
 20
110.011049654
 30
0.0
 10
481.0449020569
 20
110.0147599791
 30
0.0
  0
SPLINE
  5
506
100
AcDbEntity
  8
0
100
AcDbSpline
 62
7
  6
BYLAYER
 70
0
 71
3
 72
11
 73
7
 74
0
 42
0.0000001
 43
0.0000001
 44
0.0000000001
 40
0.0
 40
0.0
 40
0.0
 40
0.0
 40
0.2523587406
 40
0.5032976709
 40
0.7523102757
 40
1.0
 40
1.0
 40
1.0
 40
1.0
 10
480.6449013089
 20
107.9637266602
 30
0.0
 10
480.6968930292
 20
107.9637268904
 30
0.0
 10
480.8016925746
 20
107.983992026
 30
0.0
 10
480.9345858304
 20
108.0709641218
 30
0.0
 10
481.0239441454
 20
108.2012340635
 30
0.0
 10
481.0449015137
 20
108.3047231552
 30
0.0
 10
481.0449013089
 20
108.3557529504
 30
0.0
  0
SPLINE
  5
507
100
AcDbEntity
  8
0
100
AcDbSpline
 62
7
  6
BYLAYER
 70
0
 71
3
 72
11
 73
7
 74
0
 42
0.0000001
 43
0.0000001
 44
0.0000000001
 40
0.0
 40
0.0
 40
0.0
 40
0.0
 40
0.2512719326
 40
0.4976334996
 40
0.7460232534
 40
1.0
 40
1.0
 40
1.0
 40
1.0
 10
480.4062827015
 20
131.7046262281
 30
0.0
 10
480.4346288855
 20
131.4167775039
 30
0.0
 10
480.5701734977
 20
130.8516562535
 30
0.0
 10
480.9831009285
 20
130.0891262182
 30
0.0
 10
481.5650190668
 20
129.4435210306
 30
0.0
 10
482.0406655921
 20
129.1058192975
 30
0.0
 10
482.2949013089
 20
128.9614745318
 30
0.0
  0
SPLINE
  5
508
100
AcDbEntity
  8
0
100
AcDbSpline
 62
7
  6
BYLAYER
 70
0
 71
3
 72
9
 73
5
 74
0
 42
0.0000001
 43
0.0000001
 44
0.0000000001
 40
0.0
 40
0.0
 40
0.0
 40
0.0
 40
0.4105077453
 40
1.0
 40
1.0
 40
1.0
 40
1.0
 10
481.0449132464
 20
108.3557486646
 30
0.0
 10
481.0449057429
 20
108.3371577949
 30
0.0
 10
481.0605057329
 20
108.2929274301
 30
0.0
 10
481.0835146186
 20
108.2542186882
 30
0.0
 10
481.0984972062
 20
108.2321227095
 30
0.0
  0
SPLINE
  5
509
100
AcDbEntity
  8
0
100
AcDbSpline
 62
7
  6
BYLAYER
 70
0
 71
3
 72
9
 73
5
 74
0
 42
0.0000001
 43
0.0000001
 44
0.0000000001
 40
0.0
 40
0.0
 40
0.0
 40
0.0
 40
0.2191796735
 40
1.0
 40
1.0
 40
1.0
 40
1.0
 10
481.0984916896
 20
108.2321156032
 30
0.0
 10
481.1126399813
 20
108.2112573493
 30
0.0
 10
481.1790812673
 20
108.1174394585
 30
0.0
 10
481.2548324283
 20
108.0297435352
 30
0.0
 10
481.3204916702
 20
107.9684996412
 30
0.0
  0
SPLINE
  5
50A
100
AcDbEntity
  8
0
100
AcDbSpline
 62
7
  6
BYLAYER
 70
0
 71
3
 72
9
 73
5
 74
0
 42
0.0000001
 43
0.0000001
 44
0.0000000001
 40
0.0
 40
0.0
 40
0.0
 40
0.0
 40
0.5011986913
 40
1.0
 40
1.0
 40
1.0
 40
1.0
 10
480.6449013089
 20
107.9637266602
 30
0.0
 10
480.5993191814
 20
107.9637592454
 30
0.0
 10
480.5077209518
 20
107.9791648567
 30
0.0
 10
480.4264262862
 20
108.024213127
 30
0.0
 10
480.3910551551
 20
108.0526170918
 30
0.0
  0
SPLINE
  5
50B
100
AcDbEntity
  8
0
100
AcDbSpline
 62
7
  6
BYLAYER
 70
0
 71
3
 72
10
 73
6
 74
0
 42
0.0000001
 43
0.0000001
 44
0.0000000001
 40
0.0
 40
0.0
 40
0.0
 40
0.0
 40
0.1526428855
 40
0.3678266995
 40
1.0
 40
1.0
 40
1.0
 40
1.0
 10
480.391055155
 20
108.0527289109
 30
0.0
 10
480.3911007039
 20
108.0429236663
 30
0.0
 10
480.3997544337
 20
108.0197964409
 30
0.0
 10
480.4389964206
 20
107.968870951
 30
0.0
 10
480.4820267054
 20
107.9342644302
 30
0.0
 10
480.5147107303
 20
107.9101636319
 30
0.0
  0
SPLINE
  5
50C
100
AcDbEntity
  8
0
100
AcDbSpline
 62
7
  6
BYLAYER
 70
0
 71
3
 72
11
 73
7
 74
0
 42
0.0000001
 43
0.0000001
 44
0.0000000001
 40
0.0
 40
0.0
 40
0.0
 40
0.0
 40
0.2132250487
 40
0.480121499
 40
0.7627953905
 40
1.0
 40
1.0
 40
1.0
 40
1.0
 10
480.5147263212
 20
107.9101625084
 30
0.0
 10
480.5590628322
 20
107.8774734649
 30
0.0
 10
480.6856997938
 20
107.8369346823
 30
0.0
 10
480.8841467497
 20
107.8978287814
 30
0.0
 10
481.0343452786
 20
108.0441435409
 30
0.0
 10
481.087388367
 20
108.1718542889
 30
0.0
 10
481.0984946469
 20
108.2321187825
 30
0.0
  0
SPLINE
  5
50D
100
AcDbEntity
  8
0
100
AcDbSpline
 62
7
  6
BYLAYER
 70
0
 71
3
 72
12
 73
8
 74
0
 42
0.0000001
 43
0.0000001
 44
0.0000000001
 40
0.0
 40
0.0
 40
0.0
 40
0.0
 40
0.1256403897
 40
0.2344748991
 40
0.3715332375
 40
0.6920029083
 40
1.0
 40
1.0
 40
1.0
 40
1.0
 10
481.02704492
 20
107.6059779147
 30
0.0
 10
481.0454552296
 20
107.5973917829
 30
0.0
 10
481.0879145658
 20
107.6166898117
 30
0.0
 10
481.1302596506
 20
107.6558226319
 30
0.0
 10
481.1910227145
 20
107.7259969575
 30
0.0
 10
481.2564879883
 20
107.8310264621
 30
0.0
 10
481.3011638654
 20
107.9226053413
 30
0.0
 10
481.3204938383
 20
107.9684988975
 30
0.0
  0
SPLINE
  5
50E
100
AcDbEntity
  8
0
100
AcDbSpline
 62
7
  6
BYLAYER
 70
0
 71
3
 72
11
 73
7
 74
0
 42
0.0000001
 43
0.0000001
 44
0.0000000001
 40
0.0
 40
0.0
 40
0.0
 40
0.0
 40
0.2057224304
 40
0.4680399112
 40
0.7541577972
 40
1.0
 40
1.0
 40
1.0
 40
1.0
 10
480.5147326696
 20
134.1193778211
 30
0.0
 10
480.5575141979
 20
134.1509210353
 30
0.0
 10
480.6799669
 20
134.1917731575
 30
0.0
 10
480.8774020854
 20
134.1358674777
 30
0.0
 10
481.0316257677
 20
133.9904207791
 30
0.0
 10
481.086983986
 20
133.8598723457
 30
0.0
 10
481.0984953605
 20
133.7974053919
 30
0.0
  0
SPLINE
  5
50F
100
AcDbEntity
  8
0
100
AcDbSpline
 62
7
  6
BYLAYER
 70
0
 71
3
 72
16
 73
12
 74
0
 42
0.0000001
 43
0.0000001
 44
0.0000000001
 40
0.0
 40
0.0
 40
0.0
 40
0.0
 40
0.2846723048
 40
0.4664185828
 40
0.6487876804
 40
0.8054624666
 40
0.9172294412
 40
0.9539824952
 40
0.9789094702
 40
0.9935080488
 40
1.0
 40
1.0
 40
1.0
 40
1.0
 10
480.4062892637
 20
131.7046264162
 30
0.0
 10
480.4677479127
 20
131.7133081064
 30
0.0
 10
480.5688628075
 20
131.7245818709
 30
0.0
 10
480.7097871378
 20
131.7367696055
 30
0.0
 10
480.82313808
 20
131.7441828438
 30
0.0
 10
480.9212709741
 20
131.7481969072
 30
0.0
 10
480.9880274928
 20
131.7485406174
 30
0.0
 10
481.0255839885
 20
131.7467704449
 30
0.0
 10
481.0424644236
 20
131.7446321045
 30
0.0
 10
481.051681196
 20
131.7428398803
 30
0.0
 10
481.0565367944
 20
131.7400241101
 30
0.0
 10
481.0566571478
 20
131.7386137569
 30
0.0
  0
SPLINE
  5
510
100
AcDbEntity
  8
0
100
AcDbSpline
 62
7
  6
BYLAYER
 70
0
 71
3
 72
11
 73
7
 74
0
 42
0.0000001
 43
0.0000001
 44
0.0000000001
 40
0.0
 40
0.0
 40
0.0
 40
0.0
 40
0.1429471761
 40
0.3316477769
 40
0.6126971308
 40
1.0
 40
1.0
 40
1.0
 40
1.0
 10
487.9449013089
 20
134.9790448099
 30
0.0
 10
487.9449038365
 20
134.9848338407
 30
0.0
 10
487.9386587262
 20
134.9985149498
 30
0.0
 10
487.9147078689
 20
135.0085684083
 30
0.0
 10
487.8806169078
 20
135.0140343219
 30
0.0
 10
487.8534068275
 20
135.0147599594
 30
0.0
 10
487.8377219536
 20
135.014759985
 30
0.0
  0
SPLINE
  5
511
100
AcDbEntity
  8
0
100
AcDbSpline
 62
7
  6
BYLAYER
 70
0
 71
3
 72
11
 73
7
 74
0
 42
0.0000001
 43
0.0000001
 44
0.0000000001
 40
0.0
 40
0.0
 40
0.0
 40
0.0
 40
0.2387674923
 40
0.4980413457
 40
0.7585539171
 40
1.0
 40
1.0
 40
1.0
 40
1.0
 10
487.544890533
 20
134.5838047886
 30
0.0
 10
487.544892456
 20
134.6331927975
 30
0.0
 10
487.5648940855
 20
134.7372290714
 30
0.0
 10
487.654405394
 20
134.8714044426
 30
0.0
 10
487.790140946
 20
134.9594093286
 30
0.0
 10
487.8949592427
 20
134.9790037556
 30
0.0
 10
487.9449013063
 20
134.979000864
 30
0.0
  0
SPLINE
  5
512
100
AcDbEntity
  8
0
100
AcDbSpline
 62
7
  6
BYLAYER
 70
0
 71
3
 72
11
 73
7
 74
0
 42
0.0000001
 43
0.0000001
 44
0.0000000001
 40
0.0
 40
0.0
 40
0.0
 40
0.0
 40
0.2238783593
 40
0.4766113528
 40
0.7441159034
 40
1.0
 40
1.0
 40
1.0
 40
1.0
 10
487.8377190903
 20
135.014731636
 30
0.0
 10
487.7941975875
 20
135.0147346044
 30
0.0
 10
487.7004654565
 20
134.99370365
 30
0.0
 10
487.5829150188
 20
134.9019916517
 30
0.0
 10
487.5078475102
 20
134.7670162102
 30
0.0
 10
487.4912988722
 20
134.664503339
 30
0.0
 10
487.4912970686
 20
134.6147599851
 30
0.0
  0
SPLINE
  5
513
100
AcDbEntity
  8
0
100
AcDbSpline
 62
7
  6
BYLAYER
 70
0
 71
3
 72
11
 73
7
 74
0
 42
0.0000001
 43
0.0000001
 44
0.0000000001
 40
0.0
 40
0.0
 40
0.0
 40
0.0
 40
0.2059262004
 40
0.4074401021
 40
0.6624627449
 40
1.0
 40
1.0
 40
1.0
 40
1.0
 10
487.5448905347
 20
134.583799858
 30
0.0
 10
487.5448918773
 20
134.5885584436
 30
0.0
 10
487.542931918
 20
134.598407533
 30
0.0
 10
487.5307941572
 20
134.6090366481
 30
0.0
 10
487.5128171118
 20
134.613982961
 30
0.0
 10
487.4991011811
 20
134.6147556554
 30
0.0
 10
487.4913012995
 20
134.6147566332
 30
0.0
  0
SPLINE
  5
514
100
AcDbEntity
  8
0
100
AcDbSpline
 62
7
  6
BYLAYER
 70
0
 71
3
 72
12
 73
8
 74
0
 42
0.0000001
 43
0.0000001
 44
0.0000000001
 40
0.0
 40
0.0
 40
0.0
 40
0.0
 40
0.1140477002
 40
0.2142400311
 40
0.3447704465
 40
0.6689109959
 40
1.0
 40
1.0
 40
1.0
 40
1.0
 10
481.0046923735
 20
690.3800491654
 30
0.0
 10
481.0214157972
 20
690.3878483371
 30
0.0
 10
481.0604396812
 20
690.3724981173
 30
0.0
 10
481.1010628705
 20
690.3370658901
 30
0.0
 10
481.1619721231
 20
690.269610328
 30
0.0
 10
481.230357842
 20
690.1622578716
 30
0.0
 10
481.2773485603
 20
690.0668962354
 30
0.0
 10
481.2981427843
 20
690.0175274122
 30
0.0
  0
SPLINE
  5
515
100
AcDbEntity
  8
0
100
AcDbSpline
 62
7
  6
BYLAYER
 70
0
 71
3
 72
9
 73
5
 74
0
 42
0.0000001
 43
0.0000001
 44
0.0000000001
 40
0.0
 40
0.0
 40
0.0
 40
0.0
 40
0.2966377822
 40
1.0
 40
1.0
 40
1.0
 40
1.0
 10
480.6225454805
 20
688.0329979647
 30
0.0
 10
480.5973987642
 20
688.0329979143
 30
0.0
 10
480.5126458299
 20
688.0316972154
 30
0.0
 10
480.4278552334
 20
688.0264697899
 30
0.0
 10
480.3687027016
 20
688.0189725907
 30
0.0
  0
SPLINE
  5
516
100
AcDbEntity
  8
0
100
AcDbSpline
 62
7
  6
BYLAYER
 70
0
 71
3
 72
13
 73
9
 74
0
 42
0.0000001
 43
0.0000001
 44
0.0000000001
 40
0.0
 40
0.0
 40
0.0
 40
0.0
 40
0.0269725314
 40
0.0757739678
 40
0.1565629412
 40
0.2727285561
 40
0.6031450231
 40
1.0
 40
1.0
 40
1.0
 40
1.0
 10
481.022549889
 20
687.9712603711
 30
0.0
 10
481.0225497864
 20
687.9749707443
 30
0.0
 10
481.0158120885
 20
687.9845340346
 30
0.0
 10
480.9963701858
 20
687.9938091047
 30
0.0
 10
480.9640712902
 20
688.0042217418
 30
0.0
 10
480.8928514725
 20
688.0184007689
 30
0.0
 10
480.7771848965
 20
688.0299099667
 30
0.0
 10
480.6771373189
 20
688.0329980374
 30
0.0
 10
480.6225454805
 20
688.0329979275
 30
0.0
  0
SPLINE
  5
517
100
AcDbEntity
  8
0
100
AcDbSpline
 62
7
  6
BYLAYER
 70
0
 71
3
 72
9
 73
5
 74
0
 42
0.0000001
 43
0.0000001
 44
0.0000000001
 40
0.0
 40
0.0
 40
0.0
 40
0.0
 40
0.5895033168
 40
1.0
 40
1.0
 40
1.0
 40
1.0
 10
481.0761440842
 20
689.7539004357
 30
0.0
 10
481.0611607876
 20
689.7318032502
 30
0.0
 10
481.0381509229
 20
689.6930934762
 30
0.0
 10
481.022549556
 20
689.6488618031
 30
0.0
 10
481.0225571003
 20
689.6302708107
 30
0.0
  0
SPLINE
  5
518
100
AcDbEntity
  8
0
100
AcDbSpline
 62
7
  6
BYLAYER
 70
0
 71
3
 72
9
 73
5
 74
0
 42
0.0000001
 43
0.0000001
 44
0.0000000001
 40
0.0
 40
0.0
 40
0.0
 40
0.0
 40
0.2704838407
 40
1.0
 40
1.0
 40
1.0
 40
1.0
 10
481.2981535097
 20
690.017513648
 30
0.0
 10
481.2754014001
 20
689.9962898414
 30
0.0
 10
481.1942585776
 20
689.914635796
 30
0.0
 10
481.1232455053
 20
689.823351008
 30
0.0
 10
481.0761441542
 20
689.7538980826
 30
0.0
  0
SPLINE
  5
519
100
AcDbEntity
  8
0
100
AcDbSpline
 62
7
  6
BYLAYER
 70
0
 71
3
 72
11
 73
7
 74
0
 42
0.0000001
 43
0.0000001
 44
0.0000000001
 40
0.0
 40
0.0
 40
0.0
 40
0.0
 40
0.3375389513
 40
0.5925627713
 40
0.7940768016
 40
1.0
 40
1.0
 40
1.0
 40
1.0
 10
487.4689453661
 20
663.3712786243
 30
0.0
 10
487.4767451873
 20
663.3712796145
 30
0.0
 10
487.4904610101
 20
663.3720522944
 30
0.0
 10
487.5084379001
 20
663.3769984316
 30
0.0
 10
487.520575701
 20
663.3876270573
 30
0.0
 10
487.5225359965
 20
663.3974758589
 30
0.0
 10
487.522534816
 20
663.4022343145
 30
0.0
  0
SPLINE
  5
51A
100
AcDbEntity
  8
0
100
AcDbSpline
 62
7
  6
BYLAYER
 70
0
 71
3
 72
11
 73
7
 74
0
 42
0.0000001
 43
0.0000001
 44
0.0000000001
 40
0.0
 40
0.0
 40
0.0
 40
0.0
 40
0.2523710741
 40
0.503320698
 40
0.7523293402
 40
1.0
 40
1.0
 40
1.0
 40
1.0
 10
480.6225454804
 20
690.0222997995
 30
0.0
 10
480.6745386692
 20
690.0222982508
 30
0.0
 10
480.779337369
 20
690.0020097317
 30
0.0
 10
480.9122249342
 20
689.9150350111
 30
0.0
 10
481.0015853113
 20
689.7847740709
 30
0.0
 10
481.0225456694
 20
689.6812922226
 30
0.0
 10
481.0225454804
 20
689.6302674076
 30
0.0
  0
SPLINE
  5
51B
100
AcDbEntity
  8
0
100
AcDbSpline
 62
7
  6
BYLAYER
 70
0
 71
3
 72
11
 73
7
 74
0
 42
0.0000001
 43
0.0000001
 44
0.0000000001
 40
0.0
 40
0.0
 40
0.0
 40
0.0
 40
0.223878454
 40
0.476611494
 40
0.7441160033
 40
1.0
 40
1.0
 40
1.0
 40
1.0
 10
487.8153641057
 20
662.9712889536
 30
0.0
 10
487.7718425651
 20
662.9712859424
 30
0.0
 10
487.6781103438
 20
662.992316795
 30
0.0
 10
487.5605597071
 20
663.0840286812
 30
0.0
 10
487.4854920152
 20
663.219004087
 30
0.0
 10
487.4689433043
 20
663.3215169712
 30
0.0
 10
487.4689414795
 20
663.3712603278
 30
0.0
  0
SPLINE
  5
51C
100
AcDbEntity
  8
0
100
AcDbSpline
 62
7
  6
BYLAYER
 70
0
 71
3
 72
9
 73
5
 74
0
 42
0.0000001
 43
0.0000001
 44
0.0000000001
 40
0.0
 40
0.0
 40
0.0
 40
0.0
 40
0.4989154126
 40
1.0
 40
1.0
 40
1.0
 40
1.0
 10
480.3686993266
 20
689.9333131985
 30
0.0
 10
480.4040615806
 20
689.9617588849
 30
0.0
 10
480.4853314219
 20
690.0068960299
 30
0.0
 10
480.5769648408
 20
690.022309024
 30
0.0
 10
480.6225454804
 20
690.0222997995
 30
0.0
  0
SPLINE
  5
51D
100
AcDbEntity
  8
0
100
AcDbSpline
 62
7
  6
BYLAYER
 70
0
 71
3
 72
10
 73
6
 74
0
 42
0.0000001
 43
0.0000001
 44
0.0000000001
 40
0.0
 40
0.0
 40
0.0
 40
0.0
 40
0.6322330962
 40
0.8474161435
 40
1.0
 40
1.0
 40
1.0
 40
1.0
 10
480.4923680907
 20
690.0758664044
 30
0.0
 10
480.459674387
 20
690.0517582215
 30
0.0
 10
480.4166257078
 20
690.0171402523
 30
0.0
 10
480.3773902546
 20
689.9662063709
 30
0.0
 10
480.3687229744
 20
689.9430719831
 30
0.0
 10
480.3686993266
 20
689.9332684423
 30
0.0
  0
SPLINE
  5
51E
100
AcDbEntity
  8
0
100
AcDbSpline
 62
7
  6
BYLAYER
 70
0
 71
3
 72
11
 73
7
 74
0
 42
0.0000001
 43
0.0000001
 44
0.0000000001
 40
0.0
 40
0.0
 40
0.0
 40
0.0
 40
0.2414461237
 40
0.5019587126
 40
0.7612325544
 40
1.0
 40
1.0
 40
1.0
 40
1.0
 10
487.9225454779
 20
663.0070190608
 30
0.0
 10
487.8726033946
 20
663.0070162096
 30
0.0
 10
487.7677850781
 20
663.0266107365
 30
0.0
 10
487.632049567
 20
663.1146157653
 30
0.0
 10
487.5425383331
 20
663.2487912109
 30
0.0
 10
487.5225367311
 20
663.3528274961
 30
0.0
 10
487.5225348142
 20
663.4022155064
 30
0.0
  0
SPLINE
  5
51F
100
AcDbEntity
  8
0
100
AcDbSpline
 62
7
  6
BYLAYER
 70
0
 71
3
 72
11
 73
7
 74
0
 42
0.0000001
 43
0.0000001
 44
0.0000000001
 40
0.0
 40
0.0
 40
0.0
 40
0.0
 40
0.3873031076
 40
0.6683530788
 40
0.8570539417
 40
1.0
 40
1.0
 40
1.0
 40
1.0
 10
487.8153658088
 20
662.9712603284
 30
0.0
 10
487.8310507502
 20
662.9712603463
 30
0.0
 10
487.8582609928
 20
662.9719859653
 30
0.0
 10
487.8923520416
 20
662.9774519304
 30
0.0
 10
487.9163031821
 20
662.9875052392
 30
0.0
 10
487.9225480531
 20
663.0011864996
 30
0.0
 10
487.9225454804
 20
663.0069755064
 30
0.0
  0
SPLINE
  5
520
100
AcDbEntity
  8
0
100
AcDbSpline
 62
7
  6
BYLAYER
 70
0
 71
3
 72
11
 73
7
 74
0
 42
0.0000001
 43
0.0000001
 44
0.0000000001
 40
0.0
 40
0.0
 40
0.0
 40
0.0
 40
0.2539753862
 40
0.5023672
 40
0.7487291455
 40
1.0
 40
1.0
 40
1.0
 40
1.0
 10
482.2725454804
 20
669.0245451933
 30
0.0
 10
482.0183109043
 20
668.8802016065
 30
0.0
 10
481.5426619267
 20
668.5425019374
 30
0.0
 10
480.9607436925
 20
667.8968945602
 30
0.0
 10
480.5478164069
 20
667.1343632309
 30
0.0
 10
480.4122718328
 20
666.5692419904
 30
0.0
 10
480.383930075
 20
666.2813940853
 30
0.0
  0
SPLINE
  5
521
100
AcDbEntity
  8
0
100
AcDbSpline
 62
7
  6
BYLAYER
 70
0
 71
3
 72
16
 73
12
 74
0
 42
0.0000001
 43
0.0000001
 44
0.0000000001
 40
0.0
 40
0.0
 40
0.0
 40
0.0
 40
0.2838971917
 40
0.4653768133
 40
0.6477535025
 40
0.8047031984
 40
0.9168466336
 40
0.95375835
 40
0.9788056948
 40
0.9934804045
 40
1.0
 40
1.0
 40
1.0
 40
1.0
 10
480.3839287558
 20
666.2813949953
 30
0.0
 10
480.445220303
 20
666.2727370909
 30
0.0
 10
480.5461088118
 20
666.261481977
 30
0.0
 10
480.6868077647
 20
666.2492999401
 30
0.0
 10
480.800161776
 20
666.2418719172
 30
0.0
 10
480.8984370453
 20
666.2378355911
 30
0.0
 10
480.9653723754
 20
666.2374743421
 30
0.0
 10
481.0030694279
 20
666.2392372102
 30
0.0
 10
481.0200328181
 20
666.2413757609
 30
0.0
 10
481.0292902224
 20
666.2431695283
 30
0.0
 10
481.0341798678
 20
666.245989796
 30
0.0
 10
481.0343004797
 20
666.2474061815
 30
0.0
  0
SPLINE
  5
522
100
AcDbEntity
  8
0
100
AcDbSpline
 62
7
  6
BYLAYER
 70
0
 71
3
 72
9
 73
5
 74
0
 42
0.0000001
 43
0.0000001
 44
0.0000000001
 40
0.0
 40
0.0
 40
0.0
 40
0.0
 40
0.1977562152
 40
1.0
 40
1.0
 40
1.0
 40
1.0
 10
480.3686998901
 20
665.9235475525
 30
0.0
 10
480.3853312531
 20
665.9214396565
 30
0.0
 10
480.4696461608
 20
665.912503294
 30
0.0
 10
480.5545367752
 20
665.9095223924
 30
0.0
 10
480.6225454804
 20
665.9095223693
 30
0.0
  0
SPLINE
  5
523
100
AcDbEntity
  8
0
100
AcDbSpline
 62
7
  6
BYLAYER
 70
0
 71
3
 72
13
 73
9
 74
0
 42
0.0000001
 43
0.0000001
 44
0.0000000001
 40
0.0
 40
0.0
 40
0.0
 40
0.0
 40
0.396856725
 40
0.7272729887
 40
0.8434381313
 40
0.9242265911
 40
0.9730275955
 40
1.0
 40
1.0
 40
1.0
 40
1.0
 10
480.6225454804
 20
665.9095223718
 30
0.0
 10
480.6771371091
 20
665.9095223532
 30
0.0
 10
480.7771840717
 20
665.9126105623
 30
0.0
 10
480.8928498136
 20
665.92411989
 30
0.0
 10
480.9640688578
 20
665.938298977
 30
0.0
 10
480.996367234
 20
665.9487116166
 30
0.0
 10
481.0158088218
 20
665.9579866857
 30
0.0
 10
481.0225462125
 20
665.9675499974
 30
0.0
 10
481.0225462284
 20
665.9712603225
 30
0.0
  0
SPLINE
  5
524
100
AcDbEntity
  8
0
100
AcDbSpline
 62
7
  6
BYLAYER
 70
0
 71
3
 72
11
 73
7
 74
0
 42
0.0000001
 43
0.0000001
 44
0.0000000001
 40
0.0
 40
0.0
 40
0.0
 40
0.0
 40
0.2523587406
 40
0.5032976709
 40
0.7523102757
 40
1.0
 40
1.0
 40
1.0
 40
1.0
 10
480.6225454804
 20
663.9202270036
 30
0.0
 10
480.6745372007
 20
663.9202272339
 30
0.0
 10
480.7793367462
 20
663.9404923694
 30
0.0
 10
480.912230002
 20
664.0274644652
 30
0.0
 10
481.001588317
 20
664.1577344069
 30
0.0
 10
481.0225456852
 20
664.2612234986
 30
0.0
 10
481.0225454804
 20
664.3122532939
 30
0.0
  0
SPLINE
  5
525
100
AcDbEntity
  8
0
100
AcDbSpline
 62
7
  6
BYLAYER
 70
0
 71
3
 72
11
 73
7
 74
0
 42
0.0000001
 43
0.0000001
 44
0.0000000001
 40
0.0
 40
0.0
 40
0.0
 40
0.0
 40
0.2512719326
 40
0.4976334996
 40
0.7460232534
 40
1.0
 40
1.0
 40
1.0
 40
1.0
 10
480.383926873
 20
687.6611265715
 30
0.0
 10
480.4122730571
 20
687.3732778473
 30
0.0
 10
480.5478176692
 20
686.8081565969
 30
0.0
 10
480.9607451
 20
686.0456265616
 30
0.0
 10
481.5426632383
 20
685.400021374
 30
0.0
 10
482.0183097637
 20
685.0623196409
 30
0.0
 10
482.2725454804
 20
684.9179748752
 30
0.0
  0
SPLINE
  5
526
100
AcDbEntity
  8
0
100
AcDbSpline
 62
7
  6
BYLAYER
 70
0
 71
3
 72
9
 73
5
 74
0
 42
0.0000001
 43
0.0000001
 44
0.0000000001
 40
0.0
 40
0.0
 40
0.0
 40
0.0
 40
0.4105077453
 40
1.0
 40
1.0
 40
1.0
 40
1.0
 10
481.0225574179
 20
664.312249008
 30
0.0
 10
481.0225499144
 20
664.2936581383
 30
0.0
 10
481.0381499045
 20
664.2494277735
 30
0.0
 10
481.0611587901
 20
664.2107190316
 30
0.0
 10
481.0761413778
 20
664.1886230529
 30
0.0
  0
SPLINE
  5
527
100
AcDbEntity
  8
0
100
AcDbSpline
 62
7
  6
BYLAYER
 70
0
 71
3
 72
9
 73
5
 74
0
 42
0.0000001
 43
0.0000001
 44
0.0000000001
 40
0.0
 40
0.0
 40
0.0
 40
0.0
 40
0.2191796735
 40
1.0
 40
1.0
 40
1.0
 40
1.0
 10
481.0761358611
 20
664.1886159466
 30
0.0
 10
481.0902841529
 20
664.1677576927
 30
0.0
 10
481.1567254388
 20
664.0739398019
 30
0.0
 10
481.2324765999
 20
663.9862438786
 30
0.0
 10
481.2981358418
 20
663.9249999845
 30
0.0
  0
SPLINE
  5
528
100
AcDbEntity
  8
0
100
AcDbSpline
 62
7
  6
BYLAYER
 70
0
 71
3
 72
9
 73
5
 74
0
 42
0.0000001
 43
0.0000001
 44
0.0000000001
 40
0.0
 40
0.0
 40
0.0
 40
0.0
 40
0.5011986913
 40
1.0
 40
1.0
 40
1.0
 40
1.0
 10
480.6225454804
 20
663.9202270036
 30
0.0
 10
480.5769633529
 20
663.9202595888
 30
0.0
 10
480.4853651233
 20
663.9356652001
 30
0.0
 10
480.4040704577
 20
663.9807134704
 30
0.0
 10
480.3686993266
 20
664.0091174352
 30
0.0
  0
SPLINE
  5
529
100
AcDbEntity
  8
0
100
AcDbSpline
 62
7
  6
BYLAYER
 70
0
 71
3
 72
10
 73
6
 74
0
 42
0.0000001
 43
0.0000001
 44
0.0000000001
 40
0.0
 40
0.0
 40
0.0
 40
0.0
 40
0.1526428855
 40
0.3678266995
 40
1.0
 40
1.0
 40
1.0
 40
1.0
 10
480.3686993266
 20
664.0092292543
 30
0.0
 10
480.3687448755
 20
663.9994240097
 30
0.0
 10
480.3773986052
 20
663.9762967843
 30
0.0
 10
480.4166405921
 20
663.9253712944
 30
0.0
 10
480.459670877
 20
663.8907647736
 30
0.0
 10
480.4923549018
 20
663.8666639753
 30
0.0
  0
SPLINE
  5
52A
100
AcDbEntity
  8
0
100
AcDbSpline
 62
7
  6
BYLAYER
 70
0
 71
3
 72
11
 73
7
 74
0
 42
0.0000001
 43
0.0000001
 44
0.0000000001
 40
0.0
 40
0.0
 40
0.0
 40
0.0
 40
0.2132250487
 40
0.480121499
 40
0.7627953905
 40
1.0
 40
1.0
 40
1.0
 40
1.0
 10
480.4923704927
 20
663.8666628518
 30
0.0
 10
480.5367070037
 20
663.8339738083
 30
0.0
 10
480.6633439654
 20
663.7934350257
 30
0.0
 10
480.8617909212
 20
663.8543291248
 30
0.0
 10
481.0119894501
 20
664.0006438843
 30
0.0
 10
481.0650325386
 20
664.1283546323
 30
0.0
 10
481.0761388185
 20
664.1886191259
 30
0.0
  0
SPLINE
  5
52B
100
AcDbEntity
  8
0
100
AcDbSpline
 62
7
  6
BYLAYER
 70
0
 71
3
 72
12
 73
8
 74
0
 42
0.0000001
 43
0.0000001
 44
0.0000000001
 40
0.0
 40
0.0
 40
0.0
 40
0.0
 40
0.1256403897
 40
0.2344748991
 40
0.3715332375
 40
0.6920029083
 40
1.0
 40
1.0
 40
1.0
 40
1.0
 10
481.0046890915
 20
663.5624782581
 30
0.0
 10
481.0230994011
 20
663.5538921263
 30
0.0
 10
481.0655587374
 20
663.5731901551
 30
0.0
 10
481.1079038221
 20
663.6123229753
 30
0.0
 10
481.168666886
 20
663.6824973009
 30
0.0
 10
481.2341321598
 20
663.7875268055
 30
0.0
 10
481.278808037
 20
663.8791056847
 30
0.0
 10
481.2981380098
 20
663.9249992409
 30
0.0
  0
SPLINE
  5
52C
100
AcDbEntity
  8
0
100
AcDbSpline
 62
7
  6
BYLAYER
 70
0
 71
3
 72
11
 73
7
 74
0
 42
0.0000001
 43
0.0000001
 44
0.0000000001
 40
0.0
 40
0.0
 40
0.0
 40
0.0
 40
0.2057224304
 40
0.4680399112
 40
0.7541577972
 40
1.0
 40
1.0
 40
1.0
 40
1.0
 10
480.4923768412
 20
690.0758781645
 30
0.0
 10
480.5351583695
 20
690.1074213787
 30
0.0
 10
480.6576110716
 20
690.1482735009
 30
0.0
 10
480.8550462569
 20
690.0923678211
 30
0.0
 10
481.0092699393
 20
689.9469211225
 30
0.0
 10
481.0646281575
 20
689.8163726891
 30
0.0
 10
481.076139532
 20
689.7539057353
 30
0.0
  0
SPLINE
  5
52D
100
AcDbEntity
  8
0
100
AcDbSpline
 62
7
  6
BYLAYER
 70
0
 71
3
 72
16
 73
12
 74
0
 42
0.0000001
 43
0.0000001
 44
0.0000000001
 40
0.0
 40
0.0
 40
0.0
 40
0.0
 40
0.2846723048
 40
0.4664185828
 40
0.6487876804
 40
0.8054624666
 40
0.9172294412
 40
0.9539824952
 40
0.9789094702
 40
0.9935080488
 40
1.0
 40
1.0
 40
1.0
 40
1.0
 10
480.3839334352
 20
687.6611267596
 30
0.0
 10
480.4453920842
 20
687.6698084498
 30
0.0
 10
480.546506979
 20
687.6810822143
 30
0.0
 10
480.6874313093
 20
687.6932699489
 30
0.0
 10
480.8007822516
 20
687.7006831872
 30
0.0
 10
480.8989151456
 20
687.7046972506
 30
0.0
 10
480.9656716643
 20
687.7050409608
 30
0.0
 10
481.0032281601
 20
687.7032707883
 30
0.0
 10
481.0201085952
 20
687.7011324479
 30
0.0
 10
481.0293253675
 20
687.6993402237
 30
0.0
 10
481.034180966
 20
687.6965244535
 30
0.0
 10
481.0343013193
 20
687.6951141003
 30
0.0
  0
SPLINE
  5
52E
100
AcDbEntity
  8
0
100
AcDbSpline
 62
7
  6
BYLAYER
 70
0
 71
3
 72
11
 73
7
 74
0
 42
0.0000001
 43
0.0000001
 44
0.0000000001
 40
0.0
 40
0.0
 40
0.0
 40
0.0
 40
0.1429471761
 40
0.3316477769
 40
0.6126971308
 40
1.0
 40
1.0
 40
1.0
 40
1.0
 10
487.9225454804
 20
690.9355451533
 30
0.0
 10
487.922548008
 20
690.9413341841
 30
0.0
 10
487.9163028977
 20
690.9550152932
 30
0.0
 10
487.8923520404
 20
690.9650687517
 30
0.0
 10
487.8582610794
 20
690.9705346653
 30
0.0
 10
487.8310509991
 20
690.9712603028
 30
0.0
 10
487.8153661251
 20
690.9712603284
 30
0.0
  0
SPLINE
  5
52F
100
AcDbEntity
  8
0
100
AcDbSpline
 62
7
  6
BYLAYER
 70
0
 71
3
 72
11
 73
7
 74
0
 42
0.0000001
 43
0.0000001
 44
0.0000000001
 40
0.0
 40
0.0
 40
0.0
 40
0.0
 40
0.2387674923
 40
0.4980413457
 40
0.7585539171
 40
1.0
 40
1.0
 40
1.0
 40
1.0
 10
487.5225347046
 20
690.540305132
 30
0.0
 10
487.5225366275
 20
690.5896931409
 30
0.0
 10
487.5425382571
 20
690.6937294148
 30
0.0
 10
487.6320495655
 20
690.827904786
 30
0.0
 10
487.7677851175
 20
690.9159096721
 30
0.0
 10
487.8726034142
 20
690.935504099
 30
0.0
 10
487.9225454778
 20
690.9355012074
 30
0.0
  0
SPLINE
  5
530
100
AcDbEntity
  8
0
100
AcDbSpline
 62
7
  6
BYLAYER
 70
0
 71
3
 72
11
 73
7
 74
0
 42
0.0000001
 43
0.0000001
 44
0.0000000001
 40
0.0
 40
0.0
 40
0.0
 40
0.0
 40
0.2238783593
 40
0.4766113528
 40
0.7441159034
 40
1.0
 40
1.0
 40
1.0
 40
1.0
 10
487.8153632619
 20
690.9712319794
 30
0.0
 10
487.771841759
 20
690.9712349478
 30
0.0
 10
487.678109628
 20
690.9502039934
 30
0.0
 10
487.5605591903
 20
690.8584919951
 30
0.0
 10
487.4854916817
 20
690.7235165536
 30
0.0
 10
487.4689430437
 20
690.6210036824
 30
0.0
 10
487.4689412401
 20
690.5712603285
 30
0.0
  0
SPLINE
  5
531
100
AcDbEntity
  8
0
100
AcDbSpline
 62
7
  6
BYLAYER
 70
0
 71
3
 72
11
 73
7
 74
0
 42
0.0000001
 43
0.0000001
 44
0.0000000001
 40
0.0
 40
0.0
 40
0.0
 40
0.0
 40
0.2059262003
 40
0.4074401021
 40
0.6624627449
 40
1.0
 40
1.0
 40
1.0
 40
1.0
 10
487.5225347062
 20
690.5403002014
 30
0.0
 10
487.5225360488
 20
690.545058787
 30
0.0
 10
487.5205760896
 20
690.5549078764
 30
0.0
 10
487.5084383287
 20
690.5655369915
 30
0.0
 10
487.4904612834
 20
690.5704833044
 30
0.0
 10
487.4767453527
 20
690.5712559988
 30
0.0
 10
487.4689454711
 20
690.5712569766
 30
0.0
  0
SPLINE
  5
532
100
AcDbEntity
  8
0
100
AcDbSpline
 62
7
  6
BYLAYER
 70
0
 71
3
 72
12
 73
8
 74
0
 42
0.0000001
 43
0.0000001
 44
0.0000000001
 40
0.0
 40
0.0
 40
0.0
 40
0.0
 40
0.1140477002
 40
0.2142400311
 40
0.3447704465
 40
0.6689109959
 40
1.0
 40
1.0
 40
1.0
 40
1.0
 10
93.1882171136
 20
107.6591665209
 30
0.0
 10
93.1714936899
 20
107.6513673492
 30
0.0
 10
93.1324698059
 20
107.666717569
 30
0.0
 10
93.0918466166
 20
107.7021497962
 30
0.0
 10
93.030937364
 20
107.7696053583
 30
0.0
 10
92.9625516451
 20
107.8769578147
 30
0.0
 10
92.9155609268
 20
107.9723194509
 30
0.0
 10
92.8947667028
 20
108.0216882741
 30
0.0
  0
SPLINE
  5
533
100
AcDbEntity
  8
0
100
AcDbSpline
 62
7
  6
BYLAYER
 70
0
 71
3
 72
9
 73
5
 74
0
 42
0.0000001
 43
0.0000001
 44
0.0000000001
 40
0.0
 40
0.0
 40
0.0
 40
0.0
 40
0.2966377822
 40
1.0
 40
1.0
 40
1.0
 40
1.0
 10
93.5703640066
 20
110.0062177216
 30
0.0
 10
93.5955107228
 20
110.006217772
 30
0.0
 10
93.6802636571
 20
110.0075184709
 30
0.0
 10
93.7650542536
 20
110.0127458965
 30
0.0
 10
93.8242067854
 20
110.0202430956
 30
0.0
  0
SPLINE
  5
534
100
AcDbEntity
  8
0
100
AcDbSpline
 62
7
  6
BYLAYER
 70
0
 71
3
 72
13
 73
9
 74
0
 42
0.0000001
 43
0.0000001
 44
0.0000000001
 40
0.0
 40
0.0
 40
0.0
 40
0.0
 40
0.0269725314
 40
0.0757739678
 40
0.1565629412
 40
0.2727285561
 40
0.6031450231
 40
1.0
 40
1.0
 40
1.0
 40
1.0
 10
93.1703595981
 20
110.0679553153
 30
0.0
 10
93.1703597007
 20
110.0642449421
 30
0.0
 10
93.1770973986
 20
110.0546816517
 30
0.0
 10
93.1965393013
 20
110.0454065816
 30
0.0
 10
93.2288381969
 20
110.0349939446
 30
0.0
 10
93.3000580146
 20
110.0208149174
 30
0.0
 10
93.4157245906
 20
110.0093057196
 30
0.0
 10
93.5157721682
 20
110.0062176489
 30
0.0
 10
93.5703640066
 20
110.0062177588
 30
0.0
  0
SPLINE
  5
535
100
AcDbEntity
  8
0
100
AcDbSpline
 62
7
  6
BYLAYER
 70
0
 71
3
 72
9
 73
5
 74
0
 42
0.0000001
 43
0.0000001
 44
0.0000000001
 40
0.0
 40
0.0
 40
0.0
 40
0.0
 40
0.5895033168
 40
1.0
 40
1.0
 40
1.0
 40
1.0
 10
93.1167654029
 20
108.2853152506
 30
0.0
 10
93.1317486995
 20
108.3074124361
 30
0.0
 10
93.1547585642
 20
108.3461222101
 30
0.0
 10
93.1703599311
 20
108.3903538832
 30
0.0
 10
93.1703523867
 20
108.4089448756
 30
0.0
  0
SPLINE
  5
536
100
AcDbEntity
  8
0
100
AcDbSpline
 62
7
  6
BYLAYER
 70
0
 71
3
 72
9
 73
5
 74
0
 42
0.0000001
 43
0.0000001
 44
0.0000000001
 40
0.0
 40
0.0
 40
0.0
 40
0.0
 40
0.2704838407
 40
1.0
 40
1.0
 40
1.0
 40
1.0
 10
92.8947559774
 20
108.0217020384
 30
0.0
 10
92.9175080871
 20
108.042925845
 30
0.0
 10
92.9986509095
 20
108.1245798904
 30
0.0
 10
93.0696639818
 20
108.2158646784
 30
0.0
 10
93.1167653329
 20
108.2853176037
 30
0.0
  0
SPLINE
  5
537
100
AcDbEntity
  8
0
100
AcDbSpline
 62
7
  6
BYLAYER
 70
0
 71
3
 72
11
 73
7
 74
0
 42
0.0000001
 43
0.0000001
 44
0.0000000001
 40
0.0
 40
0.0
 40
0.0
 40
0.0
 40
0.3375389512
 40
0.5925627711
 40
0.7940768015
 40
1.0
 40
1.0
 40
1.0
 40
1.0
 10
86.723964121
 20
134.667937062
 30
0.0
 10
86.7161642998
 20
134.6679360718
 30
0.0
 10
86.7024484769
 20
134.667163392
 30
0.0
 10
86.6844715869
 20
134.6622172547
 30
0.0
 10
86.6723337861
 20
134.651588629
 30
0.0
 10
86.6703734906
 20
134.6417398274
 30
0.0
 10
86.6703746711
 20
134.6369813719
 30
0.0
  0
SPLINE
  5
538
100
AcDbEntity
  8
0
100
AcDbSpline
 62
7
  6
BYLAYER
 70
0
 71
3
 72
11
 73
7
 74
0
 42
0.0000001
 43
0.0000001
 44
0.0000000001
 40
0.0
 40
0.0
 40
0.0
 40
0.0
 40
0.2523710741
 40
0.503320698
 40
0.7523293402
 40
1.0
 40
1.0
 40
1.0
 40
1.0
 10
93.5703640066
 20
108.0169158868
 30
0.0
 10
93.5183708179
 20
108.0169174355
 30
0.0
 10
93.413572118
 20
108.0372059546
 30
0.0
 10
93.2806845529
 20
108.1241806752
 30
0.0
 10
93.1913241758
 20
108.2544416154
 30
0.0
 10
93.1703638177
 20
108.3579234637
 30
0.0
 10
93.1703640066
 20
108.4089482787
 30
0.0
  0
SPLINE
  5
539
100
AcDbEntity
  8
0
100
AcDbSpline
 62
7
  6
BYLAYER
 70
0
 71
3
 72
11
 73
7
 74
0
 42
0.0000001
 43
0.0000001
 44
0.0000000001
 40
0.0
 40
0.0
 40
0.0
 40
0.0
 40
0.223878454
 40
0.4766114939
 40
0.7441160033
 40
1.0
 40
1.0
 40
1.0
 40
1.0
 10
86.3775453813
 20
135.0679267328
 30
0.0
 10
86.421066922
 20
135.0679297439
 30
0.0
 10
86.5147991433
 20
135.0468988913
 30
0.0
 10
86.63234978
 20
134.9551870051
 30
0.0
 10
86.7074174719
 20
134.8202115993
 30
0.0
 10
86.7239661828
 20
134.7176987151
 30
0.0
 10
86.7239680075
 20
134.6679553585
 30
0.0
  0
SPLINE
  5
53A
100
AcDbEntity
  8
0
100
AcDbSpline
 62
7
  6
BYLAYER
 70
0
 71
3
 72
9
 73
5
 74
0
 42
0.0000001
 43
0.0000001
 44
0.0000000001
 40
0.0
 40
0.0
 40
0.0
 40
0.0
 40
0.4989154126
 40
1.0
 40
1.0
 40
1.0
 40
1.0
 10
93.8242101605
 20
108.1059024879
 30
0.0
 10
93.7888479065
 20
108.0774568014
 30
0.0
 10
93.7075780651
 20
108.0323196565
 30
0.0
 10
93.6159446463
 20
108.0169066623
 30
0.0
 10
93.5703640066
 20
108.0169158868
 30
0.0
  0
SPLINE
  5
53B
100
AcDbEntity
  8
0
100
AcDbSpline
 62
7
  6
BYLAYER
 70
0
 71
3
 72
10
 73
6
 74
0
 42
0.0000001
 43
0.0000001
 44
0.0000000001
 40
0.0
 40
0.0
 40
0.0
 40
0.0
 40
0.6322330962
 40
0.8474161435
 40
1.0
 40
1.0
 40
1.0
 40
1.0
 10
93.7005413964
 20
107.9633492819
 30
0.0
 10
93.7332351
 20
107.9874574648
 30
0.0
 10
93.7762837792
 20
108.022075434
 30
0.0
 10
93.8155192324
 20
108.0730093154
 30
0.0
 10
93.8241865127
 20
108.0961437032
 30
0.0
 10
93.8242101605
 20
108.105947244
 30
0.0
  0
SPLINE
  5
53C
100
AcDbEntity
  8
0
100
AcDbSpline
 62
7
  6
BYLAYER
 70
0
 71
3
 72
11
 73
7
 74
0
 42
0.0000001
 43
0.0000001
 44
0.0000000001
 40
0.0
 40
0.0
 40
0.0
 40
0.0
 40
0.2414461237
 40
0.5019587126
 40
0.7612325544
 40
1.0
 40
1.0
 40
1.0
 40
1.0
 10
86.2703640092
 20
135.0321966255
 30
0.0
 10
86.3203060924
 20
135.0321994767
 30
0.0
 10
86.4251244089
 20
135.0126049498
 30
0.0
 10
86.5608599201
 20
134.924599921
 30
0.0
 10
86.650371154
 20
134.7904244754
 30
0.0
 10
86.670372756
 20
134.6863881903
 30
0.0
 10
86.6703746729
 20
134.6370001799
 30
0.0
  0
SPLINE
  5
53D
100
AcDbEntity
  8
0
100
AcDbSpline
 62
7
  6
BYLAYER
 70
0
 71
3
 72
11
 73
7
 74
0
 42
0.0000001
 43
0.0000001
 44
0.0000000001
 40
0.0
 40
0.0
 40
0.0
 40
0.0
 40
0.3873031076
 40
0.6683530788
 40
0.8570539417
 40
1.0
 40
1.0
 40
1.0
 40
1.0
 10
86.3775436783
 20
135.0679553579
 30
0.0
 10
86.3618587369
 20
135.06795534
 30
0.0
 10
86.3346484943
 20
135.067229721
 30
0.0
 10
86.3005574454
 20
135.061763756
 30
0.0
 10
86.276606305
 20
135.0517104471
 30
0.0
 10
86.270361434
 20
135.0380291867
 30
0.0
 10
86.2703640066
 20
135.0322401799
 30
0.0
  0
SPLINE
  5
53E
100
AcDbEntity
  8
0
100
AcDbSpline
 62
7
  6
BYLAYER
 70
0
 71
3
 72
11
 73
7
 74
0
 42
0.0000001
 43
0.0000001
 44
0.0000000001
 40
0.0
 40
0.0
 40
0.0
 40
0.0
 40
0.2539753862
 40
0.5023672
 40
0.7487291455
 40
1.0
 40
1.0
 40
1.0
 40
1.0
 10
91.9203640066
 20
129.014670493
 30
0.0
 10
92.1745985828
 20
129.1590140798
 30
0.0
 10
92.6502475603
 20
129.496713749
 30
0.0
 10
93.2321657946
 20
130.1423211262
 30
0.0
 10
93.6450930802
 20
130.9048524554
 30
0.0
 10
93.7806376543
 20
131.469973696
 30
0.0
 10
93.808979412
 20
131.757821601
 30
0.0
  0
SPLINE
  5
53F
100
AcDbEntity
  8
0
100
AcDbSpline
 62
7
  6
BYLAYER
 70
0
 71
3
 72
16
 73
12
 74
0
 42
0.0000001
 43
0.0000001
 44
0.0000000001
 40
0.0
 40
0.0
 40
0.0
 40
0.0
 40
0.2838971917
 40
0.4653768133
 40
0.6477535025
 40
0.8047031984
 40
0.9168466336
 40
0.95375835
 40
0.9788056948
 40
0.9934804045
 40
1.0
 40
1.0
 40
1.0
 40
1.0
 10
93.8089807312
 20
131.757820691
 30
0.0
 10
93.747689184
 20
131.7664785954
 30
0.0
 10
93.6468006752
 20
131.7777337093
 30
0.0
 10
93.5061017223
 20
131.7899157462
 30
0.0
 10
93.392747711
 20
131.7973437692
 30
0.0
 10
93.2944724417
 20
131.8013800952
 30
0.0
 10
93.2275371117
 20
131.8017413442
 30
0.0
 10
93.1898400592
 20
131.7999784761
 30
0.0
 10
93.1728766689
 20
131.7978399254
 30
0.0
 10
93.1636192647
 20
131.796046158
 30
0.0
 10
93.1587296192
 20
131.7932258903
 30
0.0
 10
93.1586090073
 20
131.7918095048
 30
0.0
  0
SPLINE
  5
540
100
AcDbEntity
  8
0
100
AcDbSpline
 62
7
  6
BYLAYER
 70
0
 71
3
 72
9
 73
5
 74
0
 42
0.0000001
 43
0.0000001
 44
0.0000000001
 40
0.0
 40
0.0
 40
0.0
 40
0.0
 40
0.1977562152
 40
1.0
 40
1.0
 40
1.0
 40
1.0
 10
93.8242095969
 20
132.1156681338
 30
0.0
 10
93.8075782339
 20
132.1177760298
 30
0.0
 10
93.7232633262
 20
132.1267123923
 30
0.0
 10
93.6383727118
 20
132.1296932939
 30
0.0
 10
93.5703640066
 20
132.129693317
 30
0.0
  0
SPLINE
  5
541
100
AcDbEntity
  8
0
100
AcDbSpline
 62
7
  6
BYLAYER
 70
0
 71
3
 72
13
 73
9
 74
0
 42
0.0000001
 43
0.0000001
 44
0.0000000001
 40
0.0
 40
0.0
 40
0.0
 40
0.0
 40
0.396856725
 40
0.7272729887
 40
0.8434381313
 40
0.9242265911
 40
0.9730275955
 40
1.0
 40
1.0
 40
1.0
 40
1.0
 10
93.5703640066
 20
132.1296933145
 30
0.0
 10
93.515772378
 20
132.1296933331
 30
0.0
 10
93.4157254153
 20
132.126605124
 30
0.0
 10
93.3000596735
 20
132.1150957963
 30
0.0
 10
93.2288406292
 20
132.1009167093
 30
0.0
 10
93.1965422531
 20
132.0905040697
 30
0.0
 10
93.1771006652
 20
132.0812290006
 30
0.0
 10
93.1703632745
 20
132.0716656889
 30
0.0
 10
93.1703632586
 20
132.0679553638
 30
0.0
  0
SPLINE
  5
542
100
AcDbEntity
  8
0
100
AcDbSpline
 62
7
  6
BYLAYER
 70
0
 71
3
 72
11
 73
7
 74
0
 42
0.0000001
 43
0.0000001
 44
0.0000000001
 40
0.0
 40
0.0
 40
0.0
 40
0.0
 40
0.2523587406
 40
0.5032976709
 40
0.7523102757
 40
1.0
 40
1.0
 40
1.0
 40
1.0
 10
93.5703640066
 20
134.1189886827
 30
0.0
 10
93.5183722863
 20
134.1189884525
 30
0.0
 10
93.4135727409
 20
134.0987233169
 30
0.0
 10
93.2806794851
 20
134.0117512211
 30
0.0
 10
93.1913211701
 20
133.8814812794
 30
0.0
 10
93.1703638019
 20
133.7779921877
 30
0.0
 10
93.1703640066
 20
133.7269623925
 30
0.0
  0
SPLINE
  5
543
100
AcDbEntity
  8
0
100
AcDbSpline
 62
7
  6
BYLAYER
 70
0
 71
3
 72
11
 73
7
 74
0
 42
0.0000001
 43
0.0000001
 44
0.0000000001
 40
0.0
 40
0.0
 40
0.0
 40
0.0
 40
0.2512719326
 40
0.4976334996
 40
0.7460232534
 40
1.0
 40
1.0
 40
1.0
 40
1.0
 10
93.808982614
 20
110.3780891148
 30
0.0
 10
93.78063643
 20
110.665937839
 30
0.0
 10
93.6450918178
 20
111.2310590894
 30
0.0
 10
93.232164387
 20
111.9935891247
 30
0.0
 10
92.6502462488
 20
112.6391943123
 30
0.0
 10
92.1745997234
 20
112.9768960454
 30
0.0
 10
91.9203640066
 20
113.1212408111
 30
0.0
  0
SPLINE
  5
544
100
AcDbEntity
  8
0
100
AcDbSpline
 62
7
  6
BYLAYER
 70
0
 71
3
 72
9
 73
5
 74
0
 42
0.0000001
 43
0.0000001
 44
0.0000000001
 40
0.0
 40
0.0
 40
0.0
 40
0.0
 40
0.4105077453
 40
1.0
 40
1.0
 40
1.0
 40
1.0
 10
93.1703520692
 20
133.7269666783
 30
0.0
 10
93.1703595726
 20
133.745557548
 30
0.0
 10
93.1547595826
 20
133.7897879128
 30
0.0
 10
93.1317506969
 20
133.8284966547
 30
0.0
 10
93.1167681093
 20
133.8505926334
 30
0.0
  0
SPLINE
  5
545
100
AcDbEntity
  8
0
100
AcDbSpline
 62
7
  6
BYLAYER
 70
0
 71
3
 72
9
 73
5
 74
0
 42
0.0000001
 43
0.0000001
 44
0.0000000001
 40
0.0
 40
0.0
 40
0.0
 40
0.0
 40
0.2191796735
 40
1.0
 40
1.0
 40
1.0
 40
1.0
 10
93.1167736259
 20
133.8505997397
 30
0.0
 10
93.1026253342
 20
133.8714579936
 30
0.0
 10
93.0361840482
 20
133.9652758844
 30
0.0
 10
92.9604328871
 20
134.0529718077
 30
0.0
 10
92.8947736453
 20
134.1142157018
 30
0.0
  0
SPLINE
  5
546
100
AcDbEntity
  8
0
100
AcDbSpline
 62
7
  6
BYLAYER
 70
0
 71
3
 72
9
 73
5
 74
0
 42
0.0000001
 43
0.0000001
 44
0.0000000001
 40
0.0
 40
0.0
 40
0.0
 40
0.0
 40
0.5011986913
 40
1.0
 40
1.0
 40
1.0
 40
1.0
 10
93.5703640066
 20
134.1189886827
 30
0.0
 10
93.6159461341
 20
134.1189560976
 30
0.0
 10
93.7075443638
 20
134.1035504862
 30
0.0
 10
93.7888390293
 20
134.0585022159
 30
0.0
 10
93.8242101605
 20
134.0300982511
 30
0.0
  0
SPLINE
  5
547
100
AcDbEntity
  8
0
100
AcDbSpline
 62
7
  6
BYLAYER
 70
0
 71
3
 72
10
 73
6
 74
0
 42
0.0000001
 43
0.0000001
 44
0.0000000001
 40
0.0
 40
0.0
 40
0.0
 40
0.0
 40
0.1526428855
 40
0.3678266995
 40
1.0
 40
1.0
 40
1.0
 40
1.0
 10
93.8242101605
 20
134.029986432
 30
0.0
 10
93.8241646116
 20
134.0397916766
 30
0.0
 10
93.8155108819
 20
134.0629189021
 30
0.0
 10
93.7762688949
 20
134.1138443919
 30
0.0
 10
93.7332386101
 20
134.1484509127
 30
0.0
 10
93.7005545852
 20
134.172551711
 30
0.0
  0
SPLINE
  5
548
100
AcDbEntity
  8
0
100
AcDbSpline
 62
7
  6
BYLAYER
 70
0
 71
3
 72
11
 73
7
 74
0
 42
0.0000001
 43
0.0000001
 44
0.0000000001
 40
0.0
 40
0.0
 40
0.0
 40
0.0
 40
0.2132250487
 40
0.480121499
 40
0.7627953905
 40
1.0
 40
1.0
 40
1.0
 40
1.0
 10
93.7005389943
 20
134.1725528345
 30
0.0
 10
93.6562024833
 20
134.2052418781
 30
0.0
 10
93.5295655217
 20
134.2457806606
 30
0.0
 10
93.3311185658
 20
134.1848865615
 30
0.0
 10
93.1809200369
 20
134.038571802
 30
0.0
 10
93.1278769485
 20
133.910861054
 30
0.0
 10
93.1167706686
 20
133.8505965605
 30
0.0
  0
SPLINE
  5
549
100
AcDbEntity
  8
0
100
AcDbSpline
 62
7
  6
BYLAYER
 70
0
 71
3
 72
12
 73
8
 74
0
 42
0.0000001
 43
0.0000001
 44
0.0000000001
 40
0.0
 40
0.0
 40
0.0
 40
0.0
 40
0.1256403897
 40
0.2344748991
 40
0.3715332375
 40
0.6920029083
 40
1.0
 40
1.0
 40
1.0
 40
1.0
 10
93.1882203956
 20
134.4767374282
 30
0.0
 10
93.169810086
 20
134.48532356
 30
0.0
 10
93.1273507497
 20
134.4660255312
 30
0.0
 10
93.085005665
 20
134.4268927111
 30
0.0
 10
93.024242601
 20
134.3567183854
 30
0.0
 10
92.9587773272
 20
134.2516888808
 30
0.0
 10
92.9141014501
 20
134.1601100016
 30
0.0
 10
92.8947714772
 20
134.1142164454
 30
0.0
  0
SPLINE
  5
54A
100
AcDbEntity
  8
0
100
AcDbSpline
 62
7
  6
BYLAYER
 70
0
 71
3
 72
11
 73
7
 74
0
 42
0.0000001
 43
0.0000001
 44
0.0000000001
 40
0.0
 40
0.0
 40
0.0
 40
0.0
 40
0.2057224304
 40
0.4680399112
 40
0.7541577972
 40
1.0
 40
1.0
 40
1.0
 40
1.0
 10
93.7005326459
 20
107.9633375218
 30
0.0
 10
93.6577511176
 20
107.9317943076
 30
0.0
 10
93.5352984155
 20
107.8909421854
 30
0.0
 10
93.3378632302
 20
107.9468478652
 30
0.0
 10
93.1836395478
 20
108.0922945638
 30
0.0
 10
93.1282813296
 20
108.2228429972
 30
0.0
 10
93.116769955
 20
108.285309951
 30
0.0
  0
SPLINE
  5
54B
100
AcDbEntity
  8
0
100
AcDbSpline
 62
7
  6
BYLAYER
 70
0
 71
3
 72
16
 73
12
 74
0
 42
0.0000001
 43
0.0000001
 44
0.0000000001
 40
0.0
 40
0.0
 40
0.0
 40
0.0
 40
0.2846723048
 40
0.4664185828
 40
0.6487876804
 40
0.8054624666
 40
0.9172294412
 40
0.9539824952
 40
0.9789094702
 40
0.9935080488
 40
1.0
 40
1.0
 40
1.0
 40
1.0
 10
93.8089760519
 20
110.3780889267
 30
0.0
 10
93.7475174028
 20
110.3694072365
 30
0.0
 10
93.646402508
 20
110.358133472
 30
0.0
 10
93.5054781778
 20
110.3459457374
 30
0.0
 10
93.3921272355
 20
110.3385324991
 30
0.0
 10
93.2939943415
 20
110.3345184357
 30
0.0
 10
93.2272378227
 20
110.3341747255
 30
0.0
 10
93.189681327
 20
110.335944898
 30
0.0
 10
93.1728008919
 20
110.3380832384
 30
0.0
 10
93.1635841195
 20
110.3398754626
 30
0.0
 10
93.1587285211
 20
110.3426912328
 30
0.0
 10
93.1586081677
 20
110.344101586
 30
0.0
  0
SPLINE
  5
54C
100
AcDbEntity
  8
0
100
AcDbSpline
 62
7
  6
BYLAYER
 70
0
 71
3
 72
11
 73
7
 74
0
 42
0.0000001
 43
0.0000001
 44
0.0000000001
 40
0.0
 40
0.0
 40
0.0
 40
0.0
 40
0.1429471761
 40
0.3316477769
 40
0.6126971308
 40
1.0
 40
1.0
 40
1.0
 40
1.0
 10
86.2703640066
 20
107.103670533
 30
0.0
 10
86.270361479
 20
107.0978815023
 30
0.0
 10
86.2766065893
 20
107.0842003931
 30
0.0
 10
86.3005574466
 20
107.0741469346
 30
0.0
 10
86.3346484077
 20
107.068681021
 30
0.0
 10
86.361858488
 20
107.0679553835
 30
0.0
 10
86.3775433619
 20
107.0679553579
 30
0.0
  0
SPLINE
  5
54D
100
AcDbEntity
  8
0
100
AcDbSpline
 62
7
  6
BYLAYER
 70
0
 71
3
 72
11
 73
7
 74
0
 42
0.0000001
 43
0.0000001
 44
0.0000000001
 40
0.0
 40
0.0
 40
0.0
 40
0.0
 40
0.2387674923
 40
0.4980413457
 40
0.7585539171
 40
1.0
 40
1.0
 40
1.0
 40
1.0
 10
86.6703747825
 20
107.4989105543
 30
0.0
 10
86.6703728595
 20
107.4495225454
 30
0.0
 10
86.65037123
 20
107.3454862715
 30
0.0
 10
86.5608599215
 20
107.2113109003
 30
0.0
 10
86.4251243695
 20
107.1233060143
 30
0.0
 10
86.3203060728
 20
107.1037115873
 30
0.0
 10
86.2703640092
 20
107.1037144789
 30
0.0
  0
SPLINE
  5
54E
100
AcDbEntity
  8
0
100
AcDbSpline
 62
7
  6
BYLAYER
 70
0
 71
3
 72
11
 73
7
 74
0
 42
0.0000001
 43
0.0000001
 44
0.0000000001
 40
0.0
 40
0.0
 40
0.0
 40
0.0
 40
0.2238783593
 40
0.4766113528
 40
0.7441159034
 40
1.0
 40
1.0
 40
1.0
 40
1.0
 10
86.3775462252
 20
107.0679837069
 30
0.0
 10
86.421067728
 20
107.0679807385
 30
0.0
 10
86.5147998591
 20
107.089011693
 30
0.0
 10
86.6323502967
 20
107.1807236913
 30
0.0
 10
86.7074178053
 20
107.3156991327
 30
0.0
 10
86.7239664433
 20
107.4182120039
 30
0.0
 10
86.7239682469
 20
107.4679553578
 30
0.0
  0
SPLINE
  5
54F
100
AcDbEntity
  8
0
100
AcDbSpline
 62
7
  6
BYLAYER
 70
0
 71
3
 72
11
 73
7
 74
0
 42
0.0000001
 43
0.0000001
 44
0.0000000001
 40
0.0
 40
0.0
 40
0.0
 40
0.0
 40
0.2059262004
 40
0.4074401022
 40
0.6624627449
 40
1.0
 40
1.0
 40
1.0
 40
1.0
 10
86.6703747808
 20
107.498915485
 30
0.0
 10
86.6703734382
 20
107.4941568994
 30
0.0
 10
86.6723333975
 20
107.4843078099
 30
0.0
 10
86.6844711583
 20
107.4736786948
 30
0.0
 10
86.7024482037
 20
107.4687323819
 30
0.0
 10
86.7161641344
 20
107.4679596876
 30
0.0
 10
86.723964016
 20
107.4679587097
 30
0.0
  0
SPLINE
  5
550
100
AcDbEntity
  8
0
100
AcDbSpline
 62
7
  6
BYLAYER
 70
0
 71
3
 72
12
 73
8
 74
0
 42
0.0000001
 43
0.0000001
 44
0.0000000001
 40
0.0
 40
0.0
 40
0.0
 40
0.0
 40
0.1140477002
 40
0.2142400311
 40
0.3447704465
 40
0.6689109959
 40
1.0
 40
1.0
 40
1.0
 40
1.0
 10
93.1658612851
 20
663.6156668643
 30
0.0
 10
93.1491378614
 20
663.6078676926
 30
0.0
 10
93.1101139774
 20
663.6232179124
 30
0.0
 10
93.0694907881
 20
663.6586501397
 30
0.0
 10
93.0085815355
 20
663.7261057017
 30
0.0
 10
92.9401958166
 20
663.8334581581
 30
0.0
 10
92.8932050983
 20
663.9288197944
 30
0.0
 10
92.8724108743
 20
663.9781886175
 30
0.0
  0
SPLINE
  5
551
100
AcDbEntity
  8
0
100
AcDbSpline
 62
7
  6
BYLAYER
 70
0
 71
3
 72
9
 73
5
 74
0
 42
0.0000001
 43
0.0000001
 44
0.0000000001
 40
0.0
 40
0.0
 40
0.0
 40
0.0
 40
0.2966377822
 40
1.0
 40
1.0
 40
1.0
 40
1.0
 10
93.5480081781
 20
665.962718065
 30
0.0
 10
93.5731548944
 20
665.9627181154
 30
0.0
 10
93.6579078287
 20
665.9640188143
 30
0.0
 10
93.7426984251
 20
665.9692462399
 30
0.0
 10
93.801850957
 20
665.976743439
 30
0.0
  0
SPLINE
  5
552
100
AcDbEntity
  8
0
100
AcDbSpline
 62
7
  6
BYLAYER
 70
0
 71
3
 72
13
 73
9
 74
0
 42
0.0000001
 43
0.0000001
 44
0.0000000001
 40
0.0
 40
0.0
 40
0.0
 40
0.0
 40
0.0269725314
 40
0.0757739678
 40
0.1565629412
 40
0.2727285561
 40
0.6031450231
 40
1.0
 40
1.0
 40
1.0
 40
1.0
 10
93.1480037696
 20
666.0244556587
 30
0.0
 10
93.1480038722
 20
666.0207452855
 30
0.0
 10
93.1547415701
 20
666.0111819951
 30
0.0
 10
93.1741834728
 20
666.001906925
 30
0.0
 10
93.2064823684
 20
665.991494288
 30
0.0
 10
93.2777021861
 20
665.9773152608
 30
0.0
 10
93.3933687621
 20
665.965806063
 30
0.0
 10
93.4934163397
 20
665.9627179923
 30
0.0
 10
93.5480081781
 20
665.9627181023
 30
0.0
  0
SPLINE
  5
553
100
AcDbEntity
  8
0
100
AcDbSpline
 62
7
  6
BYLAYER
 70
0
 71
3
 72
9
 73
5
 74
0
 42
0.0000001
 43
0.0000001
 44
0.0000000001
 40
0.0
 40
0.0
 40
0.0
 40
0.0
 40
0.5895033168
 40
1.0
 40
1.0
 40
1.0
 40
1.0
 10
93.0944095744
 20
664.2418155939
 30
0.0
 10
93.109392871
 20
664.2639127795
 30
0.0
 10
93.1324027357
 20
664.3026225535
 30
0.0
 10
93.1480041026
 20
664.3468542266
 30
0.0
 10
93.1479965583
 20
664.365445219
 30
0.0
  0
SPLINE
  5
554
100
AcDbEntity
  8
0
100
AcDbSpline
 62
7
  6
BYLAYER
 70
0
 71
3
 72
9
 73
5
 74
0
 42
0.0000001
 43
0.0000001
 44
0.0000000001
 40
0.0
 40
0.0
 40
0.0
 40
0.0
 40
0.2704838407
 40
1.0
 40
1.0
 40
1.0
 40
1.0
 10
92.8724001492
 20
663.978202382
 30
0.0
 10
92.8951522588
 20
663.9994261886
 30
0.0
 10
92.9762950812
 20
664.081080234
 30
0.0
 10
93.0473081533
 20
664.1723650218
 30
0.0
 10
93.0944095044
 20
664.241817947
 30
0.0
  0
SPLINE
  5
555
100
AcDbEntity
  8
0
100
AcDbSpline
 62
7
  6
BYLAYER
 70
0
 71
3
 72
11
 73
7
 74
0
 42
0.0000001
 43
0.0000001
 44
0.0000000001
 40
0.0
 40
0.0
 40
0.0
 40
0.0
 40
0.3375389512
 40
0.5925627711
 40
0.7940768015
 40
1.0
 40
1.0
 40
1.0
 40
1.0
 10
86.7016082925
 20
690.6244374054
 30
0.0
 10
86.6938084713
 20
690.6244364152
 30
0.0
 10
86.6800926485
 20
690.6236637354
 30
0.0
 10
86.6621157585
 20
690.6187175981
 30
0.0
 10
86.6499779576
 20
690.6080889724
 30
0.0
 10
86.6480176621
 20
690.5982401708
 30
0.0
 10
86.6480188426
 20
690.5934817153
 30
0.0
  0
SPLINE
  5
556
100
AcDbEntity
  8
0
100
AcDbSpline
 62
7
  6
BYLAYER
 70
0
 71
3
 72
11
 73
7
 74
0
 42
0.0000001
 43
0.0000001
 44
0.0000000001
 40
0.0
 40
0.0
 40
0.0
 40
0.0
 40
0.2523710741
 40
0.503320698
 40
0.7523293402
 40
1.0
 40
1.0
 40
1.0
 40
1.0
 10
93.5480081781
 20
663.9734162302
 30
0.0
 10
93.4960149894
 20
663.9734177789
 30
0.0
 10
93.3912162896
 20
663.993706298
 30
0.0
 10
93.2583287244
 20
664.0806810186
 30
0.0
 10
93.1689683473
 20
664.2109419588
 30
0.0
 10
93.1480079892
 20
664.3144238071
 30
0.0
 10
93.1480081781
 20
664.3654486221
 30
0.0
  0
SPLINE
  5
557
100
AcDbEntity
  8
0
100
AcDbSpline
 62
7
  6
BYLAYER
 70
0
 71
3
 72
11
 73
7
 74
0
 42
0.0000001
 43
0.0000001
 44
0.0000000001
 40
0.0
 40
0.0
 40
0.0
 40
0.0
 40
0.223878454
 40
0.4766114939
 40
0.7441160033
 40
1.0
 40
1.0
 40
1.0
 40
1.0
 10
86.3551895529
 20
691.0244270762
 30
0.0
 10
86.3987110935
 20
691.0244300873
 30
0.0
 10
86.4924433148
 20
691.0033992347
 30
0.0
 10
86.6099939515
 20
690.9116873485
 30
0.0
 10
86.6850616434
 20
690.7767119427
 30
0.0
 10
86.7016103543
 20
690.6741990585
 30
0.0
 10
86.7016121791
 20
690.6244557019
 30
0.0
  0
SPLINE
  5
558
100
AcDbEntity
  8
0
100
AcDbSpline
 62
7
  6
BYLAYER
 70
0
 71
3
 72
9
 73
5
 74
0
 42
0.0000001
 43
0.0000001
 44
0.0000000001
 40
0.0
 40
0.0
 40
0.0
 40
0.0
 40
0.4989154126
 40
1.0
 40
1.0
 40
1.0
 40
1.0
 10
93.801854332
 20
664.0624028313
 30
0.0
 10
93.766492078
 20
664.0339571448
 30
0.0
 10
93.6852222366
 20
663.9888199999
 30
0.0
 10
93.5935888178
 20
663.9734070057
 30
0.0
 10
93.5480081781
 20
663.9734162302
 30
0.0
  0
SPLINE
  5
559
100
AcDbEntity
  8
0
100
AcDbSpline
 62
7
  6
BYLAYER
 70
0
 71
3
 72
10
 73
6
 74
0
 42
0.0000001
 43
0.0000001
 44
0.0000000001
 40
0.0
 40
0.0
 40
0.0
 40
0.0
 40
0.6322330962
 40
0.8474161435
 40
1.0
 40
1.0
 40
1.0
 40
1.0
 10
93.6781855679
 20
663.9198496253
 30
0.0
 10
93.7108792716
 20
663.9439578082
 30
0.0
 10
93.7539279508
 20
663.9785757774
 30
0.0
 10
93.793163404
 20
664.0295096588
 30
0.0
 10
93.8018306842
 20
664.0526440466
 30
0.0
 10
93.801854332
 20
664.0624475874
 30
0.0
  0
SPLINE
  5
55A
100
AcDbEntity
  8
0
100
AcDbSpline
 62
7
  6
BYLAYER
 70
0
 71
3
 72
11
 73
7
 74
0
 42
0.0000001
 43
0.0000001
 44
0.0000000001
 40
0.0
 40
0.0
 40
0.0
 40
0.0
 40
0.2414461237
 40
0.5019587126
 40
0.7612325544
 40
1.0
 40
1.0
 40
1.0
 40
1.0
 10
86.2480081807
 20
690.9886969689
 30
0.0
 10
86.2979502639
 20
690.9886998201
 30
0.0
 10
86.4027685805
 20
690.9691052932
 30
0.0
 10
86.5385040916
 20
690.8811002644
 30
0.0
 10
86.6280153255
 20
690.7469248188
 30
0.0
 10
86.6480169275
 20
690.6428885337
 30
0.0
 10
86.6480188444
 20
690.5935005233
 30
0.0
  0
SPLINE
  5
55B
100
AcDbEntity
  8
0
100
AcDbSpline
 62
7
  6
BYLAYER
 70
0
 71
3
 72
11
 73
7
 74
0
 42
0.0000001
 43
0.0000001
 44
0.0000000001
 40
0.0
 40
0.0
 40
0.0
 40
0.0
 40
0.3873031076
 40
0.6683530788
 40
0.8570539417
 40
1.0
 40
1.0
 40
1.0
 40
1.0
 10
86.3551878498
 20
691.0244557013
 30
0.0
 10
86.3395029084
 20
691.0244556834
 30
0.0
 10
86.3122926658
 20
691.0237300644
 30
0.0
 10
86.278201617
 20
691.0182640994
 30
0.0
 10
86.2542504765
 20
691.0082107905
 30
0.0
 10
86.2480056055
 20
690.9945295301
 30
0.0
 10
86.2480081781
 20
690.9887405233
 30
0.0
  0
SPLINE
  5
55C
100
AcDbEntity
  8
0
100
AcDbSpline
 62
7
  6
BYLAYER
 70
0
 71
3
 72
11
 73
7
 74
0
 42
0.0000001
 43
0.0000001
 44
0.0000000001
 40
0.0
 40
0.0
 40
0.0
 40
0.0
 40
0.2539753862
 40
0.5023672
 40
0.7487291455
 40
1.0
 40
1.0
 40
1.0
 40
1.0
 10
91.8980081781
 20
684.9711708364
 30
0.0
 10
92.1522427543
 20
685.1155144233
 30
0.0
 10
92.6278917319
 20
685.4532140924
 30
0.0
 10
93.2098099661
 20
686.0988214696
 30
0.0
 10
93.6227372517
 20
686.8613527988
 30
0.0
 10
93.7582818258
 20
687.4264740394
 30
0.0
 10
93.7866235836
 20
687.7143219444
 30
0.0
  0
SPLINE
  5
55D
100
AcDbEntity
  8
0
100
AcDbSpline
 62
7
  6
BYLAYER
 70
0
 71
3
 72
16
 73
12
 74
0
 42
0.0000001
 43
0.0000001
 44
0.0000000001
 40
0.0
 40
0.0
 40
0.0
 40
0.0
 40
0.2838971917
 40
0.4653768133
 40
0.6477535025
 40
0.8047031984
 40
0.9168466336
 40
0.95375835
 40
0.9788056948
 40
0.9934804045
 40
1.0
 40
1.0
 40
1.0
 40
1.0
 10
93.7866249028
 20
687.7143210344
 30
0.0
 10
93.7253333556
 20
687.7229789388
 30
0.0
 10
93.6244448468
 20
687.7342340527
 30
0.0
 10
93.4837458939
 20
687.7464160896
 30
0.0
 10
93.3703918825
 20
687.7538441126
 30
0.0
 10
93.2721166133
 20
687.7578804386
 30
0.0
 10
93.2051812832
 20
687.7582416876
 30
0.0
 10
93.1674842307
 20
687.7564788195
 30
0.0
 10
93.1505208405
 20
687.7543402688
 30
0.0
 10
93.1412634362
 20
687.7525465014
 30
0.0
 10
93.1363737908
 20
687.7497262337
 30
0.0
 10
93.1362531789
 20
687.7483098482
 30
0.0
  0
SPLINE
  5
55E
100
AcDbEntity
  8
0
100
AcDbSpline
 62
7
  6
BYLAYER
 70
0
 71
3
 72
9
 73
5
 74
0
 42
0.0000001
 43
0.0000001
 44
0.0000000001
 40
0.0
 40
0.0
 40
0.0
 40
0.0
 40
0.1977562152
 40
1.0
 40
1.0
 40
1.0
 40
1.0
 10
93.8018537685
 20
688.0721684772
 30
0.0
 10
93.7852224055
 20
688.0742763732
 30
0.0
 10
93.7009074978
 20
688.0832127357
 30
0.0
 10
93.6160168834
 20
688.0861936373
 30
0.0
 10
93.5480081781
 20
688.0861936604
 30
0.0
  0
SPLINE
  5
55F
100
AcDbEntity
  8
0
100
AcDbSpline
 62
7
  6
BYLAYER
 70
0
 71
3
 72
13
 73
9
 74
0
 42
0.0000001
 43
0.0000001
 44
0.0000000001
 40
0.0
 40
0.0
 40
0.0
 40
0.0
 40
0.396856725
 40
0.7272729887
 40
0.8434381313
 40
0.9242265911
 40
0.9730275955
 40
1.0
 40
1.0
 40
1.0
 40
1.0
 10
93.5480081781
 20
688.0861936579
 30
0.0
 10
93.4934165495
 20
688.0861936765
 30
0.0
 10
93.3933695868
 20
688.0831054674
 30
0.0
 10
93.277703845
 20
688.0715961397
 30
0.0
 10
93.2064848008
 20
688.0574170527
 30
0.0
 10
93.1741864246
 20
688.0470044131
 30
0.0
 10
93.1547448368
 20
688.037729344
 30
0.0
 10
93.148007446
 20
688.0281660323
 30
0.0
 10
93.1480074302
 20
688.0244557072
 30
0.0
  0
SPLINE
  5
560
100
AcDbEntity
  8
0
100
AcDbSpline
 62
7
  6
BYLAYER
 70
0
 71
3
 72
11
 73
7
 74
0
 42
0.0000001
 43
0.0000001
 44
0.0000000001
 40
0.0
 40
0.0
 40
0.0
 40
0.0
 40
0.2523587406
 40
0.5032976709
 40
0.7523102757
 40
1.0
 40
1.0
 40
1.0
 40
1.0
 10
93.5480081781
 20
690.0754890261
 30
0.0
 10
93.4960164578
 20
690.0754887959
 30
0.0
 10
93.3912169124
 20
690.0552236603
 30
0.0
 10
93.2583236566
 20
689.9682515645
 30
0.0
 10
93.1689653416
 20
689.8379816228
 30
0.0
 10
93.1480079734
 20
689.7344925311
 30
0.0
 10
93.1480081781
 20
689.6834627359
 30
0.0
  0
SPLINE
  5
561
100
AcDbEntity
  8
0
100
AcDbSpline
 62
7
  6
BYLAYER
 70
0
 71
3
 72
11
 73
7
 74
0
 42
0.0000001
 43
0.0000001
 44
0.0000000001
 40
0.0
 40
0.0
 40
0.0
 40
0.0
 40
0.2512719326
 40
0.4976334996
 40
0.7460232534
 40
1.0
 40
1.0
 40
1.0
 40
1.0
 10
93.7866267856
 20
666.3345894582
 30
0.0
 10
93.7582806015
 20
666.6224381824
 30
0.0
 10
93.6227359894
 20
667.1875594328
 30
0.0
 10
93.2098085585
 20
667.9500894681
 30
0.0
 10
92.6278904203
 20
668.5956946558
 30
0.0
 10
92.1522438949
 20
668.9333963888
 30
0.0
 10
91.8980081781
 20
669.0777411545
 30
0.0
  0
SPLINE
  5
562
100
AcDbEntity
  8
0
100
AcDbSpline
 62
7
  6
BYLAYER
 70
0
 71
3
 72
9
 73
5
 74
0
 42
0.0000001
 43
0.0000001
 44
0.0000000001
 40
0.0
 40
0.0
 40
0.0
 40
0.0
 40
0.4105077453
 40
1.0
 40
1.0
 40
1.0
 40
1.0
 10
93.1479962407
 20
689.6834670217
 30
0.0
 10
93.1480037442
 20
689.7020578914
 30
0.0
 10
93.1324037541
 20
689.7462882562
 30
0.0
 10
93.1093948685
 20
689.7849969981
 30
0.0
 10
93.0944122809
 20
689.8070929767
 30
0.0
  0
SPLINE
  5
563
100
AcDbEntity
  8
0
100
AcDbSpline
 62
7
  6
BYLAYER
 70
0
 71
3
 72
9
 73
5
 74
0
 42
0.0000001
 43
0.0000001
 44
0.0000000001
 40
0.0
 40
0.0
 40
0.0
 40
0.0
 40
0.2191796735
 40
1.0
 40
1.0
 40
1.0
 40
1.0
 10
93.0944177975
 20
689.807100083
 30
0.0
 10
93.0802695058
 20
689.827958337
 30
0.0
 10
93.0138282197
 20
689.921776228
 30
0.0
 10
92.9380770584
 20
690.0094721515
 30
0.0
 10
92.8724178163
 20
690.0707160456
 30
0.0
  0
SPLINE
  5
564
100
AcDbEntity
  8
0
100
AcDbSpline
 62
7
  6
BYLAYER
 70
0
 71
3
 72
9
 73
5
 74
0
 42
0.0000001
 43
0.0000001
 44
0.0000000001
 40
0.0
 40
0.0
 40
0.0
 40
0.0
 40
0.5011986913
 40
1.0
 40
1.0
 40
1.0
 40
1.0
 10
93.5480081781
 20
690.0754890261
 30
0.0
 10
93.5935903057
 20
690.075456441
 30
0.0
 10
93.6851885353
 20
690.0600508296
 30
0.0
 10
93.7664832009
 20
690.0150025593
 30
0.0
 10
93.801854332
 20
689.9865985945
 30
0.0
  0
SPLINE
  5
565
100
AcDbEntity
  8
0
100
AcDbSpline
 62
7
  6
BYLAYER
 70
0
 71
3
 72
10
 73
6
 74
0
 42
0.0000001
 43
0.0000001
 44
0.0000000001
 40
0.0
 40
0.0
 40
0.0
 40
0.0
 40
0.1526428855
 40
0.3678266995
 40
1.0
 40
1.0
 40
1.0
 40
1.0
 10
93.801854332
 20
689.9864867754
 30
0.0
 10
93.8018087831
 20
689.99629202
 30
0.0
 10
93.7931550534
 20
690.0194192455
 30
0.0
 10
93.7539130665
 20
690.0703447353
 30
0.0
 10
93.7108827816
 20
690.1049512561
 30
0.0
 10
93.6781987568
 20
690.1290520544
 30
0.0
  0
SPLINE
  5
566
100
AcDbEntity
  8
0
100
AcDbSpline
 62
7
  6
BYLAYER
 70
0
 71
3
 72
11
 73
7
 74
0
 42
0.0000001
 43
0.0000001
 44
0.0000000001
 40
0.0
 40
0.0
 40
0.0
 40
0.0
 40
0.2132250487
 40
0.480121499
 40
0.7627953905
 40
1.0
 40
1.0
 40
1.0
 40
1.0
 10
93.6781831658
 20
690.1290531779
 30
0.0
 10
93.6338466548
 20
690.1617422215
 30
0.0
 10
93.5072096932
 20
690.202281004
 30
0.0
 10
93.3087627374
 20
690.1413869049
 30
0.0
 10
93.1585642085
 20
689.9950721455
 30
0.0
 10
93.10552112
 20
689.8673613974
 30
0.0
 10
93.0944148401
 20
689.8070969039
 30
0.0
  0
SPLINE
  5
567
100
AcDbEntity
  8
0
100
AcDbSpline
 62
7
  6
BYLAYER
 70
0
 71
3
 72
12
 73
8
 74
0
 42
0.0000001
 43
0.0000001
 44
0.0000000001
 40
0.0
 40
0.0
 40
0.0
 40
0.0
 40
0.1256403897
 40
0.2344748991
 40
0.3715332375
 40
0.6920029083
 40
1.0
 40
1.0
 40
1.0
 40
1.0
 10
93.1658645671
 20
690.4332377716
 30
0.0
 10
93.1474542575
 20
690.4418239034
 30
0.0
 10
93.1049949212
 20
690.4225258746
 30
0.0
 10
93.0626498365
 20
690.3833930545
 30
0.0
 10
93.0018867726
 20
690.3132187288
 30
0.0
 10
92.9364214987
 20
690.2081892242
 30
0.0
 10
92.8917456216
 20
690.116610345
 30
0.0
 10
92.8724156488
 20
690.0707167888
 30
0.0
  0
SPLINE
  5
568
100
AcDbEntity
  8
0
100
AcDbSpline
 62
7
  6
BYLAYER
 70
0
 71
3
 72
11
 73
7
 74
0
 42
0.0000001
 43
0.0000001
 44
0.0000000001
 40
0.0
 40
0.0
 40
0.0
 40
0.0
 40
0.2057224304
 40
0.4680399112
 40
0.7541577972
 40
1.0
 40
1.0
 40
1.0
 40
1.0
 10
93.6781768174
 20
663.9198378652
 30
0.0
 10
93.6353952891
 20
663.888294651
 30
0.0
 10
93.512942587
 20
663.8474425288
 30
0.0
 10
93.3155074017
 20
663.9033482086
 30
0.0
 10
93.1612837193
 20
664.0487949072
 30
0.0
 10
93.1059255011
 20
664.1793433406
 30
0.0
 10
93.0944141266
 20
664.2418102945
 30
0.0
  0
SPLINE
  5
569
100
AcDbEntity
  8
0
100
AcDbSpline
 62
7
  6
BYLAYER
 70
0
 71
3
 72
16
 73
12
 74
0
 42
0.0000001
 43
0.0000001
 44
0.0000000001
 40
0.0
 40
0.0
 40
0.0
 40
0.0
 40
0.2846723048
 40
0.4664185828
 40
0.6487876804
 40
0.8054624666
 40
0.9172294412
 40
0.9539824952
 40
0.9789094702
 40
0.9935080488
 40
1.0
 40
1.0
 40
1.0
 40
1.0
 10
93.7866202234
 20
666.3345892701
 30
0.0
 10
93.7251615744
 20
666.3259075799
 30
0.0
 10
93.6240466795
 20
666.3146338154
 30
0.0
 10
93.4831223493
 20
666.3024460808
 30
0.0
 10
93.369771407
 20
666.2950328425
 30
0.0
 10
93.271638513
 20
666.2910187791
 30
0.0
 10
93.2048819943
 20
666.2906750689
 30
0.0
 10
93.1673254985
 20
666.2924452414
 30
0.0
 10
93.1504450634
 20
666.2945835818
 30
0.0
 10
93.1412282911
 20
666.296375806
 30
0.0
 10
93.1363726926
 20
666.2991915762
 30
0.0
 10
93.1362523392
 20
666.3006019294
 30
0.0
  0
SPLINE
  5
56A
100
AcDbEntity
  8
0
100
AcDbSpline
 62
7
  6
BYLAYER
 70
0
 71
3
 72
11
 73
7
 74
0
 42
0.0000001
 43
0.0000001
 44
0.0000000001
 40
0.0
 40
0.0
 40
0.0
 40
0.0
 40
0.1429471761
 40
0.3316477769
 40
0.6126971308
 40
1.0
 40
1.0
 40
1.0
 40
1.0
 10
86.2480081781
 20
663.0601708764
 30
0.0
 10
86.2480056506
 20
663.0543818457
 30
0.0
 10
86.2542507609
 20
663.0407007365
 30
0.0
 10
86.2782016181
 20
663.030647278
 30
0.0
 10
86.3122925792
 20
663.0251813644
 30
0.0
 10
86.3395026595
 20
663.0244557269
 30
0.0
 10
86.3551875335
 20
663.0244557013
 30
0.0
  0
SPLINE
  5
56B
100
AcDbEntity
  8
0
100
AcDbSpline
 62
7
  6
BYLAYER
 70
0
 71
3
 72
11
 73
7
 74
0
 42
0.0000001
 43
0.0000001
 44
0.0000000001
 40
0.0
 40
0.0
 40
0.0
 40
0.0
 40
0.2387674923
 40
0.4980413457
 40
0.7585539171
 40
1.0
 40
1.0
 40
1.0
 40
1.0
 10
86.648018954
 20
663.4554108977
 30
0.0
 10
86.6480170311
 20
663.4060228888
 30
0.0
 10
86.6280154015
 20
663.3019866149
 30
0.0
 10
86.5385040931
 20
663.1678112437
 30
0.0
 10
86.402768541
 20
663.0798063577
 30
0.0
 10
86.2979502444
 20
663.0602119307
 30
0.0
 10
86.2480081808
 20
663.0602148223
 30
0.0
  0
SPLINE
  5
56C
100
AcDbEntity
  8
0
100
AcDbSpline
 62
7
  6
BYLAYER
 70
0
 71
3
 72
11
 73
7
 74
0
 42
0.0000001
 43
0.0000001
 44
0.0000000001
 40
0.0
 40
0.0
 40
0.0
 40
0.0
 40
0.2238783593
 40
0.4766113528
 40
0.7441159034
 40
1.0
 40
1.0
 40
1.0
 40
1.0
 10
86.3551903967
 20
663.0244840503
 30
0.0
 10
86.3987118996
 20
663.0244810819
 30
0.0
 10
86.4924440306
 20
663.0455120364
 30
0.0
 10
86.6099944683
 20
663.1372240347
 30
0.0
 10
86.6850619769
 20
663.2721994761
 30
0.0
 10
86.7016106149
 20
663.3747123473
 30
0.0
 10
86.7016124185
 20
663.4244557012
 30
0.0
  0
SPLINE
  5
56D
100
AcDbEntity
  8
0
100
AcDbSpline
 62
7
  6
BYLAYER
 70
0
 71
3
 72
11
 73
7
 74
0
 42
0.0000001
 43
0.0000001
 44
0.0000000001
 40
0.0
 40
0.0
 40
0.0
 40
0.0
 40
0.2059262003
 40
0.407440102
 40
0.6624627448
 40
1.0
 40
1.0
 40
1.0
 40
1.0
 10
86.6480189524
 20
663.4554158284
 30
0.0
 10
86.6480176097
 20
663.4506572428
 30
0.0
 10
86.649977569
 20
663.4408081533
 30
0.0
 10
86.6621153299
 20
663.4301790382
 30
0.0
 10
86.6800923753
 20
663.4252327253
 30
0.0
 10
86.693808306
 20
663.424460031
 30
0.0
 10
86.7016081876
 20
663.4244590531
 30
0.0
  0
ENDSEC
  0
SECTION
  2
OBJECTS
  0
DICTIONARY
  5
C
100
AcDbDictionary
280
0
281
1
  3
ACAD_GROUP
350
D
  3
ACAD_MLINESTYLE
350
17
  3
ACAD_LAYOUT
350
1A
  3
ACAD_PLOTSETTINGS
350
19
  3
ACAD_PLOTSTYLENAME
350
E
  0
DICTIONARY
  5
D
102
{ACAD_REACTORS
330
C
102
}
100
AcDbDictionary
280
0
281
1
  0
ACDBDICTIONARYWDFLT
  5
E
102
{ACAD_REACTORS
330
C
102
}
100
AcDbDictionary
281
1
  3
Normal
350
F
100
AcDbDictionaryWithDefault
340
F
  0
DICTIONARY
  5
17
102
{ACAD_REACTORS
330
C
102
}
100
AcDbDictionary
280
0
281
1
  3
Standard
350
18
  0
DICTIONARY
  5
19
102
{ACAD_REACTORS
330
C
102
}
100
AcDbDictionary
281
1
  0
DICTIONARY
  5
1A
102
{ACAD_REACTORS
330
C
102
}
100
AcDbDictionary
281
1
  3
Model
350
56E
  3
Layout1
350
56F
  0
ACDBPLACEHOLDER
  5
F
102
{ACAD_REACTORS
330
E
102
}
  0
MLINESTYLE
  5
18
102
{ACAD_REACTORS
330
17
102
}
100
AcDbMlineStyle
  2
STANDARD
 70
0
  3

 62
256
 51
90.0
 52
90.0
 71
2
 49
0.5
 62
256
  6
BYLAYER
 49
-0.5
 62
256
  6
BYLAYER
  0
LAYOUT
  5
56E
102
{ACAD_REACTORS
330
1A
102
}
100
AcDbPlotSettings
  1

  2
none_device
  4

  6

 40
0.0
 41
0.0
 42
0.0
 43
0.0
 44
210.0
 45
297.0
 46
0.0
 47
0.0
 48
0.0
 49
0.0
140
0.0
141
0.0
142
1.0
143
1.0
 70
1024
 72
1
 73
0
 74
0
  7

 75
0
147
1.0
148
0.0
149
0.0
100
AcDbLayout
  1
Model
 70
0
 71
0
 10
0.0
 20
0.0
 11
210.0
 21
297.0
 12
0.0
 22
0.0
 32
0.0
 14
0.0
 24
0.0
 34
0.0
 15
0.0
 25
0.0
 35
0.0
146
0.0
 13
0.0
 23
0.0
 33
0.0
 16
1.0
 26
0.0
 36
0.0
 17
0.0
 27
1.0
 37
0.0
 76
0
330
210
345
0
346
0
  0
LAYOUT
  5
56F
102
{ACAD_REACTORS
330
1A
102
}
100
AcDbPlotSettings
  1

  2
none_device
  4

  6

 40
0.0
 41
0.0
 42
0.0
 43
0.0
 44
210.0
 45
297.0
 46
0.0
 47
0.0
 48
0.0
 49
0.0
140
0.0
141
0.0
142
1.0
143
1.0
 70
0
 72
1
 73
0
 74
0
  7

 75
0
147
1.0
148
0.0
149
0.0
100
AcDbLayout
  1
Layout1
 70
0
 71
1
 10
0.0
 20
0.0
 11
210.0
 21
297.0
 12
0.0
 22
0.0
 32
0.0
 14
0.0
 24
0.0
 34
0.0
 15
0.0
 25
0.0
 35
0.0
146
0.0
 13
0.0
 23
0.0
 33
0.0
 16
1.0
 26
0.0
 36
0.0
 17
0.0
 27
1.0
 37
0.0
 76
0
330
211
345
0
346
0
  0
ENDSEC
  0
EOF
