999
DXF file: C:\Users\sesa63760\Dev\_Creo\CAD\MCADPP0000419_3D-CAD\drw0001_1.dxf
999
Pro/ENGINEER 2019471 by Parametric Technology Corporation
  0
SECTION
  2
HEADER
  9
$ACADVER
  1
AC1024
  9
$DWGCODEPAGE
  3
ANSI_1252
  9
$EXTMAX
 10
139.0931718995
 20
196.7174859721
 30
0.0
  9
$EXTMIN
 10
0.0
 20
0.0
 30
0.0
  9
$LIMMIN
 10
0.0
 20
0.0
  9
$LIMMAX
 10
139.0931718995
 20
196.7174859721
  9
$VIEWCTR
 10
69.5465859497
 20
98.3587429861
  9
$VIEWSIZE
 40
196.7174859721
  9
$CLAYER
  8
0
  9
$LTSCALE
 40
12.8230657523
  9
$CELTYPE
  6
BYLAYER
  9
$DIMSCALE
 40
1.0
  9
$DIMASZ
 40
1.655871094
  9
$DIMEXO
 40
1.0
  9
$DIMDLI
 40
8.8595727016
  9
$DIMEXE
 40
1.0
  9
$DIMCEN
 40
2.0983198504
  9
$DIMLFAC
 40
1.0
  9
$DIMBLK
  1
_FILLED
  9
$DIMALT
 70
0
  9
$DIMALTF
 40
0.0393700787
  9
$DIMTXT
 40
2.3182195317
  9
$DIMTOL
 70
1
  9
$DIMLIM
 70
0
  9
$DIMTFAC
 40
1.0
  9
$DIMTP
 40
0.01
  9
$DIMTM
 40
0.01
  9
$DIMGAP
 40
0.625
  9
$DIMDSEP
 70
46
  9
$AUNITS
 70
0
  9
$PDMODE
 70
3
  9
$PDSIZE
 40
0.3125
  9
$HANDSEED
  5
2DA
  9
$TILEMODE
 70
1
  9
$MEASUREMENT
 70
1
  9
$INSUNITS
 70
4
  0
ENDSEC
  0
SECTION
  2
CLASSES
  0
CLASS
  1
ACDBDICTIONARYWDFLT
  2
AcDbDictionaryWithDefault
  3
AutoCAD 2000
 90
0
 91
1
280
0
281
0
  0
CLASS
  1
ACDBPLACEHOLDER
  2
AcDbPlaceHolder
  3
AutoCAD 2000
 90
0
 91
1
280
0
281
0
  0
CLASS
  1
LAYOUT
  2
AcDbLayout
  3
AutoCAD 2000
 90
0
 91
0
280
0
281
0
  0
ENDSEC
  0
SECTION
  2
TABLES
  0
TABLE
  2
VPORT
  5
8
100
AcDbSymbolTable
 70
2
  0
VPORT
  5
1F4
100
AcDbSymbolTableRecord
100
AcDbViewportTableRecord
  2
*ACTIVE
 70
0
 10
0.0
 20
0.0
 11
1.0
 21
1.0
 12
69.5465859497
 22
98.3587429861
 13
0.0
 23
0.0
 14
1.0
 24
1.0
 15
0.0
 25
0.0
 16
0.0
 26
0.0
 36
1.0
 17
0.0
 27
0.0
 37
0.0
 40
196.7174859721
 41
0.7070707071
 42
50.0
 43
0.0
 44
0.0
 50
0.0
 51
0.0
 71
0
 72
100
 73
1
 74
1
 75
0
 76
0
 77
0
 78
0
  0
ENDTAB
  0
TABLE
  2
LTYPE
  5
5
100
AcDbSymbolTable
 70
6
  0
LTYPE
  5
14
100
AcDbSymbolTableRecord
100
AcDbLinetypeTableRecord
  2
BYBLOCK
 70
0
  3

 72
65
 73
0
 40
0.0
  0
LTYPE
  5
15
100
AcDbSymbolTableRecord
100
AcDbLinetypeTableRecord
  2
BYLAYER
 70
0
  3

 72
65
 73
0
 40
0.0
  0
LTYPE
  5
16
100
AcDbSymbolTableRecord
100
AcDbLinetypeTableRecord
  2
CONTINUOUS
 70
64
  3
Solid line
 72
65
 73
0
 40
0.0
  0
LTYPE
  5
1F5
100
AcDbSymbolTableRecord
100
AcDbLinetypeTableRecord
  2
CENTER
 70
64
  3
____ _ ____ _ ____ _ ____ _ ____ _ ____ _ ____
 72
65
 73
4
 40
0.6
 49
0.375
 74
0
 49
-0.075
 74
0
 49
0.075
 74
0
 49
-0.075
 74
0
  0
LTYPE
  5
1F6
100
AcDbSymbolTableRecord
100
AcDbLinetypeTableRecord
  2
HIDDEN
 70
64
  3
- - - - - - - - - - - - - - - - - - - -
 72
65
 73
2
 40
0.2
 49
0.1
 74
0
 49
-0.1
 74
0
  0
LTYPE
  5
1F7
100
AcDbSymbolTableRecord
100
AcDbLinetypeTableRecord
  2
PHANTOM
 70
64
  3
_____ _ _ _____ _ _ _____ _ _ _____
 72
65
 73
6
 40
0.8
 49
0.45
 74
0
 49
-0.05
 74
0
 49
0.1
 74
0
 49
-0.05
 74
0
 49
0.1
 74
0
 49
-0.05
 74
0
  0
LTYPE
  5
1F8
100
AcDbSymbolTableRecord
100
AcDbLinetypeTableRecord
  2
DOT
 70
64
  3
. . . . . . . . . . . . . . . . . . . .
 72
65
 73
2
 40
0.2
 49
0.1
 74
0
 49
-0.1
 74
0
  0
LTYPE
  5
1F9
100
AcDbSymbolTableRecord
100
AcDbLinetypeTableRecord
  2
DASHED
 70
64
  3
- - - - - - - - - - - - - - - - - - - -
 72
65
 73
2
 40
0.2
 49
0.1
 74
0
 49
-0.1
 74
0
  0
ENDTAB
  0
TABLE
  2
LAYER
  5
2
100
AcDbSymbolTable
 70
36
  0
LAYER
  5
10
100
AcDbSymbolTableRecord
100
AcDbLayerTableRecord
  2
0
 70
0
 62
7
  6
CONTINUOUS
370
-3
390
F
  0
LAYER
  5
1FA
100
AcDbSymbolTableRecord
100
AcDbLayerTableRecord
  2
DEFAULT_1
 70
0
 62
7
  6
CENTER
370
-3
390
F
  0
LAYER
  5
1FB
100
AcDbSymbolTableRecord
100
AcDbLayerTableRecord
  2
DEFAULT_2
 70
0
 62
8
  6
HIDDEN
370
-3
390
F
  0
LAYER
  5
1FC
100
AcDbSymbolTableRecord
100
AcDbLayerTableRecord
  2
DEFAULT_3
 70
0
 62
7
  6
PHANTOM
370
-3
390
F
  0
LAYER
  5
1FD
100
AcDbSymbolTableRecord
100
AcDbLayerTableRecord
  2
00_COMPONENTS
 70
0
 62
7
  6
CONTINUOUS
370
-3
390
F
  0
LAYER
  5
1FE
100
AcDbSymbolTableRecord
100
AcDbLayerTableRecord
  2
01_1_DEFAULT_DATUMS
 70
0
 62
7
  6
CONTINUOUS
370
-3
390
F
  0
LAYER
  5
1FF
100
AcDbSymbolTableRecord
100
AcDbLayerTableRecord
  2
01_PLANES
 70
0
 62
7
  6
CONTINUOUS
370
-3
390
F
  0
LAYER
  5
200
100
AcDbSymbolTableRecord
100
AcDbLayerTableRecord
  2
02_COORD_SYS
 70
0
 62
7
  6
CONTINUOUS
370
-3
390
F
  0
LAYER
  5
201
100
AcDbSymbolTableRecord
100
AcDbLayerTableRecord
  2
03_AXES
 70
0
 62
7
  6
CONTINUOUS
370
-3
390
F
  0
LAYER
  5
202
100
AcDbSymbolTableRecord
100
AcDbLayerTableRecord
  2
04_POINTS
 70
0
 62
7
  6
CONTINUOUS
370
-3
390
F
  0
LAYER
  5
203
100
AcDbSymbolTableRecord
100
AcDbLayerTableRecord
  2
05_CURVES
 70
0
 62
7
  6
CONTINUOUS
370
-3
390
F
  0
LAYER
  5
204
100
AcDbSymbolTableRecord
100
AcDbLayerTableRecord
  2
06_SURFS
 70
0
 62
7
  6
CONTINUOUS
370
-3
390
F
  0
LAYER
  5
205
100
AcDbSymbolTableRecord
100
AcDbLayerTableRecord
  2
07_COSMETICS
 70
0
 62
7
  6
CONTINUOUS
370
-3
390
F
  0
LAYER
  5
206
100
AcDbSymbolTableRecord
100
AcDbLayerTableRecord
  2
10_NOTES
 70
0
 62
7
  6
CONTINUOUS
370
-3
390
F
  0
LAYER
  5
207
100
AcDbSymbolTableRecord
100
AcDbLayerTableRecord
  2
11_NOTES_PUB
 70
0
 62
7
  6
CONTINUOUS
370
-3
390
F
  0
LAYER
  5
208
100
AcDbSymbolTableRecord
100
AcDbLayerTableRecord
  2
13_REF_GTOL
 70
0
 62
7
  6
CONTINUOUS
370
-3
390
F
  0
LAYER
  5
209
100
AcDbSymbolTableRecord
100
AcDbLayerTableRecord
  2
16_MISC
 70
0
 62
7
  6
CONTINUOUS
370
-3
390
F
  0
LAYER
  5
20A
100
AcDbSymbolTableRecord
100
AcDbLayerTableRecord
  2
17_NO_PRINT
 70
0
 62
7
  6
CONTINUOUS
370
-3
390
F
  0
LAYER
  5
20B
100
AcDbSymbolTableRecord
100
AcDbLayerTableRecord
  2
18_DATUM_CAMS_JOINTS
 70
0
 62
7
  6
CONTINUOUS
370
-3
390
F
  0
LAYER
  5
20C
100
AcDbSymbolTableRecord
100
AcDbLayerTableRecord
  2
19_DATUM_FUNCTIONAL
 70
0
 62
7
  6
CONTINUOUS
370
-3
390
F
  0
LAYER
  5
20D
100
AcDbSymbolTableRecord
100
AcDbLayerTableRecord
  2
20_DATUM_KINEMATIC_SCHEME
 70
0
 62
7
  6
CONTINUOUS
370
-3
390
F
  0
ENDTAB
  0
TABLE
  2
STYLE
  5
3
100
AcDbSymbolTable
 70
1
  0
STYLE
  5
11
100
AcDbSymbolTableRecord
100
AcDbTextStyleTableRecord
  2
STANDARD
 70
0
 40
0.0
 41
0.8
 50
0.0
 71
0
 42
0.2
  3
txt
  4

  0
STYLE
  5
20E
100
AcDbSymbolTableRecord
100
AcDbTextStyleTableRecord
  2
TEXTSTYLE_1
 70
0
 40
0.0
 41
0.8
 50
0.0
 71
0
 42
0.2
  3
gdt
  4

  0
ENDTAB
  0
TABLE
  2
VIEW
  5
6
100
AcDbSymbolTable
 70
0
  0
ENDTAB
  0
TABLE
  2
UCS
  5
7
100
AcDbSymbolTable
 70
0
  0
ENDTAB
  0
TABLE
  2
APPID
  5
9
100
AcDbSymbolTable
 70
1
  0
APPID
  5
20F
100
AcDbSymbolTableRecord
100
AcDbRegAppTableRecord
  2
ACAD
 70
0
  0
ENDTAB
  0
TABLE
  2
BLOCK_RECORD
  5
1
100
AcDbSymbolTable
 70
0
  0
BLOCK_RECORD
  5
210
100
AcDbSymbolTableRecord
100
AcDbBlockTableRecord
  2
*Model_Space
  0
BLOCK_RECORD
  5
211
100
AcDbSymbolTableRecord
100
AcDbBlockTableRecord
  2
*Paper_Space
  0
BLOCK_RECORD
  5
212
100
AcDbSymbolTableRecord
100
AcDbBlockTableRecord
  2
_FILLED
  0
ENDTAB
  0
TABLE
  2
DIMSTYLE
  5
A
100
AcDbSymbolTable
 70
1
100
AcDbDimStyleTable
 71
0
  0
DIMSTYLE
105
213
100
AcDbSymbolTableRecord
100
AcDbDimStyleTableRecord
  2
STANDARD
 70
0
  3

  4

 40
1.0
 41
1.655871094
 42
1.0
 43
0.38
 44
1.0
 45
0.0
 46
0.0
 47
0.01
 48
0.01
140
2.3182195317
141
0.09
142
0.0
143
25.4
144
1.0
145
0.0
146
1.0
147
0.625
 71
1
 72
0
 73
0
 74
0
 75
0
 76
0
 77
1
 78
8
 79
2
170
0
171
1
172
0
173
0
174
0
175
0
176
0
177
0
178
0
270
2
179
2
271
2
272
2
273
2
274
2
275
0
280
0
281
0
282
0
283
1
284
8
285
0
286
0
287
3
288
0
340
11
278
46
341
212
342
212
343
212
344
212
  0
ENDTAB
  0
ENDSEC
  0
SECTION
  2
BLOCKS
  0
BLOCK
  5
20
100
AcDbEntity
  8
0
100
AcDbBlockBegin
  2
*Model_Space
 70
0
 10
0.0
 20
0.0
 30
0.0
  3
*Model_Space
  1

  0
ENDBLK
  5
21
100
AcDbEntity
  8
0
100
AcDbBlockEnd
  0
BLOCK
  5
1C
100
AcDbEntity
  8
0
100
AcDbBlockBegin
  2
*Paper_Space
 70
0
 10
0.0
 20
0.0
 30
0.0
  3
*Paper_Space
  1

  0
ENDBLK
  5
1D
100
AcDbEntity
  8
0
100
AcDbBlockEnd
  0
BLOCK
  5
214
100
AcDbEntity
  8
0
100
AcDbBlockBegin
  2
_FILLED
 70
64
 10
0.0
 20
0.0
  3
_FILLED
  1

  0
SOLID
  5
215
100
AcDbEntity
  8
0
  6
BYBLOCK
 62
0
100
AcDbTrace
 10
0.0
 20
0.0
 11
-1.0
 21
0.25
 12
-1.0
 22
-0.25
 13
-1.0
 23
-0.25
  0
ENDBLK
  5
216
100
AcDbEntity
  8
0
  6
BYBLOCK
 62
0
100
AcDbBlockEnd
  0
ENDSEC
  0
SECTION
  2
ENTITIES
  0
LINE
  5
217
100
AcDbEntity
  8
0
100
AcDbLine
 62
7
  6
CONTINUOUS
 10
44.5067226052
 20
158.8628223193
 11
51.2242090588
 21
162.7411417811
  0
LINE
  5
218
100
AcDbEntity
  8
0
100
AcDbLine
 62
7
  6
CONTINUOUS
 10
54.5216763503
 20
164.446331905
 11
47.8041898968
 21
160.5680124432
  0
LINE
  5
219
100
AcDbEntity
  8
0
100
AcDbLine
 62
7
  6
CONTINUOUS
 10
41.006558611
 20
152.2859302701
 11
44.5067226052
 21
154.3067388317
  0
LINE
  5
21A
100
AcDbEntity
  8
0
100
AcDbLine
 62
7
  6
CONTINUOUS
 10
20.9955597614
 20
129.5058306639
 11
45.7795492558
 21
143.8147882571
  0
LINE
  5
21B
100
AcDbEntity
  8
0
100
AcDbLine
 62
7
  6
CONTINUOUS
 10
20.9955597614
 20
73.3920915704
 11
20.9955597614
 21
129.5058306639
  0
LINE
  5
21C
100
AcDbEntity
  8
0
100
AcDbLine
 62
7
  6
CONTINUOUS
 10
68.5878981654
 20
50.7433137495
 11
59.3426358162
 21
50.5347472207
  0
LINE
  5
21D
100
AcDbEntity
  8
0
100
AcDbLine
 62
7
  6
CONTINUOUS
 10
85.3425447498
 20
32.7512455521
 11
45.6758085184
 21
55.6523283015
  0
LINE
  5
21E
100
AcDbEntity
  8
0
100
AcDbLine
 62
7
  6
CONTINUOUS
 10
54.5001870439
 20
55.8513999911
 11
21.6911994448
 21
55.1112526166
  0
LINE
  5
21F
100
AcDbEntity
  8
0
100
AcDbLine
 62
7
  6
CONTINUOUS
 10
26.5517928139
 20
72.2335294489
 11
27.0892528338
 21
71.9720177766
  0
LINE
  5
220
100
AcDbEntity
  8
0
100
AcDbLine
 62
7
  6
CONTINUOUS
 10
33.7678338216
 20
72.3963181905
 11
34.3052938415
 21
72.1348065183
  0
LINE
  5
221
100
AcDbEntity
  8
0
100
AcDbLine
 62
7
  6
CONTINUOUS
 10
54.5863731241
 20
61.3934722621
 11
55.7322182213
 21
60.595090157
  0
LINE
  5
222
100
AcDbEntity
  8
0
100
AcDbLine
 62
7
  6
CONTINUOUS
 10
57.4850427659
 20
60.531430685
 11
56.091232414
 21
60.5000194529
  0
LINE
  5
223
100
AcDbEntity
  8
0
100
AcDbLine
 62
7
  6
CONTINUOUS
 10
54.9065495695
 20
62.3280285245
 11
54.0393431717
 21
62.3084649663
  0
LINE
  5
224
100
AcDbEntity
  8
0
100
AcDbLine
 62
7
  6
CONTINUOUS
 10
60.8120399289
 20
62.8144360141
 11
61.48464242
 21
62.8296094469
  0
LINE
  5
225
100
AcDbEntity
  8
0
100
AcDbLine
 62
7
  6
CONTINUOUS
 10
40.9838748293
 20
72.5591069322
 11
41.5213348492
 21
72.2975952599
  0
LINE
  5
226
100
AcDbEntity
  8
0
100
AcDbLine
 62
7
  6
CONTINUOUS
 10
57.4850427659
 20
60.531430685
 11
54.9065495695
 21
62.3280285245
  0
LINE
  5
227
100
AcDbEntity
  8
0
100
AcDbLine
 62
7
  6
CONTINUOUS
 10
58.3781848312
 20
61.2264563282
 11
55.7995523536
 21
63.0231512136
  0
LINE
  5
228
100
AcDbEntity
  8
0
100
AcDbLine
 62
7
  6
CONTINUOUS
 10
41.006558611
 20
152.2859302701
 11
41.006558611
 21
141.0591172727
  0
LINE
  5
229
100
AcDbEntity
  8
0
100
AcDbLine
 62
7
  6
CONTINUOUS
 10
81.2800899347
 20
139.5526893422
 11
80.2946323315
 21
138.9837385259
  0
LINE
  5
22A
100
AcDbEntity
  8
0
100
AcDbLine
 62
7
  6
CONTINUOUS
 10
81.7048301256
 20
139.2872205327
 11
81.241071649
 21
139.0194710496
  0
LINE
  5
22B
100
AcDbEntity
  8
0
100
AcDbLine
 62
7
  6
CONTINUOUS
 10
81.9481813742
 20
138.6112302951
 11
82.2612402347
 21
138.7919738336
  0
LINE
  5
22C
100
AcDbEntity
  8
0
100
AcDbLine
 62
7
  6
CONTINUOUS
 10
80.4975609821
 20
137.7736761663
 11
79.7904571449
 21
137.3654320124
  0
LINE
  5
22D
100
AcDbEntity
  8
0
100
AcDbLine
 62
7
  6
CONTINUOUS
 10
81.241071649
 20
137.3444407017
 11
81.9481754862
 21
137.7526848556
  0
LINE
  5
22E
100
AcDbEntity
  8
0
100
AcDbLine
 62
7
  6
CONTINUOUS
 10
57.1641475123
 20
73.0514799774
 11
57.1550619362
 21
73.0538139028
  0
LINE
  5
22F
100
AcDbEntity
  8
0
100
AcDbLine
 62
7
  6
CONTINUOUS
 10
44.5067226052
 20
154.3067388317
 11
44.5067226052
 21
158.8628223193
  0
LINE
  5
230
100
AcDbEntity
  8
0
100
AcDbLine
 62
7
  6
CONTINUOUS
 10
81.241071649
 20
136.5279382846
 11
81.9481754862
 21
136.9361824385
  0
LINE
  5
231
100
AcDbEntity
  8
0
100
AcDbLine
 62
7
  6
CONTINUOUS
 10
81.9481813742
 20
136.1196975301
 11
82.6552852114
 21
136.5279416839
  0
LINE
  5
232
100
AcDbEntity
  8
0
100
AcDbLine
 62
7
  6
CONTINUOUS
 10
83.7112395597
 20
136.2790945862
 11
83.3987958783
 21
136.0987062194
  0
LINE
  5
233
100
AcDbEntity
  8
0
100
AcDbLine
 62
7
  6
CONTINUOUS
 10
81.241071649
 20
134.8529079367
 11
81.9481754862
 21
135.2611520905
  0
LINE
  5
234
100
AcDbEntity
  8
0
100
AcDbLine
 62
7
  6
CONTINUOUS
 10
83.3987958783
 20
135.2822038023
 11
83.8609449168
 21
135.5490240813
  0
LINE
  5
235
100
AcDbEntity
  8
0
100
AcDbLine
 62
7
  6
CONTINUOUS
 10
83.8817014071
 20
135.0502876209
 11
82.8946206917
 21
134.4803997059
  0
LINE
  5
236
100
AcDbEntity
  8
0
100
AcDbLine
 62
7
  6
CONTINUOUS
 10
90.5395657123
 20
135.8952898837
 11
97.2570521658
 21
139.7736093455
  0
LINE
  5
237
100
AcDbEntity
  8
0
100
AcDbLine
 62
7
  6
CONTINUOUS
 10
48.9692201096
 20
71.3714868517
 11
16.1364082453
 21
70.6308020187
  0
LINE
  5
238
100
AcDbEntity
  8
0
100
AcDbLine
 62
7
  6
CONTINUOUS
 10
55.136829441
 20
72.5303084802
 11
56.625552629
 21
72.5638930142
  0
LINE
  5
239
100
AcDbEntity
  8
0
100
AcDbLine
 62
7
  6
CONTINUOUS
 10
51.2564093959
 20
72.5172116027
 11
42.5327293366
 21
72.3204115987
  0
LINE
  5
23A
100
AcDbEntity
  8
0
100
AcDbLine
 62
7
  6
CONTINUOUS
 10
41.5213348492
 20
72.2975952599
 11
35.3166883289
 21
72.157622857
  0
LINE
  5
23B
100
AcDbEntity
  8
0
100
AcDbLine
 62
7
  6
CONTINUOUS
 10
34.3052938415
 20
72.1348065183
 11
28.1006473213
 21
71.9948341153
  0
LINE
  5
23C
100
AcDbEntity
  8
0
100
AcDbLine
 62
7
  6
CONTINUOUS
 10
27.0892528338
 20
71.9720177766
 11
18.3655727746
 21
71.7752177726
  0
LINE
  5
23D
100
AcDbEntity
  8
0
100
AcDbLine
 62
7
  6
CONTINUOUS
 10
57.8276644272
 20
73.0689873355
 11
57.1550619362
 21
73.0538139028
  0
LINE
  5
23E
100
AcDbEntity
  8
0
100
AcDbLine
 62
7
  6
CONTINUOUS
 10
59.1232972225
 20
76.290016901
 11
60.727981777
 21
76.3262174408
  0
LINE
  5
23F
100
AcDbEntity
  8
0
100
AcDbLine
 62
7
  6
CONTINUOUS
 10
57.8276644272
 20
73.0689873355
 11
57.1768056586
 21
73.1007559965
  0
LINE
  5
240
100
AcDbEntity
  8
0
100
AcDbLine
 62
7
  6
CONTINUOUS
 10
56.6255528227
 20
72.5638844985
 11
57.5332332356
 21
72.4695916564
  0
LINE
  5
241
100
AcDbEntity
  8
0
100
AcDbLine
 62
7
  6
CONTINUOUS
 10
57.1642284159
 20
73.052594726
 11
57.1550619362
 21
73.0538139028
  0
LINE
  5
242
100
AcDbEntity
  8
0
100
AcDbLine
 62
7
  6
CONTINUOUS
 10
58.0863568383
 20
76.9391924549
 11
58.0992705944
 21
76.9361288139
  0
LINE
  5
243
100
AcDbEntity
  8
0
100
AcDbLine
 62
7
  6
CONTINUOUS
 10
60.727981777
 20
76.3262174408
 11
60.9342722695
 21
76.2689972708
  0
LINE
  5
244
100
AcDbEntity
  8
0
100
AcDbLine
 62
7
  6
CONTINUOUS
 10
58.0845680735
 20
76.925904184
 11
58.0973009057
 21
76.9216359005
  0
LINE
  5
245
100
AcDbEntity
  8
0
100
AcDbLine
 62
7
  6
CONTINUOUS
 10
114.8995248889
 20
42.6715732181
 11
108.7122903554
 21
46.2436939294
  0
LINE
  5
246
100
AcDbEntity
  8
0
100
AcDbLine
 62
7
  6
CONTINUOUS
 10
63.6376608813
 20
73.8748270428
 11
61.0590284037
 21
75.6715219282
  0
LINE
  5
247
100
AcDbEntity
  8
0
100
AcDbLine
 62
7
  6
CONTINUOUS
 10
63.5126810403
 20
74.4725751493
 11
60.9343271251
 21
76.2690759428
  0
LINE
  5
248
100
AcDbEntity
  8
0
100
AcDbLine
 62
7
  6
CONTINUOUS
 10
103.8331726097
 20
135.9769703285
 11
97.1156861562
 21
132.0986508667
  0
LINE
  5
249
100
AcDbEntity
  8
0
100
AcDbLine
 62
7
  6
CONTINUOUS
 10
45.6770372354
 20
101.0047476112
 11
41.7074551024
 21
98.7129219784
  0
LINE
  5
24A
100
AcDbEntity
  8
0
100
AcDbLine
 62
7
  6
CONTINUOUS
 10
41.2253084236
 20
98.4345561253
 11
41.7154527877
 21
98.6979384864
  0
LINE
  5
24B
100
AcDbEntity
  8
0
100
AcDbLine
 62
7
  6
CONTINUOUS
 10
59.1232972225
 20
76.290016901
 11
57.8402196039
 21
73.2071836532
  0
LINE
  5
24C
100
AcDbEntity
  8
0
100
AcDbLine
 62
7
  6
CONTINUOUS
 10
57.7822760275
 20
73.0679634056
 11
53.6292535848
 21
63.0895525286
  0
LINE
  5
24D
100
AcDbEntity
  8
0
100
AcDbLine
 62
7
  6
CONTINUOUS
 10
41.7159401104
 20
98.6982254256
 11
50.9580610514
 21
98.9067210865
  0
LINE
  5
24E
100
AcDbEntity
  8
0
100
AcDbLine
 62
7
  6
CONTINUOUS
 10
115.1022215915
 20
121.7143547155
 11
121.8197080451
 21
125.5926741773
  0
LINE
  5
24F
100
AcDbEntity
  8
0
100
AcDbLine
 62
7
  6
CONTINUOUS
 10
85.3425447498
 20
92.3559220026
 11
20.9955597614
 21
129.5058306639
  0
LINE
  5
250
100
AcDbEntity
  8
0
100
AcDbLine
 62
7
  6
CONTINUOUS
 10
112.5307073096
 20
79.3937344074
 11
114.8995248889
 21
78.0261278798
  0
LINE
  5
251
100
AcDbEntity
  8
0
100
AcDbLine
 62
7
  6
CONTINUOUS
 10
116.7733500575
 20
79.1079748875
 11
114.4045324783
 21
80.4755814152
  0
LINE
  5
252
100
AcDbEntity
  8
0
100
AcDbLine
 62
7
  6
CONTINUOUS
 10
81.241071649
 20
139.0194710497
 11
81.241071649
 21
137.3444407017
  0
LINE
  5
253
100
AcDbEntity
  8
0
100
AcDbLine
 62
7
  6
CONTINUOUS
 10
81.241071649
 20
134.8529079367
 11
81.241071649
 21
136.5279382846
  0
LINE
  5
254
100
AcDbEntity
  8
0
100
AcDbLine
 62
7
  6
CONTINUOUS
 10
81.9481813742
 20
134.4446671821
 11
81.9481754862
 21
139.0706249234
  0
LINE
  5
255
100
AcDbEntity
  8
0
100
AcDbLine
 62
7
  6
CONTINUOUS
 10
125.1171753366
 20
120.0799829337
 11
118.3996888831
 21
116.2016634719
  0
LINE
  5
256
100
AcDbEntity
  8
0
100
AcDbLine
 62
7
  6
CONTINUOUS
 10
112.5307073096
 20
85.1092513273
 11
114.8995248889
 21
83.7416447997
  0
LINE
  5
257
100
AcDbEntity
  8
0
100
AcDbLine
 62
7
  6
CONTINUOUS
 10
85.3425447498
 20
32.7512455521
 11
85.3425447498
 21
92.3559220026
  0
LINE
  5
258
100
AcDbEntity
  8
0
100
AcDbLine
 62
7
  6
CONTINUOUS
 10
114.8995248889
 20
109.6247714227
 11
118.3996888831
 21
111.6455799844
  0
LINE
  5
259
100
AcDbEntity
  8
0
100
AcDbLine
 62
7
  6
CONTINUOUS
 10
85.3425447498
 20
92.3559220026
 11
110.1265342441
 21
106.6648795958
  0
LINE
  5
25A
100
AcDbEntity
  8
0
100
AcDbLine
 62
7
  6
CONTINUOUS
 10
110.1265342441
 20
106.6648795958
 11
45.7795492558
 21
143.8147882571
  0
LINE
  5
25B
100
AcDbEntity
  8
0
100
AcDbLine
 62
7
  6
CONTINUOUS
 10
57.4688382486
 20
60.1554072792
 11
59.3578940638
 21
60.7168282493
  0
LINE
  5
25C
100
AcDbEntity
  8
0
100
AcDbLine
 62
7
  6
CONTINUOUS
 10
114.8995248889
 20
109.6247714227
 11
41.006558611
 21
152.2859302701
  0
LINE
  5
25D
100
AcDbEntity
  8
0
100
AcDbLine
 62
7
  6
CONTINUOUS
 10
110.1265342441
 20
47.0602031453
 11
110.1265342441
 21
106.6648795958
  0
LINE
  5
25E
100
AcDbEntity
  8
0
100
AcDbLine
 62
7
  6
CONTINUOUS
 10
116.7733500575
 20
84.8234918074
 11
114.8995248889
 21
83.7416447997
  0
LINE
  5
25F
100
AcDbEntity
  8
0
100
AcDbLine
 62
7
  6
CONTINUOUS
 10
114.4045324783
 20
80.4755814152
 11
112.5307073096
 21
79.3937344074
  0
LINE
  5
260
100
AcDbEntity
  8
0
100
AcDbLine
 62
7
  6
CONTINUOUS
 10
116.7733500575
 20
79.1079748875
 11
114.8995248889
 21
78.0261278798
  0
LINE
  5
261
100
AcDbEntity
  8
0
100
AcDbLine
 62
7
  6
CONTINUOUS
 10
73.1769141212
 20
53.3732793232
 11
69.0791209187
 21
51.0074314369
  0
LINE
  5
262
100
AcDbEntity
  8
0
100
AcDbLine
 62
7
  6
CONTINUOUS
 10
118.3996888831
 20
111.6455799844
 11
44.5067226052
 21
154.3067388317
  0
LINE
  5
263
100
AcDbEntity
  8
0
100
AcDbLine
 62
7
  6
CONTINUOUS
 10
83.3987958783
 20
135.2822038023
 11
81.9481813742
 21
136.1196975301
  0
LINE
  5
264
100
AcDbEntity
  8
0
100
AcDbLine
 62
7
  6
CONTINUOUS
 10
79.7904571449
 20
137.3654320124
 11
81.241071649
 21
136.5279382846
  0
LINE
  5
265
100
AcDbEntity
  8
0
100
AcDbLine
 62
7
  6
CONTINUOUS
 10
79.7904571449
 20
138.1819344295
 11
83.7951574134
 21
135.8698510493
  0
LINE
  5
266
100
AcDbEntity
  8
0
100
AcDbLine
 62
7
  6
CONTINUOUS
 10
114.8995248889
 20
42.6715732181
 11
114.8995248889
 21
78.0261278798
  0
LINE
  5
267
100
AcDbEntity
  8
0
100
AcDbLine
 62
7
  6
CONTINUOUS
 10
114.8995248889
 20
83.7416447997
 11
114.8995248889
 21
109.6247714227
  0
LINE
  5
268
100
AcDbEntity
  8
0
100
AcDbLine
 62
7
  6
CONTINUOUS
 10
116.7733500575
 20
84.8234918074
 11
116.7733500575
 21
79.1079748875
  0
LINE
  5
269
100
AcDbEntity
  8
0
100
AcDbLine
 62
7
  6
CONTINUOUS
 10
68.5873293888
 20
50.7429928447
 11
69.0791293583
 21
51.0074363094
  0
LINE
  5
26A
100
AcDbEntity
  8
0
100
AcDbLine
 62
7
  6
CONTINUOUS
 10
115.1022215915
 20
121.7143547155
 11
97.1156861562
 21
132.0986508667
  0
LINE
  5
26B
100
AcDbEntity
  8
0
100
AcDbLine
 62
7
  6
CONTINUOUS
 10
90.5395657123
 20
135.8952898837
 11
47.8041898968
 21
160.5680124432
  0
LINE
  5
26C
100
AcDbEntity
  8
0
100
AcDbLine
 62
7
  6
CONTINUOUS
 10
118.3996888831
 20
111.6455799844
 11
118.3996888831
 21
116.2016634719
  0
LINE
  5
26D
100
AcDbEntity
  8
0
100
AcDbLine
 62
7
  6
CONTINUOUS
 10
121.8197080451
 20
125.5926741773
 11
103.8331726097
 21
135.9769703285
  0
LINE
  5
26E
100
AcDbEntity
  8
0
100
AcDbLine
 62
7
  6
CONTINUOUS
 10
97.2570521658
 20
139.7736093455
 11
54.5216763503
 21
164.446331905
  0
LINE
  5
26F
100
AcDbEntity
  8
0
100
AcDbLine
 62
7
  6
CONTINUOUS
 10
125.1171753366
 20
120.0799829337
 11
125.1171753366
 21
48.5707012415
  0
LINE
  5
270
100
AcDbEntity
  8
0
100
AcDbLine
 62
7
  6
CONTINUOUS
 10
110.1265342441
 20
47.0602031453
 11
85.3425447498
 21
32.7512455521
  0
LINE
  5
271
100
AcDbEntity
  8
0
100
AcDbLine
 62
7
  6
CONTINUOUS
 10
125.1171753366
 20
48.5707012415
 11
114.8995248889
 21
42.6715732181
  0
ARC
  5
272
100
AcDbEntity
  8
0
100
AcDbCircle
 62
7
  6
CONTINUOUS
 10
53.6042315923
 20
65.8627308418
 40
11.1653731549
100
AcDbArc
 50
334.5022784808
 51
334.7127948837
  0
ARC
  5
273
100
AcDbEntity
  8
0
100
AcDbCircle
 62
7
  6
CONTINUOUS
 10
56.336374317
 20
67.783944901
 40
9.362780048
100
AcDbArc
 50
19.594848947
 51
39.1862048053
  0
ARC
  5
274
100
AcDbEntity
  8
0
100
AcDbCircle
 62
7
  6
CONTINUOUS
 10
53.5234627296
 20
66.5497365448
 40
8.2142019749
100
AcDbArc
 50
7.1424377711
 51
7.6987988763
  0
ARC
  5
275
100
AcDbEntity
  8
0
100
AcDbCircle
 62
7
  6
CONTINUOUS
 10
78.7354823232
 20
135.2737423971
 40
5.0469941481
100
AcDbArc
 50
43.5617737453
 51
46.6356953457
  0
ARC
  5
276
100
AcDbEntity
  8
0
100
AcDbCircle
 62
7
  6
CONTINUOUS
 10
53.2859695704
 20
166.3058345488
 40
4.1179959853
100
AcDbArc
 50
239.9556076088
 51
243.6770188641
  0
ARC
  5
277
100
AcDbEntity
  8
0
100
AcDbCircle
 62
7
  6
CONTINUOUS
 10
56.6203572052
 20
69.0243541929
 40
4.0647899929
100
AcDbArc
 50
74.2916625149
 51
82.3107317149
  0
ARC
  5
278
100
AcDbEntity
  8
0
100
AcDbCircle
 62
7
  6
CONTINUOUS
 10
56.7079630887
 20
64.617368739
 40
3.9684640546
100
AcDbArc
 50
293.0720572068
 51
295.9968307783
  0
ARC
  5
279
100
AcDbEntity
  8
0
100
AcDbCircle
 62
7
  6
CONTINUOUS
 10
79.5344858514
 20
136.2251969586
 40
3.8029659656
100
AcDbArc
 50
53.8278526256
 51
57.452125025
  0
ARC
  5
27A
100
AcDbEntity
  8
0
100
AcDbCircle
 62
7
  6
CONTINUOUS
 10
57.5496299509
 20
63.8813801336
 40
3.7578271815
100
AcDbArc
 50
241.2180375203
 51
243.604007069
  0
ARC
  5
27B
100
AcDbEntity
  8
0
100
AcDbCircle
 62
7
  6
CONTINUOUS
 10
113.1056055829
 20
82.5830175346
 40
2.2506039046
100
AcDbArc
 50
27.2312446924
 51
33.1708854307
  0
SPLINE
  5
27C
100
AcDbEntity
  8
0
100
AcDbSpline
 62
7
  6
CONTINUOUS
 70
0
 71
3
 72
13
 73
9
 74
0
 42
0.0000001
 43
0.0000001
 44
0.0000000001
 40
0.0
 40
0.0
 40
0.0
 40
0.0
 40
0.2688697533
 40
0.5293172114
 40
0.6540036829
 40
0.773975125
 40
0.8891585237
 40
1.0
 40
1.0
 40
1.0
 40
1.0
 10
61.3712972018
 20
67.1177063824
 30
0.0
 10
61.4188976714
 20
66.4818663041
 30
0.0
 10
61.3562911929
 20
65.2131913772
 30
0.0
 10
60.8857461572
 20
63.7144379057
 30
0.0
 10
60.289674009
 20
62.6708997611
 30
0.0
 10
59.7560259372
 20
62.0001927559
 30
0.0
 10
59.1432422949
 20
61.4487576802
 30
0.0
 10
58.6836928224
 20
61.1656469208
 30
0.0
 10
58.4474259312
 20
61.0504406527
 30
0.0
  0
SPLINE
  5
27D
100
AcDbEntity
  8
0
100
AcDbSpline
 62
7
  6
CONTINUOUS
 70
0
 71
3
 72
12
 73
8
 74
0
 42
0.0000001
 43
0.0000001
 44
0.0000000001
 40
0.0
 40
0.0
 40
0.0
 40
0.0
 40
0.1993059606
 40
0.3155274898
 40
0.4415302783
 40
0.7147747267
 40
1.0
 40
1.0
 40
1.0
 40
1.0
 10
57.4849034847
 20
60.531527731
 30
0.0
 10
57.5627143631
 20
60.5332830889
 30
0.0
 10
57.6851641103
 20
60.5672200882
 30
0.0
 10
57.8378799007
 20
60.6471444561
 30
0.0
 10
58.0035382569
 20
60.7625650188
 30
0.0
 10
58.195835075
 20
60.9508112288
 30
0.0
 10
58.3223467209
 20
61.1301139663
 30
0.0
 10
58.3779062688
 20
61.2266504201
 30
0.0
  0
SPLINE
  5
27E
100
AcDbEntity
  8
0
100
AcDbSpline
 62
7
  6
CONTINUOUS
 70
0
 71
3
 72
9
 73
5
 74
0
 42
0.0000001
 43
0.0000001
 44
0.0000000001
 40
0.0
 40
0.0
 40
0.0
 40
0.0
 40
0.5054509133
 40
1.0
 40
1.0
 40
1.0
 40
1.0
 10
58.3779062688
 20
61.2266504201
 30
0.0
 10
58.9815425241
 20
62.2544963991
 30
0.0
 10
60.1098888561
 20
64.3275158734
 30
0.0
 10
61.0953583449
 20
66.4724088134
 30
0.0
 10
61.5435009395
 20
67.5491549667
 30
0.0
  0
SPLINE
  5
27F
100
AcDbEntity
  8
0
100
AcDbSpline
 62
7
  6
CONTINUOUS
 70
0
 71
3
 72
9
 73
5
 74
0
 42
0.0000001
 43
0.0000001
 44
0.0000000001
 40
0.0
 40
0.0
 40
0.0
 40
0.0
 40
0.5105001798
 40
1.0
 40
1.0
 40
1.0
 40
1.0
 10
61.5435009395
 20
67.5491549667
 30
0.0
 10
61.979525967
 20
68.5967864056
 30
0.0
 10
62.7614920367
 20
70.6799039249
 30
0.0
 10
63.3804913861
 20
72.8177151811
 30
0.0
 10
63.6373823189
 20
73.8750211347
 30
0.0
  0
SPLINE
  5
280
100
AcDbEntity
  8
0
100
AcDbSpline
 62
7
  6
CONTINUOUS
 70
0
 71
3
 72
12
 73
8
 74
0
 42
0.0000001
 43
0.0000001
 44
0.0000000001
 40
0.0
 40
0.0
 40
0.0
 40
0.0
 40
0.3032945645
 40
0.5677416443
 40
0.7951567756
 40
0.8992076834
 40
1.0
 40
1.0
 40
1.0
 40
1.0
 10
63.6373823189
 20
73.8750211347
 30
0.0
 10
63.6527200448
 20
73.9384393538
 30
0.0
 10
63.6721284513
 20
74.0598649568
 30
0.0
 10
63.6633828037
 20
74.2322062884
 30
0.0
 10
63.6196892092
 20
74.3557033579
 30
0.0
 10
63.5639472371
 20
74.4308886476
 30
0.0
 10
63.5304697393
 20
74.4601769255
 30
0.0
 10
63.5126803462
 20
74.4725742058
 30
0.0
  0
SPLINE
  5
281
100
AcDbEntity
  8
0
100
AcDbSpline
 62
7
  6
CONTINUOUS
 70
0
 71
3
 72
11
 73
7
 74
0
 42
0.0000001
 43
0.0000001
 44
0.0000000001
 40
0.0
 40
0.0
 40
0.0
 40
0.0
 40
0.2654811525
 40
0.5186532722
 40
0.7620516831
 40
1.0
 40
1.0
 40
1.0
 40
1.0
 10
53.4446056924
 20
70.8195682662
 30
0.0
 10
53.6465985902
 20
71.0823324195
 30
0.0
 10
54.0896817356
 20
71.5611410366
 30
0.0
 10
54.8714911934
 20
72.1159664735
 30
0.0
 10
55.7270132378
 20
72.468111769
 30
0.0
 10
56.3285698788
 20
72.5572049732
 30
0.0
 10
56.6255525615
 20
72.563896083
 30
0.0
  0
SPLINE
  5
282
100
AcDbEntity
  8
0
100
AcDbSpline
 62
7
  6
CONTINUOUS
 70
0
 71
3
 72
9
 73
5
 74
0
 42
0.0000001
 43
0.0000001
 44
0.0000000001
 40
0.0
 40
0.0
 40
0.0
 40
0.0
 40
0.4894998202
 40
1.0
 40
1.0
 40
1.0
 40
1.0
 10
61.0590284037
 20
75.6715219282
 30
0.0
 10
60.8021374709
 20
74.6142159746
 30
0.0
 10
60.1831381215
 20
72.4764047184
 30
0.0
 10
59.4011720518
 20
70.3932871991
 30
0.0
 10
58.9651470243
 20
69.3456557602
 30
0.0
  0
SPLINE
  5
283
100
AcDbEntity
  8
0
100
AcDbSpline
 62
7
  6
CONTINUOUS
 70
0
 71
3
 72
12
 73
8
 74
0
 42
0.0000001
 43
0.0000001
 44
0.0000000001
 40
0.0
 40
0.0
 40
0.0
 40
0.0
 40
0.1007923603
 40
0.2048432875
 40
0.4322584763
 40
0.6967054917
 40
1.0
 40
1.0
 40
1.0
 40
1.0
 10
60.9343264307
 20
76.2690749992
 30
0.0
 10
60.9521158309
 20
76.2566777123
 30
0.0
 10
60.985593336
 20
76.2273894222
 30
0.0
 10
61.0413353289
 20
76.1522041141
 30
0.0
 10
61.0850288924
 20
76.0287070275
 30
0.0
 10
61.093774548
 20
75.8563657125
 30
0.0
 10
61.0743661269
 20
75.7349401359
 30
0.0
 10
61.0590284037
 20
75.6715219282
 30
0.0
  0
SPLINE
  5
284
100
AcDbEntity
  8
0
100
AcDbSpline
 62
7
  6
CONTINUOUS
 70
0
 71
3
 72
9
 73
5
 74
0
 42
0.0000001
 43
0.0000001
 44
0.0000000001
 40
0.0
 40
0.0
 40
0.0
 40
0.0
 40
0.4945490867
 40
1.0
 40
1.0
 40
1.0
 40
1.0
 10
58.9651470243
 20
69.3456557602
 30
0.0
 10
58.5170044297
 20
68.2689096069
 30
0.0
 10
57.5315349409
 20
66.1240166669
 30
0.0
 10
56.4031886089
 20
64.0509971926
 30
0.0
 10
55.7995523536
 20
63.0231512136
 30
0.0
  0
SPLINE
  5
285
100
AcDbEntity
  8
0
100
AcDbSpline
 62
7
  6
CONTINUOUS
 70
0
 71
3
 72
12
 73
8
 74
0
 42
0.0000001
 43
0.0000001
 44
0.0000000001
 40
0.0
 40
0.0
 40
0.0
 40
0.0
 40
0.285225422
 40
0.558469898
 40
0.6844726759
 40
0.8006941552
 40
1.0
 40
1.0
 40
1.0
 40
1.0
 10
55.7995523536
 20
63.0231512136
 30
0.0
 10
55.7439927767
 20
62.9266147094
 30
0.0
 10
55.6174810819
 20
62.7473119193
 30
0.0
 10
55.4251841942
 20
62.5590656859
 30
0.0
 10
55.2595258315
 20
62.4436451546
 30
0.0
 10
55.1068100866
 20
62.3637208467
 30
0.0
 10
54.9843604028
 20
62.3297838814
 30
0.0
 10
54.9065495695
 20
62.3280285245
 30
0.0
  0
SPLINE
  5
286
100
AcDbEntity
  8
0
100
AcDbSpline
 62
7
  6
CONTINUOUS
 70
0
 71
3
 72
23
 73
19
 74
0
 42
0.0000001
 43
0.0000001
 44
0.0000000001
 40
0.0
 40
0.0
 40
0.0
 40
0.0
 40
0.0734715946
 40
0.1480443808
 40
0.2230290133
 40
0.2977489977
 40
0.371521344
 40
0.4436955499
 40
0.5136652657
 40
0.5808929836
 40
0.6449332233
 40
0.7054598203
 40
0.7622972776
 40
0.8154568241
 40
0.8651755571
 40
0.9119510951
 40
0.9565548803
 40
1.0
 40
1.0
 40
1.0
 40
1.0
 10
76.6827259141
 20
77.5782908929
 30
0.0
 10
76.3285607935
 20
78.5699376875
 30
0.0
 10
75.5420308358
 20
80.5427890003
 30
0.0
 10
74.1551706582
 20
83.4253062172
 30
0.0
 10
72.5675198146
 20
86.2230372663
 30
0.0
 10
70.8009919852
 20
88.8976398371
 30
0.0
 10
68.8794636281
 20
91.4127824953
 30
0.0
 10
66.8291468744
 20
93.7342293501
 30
0.0
 10
64.6778219479
 20
95.8304347809
 30
0.0
 10
62.4545682182
 20
97.6729514513
 30
0.0
 10
60.1892394917
 20
99.2368038001
 30
0.0
 10
57.9119738416
 20
100.5007270089
 30
0.0
 10
55.6527194448
 20
101.4472670795
 30
0.0
 10
53.4408246737
 20
102.0626607448
 30
0.0
 10
51.3050879941
 20
102.336626293
 30
0.0
 10
49.2738332502
 20
102.2619240512
 30
0.0
 10
47.3773977874
 20
101.8358882935
 30
0.0
 10
46.2162971246
 20
101.3160318555
 30
0.0
 10
45.677050562
 20
101.0047244843
 30
0.0
  0
SPLINE
  5
287
100
AcDbEntity
  8
0
100
AcDbSpline
 62
7
  6
CONTINUOUS
 70
0
 71
3
 72
15
 73
11
 74
0
 42
0.0000001
 43
0.0000001
 44
0.0000000001
 40
0.0
 40
0.0
 40
0.0
 40
0.0
 40
0.1108650209
 40
0.2250131174
 40
0.3441163571
 40
0.4688711173
 40
0.5988320351
 40
0.7324437312
 40
0.8672021091
 40
1.0
 40
1.0
 40
1.0
 40
1.0
 10
55.1367014429
 20
72.5359823354
 30
0.0
 10
54.834250884
 20
72.3613634662
 30
0.0
 10
54.2629057967
 20
71.9277910415
 30
0.0
 10
53.5728984193
 20
71.0803262313
 30
0.0
 10
53.058847435
 20
70.0679848134
 30
0.0
 10
52.7270554724
 20
68.9320899013
 30
0.0
 10
52.5751808969
 20
67.7136627276
 30
0.0
 10
52.5972706066
 20
66.4552051978
 30
0.0
 10
52.7837998896
 20
65.202033246
 30
0.0
 10
53.0135804776
 20
64.3881775739
 30
0.0
 10
53.1542822768
 20
63.9942187112
 30
0.0
  0
SPLINE
  5
288
100
AcDbEntity
  8
0
100
AcDbSpline
 62
7
  6
CONTINUOUS
 70
0
 71
3
 72
9
 73
5
 74
0
 42
0.0000001
 43
0.0000001
 44
0.0000000001
 40
0.0
 40
0.0
 40
0.0
 40
0.0
 40
0.5215815938
 40
1.0
 40
1.0
 40
1.0
 40
1.0
 10
53.1542822768
 20
63.9942187112
 30
0.0
 10
53.328872106
 20
63.5053748515
 30
0.0
 10
53.7427081559
 20
62.5938293924
 30
0.0
 10
54.3328766263
 20
61.7800023088
 30
0.0
 10
54.6607734809
 20
61.4347741195
 30
0.0
  0
SPLINE
  5
289
100
AcDbEntity
  8
0
100
AcDbSpline
 62
7
  6
CONTINUOUS
 70
0
 71
3
 72
9
 73
5
 74
0
 42
0.0000001
 43
0.0000001
 44
0.0000000001
 40
0.0
 40
0.0
 40
0.0
 40
0.0
 40
0.5125827427
 40
1.0
 40
1.0
 40
1.0
 40
1.0
 10
54.6607734809
 20
61.4347741195
 30
0.0
 10
54.822712654
 20
61.2642754803
 30
0.0
 10
55.1612056358
 20
60.952058606
 30
0.0
 10
55.5443311636
 20
60.6954418591
 30
0.0
 10
55.740319675
 20
60.5878013123
 30
0.0
  0
SPLINE
  5
28A
100
AcDbEntity
  8
0
100
AcDbSpline
 62
7
  6
CONTINUOUS
 70
0
 71
3
 72
9
 73
5
 74
0
 42
0.0000001
 43
0.0000001
 44
0.0000000001
 40
0.0
 40
0.0
 40
0.0
 40
0.0
 40
0.5026005612
 40
1.0
 40
1.0
 40
1.0
 40
1.0
 10
55.8790031943
 20
60.5153332881
 30
0.0
 10
56.1254669711
 20
60.3930402339
 30
0.0
 10
56.6454880455
 20
60.204009112
 30
0.0
 10
57.1966168584
 20
60.1492761051
 30
0.0
 10
57.468837063
 20
60.1553998806
 30
0.0
  0
SPLINE
  5
28B
100
AcDbEntity
  8
0
100
AcDbSpline
 62
7
  6
CONTINUOUS
 70
0
 71
3
 72
9
 73
5
 74
0
 42
0.0000001
 43
0.0000001
 44
0.0000000001
 40
0.0
 40
0.0
 40
0.0
 40
0.0
 40
0.5039038428
 40
1.0
 40
1.0
 40
1.0
 40
1.0
 10
21.6911994448
 20
55.1112526166
 30
0.0
 10
20.9636974253
 20
56.3560660891
 30
0.0
 10
19.6310416733
 20
58.8930302719
 30
0.0
 10
18.5364110881
 20
61.5418371622
 30
0.0
 10
18.0589845936
 20
62.8786103945
 30
0.0
  0
SPLINE
  5
28C
100
AcDbEntity
  8
0
100
AcDbSpline
 62
7
  6
CONTINUOUS
 70
0
 71
3
 72
9
 73
5
 74
0
 42
0.0000001
 43
0.0000001
 44
0.0000000001
 40
0.0
 40
0.0
 40
0.0
 40
0.0
 40
0.512016562
 40
1.0
 40
1.0
 40
1.0
 40
1.0
 10
18.0589845936
 20
62.8786103945
 30
0.0
 10
17.5998705843
 20
64.1641094716
 30
0.0
 10
16.8205930435
 20
66.7186206498
 30
0.0
 10
16.3090053577
 20
69.3413487326
 30
0.0
 10
16.1364082453
 20
70.6308020187
 30
0.0
  0
SPLINE
  5
28D
100
AcDbEntity
  8
0
100
AcDbSpline
 62
7
  6
CONTINUOUS
 70
0
 71
3
 72
20
 73
16
 74
0
 42
0.0000001
 43
0.0000001
 44
0.0000000001
 40
0.0
 40
0.0
 40
0.0
 40
0.0
 40
0.0639281786
 40
0.1339136888
 40
0.28632968
 40
0.4455442652
 40
0.5995832315
 40
0.6712312744
 40
0.7377114
 40
0.798090846
 40
0.8517004229
 40
0.8981949139
 40
0.9376755289
 40
0.9709689484
 40
1.0
 40
1.0
 40
1.0
 40
1.0
 10
42.5327293366
 20
72.3204115987
 30
0.0
 10
42.6960628624
 20
72.3384871516
 30
0.0
 10
43.0371398117
 20
72.3863446103
 30
0.0
 10
43.760600436
 20
72.5227840286
 30
0.0
 10
44.7116980405
 20
72.7684302349
 30
0.0
 10
45.8426036609
 20
73.1650607619
 30
0.0
 10
46.7415754148
 20
73.5842122615
 30
0.0
 10
47.3882207693
 20
73.9672849617
 30
0.0
 10
47.8070159542
 20
74.2597928297
 30
0.0
 10
48.163208753
 20
74.5581015462
 30
0.0
 10
48.450289213
 20
74.8556895183
 30
0.0
 10
48.6635222627
 20
75.1459582743
 30
0.0
 10
48.7998760797
 20
75.4229212599
 30
0.0
 10
48.8568773285
 20
75.6817793319
 30
0.0
 10
48.8360575607
 20
75.8452985351
 30
0.0
 10
48.8109602872
 20
75.9155775356
 30
0.0
  0
SPLINE
  5
28E
100
AcDbEntity
  8
0
100
AcDbSpline
 62
7
  6
CONTINUOUS
 70
0
 71
3
 72
20
 73
16
 74
0
 42
0.0000001
 43
0.0000001
 44
0.0000000001
 40
0.0
 40
0.0
 40
0.0
 40
0.0
 40
0.0639281786
 40
0.1339136888
 40
0.28632968
 40
0.4455442652
 40
0.5995832315
 40
0.6712312744
 40
0.7377114
 40
0.798090846
 40
0.8517004229
 40
0.8981949139
 40
0.9376755289
 40
0.9709689484
 40
1.0
 40
1.0
 40
1.0
 40
1.0
 10
35.3166883289
 20
72.157622857
 30
0.0
 10
35.4800218547
 20
72.1756984099
 30
0.0
 10
35.821098804
 20
72.2235558687
 30
0.0
 10
36.5445594283
 20
72.359995287
 30
0.0
 10
37.4956570328
 20
72.6056414932
 30
0.0
 10
38.6265626532
 20
73.0022720203
 30
0.0
 10
39.5255344071
 20
73.4214235199
 30
0.0
 10
40.1721797616
 20
73.80449622
 30
0.0
 10
40.5909749465
 20
74.097004088
 30
0.0
 10
40.9471677453
 20
74.3953128045
 30
0.0
 10
41.2342482053
 20
74.6929007767
 30
0.0
 10
41.447481255
 20
74.9831695327
 30
0.0
 10
41.583835072
 20
75.2601325182
 30
0.0
 10
41.6408363208
 20
75.5189905902
 30
0.0
 10
41.620016553
 20
75.6825097935
 30
0.0
 10
41.5949192795
 20
75.7527887939
 30
0.0
  0
SPLINE
  5
28F
100
AcDbEntity
  8
0
100
AcDbSpline
 62
7
  6
CONTINUOUS
 70
0
 71
3
 72
20
 73
16
 74
0
 42
0.0000001
 43
0.0000001
 44
0.0000000001
 40
0.0
 40
0.0
 40
0.0
 40
0.0
 40
0.0639281786
 40
0.1339136888
 40
0.28632968
 40
0.4455442652
 40
0.5995832315
 40
0.6712312744
 40
0.7377114
 40
0.798090846
 40
0.8517004229
 40
0.8981949139
 40
0.9376755289
 40
0.9709689484
 40
1.0
 40
1.0
 40
1.0
 40
1.0
 10
28.1006473213
 20
71.9948341153
 30
0.0
 10
28.263980847
 20
72.0129096683
 30
0.0
 10
28.6050577963
 20
72.060767127
 30
0.0
 10
29.3285184206
 20
72.1972065453
 30
0.0
 10
30.2796160251
 20
72.4428527516
 30
0.0
 10
31.4105216455
 20
72.8394832786
 30
0.0
 10
32.3094933994
 20
73.2586347782
 30
0.0
 10
32.9561387539
 20
73.6417074784
 30
0.0
 10
33.3749339389
 20
73.9342153464
 30
0.0
 10
33.7311267376
 20
74.2325240629
 30
0.0
 10
34.0182071976
 20
74.530112035
 30
0.0
 10
34.2314402474
 20
74.820380791
 30
0.0
 10
34.3677940643
 20
75.0973437766
 30
0.0
 10
34.4247953131
 20
75.3562018486
 30
0.0
 10
34.4039755453
 20
75.5197210518
 30
0.0
 10
34.3788782719
 20
75.5900000522
 30
0.0
  0
SPLINE
  5
290
100
AcDbEntity
  8
0
100
AcDbSpline
 62
7
  6
CONTINUOUS
 70
0
 71
3
 72
26
 73
22
 74
0
 42
0.0000001
 43
0.0000001
 44
0.0000000001
 40
0.0
 40
0.0
 40
0.0
 40
0.0
 40
0.0605365249
 40
0.0915852929
 40
0.1231642372
 40
0.1878902628
 40
0.25472788
 40
0.3237151887
 40
0.3948187562
 40
0.4677894667
 40
0.5419584902
 40
0.6159204574
 40
0.6873685702
 40
0.7536823447
 40
0.8131071928
 40
0.8401135365
 40
0.8655054953
 40
0.8896050716
 40
0.912722243
 40
0.9569913473
 40
1.0
 40
1.0
 40
1.0
 40
1.0
 10
18.3655727746
 20
71.7752177726
 30
0.0
 10
19.0058437364
 20
72.1038835067
 30
0.0
 10
19.9536860259
 20
72.6430720101
 30
0.0
 10
21.1803383611
 20
73.4431782399
 30
0.0
 10
22.4143033417
 20
74.3211812006
 30
0.0
 10
23.9291454974
 20
75.5353833427
 30
0.0
 10
25.6834940706
 20
77.152558185
 30
0.0
 10
27.381287784
 20
78.9351964322
 30
0.0
 10
29.0134521187
 20
80.874193959
 30
0.0
 10
30.5699411016
 20
82.9516996256
 30
0.0
 10
32.0357359784
 20
85.1349770021
 30
0.0
 10
33.389183629
 20
87.3681229706
 30
0.0
 10
34.616463164
 20
89.5661449948
 30
0.0
 10
35.7240868588
 20
91.6321455237
 30
0.0
 10
36.5997351855
 20
93.2234136083
 30
0.0
 10
37.2838859924
 20
94.3635368692
 30
0.0
 10
37.7804118902
 20
95.1258261919
 30
0.0
 10
38.2884737212
 20
95.8243415087
 30
0.0
 10
38.9825148842
 20
96.6625644962
 30
0.0
 10
39.9259475784
 20
97.5825801658
 30
0.0
 10
40.7821771546
 20
98.1787104212
 30
0.0
 10
41.2249905586
 20
98.4343681956
 30
0.0
  0
SPLINE
  5
291
100
AcDbEntity
  8
0
100
AcDbSpline
 62
7
  6
CONTINUOUS
 70
0
 71
3
 72
9
 73
5
 74
0
 42
0.0000001
 43
0.0000001
 44
0.0000000001
 40
0.0
 40
0.0
 40
0.0
 40
0.0
 40
0.2396664524
 40
1.0
 40
1.0
 40
1.0
 40
1.0
 10
28.4831577592
 20
71.9346973881
 30
0.0
 10
28.5417579265
 20
71.9685300086
 30
0.0
 10
28.790996653
 20
72.1014673094
 30
0.0
 10
29.0563989711
 20
72.2029706655
 30
0.0
 10
29.2618643815
 20
72.2651455414
 30
0.0
  0
SPLINE
  5
292
100
AcDbEntity
  8
0
100
AcDbSpline
 62
7
  6
CONTINUOUS
 70
0
 71
3
 72
9
 73
5
 74
0
 42
0.0000001
 43
0.0000001
 44
0.0000000001
 40
0.0
 40
0.0
 40
0.0
 40
0.0
 40
0.2440773713
 40
1.0
 40
1.0
 40
1.0
 40
1.0
 10
29.2618643815
 20
72.2651455414
 30
0.0
 10
29.3259232406
 20
72.2845300773
 30
0.0
 10
29.5901349185
 20
72.3581133814
 30
0.0
 10
29.8602382859
 20
72.4097237967
 30
0.0
 10
30.0654736966
 20
72.4387566796
 30
0.0
  0
SPLINE
  5
293
100
AcDbEntity
  8
0
100
AcDbSpline
 62
7
  6
CONTINUOUS
 70
0
 71
3
 72
9
 73
5
 74
0
 42
0.0000001
 43
0.0000001
 44
0.0000000001
 40
0.0
 40
0.0
 40
0.0
 40
0.0
 40
0.2396664524
 40
1.0
 40
1.0
 40
1.0
 40
1.0
 10
35.6991987669
 20
72.0974861298
 30
0.0
 10
35.7577989342
 20
72.1313187502
 30
0.0
 10
36.0070376606
 20
72.264256051
 30
0.0
 10
36.2724399788
 20
72.3657594072
 30
0.0
 10
36.4779053892
 20
72.4279342831
 30
0.0
  0
SPLINE
  5
294
100
AcDbEntity
  8
0
100
AcDbSpline
 62
7
  6
CONTINUOUS
 70
0
 71
3
 72
9
 73
5
 74
0
 42
0.0000001
 43
0.0000001
 44
0.0000000001
 40
0.0
 40
0.0
 40
0.0
 40
0.0
 40
0.2440773713
 40
1.0
 40
1.0
 40
1.0
 40
1.0
 10
36.4779053892
 20
72.4279342831
 30
0.0
 10
36.5419642483
 20
72.447318819
 30
0.0
 10
36.8061759262
 20
72.520902123
 30
0.0
 10
37.0762792935
 20
72.5725125384
 30
0.0
 10
37.2815147043
 20
72.6015454213
 30
0.0
  0
SPLINE
  5
295
100
AcDbEntity
  8
0
100
AcDbSpline
 62
7
  6
CONTINUOUS
 70
0
 71
3
 72
9
 73
5
 74
0
 42
0.0000001
 43
0.0000001
 44
0.0000000001
 40
0.0
 40
0.0
 40
0.0
 40
0.0
 40
0.2396664524
 40
1.0
 40
1.0
 40
1.0
 40
1.0
 10
42.9152397745
 20
72.2602748714
 30
0.0
 10
42.9738399419
 20
72.2941074919
 30
0.0
 10
43.2230786683
 20
72.4270447927
 30
0.0
 10
43.4884809865
 20
72.5285481488
 30
0.0
 10
43.6939463969
 20
72.5907230248
 30
0.0
  0
SPLINE
  5
296
100
AcDbEntity
  8
0
100
AcDbSpline
 62
7
  6
CONTINUOUS
 70
0
 71
3
 72
9
 73
5
 74
0
 42
0.0000001
 43
0.0000001
 44
0.0000000001
 40
0.0
 40
0.0
 40
0.0
 40
0.0
 40
0.2440773713
 40
1.0
 40
1.0
 40
1.0
 40
1.0
 10
43.6939463969
 20
72.5907230248
 30
0.0
 10
43.758005256
 20
72.6101075606
 30
0.0
 10
44.0222169339
 20
72.6836908647
 30
0.0
 10
44.2923203012
 20
72.73530128
 30
0.0
 10
44.497555712
 20
72.7643341629
 30
0.0
  0
SPLINE
  5
297
100
AcDbEntity
  8
0
100
AcDbSpline
 62
7
  6
CONTINUOUS
 70
0
 71
3
 72
15
 73
11
 74
0
 42
0.0000001
 43
0.0000001
 44
0.0000000001
 40
0.0
 40
0.0
 40
0.0
 40
0.0
 40
0.1120372914
 40
0.2285004381
 40
0.3488765015
 40
0.4727772125
 40
0.599937245
 40
0.7302530454
 40
0.8636576479
 40
1.0
 40
1.0
 40
1.0
 40
1.0
 10
67.2862263103
 20
60.7248430639
 30
0.0
 10
66.8449476587
 20
60.7148924817
 30
0.0
 10
65.9456127223
 20
60.6488101662
 30
0.0
 10
64.5870852115
 20
60.4315860821
 30
0.0
 10
63.2032217001
 20
60.102617249
 30
0.0
 10
61.8048254955
 20
59.6680993954
 30
0.0
 10
60.3996132294
 20
59.1335924586
 30
0.0
 10
58.9954164653
 20
58.4991085305
 30
0.0
 10
57.5988078342
 20
57.7669567675
 30
0.0
 10
56.6842548064
 20
57.2246011954
 30
0.0
 10
56.2295280097
 20
56.9386847359
 30
0.0
  0
SPLINE
  5
298
100
AcDbEntity
  8
0
100
AcDbSpline
 62
7
  6
CONTINUOUS
 70
0
 71
3
 72
15
 73
11
 74
0
 42
0.0000001
 43
0.0000001
 44
0.0000000001
 40
0.0
 40
0.0
 40
0.0
 40
0.0
 40
0.1103541024
 40
0.2244965252
 40
0.3425585324
 40
0.4647267193
 40
0.5912729266
 40
0.7225294901
 40
0.8588144657
 40
1.0
 40
1.0
 40
1.0
 40
1.0
 10
59.3420689913
 20
50.5344270096
 30
0.0
 10
58.9645524264
 20
50.6609164592
 30
0.0
 10
58.2049551657
 20
50.9438253958
 30
0.0
 10
57.0733009568
 20
51.4421102629
 30
0.0
 10
55.9316326381
 20
52.0188433115
 30
0.0
 10
54.7787278061
 20
52.6691174106
 30
0.0
 10
53.6092550182
 20
53.3848024031
 30
0.0
 10
52.4135202509
 20
54.1541386566
 30
0.0
 10
51.1760015087
 20
54.9560564903
 30
0.0
 10
50.3271959817
 20
55.4869924532
 30
0.0
 10
49.8917649092
 20
55.7513166281
 30
0.0
  0
SPLINE
  5
299
100
AcDbEntity
  8
0
100
AcDbSpline
 62
7
  6
CONTINUOUS
 70
0
 71
3
 72
13
 73
9
 74
0
 42
0.0000001
 43
0.0000001
 44
0.0000000001
 40
0.0
 40
0.0
 40
0.0
 40
0.0
 40
0.1141840864
 40
0.2299150961
 40
0.348068456
 40
0.4694896294
 40
0.7246952051
 40
1.0
 40
1.0
 40
1.0
 40
1.0
 10
68.5878981654
 20
50.7433137495
 30
0.0
 10
68.2649057418
 20
50.5820492069
 30
0.0
 10
67.5947664112
 20
50.2954294106
 30
0.0
 10
66.5377962498
 20
49.9811182949
 30
0.0
 10
65.429832049
 20
49.7823508549
 30
0.0
 10
63.8669838095
 20
49.670191753
 30
0.0
 10
61.7995024264
 20
49.8366574351
 30
0.0
 10
60.1679650846
 20
50.2582151297
 30
0.0
 10
59.3426358162
 20
50.5347472207
 30
0.0
  0
SPLINE
  5
29A
100
AcDbEntity
  8
0
100
AcDbSpline
 62
7
  6
CONTINUOUS
 70
0
 71
3
 72
9
 73
5
 74
0
 42
0.0000001
 43
0.0000001
 44
0.0000000001
 40
0.0
 40
0.0
 40
0.0
 40
0.0
 40
0.5022405448
 40
1.0
 40
1.0
 40
1.0
 40
1.0
 10
57.1768009761
 20
73.1007983079
 30
0.0
 10
56.8196795287
 20
73.0927602071
 30
0.0
 10
56.1074506059
 20
72.9910855607
 30
0.0
 10
55.4432963548
 20
72.7129939337
 30
0.0
 10
55.1367014429
 20
72.5359823354
 30
0.0
  0
SPLINE
  5
29B
100
AcDbEntity
  8
0
100
AcDbSpline
 62
7
  6
CONTINUOUS
 70
0
 71
3
 72
18
 73
14
 74
0
 42
0.0000001
 43
0.0000001
 44
0.0000000001
 40
0.0
 40
0.0
 40
0.0
 40
0.0
 40
0.0477212643
 40
0.0960300521
 40
0.14547902
 40
0.1965558761
 40
0.2496666197
 40
0.305123121
 40
0.4237536961
 40
0.5533475908
 40
0.6935239196
 40
0.8430289643
 40
1.0
 40
1.0
 40
1.0
 40
1.0
 10
73.1769007947
 20
53.3733024501
 30
0.0
 10
73.5396234439
 20
53.5827024578
 30
0.0
 10
74.2414018534
 20
54.0550301117
 30
0.0
 10
75.1970260282
 20
54.9072373584
 30
0.0
 10
76.0523900223
 20
55.8992250728
 30
0.0
 10
76.802172558
 20
57.0237504688
 30
0.0
 10
77.4419966015
 20
58.2734940608
 30
0.0
 10
78.1597831861
 20
60.1371822745
 30
0.0
 10
78.745227884
 20
62.7533185744
 30
0.0
 10
78.9516368816
 20
66.1672573686
 30
0.0
 10
78.6776029327
 20
69.8466846643
 30
0.0
 10
77.9313127371
 20
73.7027256469
 30
0.0
 10
77.1460898107
 20
76.2808923178
 30
0.0
 10
76.6827259141
 20
77.5782908929
 30
0.0
  0
SPLINE
  5
29C
100
AcDbEntity
  8
0
100
AcDbSpline
 62
7
  6
CONTINUOUS
 70
0
 71
3
 72
29
 73
25
 74
0
 42
0.0000001
 43
0.0000001
 44
0.0000000001
 40
0.0
 40
0.0
 40
0.0
 40
0.0
 40
0.0618470266
 40
0.0927994182
 40
0.1237948057
 40
0.154848289
 40
0.1859666135
 40
0.2483921996
 40
0.3110935817
 40
0.37403554
 40
0.4371639504
 40
0.5004583338
 40
0.5322331592
 40
0.5640898678
 40
0.5960445524
 40
0.6281062089
 40
0.6602696089
 40
0.6925104697
 40
0.7569603718
 40
0.7890974814
 40
0.8209697002
 40
0.8833127913
 40
0.9431408329
 40
1.0
 40
1.0
 40
1.0
 40
1.0
 10
51.2564093959
 20
72.5172116027
 30
0.0
 10
51.9164852246
 20
72.8479021278
 30
0.0
 10
52.8827097457
 20
73.3950181572
 30
0.0
 10
54.1076406755
 20
74.222537875
 30
0.0
 10
54.993128356
 20
74.8931067365
 30
0.0
 10
55.8432962247
 20
75.6109345968
 30
0.0
 10
56.9282027226
 20
76.6291718856
 30
0.0
 10
58.1837955951
 20
78.0138929649
 30
0.0
 10
59.4946524645
 20
79.8430144631
 30
0.0
 10
60.5652350538
 20
81.8339326383
 30
0.0
 10
61.3371511626
 20
83.9680902198
 30
0.0
 10
61.6649842508
 20
85.8408177276
 30
0.0
 10
61.6925132388
 20
87.3583145543
 30
0.0
 10
61.5872035501
 20
88.4969876111
 30
0.0
 10
61.3506581299
 20
89.619388493
 30
0.0
 10
60.9832725258
 20
90.7098858821
 30
0.0
 10
60.4911183661
 20
91.753776696
 30
0.0
 10
59.6844540186
 20
93.0664017277
 30
0.0
 10
58.6795669222
 20
94.2451742519
 30
0.0
 10
57.5415268627
 20
95.2743247503
 30
0.0
 10
56.3525502831
 20
96.2041878358
 30
0.0
 10
54.8047339422
 20
97.2043923826
 30
0.0
 10
52.9005618997
 20
98.1812767616
 30
0.0
 10
51.601657706
 20
98.6923270987
 30
0.0
 10
50.9575741606
 20
98.9064347201
 30
0.0
  0
SPLINE
  5
29D
100
AcDbEntity
  8
0
100
AcDbSpline
 62
7
  6
CONTINUOUS
 70
0
 71
3
 72
9
 73
5
 74
0
 42
0.0000001
 43
0.0000001
 44
0.0000000001
 40
0.0
 40
0.0
 40
0.0
 40
0.0
 40
0.4904786119
 40
1.0
 40
1.0
 40
1.0
 40
1.0
 10
60.8120399289
 20
62.8144360141
 30
0.0
 10
61.2005659472
 20
63.5137627964
 30
0.0
 10
61.7374827071
 20
65.0889248435
 30
0.0
 10
61.7772560116
 20
66.7464435873
 30
0.0
 10
61.6739234557
 20
67.5710611924
 30
0.0
  0
SPLINE
  5
29E
100
AcDbEntity
  8
0
100
AcDbSpline
 62
7
  6
CONTINUOUS
 70
0
 71
3
 72
9
 73
5
 74
0
 42
0.0000001
 43
0.0000001
 44
0.0000000001
 40
0.0
 40
0.0
 40
0.0
 40
0.0
 40
0.2470260952
 40
1.0
 40
1.0
 40
1.0
 40
1.0
 10
58.0992705944
 20
76.9361288139
 30
0.0
 10
58.2323164896
 20
76.9044237273
 30
0.0
 10
58.766836671
 20
76.7593943625
 30
0.0
 10
59.2831193746
 20
76.5484137657
 30
0.0
 10
59.6540814421
 20
76.3581686338
 30
0.0
  0
SPLINE
  5
29F
100
AcDbEntity
  8
0
100
AcDbSpline
 62
7
  6
CONTINUOUS
 70
0
 71
3
 72
13
 73
9
 74
0
 42
0.0000001
 43
0.0000001
 44
0.0000000001
 40
0.0
 40
0.0
 40
0.0
 40
0.0
 40
0.245393845
 40
0.3718819288
 40
0.4994832203
 40
0.6271562125
 40
0.7538382658
 40
1.0
 40
1.0
 40
1.0
 40
1.0
 10
63.3555003655
 20
72.6080618974
 30
0.0
 10
63.8255648936
 20
71.7539387207
 30
0.0
 10
64.3700994074
 20
70.3597845963
 30
0.0
 10
64.7642334644
 20
68.4123491573
 30
0.0
 10
64.8952425967
 20
66.8977808716
 30
0.0
 10
64.8548413295
 20
65.377340208
 30
0.0
 10
64.5776703981
 20
63.4056917375
 30
0.0
 10
64.1174667862
 20
61.9776427329
 30
0.0
 10
63.6997159322
 20
61.0933751588
 30
0.0
  0
SPLINE
  5
2A0
100
AcDbEntity
  8
0
100
AcDbSpline
 62
7
  6
CONTINUOUS
 70
0
 71
3
 72
9
 73
5
 74
0
 42
0.0000001
 43
0.0000001
 44
0.0000000001
 40
0.0
 40
0.0
 40
0.0
 40
0.0
 40
0.2524767274
 40
1.0
 40
1.0
 40
1.0
 40
1.0
 10
59.9031378404
 20
76.4383191386
 30
0.0
 10
59.7566365383
 20
76.4986015101
 30
0.0
 10
59.1703668778
 20
76.7224360526
 30
0.0
 10
58.5609767159
 20
76.8860946669
 30
0.0
 10
58.099683844
 20
76.9709964492
 30
0.0
  0
SPLINE
  5
2A1
100
AcDbEntity
  8
0
100
AcDbSpline
 62
7
  6
CONTINUOUS
 70
0
 71
3
 72
9
 73
5
 74
0
 42
0.0000001
 43
0.0000001
 44
0.0000000001
 40
0.0
 40
0.0
 40
0.0
 40
0.0
 40
0.2352560111
 40
1.0
 40
1.0
 40
1.0
 40
1.0
 10
59.3578940638
 20
60.7168282493
 30
0.0
 10
59.5626091902
 20
60.8350198771
 30
0.0
 10
60.3962199026
 20
61.4002558287
 30
0.0
 10
61.0726981773
 20
62.1809504006
 30
0.0
 10
61.48464242
 20
62.8296094469
 30
0.0
  0
SPLINE
  5
2A2
100
AcDbEntity
  8
0
100
AcDbSpline
 62
7
  6
CONTINUOUS
 70
0
 71
3
 72
25
 73
21
 74
0
 42
0.0000001
 43
0.0000001
 44
0.0000000001
 40
0.0
 40
0.0
 40
0.0
 40
0.0
 40
0.056151999
 40
0.1202296656
 40
0.1911443574
 40
0.2675386527
 40
0.4301481398
 40
0.5128601811
 40
0.5940271305
 40
0.6717710182
 40
0.744263541
 40
0.8097981118
 40
0.8668780978
 40
0.91435052
 40
0.9342876733
 40
0.951670389
 40
0.9665976501
 40
0.9792908772
 40
0.9901828704
 40
1.0
 40
1.0
 40
1.0
 40
1.0
 10
47.7593861804
 20
76.3733967162
 30
0.0
 10
47.608779313
 20
76.3699991326
 30
0.0
 10
47.2868070352
 20
76.3377324652
 30
0.0
 10
46.7841774304
 20
76.2331039167
 30
0.0
 10
46.2396713219
 20
76.072697296
 30
0.0
 10
45.4585587612
 20
75.7865967374
 30
0.0
 10
44.6727607739
 20
75.4261549892
 30
0.0
 10
43.8981725511
 20
75.0170763278
 30
0.0
 10
43.3358675283
 20
74.6942622269
 30
0.0
 10
42.8081448643
 20
74.3670570124
 30
0.0
 10
42.327311833
 20
74.0444971324
 30
0.0
 10
41.9048251448
 20
73.735130468
 30
0.0
 10
41.5511846556
 20
73.4464497308
 30
0.0
 10
41.308152402
 20
73.2164455173
 30
0.0
 10
41.1585572639
 20
73.0448191674
 30
0.0
 10
41.0754614938
 20
72.9316716374
 30
0.0
 10
41.0151893417
 20
72.8266634097
 30
0.0
 10
40.9782990932
 20
72.7295036768
 30
0.0
 10
40.9657085189
 20
72.6397952631
 30
0.0
 10
40.9750643828
 20
72.5838332144
 30
0.0
 10
40.9839118975
 20
72.5590262513
 30
0.0
  0
SPLINE
  5
2A3
100
AcDbEntity
  8
0
100
AcDbSpline
 62
7
  6
CONTINUOUS
 70
0
 71
3
 72
13
 73
9
 74
0
 42
0.0000001
 43
0.0000001
 44
0.0000000001
 40
0.0
 40
0.0
 40
0.0
 40
0.0
 40
0.0972803035
 40
0.196583481
 40
0.4151561107
 40
0.5409824767
 40
0.6799706444
 40
1.0
 40
1.0
 40
1.0
 40
1.0
 10
34.3788782719
 20
75.5900000522
 30
0.0
 10
34.3655703996
 20
75.6272656126
 30
0.0
 10
34.3299428013
 20
75.699783445
 30
0.0
 10
34.2221878727
 20
75.8314857522
 30
0.0
 10
34.0646987016
 20
75.9293436458
 30
0.0
 10
33.8787660161
 20
75.9937965555
 30
0.0
 10
33.6453185887
 20
76.0427188831
 30
0.0
 10
33.4574485802
 20
76.0507551981
 30
0.0
 10
33.327304165
 20
76.0478192329
 30
0.0
  0
SPLINE
  5
2A4
100
AcDbEntity
  8
0
100
AcDbSpline
 62
7
  6
CONTINUOUS
 70
0
 71
3
 72
25
 73
21
 74
0
 42
0.0000001
 43
0.0000001
 44
0.0000000001
 40
0.0
 40
0.0
 40
0.0
 40
0.0
 40
0.056151999
 40
0.1202296656
 40
0.1911443574
 40
0.2675386527
 40
0.4301481398
 40
0.5128601811
 40
0.5940271305
 40
0.6717710182
 40
0.744263541
 40
0.8097981118
 40
0.8668780978
 40
0.91435052
 40
0.9342876733
 40
0.951670389
 40
0.9665976501
 40
0.9792908772
 40
0.9901828704
 40
1.0
 40
1.0
 40
1.0
 40
1.0
 10
40.5433451727
 20
76.2106079745
 30
0.0
 10
40.3927383054
 20
76.207210391
 30
0.0
 10
40.0707660275
 20
76.1749437236
 30
0.0
 10
39.5681364227
 20
76.070315175
 30
0.0
 10
39.0236303142
 20
75.9099085544
 30
0.0
 10
38.2425177536
 20
75.6238079957
 30
0.0
 10
37.4567197663
 20
75.2633662476
 30
0.0
 10
36.6821315434
 20
74.8542875862
 30
0.0
 10
36.1198265206
 20
74.5314734852
 30
0.0
 10
35.5921038566
 20
74.2042682707
 30
0.0
 10
35.1112708253
 20
73.8817083907
 30
0.0
 10
34.6887841371
 20
73.5723417263
 30
0.0
 10
34.3351436479
 20
73.2836609891
 30
0.0
 10
34.0921113943
 20
73.0536567757
 30
0.0
 10
33.9425162563
 20
72.8820304257
 30
0.0
 10
33.8594204861
 20
72.7688828958
 30
0.0
 10
33.7991483341
 20
72.663874668
 30
0.0
 10
33.7622580855
 20
72.5667149352
 30
0.0
 10
33.7496675112
 20
72.4770065215
 30
0.0
 10
33.7590233751
 20
72.4210444728
 30
0.0
 10
33.7678708899
 20
72.3962375096
 30
0.0
  0
SPLINE
  5
2A5
100
AcDbEntity
  8
0
100
AcDbSpline
 62
7
  6
CONTINUOUS
 70
0
 71
3
 72
13
 73
9
 74
0
 42
0.0000001
 43
0.0000001
 44
0.0000000001
 40
0.0
 40
0.0
 40
0.0
 40
0.0
 40
0.0972803035
 40
0.196583481
 40
0.4151561107
 40
0.5409824767
 40
0.6799706444
 40
1.0
 40
1.0
 40
1.0
 40
1.0
 10
41.5949192795
 20
75.7527887939
 30
0.0
 10
41.5816114073
 20
75.7900543542
 30
0.0
 10
41.545983809
 20
75.8625721867
 30
0.0
 10
41.4382288804
 20
75.9942744939
 30
0.0
 10
41.2807397093
 20
76.0921323875
 30
0.0
 10
41.0948070238
 20
76.1565852971
 30
0.0
 10
40.8613595964
 20
76.2055076248
 30
0.0
 10
40.6734895879
 20
76.2135439398
 30
0.0
 10
40.5433451727
 20
76.2106079745
 30
0.0
  0
SPLINE
  5
2A6
100
AcDbEntity
  8
0
100
AcDbSpline
 62
7
  6
CONTINUOUS
 70
0
 71
3
 72
9
 73
5
 74
0
 42
0.0000001
 43
0.0000001
 44
0.0000000001
 40
0.0
 40
0.0
 40
0.0
 40
0.0
 40
0.5039053349
 40
1.0
 40
1.0
 40
1.0
 40
1.0
 10
48.9692201096
 20
71.3714868517
 30
0.0
 10
49.6899313164
 20
70.1346351806
 30
0.0
 10
51.0105984422
 20
67.6145750437
 30
0.0
 10
52.0964717866
 20
64.9843816231
 30
0.0
 10
52.5704850651
 20
63.6571652459
 30
0.0
  0
SPLINE
  5
2A7
100
AcDbEntity
  8
0
100
AcDbSpline
 62
7
  6
CONTINUOUS
 70
0
 71
3
 72
25
 73
21
 74
0
 42
0.0000001
 43
0.0000001
 44
0.0000000001
 40
0.0
 40
0.0
 40
0.0
 40
0.0
 40
0.056151999
 40
0.1202296656
 40
0.1911443574
 40
0.2675386527
 40
0.4301481398
 40
0.5128601811
 40
0.5940271305
 40
0.6717710182
 40
0.744263541
 40
0.8097981118
 40
0.8668780978
 40
0.91435052
 40
0.9342876733
 40
0.951670389
 40
0.9665976501
 40
0.9792908772
 40
0.9901828704
 40
1.0
 40
1.0
 40
1.0
 40
1.0
 10
33.327304165
 20
76.0478192329
 30
0.0
 10
33.1766972977
 20
76.0444216493
 30
0.0
 10
32.8547250198
 20
76.0121549819
 30
0.0
 10
32.352095415
 20
75.9075264334
 30
0.0
 10
31.8075893065
 20
75.7471198127
 30
0.0
 10
31.0264767459
 20
75.4610192541
 30
0.0
 10
30.2406787586
 20
75.1005775059
 30
0.0
 10
29.4660905357
 20
74.6914988445
 30
0.0
 10
28.903785513
 20
74.3686847435
 30
0.0
 10
28.3760628489
 20
74.0414795291
 30
0.0
 10
27.8952298176
 20
73.7189196491
 30
0.0
 10
27.4727431294
 20
73.4095529847
 30
0.0
 10
27.1191026402
 20
73.1208722474
 30
0.0
 10
26.8760703866
 20
72.890868034
 30
0.0
 10
26.7264752486
 20
72.7192416841
 30
0.0
 10
26.6433794784
 20
72.6060941541
 30
0.0
 10
26.5831073264
 20
72.5010859263
 30
0.0
 10
26.5462170779
 20
72.4039261935
 30
0.0
 10
26.5336265035
 20
72.3142177798
 30
0.0
 10
26.5429823674
 20
72.2582557311
 30
0.0
 10
26.5518298822
 20
72.2334487679
 30
0.0
  0
SPLINE
  5
2A8
100
AcDbEntity
  8
0
100
AcDbSpline
 62
7
  6
CONTINUOUS
 70
0
 71
3
 72
9
 73
5
 74
0
 42
0.0000001
 43
0.0000001
 44
0.0000000001
 40
0.0
 40
0.0
 40
0.0
 40
0.0
 40
0.5121307129
 40
1.0
 40
1.0
 40
1.0
 40
1.0
 10
52.5704850651
 20
63.6571652459
 30
0.0
 10
53.0327997643
 20
62.3627043775
 30
0.0
 10
53.8165243066
 20
59.7906391318
 30
0.0
 10
54.3286264598
 20
57.149536896
 30
0.0
 10
54.5001870439
 20
55.8513999911
 30
0.0
  0
SPLINE
  5
2A9
100
AcDbEntity
  8
0
100
AcDbSpline
 62
7
  6
CONTINUOUS
 70
0
 71
3
 72
13
 73
9
 74
0
 42
0.0000001
 43
0.0000001
 44
0.0000000001
 40
0.0
 40
0.0
 40
0.0
 40
0.0
 40
0.1229435299
 40
0.2469879106
 40
0.3719575729
 40
0.4976965676
 40
0.7497828055
 40
1.0
 40
1.0
 40
1.0
 40
1.0
 10
65.1569333675
 20
70.9239111848
 30
0.0
 10
65.2993591362
 20
70.525125283
 30
0.0
 10
65.5323847251
 20
69.7039568149
 30
0.0
 10
65.7211762401
 20
68.4335311938
 30
0.0
 10
65.7515647938
 20
67.1398450998
 30
0.0
 10
65.588376512
 20
65.4123630142
 30
0.0
 10
65.0257965622
 20
63.3059841454
 30
0.0
 10
64.2528985791
 20
61.7447539184
 30
0.0
 10
63.7994679636
 20
61.0118510565
 30
0.0
  0
SPLINE
  5
2AA
100
AcDbEntity
  8
0
100
AcDbSpline
 62
7
  6
CONTINUOUS
 70
0
 71
3
 72
13
 73
9
 74
0
 42
0.0000001
 43
0.0000001
 44
0.0000000001
 40
0.0
 40
0.0
 40
0.0
 40
0.0
 40
0.1138305212
 40
0.229320893
 40
0.3473451677
 40
0.4687425176
 40
0.7241791301
 40
1.0
 40
1.0
 40
1.0
 40
1.0
 10
41.7159401104
 20
98.6982254256
 30
0.0
 10
42.0378174706
 20
98.8587743645
 30
0.0
 10
42.7060328027
 20
99.1440983085
 30
0.0
 10
43.7604417562
 20
99.4568387156
 30
0.0
 10
44.8666696675
 20
99.6546376286
 30
0.0
 10
46.4289100753
 20
99.7663504613
 30
0.0
 10
48.4974612477
 20
99.6007084313
 30
0.0
 10
50.1309887235
 20
99.1816582282
 30
0.0
 10
50.9580610514
 20
98.9067210865
 30
0.0
  0
SPLINE
  5
2AB
100
AcDbEntity
  8
0
100
AcDbSpline
 62
7
  6
CONTINUOUS
 70
0
 71
3
 72
22
 73
18
 74
0
 42
0.0000001
 43
0.0000001
 44
0.0000000001
 40
0.0
 40
0.0
 40
0.0
 40
0.0
 40
0.0651322289
 40
0.1304946909
 40
0.2618204428
 40
0.3270159742
 40
0.3903470656
 40
0.4507227791
 40
0.508050554
 40
0.5630413952
 40
0.6172385764
 40
0.6725841369
 40
0.7306956518
 40
0.7924545004
 40
0.858073736
 40
0.9273664863
 40
1.0
 40
1.0
 40
1.0
 40
1.0
 10
69.0787897929
 20
51.0072444047
 30
0.0
 10
69.3676685858
 20
51.1740281029
 30
0.0
 10
69.9288706336
 20
51.5400308414
 30
0.0
 10
70.9672923503
 20
52.3910163911
 30
0.0
 10
71.864168099
 20
53.4060410694
 30
0.0
 10
72.5609039241
 20
54.5430925344
 30
0.0
 10
72.95127809
 20
55.4325021683
 30
0.0
 10
73.1760062174
 20
56.337529466
 30
0.0
 10
73.2102773688
 20
57.2287504698
 30
0.0
 10
73.0340046354
 20
58.0730336928
 30
0.0
 10
72.6422248612
 20
58.8309800227
 30
0.0
 10
72.0538924248
 20
59.4690162904
 30
0.0
 10
71.3030110194
 20
59.9726732122
 30
0.0
 10
70.4233028604
 20
60.3433070391
 30
0.0
 10
69.4431575605
 20
60.5885893786
 30
0.0
 10
68.3860744122
 20
60.7184633903
 30
0.0
 10
67.6581170786
 20
60.7332289888
 30
0.0
 10
67.2862263103
 20
60.7248430639
 30
0.0
  0
SPLINE
  5
2AC
100
AcDbEntity
  8
0
100
AcDbSpline
 62
7
  6
CONTINUOUS
 70
0
 71
3
 72
13
 73
9
 74
0
 42
0.0000001
 43
0.0000001
 44
0.0000000001
 40
0.0
 40
0.0
 40
0.0
 40
0.0
 40
0.0972803035
 40
0.196583481
 40
0.4151561107
 40
0.5409824767
 40
0.6799706444
 40
1.0
 40
1.0
 40
1.0
 40
1.0
 10
48.8109602872
 20
75.9155775356
 30
0.0
 10
48.797652415
 20
75.9528430959
 30
0.0
 10
48.7620248166
 20
76.0253609283
 30
0.0
 10
48.6542698881
 20
76.1570632355
 30
0.0
 10
48.4967807169
 20
76.2549211291
 30
0.0
 10
48.3108480315
 20
76.3193740388
 30
0.0
 10
48.0774006041
 20
76.3682963664
 30
0.0
 10
47.8895305956
 20
76.3763326814
 30
0.0
 10
47.7593861804
 20
76.3733967162
 30
0.0
  0
SPLINE
  5
2AD
100
AcDbEntity
  8
0
100
AcDbSpline
 62
7
  6
CONTINUOUS
 70
0
 71
3
 72
11
 73
7
 74
0
 42
0.0000001
 43
0.0000001
 44
0.0000000001
 40
0.0
 40
0.0
 40
0.0
 40
0.0
 40
0.2896908561
 40
0.5490896158
 40
0.782217627
 40
1.0
 40
1.0
 40
1.0
 40
1.0
 10
112.5307073096
 20
85.1092513273
 30
0.0
 10
112.3771379027
 20
85.19791266
 30
0.0
 10
112.0716188178
 20
85.3432334356
 30
0.0
 10
111.6020532533
 20
85.4566616106
 30
0.0
 10
111.1614299603
 20
85.4454952448
 30
0.0
 10
110.8962009517
 20
85.3491770404
 30
0.0
 10
110.7807274623
 20
85.2825649556
 30
0.0
  0
SPLINE
  5
2AE
100
AcDbEntity
  8
0
100
AcDbSpline
 62
7
  6
CONTINUOUS
 70
0
 71
3
 72
11
 73
7
 74
0
 42
0.0000001
 43
0.0000001
 44
0.0000000001
 40
0.0
 40
0.0
 40
0.0
 40
0.0
 40
0.2176907916
 40
0.4508868986
 40
0.7106214304
 40
1.0
 40
1.0
 40
1.0
 40
1.0
 10
83.8108304993
 20
90.1915375541
 30
0.0
 10
83.8520629923
 20
90.2153013995
 30
0.0
 10
83.9292152591
 20
90.2801393671
 30
0.0
 10
84.0114334271
 20
90.41446692
 30
0.0
 10
84.0600225256
 20
90.5800313971
 30
0.0
 10
84.0697472445
 20
90.7004611747
 30
0.0
 10
84.0697472445
 20
90.7637234719
 30
0.0
  0
SPLINE
  5
2AF
100
AcDbEntity
  8
0
100
AcDbSpline
 62
7
  6
CONTINUOUS
 70
0
 71
3
 72
9
 73
5
 74
0
 42
0.0000001
 43
0.0000001
 44
0.0000000001
 40
0.0
 40
0.0
 40
0.0
 40
0.0
 40
0.4747792015
 40
1.0
 40
1.0
 40
1.0
 40
1.0
 10
115.3237751209
 20
82.8026268943
 30
0.0
 10
115.3237751209
 20
82.9362652946
 30
0.0
 10
115.2790741279
 20
83.2179235937
 30
0.0
 10
115.1743974342
 20
83.4813946811
 30
0.0
 10
115.106768249
 20
83.6128553466
 30
0.0
  0
SPLINE
  5
2B0
100
AcDbEntity
  8
0
100
AcDbSpline
 62
7
  6
CONTINUOUS
 70
0
 71
3
 72
15
 73
11
 74
0
 42
0.0000001
 43
0.0000001
 44
0.0000000001
 40
0.0
 40
0.0
 40
0.0
 40
0.0
 40
0.1134950935
 40
0.2358146881
 40
0.3644837024
 40
0.4967476798
 40
0.6294606176
 40
0.7594425859
 40
0.8838410515
 40
1.0
 40
1.0
 40
1.0
 40
1.0
 10
125.1171753366
 20
120.0799829337
 30
0.0
 10
124.8991819585
 20
120.205838622
 30
0.0
 10
124.4681266679
 20
120.5061564065
 30
0.0
 10
123.8724045075
 20
121.0555375801
 30
0.0
 10
123.3203857339
 20
121.7044511777
 30
0.0
 10
122.831305571
 20
122.4297445049
 30
0.0
 10
122.4223869577
 20
123.206347648
 30
0.0
 10
122.1076219361
 20
124.0071094922
 30
0.0
 10
121.8984616279
 20
124.8038275817
 30
0.0
 10
121.8313447565
 20
125.3353134319
 30
0.0
 10
121.8197080451
 20
125.5926741773
 30
0.0
  0
SPLINE
  5
2B1
100
AcDbEntity
  8
0
100
AcDbSpline
 62
7
  6
CONTINUOUS
 70
0
 71
3
 72
11
 73
7
 74
0
 42
0.0000001
 43
0.0000001
 44
0.0000000001
 40
0.0
 40
0.0
 40
0.0
 40
0.0
 40
0.2286743645
 40
0.4668632866
 40
0.7224931457
 40
1.0
 40
1.0
 40
1.0
 40
1.0
 10
82.8945968376
 20
134.4804410228
 30
0.0
 10
82.8301898592
 20
134.4432558595
 30
0.0
 10
82.6881665431
 20
134.3842661851
 30
0.0
 10
82.4535469139
 20
134.3502991361
 30
0.0
 10
82.2017353583
 20
134.3695641516
 30
0.0
 10
82.0333386292
 20
134.4147722916
 30
0.0
 10
81.9481813742
 20
134.4446671821
 30
0.0
  0
SPLINE
  5
2B2
100
AcDbEntity
  8
0
100
AcDbSpline
 62
7
  6
CONTINUOUS
 70
0
 71
3
 72
9
 73
5
 74
0
 42
0.0000001
 43
0.0000001
 44
0.0000000001
 40
0.0
 40
0.0
 40
0.0
 40
0.0
 40
0.2376428
 40
1.0
 40
1.0
 40
1.0
 40
1.0
 10
83.9280897822
 20
135.2215776443
 30
0.0
 10
83.9280897822
 20
135.2958499705
 30
0.0
 10
83.9174115311
 20
135.6083608158
 30
0.0
 10
83.8675436368
 20
135.9189860625
 30
0.0
 10
83.8126551253
 20
136.1508429661
 30
0.0
  0
SPLINE
  5
2B3
100
AcDbEntity
  8
0
100
AcDbSpline
 62
7
  6
CONTINUOUS
 70
0
 71
3
 72
10
 73
6
 74
0
 42
0.0000001
 43
0.0000001
 44
0.0000000001
 40
0.0
 40
0.0
 40
0.0
 40
0.0
 40
0.2440452082
 40
0.4975335241
 40
1.0
 40
1.0
 40
1.0
 40
1.0
 10
83.8126551253
 20
136.1508429661
 30
0.0
 10
83.7566048716
 20
136.3876072344
 30
0.0
 10
83.6059199398
 20
136.8623666573
 30
0.0
 10
83.1827879609
 20
137.766576336
 30
0.0
 10
82.7379752763
 20
138.3888604889
 30
0.0
 10
82.3926947595
 20
138.751808976
 30
0.0
  0
SPLINE
  5
2B4
100
AcDbEntity
  8
0
100
AcDbSpline
 62
7
  6
CONTINUOUS
 70
0
 71
3
 72
9
 73
5
 74
0
 42
0.0000001
 43
0.0000001
 44
0.0000000001
 40
0.0
 40
0.0
 40
0.0
 40
0.0
 40
0.256070036
 40
1.0
 40
1.0
 40
1.0
 40
1.0
 10
82.2009237396
 20
138.9429201961
 30
0.0
 10
82.1667909893
 20
138.9751239954
 30
0.0
 10
82.0316703004
 20
139.0989265024
 30
0.0
 10
81.8891228217
 20
139.2146980669
 30
0.0
 10
81.7790470133
 20
139.2951310501
 30
0.0
  0
SPLINE
  5
2B5
100
AcDbEntity
  8
0
100
AcDbSpline
 62
7
  6
CONTINUOUS
 70
0
 71
3
 72
11
 73
7
 74
0
 42
0.0000001
 43
0.0000001
 44
0.0000000001
 40
0.0
 40
0.0
 40
0.0
 40
0.0
 40
0.2926393186
 40
0.5529945314
 40
0.7850324969
 40
1.0
 40
1.0
 40
1.0
 40
1.0
 10
81.5804972787
 20
139.430877444
 30
0.0
 10
81.4172341439
 20
139.5348707647
 30
0.0
 10
81.0917420168
 20
139.7071523715
 30
0.0
 10
80.5874586236
 20
139.8498452938
 30
0.0
 10
80.1125806114
 20
139.8525627653
 30
0.0
 10
79.8263550681
 20
139.7526129058
 30
0.0
 10
79.7032216577
 20
139.6814998081
 30
0.0
  0
SPLINE
  5
2B6
100
AcDbEntity
  8
0
100
AcDbSpline
 62
7
  6
CONTINUOUS
 70
0
 71
3
 72
11
 73
7
 74
0
 42
0.0000001
 43
0.0000001
 44
0.0000000001
 40
0.0
 40
0.0
 40
0.0
 40
0.0
 40
0.2177839466
 40
0.4509170841
 40
0.710307871
 40
1.0
 40
1.0
 40
1.0
 40
1.0
 10
83.2031898306
 20
133.6193407621
 30
0.0
 10
83.3186342832
 20
133.6860132647
 30
0.0
 10
83.534660299
 20
133.8675884932
 30
0.0
 10
83.7646253654
 20
134.2436107285
 30
0.0
 10
83.9012036887
 20
134.7069888687
 30
0.0
 10
83.9280897822
 20
135.0442457492
 30
0.0
 10
83.9280897822
 20
135.2215776443
 30
0.0
  0
SPLINE
  5
2B7
100
AcDbEntity
  8
0
100
AcDbSpline
 62
7
  6
CONTINUOUS
 70
0
 71
3
 72
11
 73
7
 74
0
 42
0.0000001
 43
0.0000001
 44
0.0000000001
 40
0.0
 40
0.0
 40
0.0
 40
0.0
 40
0.2427322958
 40
0.4999992148
 40
0.7572665464
 40
1.0
 40
1.0
 40
1.0
 40
1.0
 10
81.241071649
 20
134.8529079367
 30
0.0
 10
81.0545088093
 20
135.0028334343
 30
0.0
 10
80.703983189
 20
135.3547816032
 30
0.0
 10
80.2763149664
 20
135.9709207264
 30
0.0
 10
79.9565533424
 20
136.6493613922
 30
0.0
 10
79.8270169441
 20
137.1289002481
 30
0.0
 10
79.7904571449
 20
137.3654320124
 30
0.0
  0
SPLINE
  5
2B8
100
AcDbEntity
  8
0
100
AcDbSpline
 62
7
  6
CONTINUOUS
 70
0
 71
3
 72
11
 73
7
 74
0
 42
0.0000001
 43
0.0000001
 44
0.0000000001
 40
0.0
 40
0.0
 40
0.0
 40
0.0
 40
0.2775080081
 40
0.5331382263
 40
0.7713266511
 40
1.0
 40
1.0
 40
1.0
 40
1.0
 10
79.7904571449
 20
138.1819344295
 30
0.0
 10
79.8071454922
 20
138.2706338016
 30
0.0
 10
79.8521919932
 20
138.4390804586
 30
0.0
 10
79.9614152965
 20
138.6667973191
 30
0.0
 10
80.1081451864
 20
138.853007223
 30
0.0
 10
80.2302473218
 20
138.9465109572
 30
0.0
 10
80.2946561856
 20
138.983697209
 30
0.0
  0
SPLINE
  5
2B9
100
AcDbEntity
  8
0
100
AcDbSpline
 62
7
  6
CONTINUOUS
 70
0
 71
3
 72
11
 73
7
 74
0
 42
0.0000001
 43
0.0000001
 44
0.0000000001
 40
0.0
 40
0.0
 40
0.0
 40
0.0
 40
0.2177805982
 40
0.4509249659
 40
0.7102605946
 40
1.0
 40
1.0
 40
1.0
 40
1.0
 10
96.1526017368
 20
129.9699701041
 30
0.0
 10
96.3060035108
 20
130.0585002216
 30
0.0
 10
96.5929740832
 20
130.2998128105
 30
0.0
 10
96.8984931601
 20
130.7993196661
 30
0.0
 10
97.0800169902
 20
131.4149433321
 30
0.0
 10
97.1156861562
 20
131.8630138781
 30
0.0
 10
97.1156861562
 20
132.0986508667
 30
0.0
  0
SPLINE
  5
2BA
100
AcDbEntity
  8
0
100
AcDbSpline
 62
7
  6
CONTINUOUS
 70
0
 71
3
 72
15
 73
11
 74
0
 42
0.0000001
 43
0.0000001
 44
0.0000000001
 40
0.0
 40
0.0
 40
0.0
 40
0.0
 40
0.1138664742
 40
0.2368672525
 40
0.3664623144
 40
0.499524609
 40
0.6326605519
 40
0.7624352255
 40
0.885770778
 40
1.0
 40
1.0
 40
1.0
 40
1.0
 10
100.5690557213
 20
134.064880626
 30
0.0
 10
100.3428087538
 20
134.1936015433
 30
0.0
 10
99.8955975927
 20
134.5035879332
 30
0.0
 10
99.279967421
 20
135.0750224582
 30
0.0
 10
98.7121536879
 20
135.7522683863
 30
0.0
 10
98.2137055232
 20
136.5097028952
 30
0.0
 10
97.803439149
 20
137.3187562831
 30
0.0
 10
97.496611895
 20
138.1489956787
 30
0.0
 10
97.3051807614
 20
138.9688989094
 30
0.0
 10
97.2570521658
 20
139.5124787997
 30
0.0
 10
97.2570521658
 20
139.7736093455
 30
0.0
  0
SPLINE
  5
2BB
100
AcDbEntity
  8
0
100
AcDbSpline
 62
7
  6
CONTINUOUS
 70
0
 71
3
 72
11
 73
7
 74
0
 42
0.0000001
 43
0.0000001
 44
0.0000000001
 40
0.0
 40
0.0
 40
0.0
 40
0.0
 40
0.2207676604
 40
0.4551907662
 40
0.7134678515
 40
1.0
 40
1.0
 40
1.0
 40
1.0
 10
46.8416978106
 20
158.6315687057
 30
0.0
 10
46.9850733081
 20
158.7143852948
 30
0.0
 10
47.2543445066
 20
158.9349088706
 30
0.0
 10
47.5517594228
 20
159.3876940793
 30
0.0
 10
47.7421506861
 20
159.945424794
 30
0.0
 10
47.7939495459
 20
160.3533582677
 30
0.0
 10
47.8041898968
 20
160.5680124432
 30
0.0
  0
SPLINE
  5
2BC
100
AcDbEntity
  8
0
100
AcDbSpline
 62
7
  6
CONTINUOUS
 70
0
 71
3
 72
11
 73
7
 74
0
 42
0.0000001
 43
0.0000001
 44
0.0000000001
 40
0.0
 40
0.0
 40
0.0
 40
0.0
 40
0.2176867845
 40
0.4508859199
 40
0.7106269577
 40
1.0
 40
1.0
 40
1.0
 40
1.0
 10
115.0545064789
 20
82.2075451777
 30
0.0
 10
115.0973855872
 20
82.232262106
 30
0.0
 10
115.1776165524
 20
82.2997008711
 30
0.0
 10
115.2631213814
 20
82.4394024403
 30
0.0
 10
115.3136553012
 20
82.6115891811
 30
0.0
 10
115.3237751209
 20
82.7368355636
 30
0.0
 10
115.3237751209
 20
82.8026268943
 30
0.0
  0
SPLINE
  5
2BD
100
AcDbEntity
  8
0
100
AcDbSpline
 62
7
  6
CONTINUOUS
 70
0
 71
3
 72
16
 73
12
 74
0
 42
0.0000001
 43
0.0000001
 44
0.0000000001
 40
0.0
 40
0.0
 40
0.0
 40
0.0
 40
0.128713925
 40
0.2704305119
 40
0.4176096974
 40
0.5620119138
 40
0.6957413669
 40
0.8130642226
 40
0.9124751929
 40
0.9571193531
 40
1.0
 40
1.0
 40
1.0
 40
1.0
 10
84.0697472445
 20
90.7637234719
 30
0.0
 10
84.0697472445
 20
90.8705397302
 30
0.0
 10
84.039797086
 20
91.0952079525
 30
0.0
 10
83.9283322849
 20
91.4250831736
 30
0.0
 10
83.7562979237
 20
91.7428133103
 30
0.0
 10
83.5380391851
 20
92.0223839616
 30
0.0
 10
83.2905311593
 20
92.2413114214
 30
0.0
 10
83.0330555739
 20
92.38256337
 30
0.0
 10
82.8144631358
 20
92.425297438
 30
0.0
 10
82.6596408816
 20
92.4025114113
 30
0.0
 10
82.5917211375
 20
92.3742806129
 30
0.0
 10
82.5608896769
 20
92.356511276
 30
0.0
  0
SPLINE
  5
2BE
100
AcDbEntity
  8
0
100
AcDbSpline
 62
7
  6
CONTINUOUS
 70
0
 71
3
 72
9
 73
5
 74
0
 42
0.0000001
 43
0.0000001
 44
0.0000000001
 40
0.0
 40
0.0
 40
0.0
 40
0.0
 40
0.2559112636
 40
1.0
 40
1.0
 40
1.0
 40
1.0
 10
80.8936601898
 20
139.3787869354
 30
0.0
 10
80.8953471419
 20
139.405344403
 30
0.0
 10
80.9033373151
 20
139.5090236923
 30
0.0
 10
80.9170273154
 20
139.6122890429
 30
0.0
 10
80.930804933
 20
139.6884267481
 30
0.0
  0
SPLINE
  5
2BF
100
AcDbEntity
  8
0
100
AcDbSpline
 62
7
  6
CONTINUOUS
 70
0
 71
3
 72
11
 73
7
 74
0
 42
0.0000001
 43
0.0000001
 44
0.0000000001
 40
0.0
 40
0.0
 40
0.0
 40
0.0
 40
0.2286743645
 40
0.4668632866
 40
0.7224931457
 40
1.0
 40
1.0
 40
1.0
 40
1.0
 10
80.2946561856
 20
138.983697209
 30
0.0
 10
80.359063164
 20
139.0208823723
 30
0.0
 10
80.5010864801
 20
139.0798720467
 30
0.0
 10
80.7357061093
 20
139.1138390957
 30
0.0
 10
80.9875176649
 20
139.0945740802
 30
0.0
 10
81.155914394
 20
139.0493659402
 30
0.0
 10
81.241071649
 20
139.0194710497
 30
0.0
  0
SPLINE
  5
2C0
100
AcDbEntity
  8
0
100
AcDbSpline
 62
7
  6
CONTINUOUS
 70
0
 71
3
 72
11
 73
7
 74
0
 42
0.0000001
 43
0.0000001
 44
0.0000000001
 40
0.0
 40
0.0
 40
0.0
 40
0.0
 40
0.2504560265
 40
0.5129689936
 40
0.7686012888
 40
1.0
 40
1.0
 40
1.0
 40
1.0
 10
110.1265342441
 20
82.9612735865
 30
0.0
 10
110.1947956481
 20
82.5992370778
 30
0.0
 10
110.4239961482
 20
81.8733313664
 30
0.0
 10
110.9670361736
 20
80.8745487691
 30
0.0
 10
111.6688278261
 20
80.0159949073
 30
0.0
 10
112.2359255909
 20
79.5639228619
 30
0.0
 10
112.5307073096
 20
79.3937344074
 30
0.0
  0
SPLINE
  5
2C1
100
AcDbEntity
  8
0
100
AcDbSpline
 62
7
  6
CONTINUOUS
 70
0
 71
3
 72
13
 73
9
 74
0
 42
0.0000001
 43
0.0000001
 44
0.0000000001
 40
0.0
 40
0.0
 40
0.0
 40
0.0
 40
0.1142250362
 40
0.2375584228
 40
0.4999988469
 40
0.762439898
 40
0.8857740437
 40
1.0
 40
1.0
 40
1.0
 40
1.0
 10
114.4045324783
 20
80.4755814152
 30
0.0
 10
114.2351541548
 20
80.5733698235
 30
0.0
 10
113.9004815219
 20
80.8080222038
 30
0.0
 10
113.2738737727
 20
81.3943777859
 30
0.0
 10
112.6120698015
 20
82.2984329099
 30
0.0
 10
112.1600318342
 20
83.3235985011
 30
0.0
 10
111.9655306997
 20
84.1594370953
 30
0.0
 10
111.9296484402
 20
84.5666008054
 30
0.0
 10
111.9296484402
 20
84.762182516
 30
0.0
  0
SPLINE
  5
2C2
100
AcDbEntity
  8
0
100
AcDbSpline
 62
7
  6
CONTINUOUS
 70
0
 71
3
 72
9
 73
5
 74
0
 42
0.0000001
 43
0.0000001
 44
0.0000000001
 40
0.0
 40
0.0
 40
0.0
 40
0.0
 40
0.2597503967
 40
1.0
 40
1.0
 40
1.0
 40
1.0
 10
111.9296484402
 20
84.762182516
 30
0.0
 10
111.9296484402
 20
84.8087001962
 30
0.0
 10
111.9334809367
 20
84.9877408388
 30
0.0
 10
111.953012339
 20
85.1666372198
 30
0.0
 10
111.978134611
 20
85.2968034671
 30
0.0
  0
SPLINE
  5
2C3
100
AcDbEntity
  8
0
100
AcDbSpline
 62
7
  6
CONTINUOUS
 70
0
 71
3
 72
9
 73
5
 74
0
 42
0.0000001
 43
0.0000001
 44
0.0000000001
 40
0.0
 40
0.0
 40
0.0
 40
0.0
 40
0.2439752578
 40
1.0
 40
1.0
 40
1.0
 40
1.0
 10
83.8210691939
 20
134.6796561
 30
0.0
 10
83.7970695349
 20
134.6882889366
 30
0.0
 10
83.6992572206
 20
134.7252114482
 30
0.0
 10
83.6037161676
 20
134.7680791655
 30
0.0
 10
83.5329522527
 20
134.8032776049
 30
0.0
  0
SPLINE
  5
2C4
100
AcDbEntity
  8
0
100
AcDbSpline
 62
7
  6
CONTINUOUS
 70
0
 71
3
 72
11
 73
7
 74
0
 42
0.0000001
 43
0.0000001
 44
0.0000000001
 40
0.0
 40
0.0
 40
0.0
 40
0.0
 40
0.2775080081
 40
0.5331382263
 40
0.7713266511
 40
1.0
 40
1.0
 40
1.0
 40
1.0
 10
83.3987958783
 20
135.2822038023
 30
0.0
 10
83.382107531
 20
135.1935044302
 30
0.0
 10
83.33706103
 20
135.0250577732
 30
0.0
 10
83.2278377267
 20
134.7973409127
 30
0.0
 10
83.0811078367
 20
134.6111310088
 30
0.0
 10
82.9590057014
 20
134.5176272746
 30
0.0
 10
82.8945968376
 20
134.4804410228
 30
0.0
  0
SPLINE
  5
2C5
100
AcDbEntity
  8
0
100
AcDbSpline
 62
7
  6
CONTINUOUS
 70
0
 71
3
 72
16
 73
12
 74
0
 42
0.0000001
 43
0.0000001
 44
0.0000000001
 40
0.0
 40
0.0
 40
0.0
 40
0.0
 40
0.1287203135
 40
0.2704441977
 40
0.41762403
 40
0.5620215213
 40
0.6957456648
 40
0.8130698337
 40
0.9124776918
 40
0.9571201009
 40
1.0
 40
1.0
 40
1.0
 40
1.0
 10
113.4852898356
 20
83.864052856
 30
0.0
 10
113.4852898356
 20
83.7529577528
 30
0.0
 10
113.5164507252
 20
83.5192906691
 30
0.0
 10
113.6323782111
 20
83.1762074238
 30
0.0
 10
113.8112944649
 20
82.8457626557
 30
0.0
 10
114.0382780901
 20
82.5550113056
 30
0.0
 10
114.2956951161
 20
82.3273438026
 30
0.0
 10
114.5634650215
 20
82.1804476826
 30
0.0
 10
114.7907992658
 20
82.1359946255
 30
0.0
 10
114.9518096877
 20
82.1597006313
 30
0.0
 10
115.0224434413
 20
82.1890629883
 30
0.0
 10
115.0545064789
 20
82.2075451777
 30
0.0
  0
SPLINE
  5
2C6
100
AcDbEntity
  8
0
100
AcDbSpline
 62
7
  6
CONTINUOUS
 70
0
 71
3
 72
11
 73
7
 74
0
 42
0.0000001
 43
0.0000001
 44
0.0000000001
 40
0.0
 40
0.0
 40
0.0
 40
0.0
 40
0.2177839466
 40
0.4509170841
 40
0.710307871
 40
1.0
 40
1.0
 40
1.0
 40
1.0
 10
79.7032216577
 20
139.6814998081
 30
0.0
 10
79.5877772052
 20
139.6148273055
 30
0.0
 10
79.3717511893
 20
139.4332520771
 30
0.0
 10
79.1417861229
 20
139.0572298417
 30
0.0
 10
79.0052077996
 20
138.5938517016
 30
0.0
 10
78.9783217061
 20
138.256594821
 30
0.0
 10
78.9783217061
 20
138.0792629259
 30
0.0
  0
SPLINE
  5
2C7
100
AcDbEntity
  8
0
100
AcDbSpline
 62
7
  6
CONTINUOUS
 70
0
 71
3
 72
11
 73
7
 74
0
 42
0.0000001
 43
0.0000001
 44
0.0000000001
 40
0.0
 40
0.0
 40
0.0
 40
0.0
 40
0.2176907916
 40
0.4508868986
 40
0.7106214304
 40
1.0
 40
1.0
 40
1.0
 40
1.0
 10
82.5608896769
 20
92.356511276
 30
0.0
 10
82.5196571838
 20
92.3327474306
 30
0.0
 10
82.4425049171
 20
92.267909463
 30
0.0
 10
82.3602867491
 20
92.1335819102
 30
0.0
 10
82.3116976506
 20
91.9680174331
 30
0.0
 10
82.3019729317
 20
91.8475876554
 30
0.0
 10
82.3019729317
 20
91.7843253582
 30
0.0
  0
SPLINE
  5
2C8
100
AcDbEntity
  8
0
100
AcDbSpline
 62
7
  6
CONTINUOUS
 70
0
 71
3
 72
11
 73
7
 74
0
 42
0.0000001
 43
0.0000001
 44
0.0000000001
 40
0.0
 40
0.0
 40
0.0
 40
0.0
 40
0.2427322958
 40
0.4999992148
 40
0.7572665464
 40
1.0
 40
1.0
 40
1.0
 40
1.0
 10
81.9481813742
 20
138.6112302951
 30
0.0
 10
82.1347442139
 20
138.4613047975
 30
0.0
 10
82.4852698342
 20
138.1093566285
 30
0.0
 10
82.9129380568
 20
137.4932175054
 30
0.0
 10
83.2326996808
 20
136.8147768396
 30
0.0
 10
83.3622360791
 20
136.3352379837
 30
0.0
 10
83.3987958783
 20
136.0987062194
 30
0.0
  0
SPLINE
  5
2C9
100
AcDbEntity
  8
0
100
AcDbSpline
 62
7
  6
CONTINUOUS
 70
0
 71
3
 72
11
 73
7
 74
0
 42
0.0000001
 43
0.0000001
 44
0.0000000001
 40
0.0
 40
0.0
 40
0.0
 40
0.0
 40
0.2180281072
 40
0.4532325962
 40
0.7133832017
 40
1.0
 40
1.0
 40
1.0
 40
1.0
 10
113.7091772962
 20
84.4290329917
 30
0.0
 10
113.6727883956
 20
84.401467205
 30
0.0
 10
113.6060213324
 20
84.3317421698
 30
0.0
 10
113.5355556537
 20
84.1983225622
 30
0.0
 10
113.4937953086
 20
84.0388354052
 30
0.0
 10
113.4852898356
 20
83.9240651993
 30
0.0
 10
113.4852898356
 20
83.864052856
 30
0.0
  0
SPLINE
  5
2CA
100
AcDbEntity
  8
0
100
AcDbSpline
 62
7
  6
CONTINUOUS
 70
0
 71
3
 72
11
 73
7
 74
0
 42
0.0000001
 43
0.0000001
 44
0.0000000001
 40
0.0
 40
0.0
 40
0.0
 40
0.0
 40
0.2312155103
 40
0.4707769101
 40
0.7257118246
 40
1.0
 40
1.0
 40
1.0
 40
1.0
 10
110.7807274623
 20
85.2825649556
 30
0.0
 10
110.7008274961
 20
85.236473828
 30
0.0
 10
110.5489451853
 20
85.122534788
 30
0.0
 10
110.3617745792
 20
84.8987231758
 30
0.0
 10
110.2170207751
 20
84.6262063389
 30
0.0
 10
110.1521736859
 20
84.4241274156
 30
0.0
 10
110.1265342441
 20
84.317749279
 30
0.0
  0
SPLINE
  5
2CB
100
AcDbEntity
  8
0
100
AcDbSpline
 62
7
  6
CONTINUOUS
 70
0
 71
3
 72
16
 73
12
 74
0
 42
0.0000001
 43
0.0000001
 44
0.0000000001
 40
0.0
 40
0.0
 40
0.0
 40
0.0
 40
0.128713925
 40
0.2704305119
 40
0.4176096974
 40
0.5620119138
 40
0.6957413669
 40
0.8130642226
 40
0.9124751929
 40
0.9571193531
 40
1.0
 40
1.0
 40
1.0
 40
1.0
 10
82.3019729317
 20
91.7843253582
 30
0.0
 10
82.3019729317
 20
91.6775091
 30
0.0
 10
82.3319230902
 20
91.4528408776
 30
0.0
 10
82.4433878913
 20
91.1229656565
 30
0.0
 10
82.6154222524
 20
90.8052355198
 30
0.0
 10
82.833680991
 20
90.5256648685
 30
0.0
 10
83.0811890169
 20
90.3067374087
 30
0.0
 10
83.3386646023
 20
90.1654854601
 30
0.0
 10
83.5572570404
 20
90.1227513921
 30
0.0
 10
83.7120792946
 20
90.1455374188
 30
0.0
 10
83.7799990387
 20
90.1737682172
 30
0.0
 10
83.8108304993
 20
90.1915375541
 30
0.0
  0
SPLINE
  5
2CC
100
AcDbEntity
  8
0
100
AcDbSpline
 62
7
  6
CONTINUOUS
 70
0
 71
3
 72
11
 73
7
 74
0
 42
0.0000001
 43
0.0000001
 44
0.0000000001
 40
0.0
 40
0.0
 40
0.0
 40
0.0
 40
0.289722568
 40
0.5490823274
 40
0.7822146693
 40
1.0
 40
1.0
 40
1.0
 40
1.0
 10
44.5067226052
 20
158.8628223193
 30
0.0
 10
44.711651159
 20
158.7445094402
 30
0.0
 10
45.1192770635
 20
158.550565564
 30
0.0
 10
45.7458407682
 20
158.3992954804
 30
0.0
 10
46.3336991799
 20
158.4141956549
 30
0.0
 10
46.687671277
 20
158.5425998626
 30
0.0
 10
46.8416978106
 20
158.6315687057
 30
0.0
  0
SPLINE
  5
2CD
100
AcDbEntity
  8
0
100
AcDbSpline
 62
7
  6
CONTINUOUS
 70
0
 71
3
 72
17
 73
13
 74
0
 42
0.0000001
 43
0.0000001
 44
0.0000000001
 40
0.0
 40
0.0
 40
0.0
 40
0.0
 40
0.1286937438
 40
0.2702782964
 40
0.4174340521
 40
0.5617778574
 40
0.6954482263
 40
0.8127107594
 40
0.8646769453
 40
0.9125095781
 40
0.9571396318
 40
1.0
 40
1.0
 40
1.0
 40
1.0
 10
90.5395657123
 20
135.8952898837
 30
0.0
 10
90.5395657123
 20
135.4978147733
 30
0.0
 10
90.6507503848
 20
134.6620949675
 30
0.0
 10
91.0658072733
 20
133.4350385486
 30
0.0
 10
91.7052931566
 20
132.2529791512
 30
0.0
 10
92.5178834468
 20
131.2128564088
 30
0.0
 10
93.4371653586
 20
130.3986719702
 30
0.0
 10
94.2692615597
 20
129.9437898361
 30
0.0
 10
94.920128755
 20
129.7705275552
 30
0.0
 10
95.368106608
 20
129.7376816093
 30
0.0
 10
95.7852603489
 20
129.7987187519
 30
0.0
 10
96.0379491921
 20
129.9038026604
 30
0.0
 10
96.1526017368
 20
129.9699701041
 30
0.0
  0
SPLINE
  5
2CE
100
AcDbEntity
  8
0
100
AcDbSpline
 62
7
  6
CONTINUOUS
 70
0
 71
3
 72
15
 73
11
 74
0
 42
0.0000001
 43
0.0000001
 44
0.0000000001
 40
0.0
 40
0.0
 40
0.0
 40
0.0
 40
0.116158915
 40
0.2405573229
 40
0.3705392703
 40
0.5032522009
 40
0.6355161864
 40
0.764185222
 40
0.8865048734
 40
1.0
 40
1.0
 40
1.0
 40
1.0
 10
115.1022215915
 20
121.7143547155
 30
0.0
 10
115.1138582996
 20
121.4569940444
 30
0.0
 10
115.1809750807
 20
120.9255083876
 30
0.0
 10
115.390135335
 20
120.12879054
 30
0.0
 10
115.704900208
 20
119.3280288458
 30
0.0
 10
116.1138187242
 20
118.5514257009
 30
0.0
 10
116.6028988418
 20
117.8261322853
 30
0.0
 10
117.1549176772
 20
117.1772184841
 30
0.0
 10
117.7506400246
 20
116.627837151
 30
0.0
 10
118.1816954415
 20
116.3275191969
 30
0.0
 10
118.3996888831
 20
116.2016634719
 30
0.0
  0
SPLINE
  5
2CF
100
AcDbEntity
  8
0
100
AcDbSpline
 62
7
  6
CONTINUOUS
 70
0
 71
3
 72
17
 73
13
 74
0
 42
0.0000001
 43
0.0000001
 44
0.0000000001
 40
0.0
 40
0.0
 40
0.0
 40
0.0
 40
0.1286930371
 40
0.2702795962
 40
0.4174375935
 40
0.5617786795
 40
0.6954478243
 40
0.81271112
 40
0.8646738576
 40
0.9125098523
 40
0.9571380034
 40
1.0
 40
1.0
 40
1.0
 40
1.0
 10
78.9783217061
 20
138.0792629259
 30
0.0
 10
78.9783217061
 20
137.7800906773
 30
0.0
 10
79.0620066774
 20
137.1510531965
 30
0.0
 10
79.3744151268
 20
136.2274558319
 30
0.0
 10
79.855757538
 20
135.3377387147
 30
0.0
 10
80.4674016038
 20
134.5548654161
 30
0.0
 10
81.159327131
 20
133.942074193
 30
0.0
 10
81.7856008803
 20
133.5995953445
 30
0.0
 10
82.2755177797
 20
133.4693019094
 30
0.0
 10
82.6127000833
 20
133.4444345926
 30
0.0
 10
82.9266627367
 20
133.4905293612
 30
0.0
 10
83.1169047523
 20
133.5695086395
 30
0.0
 10
83.2031898306
 20
133.6193407621
 30
0.0
  0
ELLIPSE
  5
2D0
100
AcDbEntity
  8
0
100
AcDbEllipse
 62
7
  6
CONTINUOUS
 10
165.2966058651
 20
138.3125080964
 30
0.0
 11
431.1985512651
 21
218.3816746511
 31
0.0
 40
0.0154195314
 41
1.9106910076
 42
1.9161951101
  0
ELLIPSE
  5
2D1
100
AcDbEntity
  8
0
100
AcDbEllipse
 62
7
  6
CONTINUOUS
 10
39.4945960947
 20
65.6811174419
 30
0.0
 11
9.4182638456
 21
34.0660265042
 31
0.0
 40
0.4723345422
 41
-1.2242081738
 42
-1.1061006842
  0
ELLIPSE
  5
2D2
100
AcDbEntity
  8
0
100
AcDbEllipse
 62
7
  6
CONTINUOUS
 10
200.4032478997
 20
158.5812163376
 30
0.0
 11
523.481928388
 21
332.2706336262
 31
0.0
 40
0.0143882329
 41
-1.86237405
 42
-1.8589360694
  0
ELLIPSE
  5
2D3
100
AcDbEntity
  8
0
100
AcDbEllipse
 62
7
  6
CONTINUOUS
 10
39.4945960947
 20
65.6811174419
 30
0.0
 11
30.1596598074
 21
-13.8247064692
 31
0.0
 40
0.2572960515
 41
0.7603547862
 42
0.8784622759
  0
ELLIPSE
  5
2D4
100
AcDbEntity
  8
0
100
AcDbEllipse
 62
7
  6
CONTINUOUS
 10
30.6083129557
 20
73.5114338623
 30
0.0
 11
4.0561413328
 21
1.2785335294
 31
0.0
 40
0.2192495444
 41
3.5971942183
 42
3.9787589915
  0
ELLIPSE
  5
2D5
100
AcDbEntity
  8
0
100
AcDbEllipse
 62
7
  6
CONTINUOUS
 10
37.8243539634
 20
73.6742226039
 30
0.0
 11
4.0561413328
 21
1.2785335294
 31
0.0
 40
0.2192495444
 41
3.5971942183
 42
3.9787589915
  0
ELLIPSE
  5
2D6
100
AcDbEntity
  8
0
100
AcDbEllipse
 62
7
  6
CONTINUOUS
 10
45.0403949711
 20
73.8370113456
 30
0.0
 11
4.0561413328
 21
1.2785335294
 31
0.0
 40
0.2192495444
 41
-2.6859910889
 42
-2.3044263157
  0
ELLIPSE
  5
2D7
100
AcDbEntity
  8
0
100
AcDbEllipse
 62
7
  6
CONTINUOUS
 10
165.2966058651
 20
138.3125080964
 30
0.0
 11
431.1985512651
 21
218.3816746511
 31
0.0
 40
0.0154195314
 41
-1.851758168
 42
-1.8462540655
  0
ENDSEC
  0
SECTION
  2
OBJECTS
  0
DICTIONARY
  5
C
100
AcDbDictionary
280
0
281
1
  3
ACAD_GROUP
350
D
  3
ACAD_MLINESTYLE
350
17
  3
ACAD_LAYOUT
350
1A
  3
ACAD_PLOTSETTINGS
350
19
  3
ACAD_PLOTSTYLENAME
350
E
  0
DICTIONARY
  5
D
102
{ACAD_REACTORS
330
C
102
}
100
AcDbDictionary
280
0
281
1
  0
ACDBDICTIONARYWDFLT
  5
E
102
{ACAD_REACTORS
330
C
102
}
100
AcDbDictionary
281
1
  3
Normal
350
F
100
AcDbDictionaryWithDefault
340
F
  0
DICTIONARY
  5
17
102
{ACAD_REACTORS
330
C
102
}
100
AcDbDictionary
280
0
281
1
  3
Standard
350
18
  0
DICTIONARY
  5
19
102
{ACAD_REACTORS
330
C
102
}
100
AcDbDictionary
281
1
  0
DICTIONARY
  5
1A
102
{ACAD_REACTORS
330
C
102
}
100
AcDbDictionary
281
1
  3
Model
350
2D8
  3
Layout1
350
2D9
  0
ACDBPLACEHOLDER
  5
F
102
{ACAD_REACTORS
330
E
102
}
  0
MLINESTYLE
  5
18
102
{ACAD_REACTORS
330
17
102
}
100
AcDbMlineStyle
  2
STANDARD
 70
0
  3

 62
256
 51
90.0
 52
90.0
 71
2
 49
0.5
 62
256
  6
BYLAYER
 49
-0.5
 62
256
  6
BYLAYER
  0
LAYOUT
  5
2D8
102
{ACAD_REACTORS
330
1A
102
}
100
AcDbPlotSettings
  1

  2
none_device
  4

  6

 40
0.0
 41
0.0
 42
0.0
 43
0.0
 44
210.0
 45
297.0
 46
0.0
 47
0.0
 48
0.0
 49
0.0
140
0.0
141
0.0
142
1.0
143
1.0
 70
1024
 72
1
 73
0
 74
0
  7

 75
0
147
1.0
148
0.0
149
0.0
100
AcDbLayout
  1
Model
 70
0
 71
0
 10
0.0
 20
0.0
 11
210.0
 21
297.0
 12
0.0
 22
0.0
 32
0.0
 14
0.0
 24
0.0
 34
0.0
 15
0.0
 25
0.0
 35
0.0
146
0.0
 13
0.0
 23
0.0
 33
0.0
 16
1.0
 26
0.0
 36
0.0
 17
0.0
 27
1.0
 37
0.0
 76
0
330
210
345
0
346
0
  0
LAYOUT
  5
2D9
102
{ACAD_REACTORS
330
1A
102
}
100
AcDbPlotSettings
  1

  2
none_device
  4

  6

 40
0.0
 41
0.0
 42
0.0
 43
0.0
 44
210.0
 45
297.0
 46
0.0
 47
0.0
 48
0.0
 49
0.0
140
0.0
141
0.0
142
1.0
143
1.0
 70
0
 72
1
 73
0
 74
0
  7

 75
0
147
1.0
148
0.0
149
0.0
100
AcDbLayout
  1
Layout1
 70
0
 71
1
 10
0.0
 20
0.0
 11
210.0
 21
297.0
 12
0.0
 22
0.0
 32
0.0
 14
0.0
 24
0.0
 34
0.0
 15
0.0
 25
0.0
 35
0.0
146
0.0
 13
0.0
 23
0.0
 33
0.0
 16
1.0
 26
0.0
 36
0.0
 17
0.0
 27
1.0
 37
0.0
 76
0
330
211
345
0
346
0
  0
ENDSEC
  0
EOF
