999
DXF file: C:\Users\sesa63760\OneDrive - Schneider Electric\Documents\7-Dev\_Creo\CAD\MCADPP0000215_3D-CAD\drw0001_7.dxf
999
Pro/ENGINEER 2019471 by Parametric Technology Corporation
  0
SECTION
  2
HEADER
  9
$ACADVER
  1
AC1024
  9
$DWGCODEPAGE
  3
ANSI_1252
  9
$EXTMAX
 10
48.6664235351
 20
68.8282275711
 30
0.0
  9
$EXTMIN
 10
0.0
 20
0.0
 30
0.0
  9
$LIMMIN
 10
0.0
 20
0.0
  9
$LIMMAX
 10
48.6664235351
 20
68.8282275711
  9
$VIEWCTR
 10
24.3332117676
 20
34.4141137856
  9
$VIEWSIZE
 40
68.8282275711
  9
$CLAYER
  8
0
  9
$LTSCALE
 40
4.4865807602
  9
$CELTYPE
  6
BYLAYER
  9
$DIMSCALE
 40
1.0
  9
$DIMASZ
 40
0.5793621849
  9
$DIMEXO
 40
1.0
  9
$DIMDLI
 40
3.0998194343
  9
$DIMEXE
 40
1.0
  9
$DIMCEN
 40
0.7341677608
  9
$DIMLFAC
 40
1.0
  9
$DIMBLK
  1
_FILLED
  9
$DIMALT
 70
0
  9
$DIMALTF
 40
0.0393700787
  9
$DIMTXT
 40
0.8111070589
  9
$DIMTOL
 70
1
  9
$DIMLIM
 70
0
  9
$DIMTFAC
 40
1.0
  9
$DIMTP
 40
0.01
  9
$DIMTM
 40
0.01
  9
$DIMGAP
 40
0.625
  9
$DIMDSEP
 70
46
  9
$AUNITS
 70
0
  9
$PDMODE
 70
3
  9
$PDSIZE
 40
0.3125
  9
$HANDSEED
  5
3D4
  9
$TILEMODE
 70
1
  9
$MEASUREMENT
 70
1
  9
$INSUNITS
 70
4
  0
ENDSEC
  0
SECTION
  2
CLASSES
  0
CLASS
  1
ACDBDICTIONARYWDFLT
  2
AcDbDictionaryWithDefault
  3
AutoCAD 2000
 90
0
 91
1
280
0
281
0
  0
CLASS
  1
ACDBPLACEHOLDER
  2
AcDbPlaceHolder
  3
AutoCAD 2000
 90
0
 91
1
280
0
281
0
  0
CLASS
  1
LAYOUT
  2
AcDbLayout
  3
AutoCAD 2000
 90
0
 91
0
280
0
281
0
  0
ENDSEC
  0
SECTION
  2
TABLES
  0
TABLE
  2
VPORT
  5
8
100
AcDbSymbolTable
 70
2
  0
VPORT
  5
1F4
100
AcDbSymbolTableRecord
100
AcDbViewportTableRecord
  2
*ACTIVE
 70
0
 10
0.0
 20
0.0
 11
1.0
 21
1.0
 12
24.3332117676
 22
34.4141137856
 13
0.0
 23
0.0
 14
1.0
 24
1.0
 15
0.0
 25
0.0
 16
0.0
 26
0.0
 36
1.0
 17
0.0
 27
0.0
 37
0.0
 40
68.8282275711
 41
0.7070707071
 42
50.0
 43
0.0
 44
0.0
 50
0.0
 51
0.0
 71
0
 72
100
 73
1
 74
1
 75
0
 76
0
 77
0
 78
0
  0
ENDTAB
  0
TABLE
  2
LTYPE
  5
5
100
AcDbSymbolTable
 70
6
  0
LTYPE
  5
14
100
AcDbSymbolTableRecord
100
AcDbLinetypeTableRecord
  2
BYBLOCK
 70
0
  3

 72
65
 73
0
 40
0.0
  0
LTYPE
  5
15
100
AcDbSymbolTableRecord
100
AcDbLinetypeTableRecord
  2
BYLAYER
 70
0
  3

 72
65
 73
0
 40
0.0
  0
LTYPE
  5
16
100
AcDbSymbolTableRecord
100
AcDbLinetypeTableRecord
  2
CONTINUOUS
 70
64
  3
Solid line
 72
65
 73
0
 40
0.0
  0
LTYPE
  5
1F5
100
AcDbSymbolTableRecord
100
AcDbLinetypeTableRecord
  2
CENTER
 70
64
  3
____ _ ____ _ ____ _ ____ _ ____ _ ____ _ ____
 72
65
 73
4
 40
0.6
 49
0.375
 74
0
 49
-0.075
 74
0
 49
0.075
 74
0
 49
-0.075
 74
0
  0
LTYPE
  5
1F6
100
AcDbSymbolTableRecord
100
AcDbLinetypeTableRecord
  2
HIDDEN
 70
64
  3
- - - - - - - - - - - - - - - - - - - -
 72
65
 73
2
 40
0.2
 49
0.1
 74
0
 49
-0.1
 74
0
  0
LTYPE
  5
1F7
100
AcDbSymbolTableRecord
100
AcDbLinetypeTableRecord
  2
PHANTOM
 70
64
  3
_____ _ _ _____ _ _ _____ _ _ _____
 72
65
 73
6
 40
0.8
 49
0.45
 74
0
 49
-0.05
 74
0
 49
0.1
 74
0
 49
-0.05
 74
0
 49
0.1
 74
0
 49
-0.05
 74
0
  0
LTYPE
  5
1F8
100
AcDbSymbolTableRecord
100
AcDbLinetypeTableRecord
  2
DOT
 70
64
  3
. . . . . . . . . . . . . . . . . . . .
 72
65
 73
2
 40
0.2
 49
0.1
 74
0
 49
-0.1
 74
0
  0
LTYPE
  5
1F9
100
AcDbSymbolTableRecord
100
AcDbLinetypeTableRecord
  2
DASHED
 70
64
  3
- - - - - - - - - - - - - - - - - - - -
 72
65
 73
2
 40
0.2
 49
0.1
 74
0
 49
-0.1
 74
0
  0
ENDTAB
  0
TABLE
  2
LAYER
  5
2
100
AcDbSymbolTable
 70
36
  0
LAYER
  5
10
100
AcDbSymbolTableRecord
100
AcDbLayerTableRecord
  2
0
 70
0
 62
7
  6
CONTINUOUS
370
-3
390
F
  0
LAYER
  5
1FA
100
AcDbSymbolTableRecord
100
AcDbLayerTableRecord
  2
DEFAULT_1
 70
0
 62
7
  6
CENTER
370
-3
390
F
  0
LAYER
  5
1FB
100
AcDbSymbolTableRecord
100
AcDbLayerTableRecord
  2
DEFAULT_2
 70
0
 62
8
  6
HIDDEN
370
-3
390
F
  0
LAYER
  5
1FC
100
AcDbSymbolTableRecord
100
AcDbLayerTableRecord
  2
DEFAULT_3
 70
0
 62
7
  6
PHANTOM
370
-3
390
F
  0
LAYER
  5
1FD
100
AcDbSymbolTableRecord
100
AcDbLayerTableRecord
  2
00_COMPONENTS
 70
0
 62
7
  6
CONTINUOUS
370
-3
390
F
  0
LAYER
  5
1FE
100
AcDbSymbolTableRecord
100
AcDbLayerTableRecord
  2
01_1_DEFAULT_DATUMS
 70
0
 62
7
  6
CONTINUOUS
370
-3
390
F
  0
LAYER
  5
1FF
100
AcDbSymbolTableRecord
100
AcDbLayerTableRecord
  2
01_PLANES
 70
0
 62
7
  6
CONTINUOUS
370
-3
390
F
  0
LAYER
  5
200
100
AcDbSymbolTableRecord
100
AcDbLayerTableRecord
  2
02_COORD_SYS
 70
0
 62
7
  6
CONTINUOUS
370
-3
390
F
  0
LAYER
  5
201
100
AcDbSymbolTableRecord
100
AcDbLayerTableRecord
  2
03_AXES
 70
0
 62
7
  6
CONTINUOUS
370
-3
390
F
  0
LAYER
  5
202
100
AcDbSymbolTableRecord
100
AcDbLayerTableRecord
  2
04_POINTS
 70
0
 62
7
  6
CONTINUOUS
370
-3
390
F
  0
LAYER
  5
203
100
AcDbSymbolTableRecord
100
AcDbLayerTableRecord
  2
05_CURVES
 70
0
 62
7
  6
CONTINUOUS
370
-3
390
F
  0
LAYER
  5
204
100
AcDbSymbolTableRecord
100
AcDbLayerTableRecord
  2
06_SURFS
 70
0
 62
7
  6
CONTINUOUS
370
-3
390
F
  0
LAYER
  5
205
100
AcDbSymbolTableRecord
100
AcDbLayerTableRecord
  2
07_COSMETICS
 70
0
 62
7
  6
CONTINUOUS
370
-3
390
F
  0
LAYER
  5
206
100
AcDbSymbolTableRecord
100
AcDbLayerTableRecord
  2
10_NOTES
 70
0
 62
7
  6
CONTINUOUS
370
-3
390
F
  0
LAYER
  5
207
100
AcDbSymbolTableRecord
100
AcDbLayerTableRecord
  2
11_NOTES_PUB
 70
0
 62
7
  6
CONTINUOUS
370
-3
390
F
  0
LAYER
  5
208
100
AcDbSymbolTableRecord
100
AcDbLayerTableRecord
  2
13_REF_GTOL
 70
0
 62
7
  6
CONTINUOUS
370
-3
390
F
  0
LAYER
  5
209
100
AcDbSymbolTableRecord
100
AcDbLayerTableRecord
  2
16_MISC
 70
0
 62
7
  6
CONTINUOUS
370
-3
390
F
  0
LAYER
  5
20A
100
AcDbSymbolTableRecord
100
AcDbLayerTableRecord
  2
17_NO_PRINT
 70
0
 62
7
  6
CONTINUOUS
370
-3
390
F
  0
LAYER
  5
20B
100
AcDbSymbolTableRecord
100
AcDbLayerTableRecord
  2
18_DATUM_CAMS_JOINTS
 70
0
 62
7
  6
CONTINUOUS
370
-3
390
F
  0
LAYER
  5
20C
100
AcDbSymbolTableRecord
100
AcDbLayerTableRecord
  2
19_DATUM_FUNCTIONAL
 70
0
 62
7
  6
CONTINUOUS
370
-3
390
F
  0
LAYER
  5
20D
100
AcDbSymbolTableRecord
100
AcDbLayerTableRecord
  2
20_DATUM_KINEMATIC_SCHEME
 70
0
 62
7
  6
CONTINUOUS
370
-3
390
F
  0
ENDTAB
  0
TABLE
  2
STYLE
  5
3
100
AcDbSymbolTable
 70
1
  0
STYLE
  5
11
100
AcDbSymbolTableRecord
100
AcDbTextStyleTableRecord
  2
STANDARD
 70
0
 40
0.0
 41
0.8
 50
0.0
 71
0
 42
0.2
  3
txt
  4

  0
STYLE
  5
20E
100
AcDbSymbolTableRecord
100
AcDbTextStyleTableRecord
  2
TEXTSTYLE_1
 70
0
 40
0.0
 41
0.8
 50
0.0
 71
0
 42
0.2
  3
gdt
  4

  0
ENDTAB
  0
TABLE
  2
VIEW
  5
6
100
AcDbSymbolTable
 70
0
  0
ENDTAB
  0
TABLE
  2
UCS
  5
7
100
AcDbSymbolTable
 70
0
  0
ENDTAB
  0
TABLE
  2
APPID
  5
9
100
AcDbSymbolTable
 70
1
  0
APPID
  5
20F
100
AcDbSymbolTableRecord
100
AcDbRegAppTableRecord
  2
ACAD
 70
0
  0
ENDTAB
  0
TABLE
  2
BLOCK_RECORD
  5
1
100
AcDbSymbolTable
 70
0
  0
BLOCK_RECORD
  5
210
100
AcDbSymbolTableRecord
100
AcDbBlockTableRecord
  2
*Model_Space
  0
BLOCK_RECORD
  5
211
100
AcDbSymbolTableRecord
100
AcDbBlockTableRecord
  2
*Paper_Space
  0
BLOCK_RECORD
  5
212
100
AcDbSymbolTableRecord
100
AcDbBlockTableRecord
  2
_FILLED
  0
ENDTAB
  0
TABLE
  2
DIMSTYLE
  5
A
100
AcDbSymbolTable
 70
1
100
AcDbDimStyleTable
 71
0
  0
DIMSTYLE
105
213
100
AcDbSymbolTableRecord
100
AcDbDimStyleTableRecord
  2
STANDARD
 70
0
  3

  4

 40
1.0
 41
0.5793621849
 42
1.0
 43
0.38
 44
1.0
 45
0.0
 46
0.0
 47
0.01
 48
0.01
140
0.8111070589
141
0.09
142
0.0
143
25.4
144
1.0
145
0.0
146
1.0
147
0.625
 71
1
 72
0
 73
0
 74
0
 75
0
 76
0
 77
1
 78
8
 79
2
170
0
171
1
172
0
173
0
174
0
175
0
176
0
177
0
178
0
270
2
179
2
271
2
272
2
273
2
274
2
275
0
280
0
281
0
282
0
283
1
284
8
285
0
286
0
287
3
288
0
340
11
278
46
341
212
342
212
343
212
344
212
  0
ENDTAB
  0
ENDSEC
  0
SECTION
  2
BLOCKS
  0
BLOCK
  5
20
100
AcDbEntity
  8
0
100
AcDbBlockBegin
  2
*Model_Space
 70
0
 10
0.0
 20
0.0
 30
0.0
  3
*Model_Space
  1

  0
ENDBLK
  5
21
100
AcDbEntity
  8
0
100
AcDbBlockEnd
  0
BLOCK
  5
1C
100
AcDbEntity
  8
0
100
AcDbBlockBegin
  2
*Paper_Space
 70
0
 10
0.0
 20
0.0
 30
0.0
  3
*Paper_Space
  1

  0
ENDBLK
  5
1D
100
AcDbEntity
  8
0
100
AcDbBlockEnd
  0
BLOCK
  5
214
100
AcDbEntity
  8
0
100
AcDbBlockBegin
  2
_FILLED
 70
64
 10
0.0
 20
0.0
  3
_FILLED
  1

  0
SOLID
  5
215
100
AcDbEntity
  8
0
  6
BYBLOCK
 62
0
100
AcDbTrace
 10
0.0
 20
0.0
 11
-1.0
 21
0.25
 12
-1.0
 22
-0.25
 13
-1.0
 23
-0.25
  0
ENDBLK
  5
216
100
AcDbEntity
  8
0
  6
BYBLOCK
 62
0
100
AcDbBlockEnd
  0
ENDSEC
  0
SECTION
  2
ENTITIES
  0
LINE
  5
217
100
AcDbEntity
  8
0
100
AcDbLine
 62
7
  6
CONTINUOUS
 10
7.6380450794
 20
15.5326039387
 11
7.4174568442
 21
15.7826039387
  0
LINE
  5
218
100
AcDbEntity
  8
0
100
AcDbLine
 62
7
  6
CONTINUOUS
 10
8.9174568442
 20
50.6326039387
 11
11.7674568442
 21
53.4034372721
  0
LINE
  5
219
100
AcDbEntity
  8
0
100
AcDbLine
 62
7
  6
CONTINUOUS
 10
5.6674568442
 20
47.8326039387
 11
8.9174568442
 21
50.6326039387
  0
LINE
  5
21A
100
AcDbEntity
  8
0
100
AcDbLine
 62
7
  6
CONTINUOUS
 10
7.4174568442
 20
12.0826039387
 11
8.1274568442
 21
12.0826039387
  0
LINE
  5
21B
100
AcDbEntity
  8
0
100
AcDbLine
 62
7
  6
CONTINUOUS
 10
8.6074568442
 20
12.0826039387
 11
9.2074568442
 21
12.0826039387
  0
LINE
  5
21C
100
AcDbEntity
  8
0
100
AcDbLine
 62
7
  6
CONTINUOUS
 10
9.7074568442
 20
12.0826039387
 11
10.4174568442
 21
12.0826039387
  0
LINE
  5
21D
100
AcDbEntity
  8
0
100
AcDbLine
 62
7
  6
CONTINUOUS
 10
7.2374568442
 20
12.6026039387
 11
38.5674568442
 21
12.6026039387
  0
LINE
  5
21E
100
AcDbEntity
  8
0
100
AcDbLine
 62
7
  6
CONTINUOUS
 10
7.2374568442
 20
12.9326039387
 11
6.3174568442
 21
12.9326039387
  0
LINE
  5
21F
100
AcDbEntity
  8
0
100
AcDbLine
 62
7
  6
CONTINUOUS
 10
17.2924568442
 20
13.6326039387
 11
25.2424568442
 21
13.6326039387
  0
LINE
  5
220
100
AcDbEntity
  8
0
100
AcDbLine
 62
7
  6
CONTINUOUS
 10
5.6174568442
 20
13.7026039387
 11
17.2924568442
 21
13.7026039387
  0
LINE
  5
221
100
AcDbEntity
  8
0
100
AcDbLine
 62
7
  6
CONTINUOUS
 10
25.2424568442
 20
13.7026039387
 11
38.0674568442
 21
13.7026039387
  0
LINE
  5
222
100
AcDbEntity
  8
0
100
AcDbLine
 62
7
  6
CONTINUOUS
 10
38.7174568442
 20
13.7026039387
 11
39.5674568442
 21
13.7026039387
  0
LINE
  5
223
100
AcDbEntity
  8
0
100
AcDbLine
 62
7
  6
CONTINUOUS
 10
36.8974568442
 20
13.8826039387
 11
35.3674568442
 21
13.8826039387
  0
LINE
  5
224
100
AcDbEntity
  8
0
100
AcDbLine
 62
7
  6
CONTINUOUS
 10
7.1674568442
 20
13.8826039387
 11
5.6374568442
 21
13.8826039387
  0
LINE
  5
225
100
AcDbEntity
  8
0
100
AcDbLine
 62
7
  6
CONTINUOUS
 10
5.6174568442
 20
13.9526039387
 11
5.6374568442
 21
13.9526039387
  0
LINE
  5
226
100
AcDbEntity
  8
0
100
AcDbLine
 62
7
  6
CONTINUOUS
 10
7.1674568442
 20
13.9526039387
 11
17.2924568442
 21
13.9526039387
  0
LINE
  5
227
100
AcDbEntity
  8
0
100
AcDbLine
 62
7
  6
CONTINUOUS
 10
25.2424568442
 20
13.9526039387
 11
35.3674568442
 21
13.9526039387
  0
LINE
  5
228
100
AcDbEntity
  8
0
100
AcDbLine
 62
7
  6
CONTINUOUS
 10
36.8974568442
 20
13.9526039387
 11
38.0674568442
 21
13.9526039387
  0
LINE
  5
229
100
AcDbEntity
  8
0
100
AcDbLine
 62
7
  6
CONTINUOUS
 10
37.3674568442
 20
14.0326039387
 11
36.8974568442
 21
14.0326039387
  0
LINE
  5
22A
100
AcDbEntity
  8
0
100
AcDbLine
 62
7
  6
CONTINUOUS
 10
5.6374568442
 20
14.0326039387
 11
5.1674568442
 21
14.0326039387
  0
LINE
  5
22B
100
AcDbEntity
  8
0
100
AcDbLine
 62
7
  6
CONTINUOUS
 10
7.1674568442
 20
14.0326039387
 11
35.3674568442
 21
14.0326039387
  0
LINE
  5
22C
100
AcDbEntity
  8
0
100
AcDbLine
 62
7
  6
CONTINUOUS
 10
5.6374568442
 20
14.3826039387
 11
7.1674568442
 21
14.3826039387
  0
LINE
  5
22D
100
AcDbEntity
  8
0
100
AcDbLine
 62
7
  6
CONTINUOUS
 10
35.3674568442
 20
14.3826039387
 11
36.8974568442
 21
14.3826039387
  0
LINE
  5
22E
100
AcDbEntity
  8
0
100
AcDbLine
 62
7
  6
CONTINUOUS
 10
5.1674568442
 20
40.2826039387
 11
5.1674568442
 21
38.7826039387
  0
LINE
  5
22F
100
AcDbEntity
  8
0
100
AcDbLine
 62
7
  6
CONTINUOUS
 10
5.1674568442
 20
14.0326039387
 11
5.1674568442
 21
15.5326039387
  0
LINE
  5
230
100
AcDbEntity
  8
0
100
AcDbLine
 62
7
  6
CONTINUOUS
 10
5.5374568442
 20
41.0326039387
 11
5.5374568442
 21
16.0326039387
  0
LINE
  5
231
100
AcDbEntity
  8
0
100
AcDbLine
 62
7
  6
CONTINUOUS
 10
5.6174568442
 20
13.6326039387
 11
5.6174568442
 21
14.0326039387
  0
LINE
  5
232
100
AcDbEntity
  8
0
100
AcDbLine
 62
7
  6
CONTINUOUS
 10
5.6174568442
 20
15.5326039387
 11
5.6174568442
 21
16.0326039387
  0
LINE
  5
233
100
AcDbEntity
  8
0
100
AcDbLine
 62
7
  6
CONTINUOUS
 10
5.6374568442
 20
52.4326039387
 11
5.6374568442
 21
13.8826039387
  0
LINE
  5
234
100
AcDbEntity
  8
0
100
AcDbLine
 62
7
  6
CONTINUOUS
 10
5.6674568442
 20
20.8826039387
 11
5.6674568442
 21
51.6326039387
  0
LINE
  5
235
100
AcDbEntity
  8
0
100
AcDbLine
 62
7
  6
CONTINUOUS
 10
37.3674568442
 20
15.5326039387
 11
36.8974568442
 21
15.5326039387
  0
LINE
  5
236
100
AcDbEntity
  8
0
100
AcDbLine
 62
7
  6
CONTINUOUS
 10
5.6374568442
 20
15.5326039387
 11
5.1674568442
 21
15.5326039387
  0
LINE
  5
237
100
AcDbEntity
  8
0
100
AcDbLine
 62
7
  6
CONTINUOUS
 10
7.1674568442
 20
15.5326039387
 11
35.3674568442
 21
15.5326039387
  0
LINE
  5
238
100
AcDbEntity
  8
0
100
AcDbLine
 62
7
  6
CONTINUOUS
 10
22.0674568442
 20
15.6326039387
 11
20.4674568442
 21
15.6326039387
  0
LINE
  5
239
100
AcDbEntity
  8
0
100
AcDbLine
 62
7
  6
CONTINUOUS
 10
35.1674568442
 20
15.7826039387
 11
34.7674568442
 21
15.7826039387
  0
LINE
  5
23A
100
AcDbEntity
  8
0
100
AcDbLine
 62
7
  6
CONTINUOUS
 10
7.7674568442
 20
15.7826039387
 11
7.4174568442
 21
15.7826039387
  0
LINE
  5
23B
100
AcDbEntity
  8
0
100
AcDbLine
 62
7
  6
CONTINUOUS
 10
5.6374568442
 20
16.0326039387
 11
5.5374568442
 21
16.0326039387
  0
LINE
  5
23C
100
AcDbEntity
  8
0
100
AcDbLine
 62
7
  6
CONTINUOUS
 10
16.3674568442
 20
16.1326039387
 11
25.2674568442
 21
16.1326039387
  0
LINE
  5
23D
100
AcDbEntity
  8
0
100
AcDbLine
 62
7
  6
CONTINUOUS
 10
17.2674568442
 20
16.5326039387
 11
25.0725409858
 21
16.5326039387
  0
LINE
  5
23E
100
AcDbEntity
  8
0
100
AcDbLine
 62
7
  6
CONTINUOUS
 10
25.1174564545
 20
16.5326039387
 11
25.2674568442
 21
16.5326039387
  0
LINE
  5
23F
100
AcDbEntity
  8
0
100
AcDbLine
 62
7
  6
CONTINUOUS
 10
16.3674568442
 20
16.1326039387
 11
15.3674568442
 21
17.1326039387
  0
LINE
  5
240
100
AcDbEntity
  8
0
100
AcDbLine
 62
7
  6
CONTINUOUS
 10
7.1674568442
 20
46.3326039387
 11
7.1674568442
 21
45.8812592079
  0
LINE
  5
241
100
AcDbEntity
  8
0
100
AcDbLine
 62
7
  6
CONTINUOUS
 10
7.1674568442
 20
13.8826039387
 11
7.1674568442
 21
20.8826039387
  0
LINE
  5
242
100
AcDbEntity
  8
0
100
AcDbLine
 62
7
  6
CONTINUOUS
 10
7.1674568442
 20
52.0702640209
 11
7.1674568442
 21
52.4326039387
  0
LINE
  5
243
100
AcDbEntity
  8
0
100
AcDbLine
 62
7
  6
CONTINUOUS
 10
7.2374568442
 20
12.9326039387
 11
7.2374568442
 21
12.6026039387
  0
LINE
  5
244
100
AcDbEntity
  8
0
100
AcDbLine
 62
7
  6
CONTINUOUS
 10
7.2674568442
 20
52.1125400945
 11
7.2674568442
 21
52.0899297469
  0
LINE
  5
245
100
AcDbEntity
  8
0
100
AcDbLine
 62
7
  6
CONTINUOUS
 10
7.2674568442
 20
36.5826039387
 11
7.2674568442
 21
37.8826039387
  0
LINE
  5
246
100
AcDbEntity
  8
0
100
AcDbLine
 62
7
  6
CONTINUOUS
 10
7.4174568442
 20
12.0826039387
 11
7.4174568442
 21
12.6026039387
  0
LINE
  5
247
100
AcDbEntity
  8
0
100
AcDbLine
 62
7
  6
CONTINUOUS
 10
7.4174568442
 20
15.7826039387
 11
7.4174568442
 21
20.8826039387
  0
LINE
  5
248
100
AcDbEntity
  8
0
100
AcDbLine
 62
7
  6
CONTINUOUS
 10
7.6174568442
 20
20.8826039387
 11
7.6174568442
 21
17.1326039387
  0
LINE
  5
249
100
AcDbEntity
  8
0
100
AcDbLine
 62
7
  6
CONTINUOUS
 10
7.7674568442
 20
15.5326039387
 11
7.7674568442
 21
17.1326039387
  0
LINE
  5
24A
100
AcDbEntity
  8
0
100
AcDbLine
 62
7
  6
CONTINUOUS
 10
7.9674568442
 20
44.6826039387
 11
7.9674568442
 21
30.8826039387
  0
LINE
  5
24B
100
AcDbEntity
  8
0
100
AcDbLine
 62
7
  6
CONTINUOUS
 10
8.0174568442
 20
14.0326039387
 11
8.0174568442
 21
13.7026039387
  0
LINE
  5
24C
100
AcDbEntity
  8
0
100
AcDbLine
 62
7
  6
CONTINUOUS
 10
8.1274568442
 20
12.0826039387
 11
8.1274568442
 21
12.6026039387
  0
LINE
  5
24D
100
AcDbEntity
  8
0
100
AcDbLine
 62
7
  6
CONTINUOUS
 10
8.6074568442
 20
12.0826039387
 11
8.6074568442
 21
12.6026039387
  0
LINE
  5
24E
100
AcDbEntity
  8
0
100
AcDbLine
 62
7
  6
CONTINUOUS
 10
8.7674568442
 20
30.8826039387
 11
8.7674568442
 21
20.8826039387
  0
LINE
  5
24F
100
AcDbEntity
  8
0
100
AcDbLine
 62
7
  6
CONTINUOUS
 10
8.7674568442
 20
32.843928583
 11
8.7674568442
 21
45.9651117057
  0
LINE
  5
250
100
AcDbEntity
  8
0
100
AcDbLine
 62
7
  6
CONTINUOUS
 10
8.7997653905
 20
14.0326039387
 11
8.7997653905
 21
15.5326039387
  0
LINE
  5
251
100
AcDbEntity
  8
0
100
AcDbLine
 62
7
  6
CONTINUOUS
 10
16.7685524651
 20
50.0179787448
 11
16.9674568442
 21
50.2168831239
  0
LINE
  5
252
100
AcDbEntity
  8
0
100
AcDbLine
 62
7
  6
CONTINUOUS
 10
13.4674568442
 20
46.0326039387
 11
13.6674568442
 21
46.2326039387
  0
LINE
  5
253
100
AcDbEntity
  8
0
100
AcDbLine
 62
7
  6
CONTINUOUS
 10
34.7674568442
 20
17.1326039387
 11
25.1174568442
 21
17.1326039387
  0
LINE
  5
254
100
AcDbEntity
  8
0
100
AcDbLine
 62
7
  6
CONTINUOUS
 10
7.6174568442
 20
17.1326039387
 11
7.744645596
 21
17.1326039387
  0
LINE
  5
255
100
AcDbEntity
  8
0
100
AcDbLine
 62
7
  6
CONTINUOUS
 10
7.7674568442
 20
17.1326039387
 11
24.9755560877
 21
17.1326039387
  0
LINE
  5
256
100
AcDbEntity
  8
0
100
AcDbLine
 62
7
  6
CONTINUOUS
 10
34.7897284844
 20
17.1326039387
 11
34.9174568442
 21
17.1326039387
  0
LINE
  5
257
100
AcDbEntity
  8
0
100
AcDbLine
 62
7
  6
CONTINUOUS
 10
5.5374568442
 20
17.5326039387
 11
5.6374568442
 21
17.5326039387
  0
LINE
  5
258
100
AcDbEntity
  8
0
100
AcDbLine
 62
7
  6
CONTINUOUS
 10
38.7174568442
 20
17.7485311086
 11
39.5674568442
 21
17.7485311086
  0
LINE
  5
259
100
AcDbEntity
  8
0
100
AcDbLine
 62
7
  6
CONTINUOUS
 10
20.2674568442
 20
18.2326039387
 11
22.2674568442
 21
18.2326039387
  0
LINE
  5
25A
100
AcDbEntity
  8
0
100
AcDbLine
 62
7
  6
CONTINUOUS
 10
38.0674568442
 20
18.2577658458
 11
36.9174568442
 21
18.2577658458
  0
LINE
  5
25B
100
AcDbEntity
  8
0
100
AcDbLine
 62
7
  6
CONTINUOUS
 10
8.9174568442
 20
43.754857399
 11
8.9174568442
 21
50.6326039387
  0
LINE
  5
25C
100
AcDbEntity
  8
0
100
AcDbLine
 62
7
  6
CONTINUOUS
 10
9.2074568442
 20
12.0826039387
 11
9.2074568442
 21
12.6026039387
  0
LINE
  5
25D
100
AcDbEntity
  8
0
100
AcDbLine
 62
7
  6
CONTINUOUS
 10
9.7074568442
 20
12.0826039387
 11
9.7074568442
 21
12.6026039387
  0
LINE
  5
25E
100
AcDbEntity
  8
0
100
AcDbLine
 62
7
  6
CONTINUOUS
 10
9.767456854
 20
42.6826039387
 11
9.7674569005
 21
40.5865317626
  0
LINE
  5
25F
100
AcDbEntity
  8
0
100
AcDbLine
 62
7
  6
CONTINUOUS
 10
10.4174568442
 20
12.0826039387
 11
10.4174568442
 21
12.6026039387
  0
LINE
  5
260
100
AcDbEntity
  8
0
100
AcDbLine
 62
7
  6
CONTINUOUS
 10
10.7674568442
 20
40.9774965538
 11
10.7674568442
 21
40.1439287113
  0
LINE
  5
261
100
AcDbEntity
  8
0
100
AcDbLine
 62
7
  6
CONTINUOUS
 10
10.7674568442
 20
36.8212791661
 11
10.7674568442
 21
25.5439287113
  0
LINE
  5
262
100
AcDbEntity
  8
0
100
AcDbLine
 62
7
  6
CONTINUOUS
 10
10.7674568442
 20
22.2212791662
 11
10.7674568442
 21
21.5947465815
  0
LINE
  5
263
100
AcDbEntity
  8
0
100
AcDbLine
 62
7
  6
CONTINUOUS
 10
10.6159920824
 20
42.6826039387
 11
10.5006124637
 21
41.9255283083
  0
LINE
  5
264
100
AcDbEntity
  8
0
100
AcDbLine
 62
7
  6
CONTINUOUS
 10
10.8897042115
 20
41.6660058496
 11
11.0174568442
 21
42.0144221205
  0
LINE
  5
265
100
AcDbEntity
  8
0
100
AcDbLine
 62
7
  6
CONTINUOUS
 10
7.4174568442
 20
19.1026039387
 11
7.1674568442
 21
19.1026039387
  0
LINE
  5
266
100
AcDbEntity
  8
0
100
AcDbLine
 62
7
  6
CONTINUOUS
 10
39.5474568442
 20
19.3738946931
 11
37.4474568442
 21
19.3738946931
  0
LINE
  5
267
100
AcDbEntity
  8
0
100
AcDbLine
 62
7
  6
CONTINUOUS
 10
5.6674568442
 20
20.8826039387
 11
10.0871169567
 21
20.8826039387
  0
LINE
  5
268
100
AcDbEntity
  8
0
100
AcDbLine
 62
7
  6
CONTINUOUS
 10
32.4477967317
 20
20.8826039387
 11
38.5674568442
 21
20.8826039387
  0
LINE
  5
269
100
AcDbEntity
  8
0
100
AcDbLine
 62
7
  6
CONTINUOUS
 10
10.9648289
 20
15.5326039387
 11
10.9648289
 21
14.0326039387
  0
LINE
  5
26A
100
AcDbEntity
  8
0
100
AcDbLine
 62
7
  6
CONTINUOUS
 10
11.0174568442
 20
26.8326039387
 11
11.0174568442
 21
44.3326039387
  0
LINE
  5
26B
100
AcDbEntity
  8
0
100
AcDbLine
 62
7
  6
CONTINUOUS
 10
11.7674568442
 20
45.2945444077
 11
11.7674568442
 21
55.4826039387
  0
LINE
  5
26C
100
AcDbEntity
  8
0
100
AcDbLine
 62
7
  6
CONTINUOUS
 10
11.7731192769
 20
14.0326039387
 11
11.7731192769
 21
15.5326039387
  0
LINE
  5
26D
100
AcDbEntity
  8
0
100
AcDbLine
 62
7
  6
CONTINUOUS
 10
11.8674568442
 20
45.3156186683
 11
11.8674568442
 21
55.4826039387
  0
LINE
  5
26E
100
AcDbEntity
  8
0
100
AcDbLine
 62
7
  6
CONTINUOUS
 10
12.2061319787
 20
15.5326039387
 11
12.2061319787
 21
14.0326039387
  0
LINE
  5
26F
100
AcDbEntity
  8
0
100
AcDbLine
 62
7
  6
CONTINUOUS
 10
20.2674568442
 20
21.2326039387
 11
22.2674568442
 21
21.2326039387
  0
LINE
  5
270
100
AcDbEntity
  8
0
100
AcDbLine
 62
7
  6
CONTINUOUS
 10
22.0674568442
 20
21.6826039387
 11
20.4674568442
 21
21.6826039387
  0
LINE
  5
271
100
AcDbEntity
  8
0
100
AcDbLine
 62
7
  6
CONTINUOUS
 10
39.5474568442
 20
21.9026039387
 11
39.5674568442
 21
21.9026039387
  0
LINE
  5
272
100
AcDbEntity
  8
0
100
AcDbLine
 62
7
  6
CONTINUOUS
 10
38.5674568442
 20
22.3627530591
 11
39.5474568442
 21
22.3627530591
  0
LINE
  5
273
100
AcDbEntity
  8
0
100
AcDbLine
 62
7
  6
CONTINUOUS
 10
13.3674568442
 20
53.4826039288
 11
13.3674568442
 21
55.4826039387
  0
LINE
  5
274
100
AcDbEntity
  8
0
100
AcDbLine
 62
7
  6
CONTINUOUS
 10
13.4674568442
 20
57.0826039387
 11
13.4674568442
 21
56.5826039387
  0
LINE
  5
275
100
AcDbEntity
  8
0
100
AcDbLine
 62
7
  6
CONTINUOUS
 10
13.4674568442
 20
46.0326039387
 11
13.4674568442
 21
50.2168831239
  0
LINE
  5
276
100
AcDbEntity
  8
0
100
AcDbLine
 62
7
  6
CONTINUOUS
 10
13.6674568442
 20
50.015781468
 11
13.6674568442
 21
46.2326039387
  0
LINE
  5
277
100
AcDbEntity
  8
0
100
AcDbLine
 62
7
  6
CONTINUOUS
 10
13.6674568442
 20
53.4826039388
 11
13.6674568442
 21
55.1826039387
  0
LINE
  5
278
100
AcDbEntity
  8
0
100
AcDbLine
 62
7
  6
CONTINUOUS
 10
14.2674568442
 20
54.5073488101
 11
14.2674568442
 21
52.4578590673
  0
LINE
  5
279
100
AcDbEntity
  8
0
100
AcDbLine
 62
7
  6
CONTINUOUS
 10
26.8174568442
 20
52.9326039387
 11
26.3683387487
 21
52.4834858432
  0
LINE
  5
27A
100
AcDbEntity
  8
0
100
AcDbLine
 62
7
  6
CONTINUOUS
 10
5.6674568442
 20
24.5401101577
 11
5.6374568442
 21
24.5401101577
  0
LINE
  5
27B
100
AcDbEntity
  8
0
100
AcDbLine
 62
7
  6
CONTINUOUS
 10
9.4174568442
 20
42.6826039387
 11
8.9174568442
 21
43.754857399
  0
LINE
  5
27C
100
AcDbEntity
  8
0
100
AcDbLine
 62
7
  6
CONTINUOUS
 10
15.7174568442
 20
52.9326039387
 11
15.7174568442
 21
53.9826039387
  0
LINE
  5
27D
100
AcDbEntity
  8
0
100
AcDbLine
 62
7
  6
CONTINUOUS
 10
16.1674568442
 20
52.4578590673
 11
16.1674568442
 21
54.5073488101
  0
LINE
  5
27E
100
AcDbEntity
  8
0
100
AcDbLine
 62
7
  6
CONTINUOUS
 10
16.7674568442
 20
46.2326039387
 11
16.7674568442
 21
50.015781468
  0
LINE
  5
27F
100
AcDbEntity
  8
0
100
AcDbLine
 62
7
  6
CONTINUOUS
 10
28.8685524651
 20
50.0179787448
 11
29.0674568442
 21
50.2168831239
  0
LINE
  5
280
100
AcDbEntity
  8
0
100
AcDbLine
 62
7
  6
CONTINUOUS
 10
5.6374568442
 20
25.0376287528
 11
5.6674568442
 21
25.0376287528
  0
LINE
  5
281
100
AcDbEntity
  8
0
100
AcDbLine
 62
7
  6
CONTINUOUS
 10
5.6674568442
 20
25.3200915317
 11
5.6374568442
 21
25.3200915317
  0
LINE
  5
282
100
AcDbEntity
  8
0
100
AcDbLine
 62
7
  6
CONTINUOUS
 10
5.6374568442
 20
25.5688508293
 11
5.6674568442
 21
25.5688508293
  0
LINE
  5
283
100
AcDbEntity
  8
0
100
AcDbLine
 62
7
  6
CONTINUOUS
 10
30.5174568442
 20
25.8326039387
 11
12.0174568442
 21
25.8326039387
  0
LINE
  5
284
100
AcDbEntity
  8
0
100
AcDbLine
 62
7
  6
CONTINUOUS
 10
5.6674568442
 20
26.6426039387
 11
5.6374568442
 21
26.6426039387
  0
LINE
  5
285
100
AcDbEntity
  8
0
100
AcDbLine
 62
7
  6
CONTINUOUS
 10
5.6674568442
 20
26.8926039387
 11
5.6374568442
 21
26.8926039387
  0
LINE
  5
286
100
AcDbEntity
  8
0
100
AcDbLine
 62
7
  6
CONTINUOUS
 10
16.9674568442
 20
50.2168831239
 11
16.9674568442
 21
46.0326039387
  0
LINE
  5
287
100
AcDbEntity
  8
0
100
AcDbLine
 62
7
  6
CONTINUOUS
 10
17.2674568442
 20
16.5326039387
 11
17.2674568442
 21
17.1326039387
  0
LINE
  5
288
100
AcDbEntity
  8
0
100
AcDbLine
 62
7
  6
CONTINUOUS
 10
17.2924568442
 20
14.0326039387
 11
17.2924568442
 21
13.6326039387
  0
LINE
  5
289
100
AcDbEntity
  8
0
100
AcDbLine
 62
7
  6
CONTINUOUS
 10
17.5593576006
 20
16.1326039387
 11
17.5593576006
 21
15.5326039387
  0
LINE
  5
28A
100
AcDbEntity
  8
0
100
AcDbLine
 62
7
  6
CONTINUOUS
 10
17.8674568442
 20
55.3826039387
 11
17.8674568442
 21
54.2826039387
  0
LINE
  5
28B
100
AcDbEntity
  8
0
100
AcDbLine
 62
7
  6
CONTINUOUS
 10
18.3674568442
 20
14.0326039387
 11
18.3674568442
 21
15.5326039387
  0
LINE
  5
28C
100
AcDbEntity
  8
0
100
AcDbLine
 62
7
  6
CONTINUOUS
 10
25.5674568442
 20
46.0326039387
 11
25.7674568442
 21
46.2326039387
  0
LINE
  5
28D
100
AcDbEntity
  8
0
100
AcDbLine
 62
7
  6
CONTINUOUS
 10
39.0674568442
 20
46.9199053131
 11
39.6674568442
 21
47.1226553439
  0
LINE
  5
28E
100
AcDbEntity
  8
0
100
AcDbLine
 62
7
  6
CONTINUOUS
 10
5.6374568442
 20
27.3926039387
 11
5.6674568442
 21
27.3926039387
  0
LINE
  5
28F
100
AcDbEntity
  8
0
100
AcDbLine
 62
7
  6
CONTINUOUS
 10
39.9474568442
 20
28.0826039387
 11
39.5474568442
 21
28.0826039387
  0
LINE
  5
290
100
AcDbEntity
  8
0
100
AcDbLine
 62
7
  6
CONTINUOUS
 10
18.8674568442
 20
15.5326039387
 11
18.8674568442
 21
14.0326039387
  0
LINE
  5
291
100
AcDbEntity
  8
0
100
AcDbLine
 62
7
  6
CONTINUOUS
 10
19.6174568442
 20
17.1326039387
 11
19.6174568442
 21
16.5326039387
  0
LINE
  5
292
100
AcDbEntity
  8
0
100
AcDbLine
 62
7
  6
CONTINUOUS
 10
20.2674568442
 20
18.2326039387
 11
20.2674568442
 21
21.2326039387
  0
LINE
  5
293
100
AcDbEntity
  8
0
100
AcDbLine
 62
7
  6
CONTINUOUS
 10
20.3674568442
 20
15.5326039387
 11
20.3674568442
 21
14.0326039387
  0
LINE
  5
294
100
AcDbEntity
  8
0
100
AcDbLine
 62
7
  6
CONTINUOUS
 10
20.4674568442
 20
21.6826039387
 11
20.4674568442
 21
15.6326039387
  0
LINE
  5
295
100
AcDbEntity
  8
0
100
AcDbLine
 62
7
  6
CONTINUOUS
 10
20.5174568442
 20
49.1295070412
 11
20.5174568442
 21
47.0350559431
  0
LINE
  5
296
100
AcDbEntity
  8
0
100
AcDbLine
 62
7
  6
CONTINUOUS
 10
25.0028080594
 20
54.5302391627
 11
25.2466998524
 21
55.2921556891
  0
LINE
  5
297
100
AcDbEntity
  8
0
100
AcDbLine
 62
7
  6
CONTINUOUS
 10
5.6674568442
 20
30.8826039387
 11
8.7674568442
 21
30.8826039387
  0
LINE
  5
298
100
AcDbEntity
  8
0
100
AcDbLine
 62
7
  6
CONTINUOUS
 10
33.7674568442
 20
30.8826039387
 11
38.5674568442
 21
30.8826039387
  0
LINE
  5
299
100
AcDbEntity
  8
0
100
AcDbLine
 62
7
  6
CONTINUOUS
 10
21.2674568442
 20
16.5326039387
 11
21.2674568442
 21
16.1326039387
  0
LINE
  5
29A
100
AcDbEntity
  8
0
100
AcDbLine
 62
7
  6
CONTINUOUS
 10
22.0174568442
 20
47.0357008363
 11
22.0174568442
 21
49.1301519344
  0
LINE
  5
29B
100
AcDbEntity
  8
0
100
AcDbLine
 62
7
  6
CONTINUOUS
 10
22.0674568442
 20
21.6826039387
 11
22.0674568442
 21
15.6326039387
  0
LINE
  5
29C
100
AcDbEntity
  8
0
100
AcDbLine
 62
7
  6
CONTINUOUS
 10
22.1674568442
 20
14.0326039387
 11
22.1674568442
 21
15.5326039387
  0
LINE
  5
29D
100
AcDbEntity
  8
0
100
AcDbLine
 62
7
  6
CONTINUOUS
 10
22.2674568442
 20
18.2326039387
 11
22.2674568442
 21
21.2326039387
  0
LINE
  5
29E
100
AcDbEntity
  8
0
100
AcDbLine
 62
7
  6
CONTINUOUS
 10
39.9474568442
 20
32.0826039387
 11
39.5474568442
 21
32.0826039387
  0
LINE
  5
29F
100
AcDbEntity
  8
0
100
AcDbLine
 62
7
  6
CONTINUOUS
 10
23.6674568442
 20
14.0326039387
 11
23.6674568442
 21
15.5326039387
  0
LINE
  5
2A0
100
AcDbEntity
  8
0
100
AcDbLine
 62
7
  6
CONTINUOUS
 10
24.1674568442
 20
15.5326039387
 11
24.1674568442
 21
14.0326039387
  0
LINE
  5
2A1
100
AcDbEntity
  8
0
100
AcDbLine
 62
7
  6
CONTINUOUS
 10
24.6674568442
 20
54.2826039387
 11
24.6674568442
 21
55.3826039387
  0
LINE
  5
2A2
100
AcDbEntity
  8
0
100
AcDbLine
 62
7
  6
CONTINUOUS
 10
17.2882115612
 20
55.292154961
 11
17.5321043119
 21
54.5302387411
  0
LINE
  5
2A3
100
AcDbEntity
  8
0
100
AcDbLine
 62
7
  6
CONTINUOUS
 10
24.9755560877
 20
15.5326039387
 11
24.9755560877
 21
16.1326039387
  0
LINE
  5
2A4
100
AcDbEntity
  8
0
100
AcDbLine
 62
7
  6
CONTINUOUS
 10
24.9755560877
 20
16.5682856168
 11
24.9755560877
 21
17.0969222607
  0
LINE
  5
2A5
100
AcDbEntity
  8
0
100
AcDbLine
 62
7
  6
CONTINUOUS
 10
25.2424568442
 20
13.6326039387
 11
25.2424568442
 21
14.0326039387
  0
LINE
  5
2A6
100
AcDbEntity
  8
0
100
AcDbLine
 62
7
  6
CONTINUOUS
 10
25.2674568442
 20
16.1326039387
 11
25.2674568442
 21
16.5326039387
  0
LINE
  5
2A7
100
AcDbEntity
  8
0
100
AcDbLine
 62
7
  6
CONTINUOUS
 10
25.5674568442
 20
46.0326039387
 11
25.5674568442
 21
50.2168831239
  0
LINE
  5
2A8
100
AcDbEntity
  8
0
100
AcDbLine
 62
7
  6
CONTINUOUS
 10
25.7674568442
 20
50.015781468
 11
25.7674568442
 21
46.2326039387
  0
LINE
  5
2A9
100
AcDbEntity
  8
0
100
AcDbLine
 62
7
  6
CONTINUOUS
 10
26.3674568442
 20
54.5073488101
 11
26.3674568442
 21
52.4578590673
  0
LINE
  5
2AA
100
AcDbEntity
  8
0
100
AcDbLine
 62
7
  6
CONTINUOUS
 10
5.6674568442
 20
35.0809912523
 11
5.6374568442
 21
35.0809912523
  0
LINE
  5
2AB
100
AcDbEntity
  8
0
100
AcDbLine
 62
7
  6
CONTINUOUS
 10
5.6374568442
 20
35.5639541655
 11
5.6674568442
 21
35.5639541655
  0
LINE
  5
2AC
100
AcDbEntity
  8
0
100
AcDbLine
 62
7
  6
CONTINUOUS
 10
5.6674568442
 20
35.7326039387
 11
5.6374568442
 21
35.7326039387
  0
LINE
  5
2AD
100
AcDbEntity
  8
0
100
AcDbLine
 62
7
  6
CONTINUOUS
 10
5.6374568442
 20
35.9826039387
 11
5.6674568442
 21
35.9826039387
  0
LINE
  5
2AE
100
AcDbEntity
  8
0
100
AcDbLine
 62
7
  6
CONTINUOUS
 10
38.5674568442
 20
36.5826039387
 11
35.2674568442
 21
36.5826039387
  0
LINE
  5
2AF
100
AcDbEntity
  8
0
100
AcDbLine
 62
7
  6
CONTINUOUS
 10
7.2674568442
 20
36.5826039387
 11
5.6674568442
 21
36.5826039387
  0
LINE
  5
2B0
100
AcDbEntity
  8
0
100
AcDbLine
 62
7
  6
CONTINUOUS
 10
26.8174568442
 20
53.9826039387
 11
26.8174568442
 21
52.9326039387
  0
LINE
  5
2B1
100
AcDbEntity
  8
0
100
AcDbLine
 62
7
  6
CONTINUOUS
 10
28.2674568442
 20
52.4578590673
 11
28.2674568442
 21
54.5073488101
  0
LINE
  5
2B2
100
AcDbEntity
  8
0
100
AcDbLine
 62
7
  6
CONTINUOUS
 10
5.6674568442
 20
36.8326039387
 11
7.2674568442
 21
36.8326039387
  0
LINE
  5
2B3
100
AcDbEntity
  8
0
100
AcDbLine
 62
7
  6
CONTINUOUS
 10
35.2674568442
 20
36.8326039387
 11
38.5674568442
 21
36.8326039387
  0
LINE
  5
2B4
100
AcDbEntity
  8
0
100
AcDbLine
 62
7
  6
CONTINUOUS
 10
38.5674568442
 20
37.6326039387
 11
35.2674568442
 21
37.6326039387
  0
LINE
  5
2B5
100
AcDbEntity
  8
0
100
AcDbLine
 62
7
  6
CONTINUOUS
 10
7.2674568442
 20
37.6326039387
 11
5.6674568442
 21
37.6326039387
  0
LINE
  5
2B6
100
AcDbEntity
  8
0
100
AcDbLine
 62
7
  6
CONTINUOUS
 10
5.6674568442
 20
37.8826039387
 11
7.2674568442
 21
37.8826039387
  0
LINE
  5
2B7
100
AcDbEntity
  8
0
100
AcDbLine
 62
7
  6
CONTINUOUS
 10
35.2674568442
 20
37.8826039387
 11
38.5674568442
 21
37.8826039387
  0
LINE
  5
2B8
100
AcDbEntity
  8
0
100
AcDbLine
 62
7
  6
CONTINUOUS
 10
5.6674568442
 20
38.4326039387
 11
5.6374568442
 21
38.4326039387
  0
LINE
  5
2B9
100
AcDbEntity
  8
0
100
AcDbLine
 62
7
  6
CONTINUOUS
 10
5.6674568442
 20
38.6826039387
 11
5.6374568442
 21
38.6826039387
  0
LINE
  5
2BA
100
AcDbEntity
  8
0
100
AcDbLine
 62
7
  6
CONTINUOUS
 10
5.1674568442
 20
38.7826039387
 11
5.5374568442
 21
38.7826039387
  0
LINE
  5
2BB
100
AcDbEntity
  8
0
100
AcDbLine
 62
7
  6
CONTINUOUS
 10
16.9674568442
 20
46.0326039387
 11
16.7674568442
 21
46.2326039387
  0
LINE
  5
2BC
100
AcDbEntity
  8
0
100
AcDbLine
 62
7
  6
CONTINUOUS
 10
13.6663612232
 20
50.0179787448
 11
13.4674568442
 21
50.2168831239
  0
LINE
  5
2BD
100
AcDbEntity
  8
0
100
AcDbLine
 62
7
  6
CONTINUOUS
 10
13.5807870295
 20
50.1035627306
 11
13.4674568442
 21
50.2168831239
  0
LINE
  5
2BE
100
AcDbEntity
  8
0
100
AcDbLine
 62
7
  6
CONTINUOUS
 10
28.8674568442
 20
46.2326039387
 11
28.8674568442
 21
50.015781468
  0
LINE
  5
2BF
100
AcDbEntity
  8
0
100
AcDbLine
 62
7
  6
CONTINUOUS
 10
28.8674568442
 20
53.4826039389
 11
28.8674568442
 21
55.1826039387
  0
LINE
  5
2C0
100
AcDbEntity
  8
0
100
AcDbLine
 62
7
  6
CONTINUOUS
 10
29.0674568442
 20
50.2168831239
 11
29.0674568442
 21
46.0326039387
  0
LINE
  5
2C1
100
AcDbEntity
  8
0
100
AcDbLine
 62
7
  6
CONTINUOUS
 10
29.0674568442
 20
56.5826039387
 11
29.0674568442
 21
57.0826039387
  0
LINE
  5
2C2
100
AcDbEntity
  8
0
100
AcDbLine
 62
7
  6
CONTINUOUS
 10
29.1674568442
 20
55.4826039387
 11
29.1674568441
 21
53.4826039365
  0
LINE
  5
2C3
100
AcDbEntity
  8
0
100
AcDbLine
 62
7
  6
CONTINUOUS
 10
30.3287817096
 20
14.0326039387
 11
30.3287817096
 21
15.5326039387
  0
LINE
  5
2C4
100
AcDbEntity
  8
0
100
AcDbLine
 62
7
  6
CONTINUOUS
 10
33.6174568442
 20
43.754857399
 11
33.1174568442
 21
42.6826039387
  0
LINE
  5
2C5
100
AcDbEntity
  8
0
100
AcDbLine
 62
7
  6
CONTINUOUS
 10
5.6674568442
 20
38.851253712
 11
5.6374568442
 21
38.851253712
  0
LINE
  5
2C6
100
AcDbEntity
  8
0
100
AcDbLine
 62
7
  6
CONTINUOUS
 10
5.6374568442
 20
39.3342166252
 11
5.6674568442
 21
39.3342166252
  0
LINE
  5
2C7
100
AcDbEntity
  8
0
100
AcDbLine
 62
7
  6
CONTINUOUS
 10
5.6374568442
 20
39.5326039387
 11
5.5374568442
 21
39.5326039387
  0
LINE
  5
2C8
100
AcDbEntity
  8
0
100
AcDbLine
 62
7
  6
CONTINUOUS
 10
5.1674568442
 20
40.2826039387
 11
5.5374568442
 21
40.2826039387
  0
LINE
  5
2C9
100
AcDbEntity
  8
0
100
AcDbLine
 62
7
  6
CONTINUOUS
 10
43.4674568442
 20
40.4369301725
 11
40.2674568442
 21
40.4369301725
  0
LINE
  5
2CA
100
AcDbEntity
  8
0
100
AcDbLine
 62
7
  6
CONTINUOUS
 10
30.6674568442
 20
45.3156186683
 11
30.6674568442
 21
55.4826039387
  0
LINE
  5
2CB
100
AcDbEntity
  8
0
100
AcDbLine
 62
7
  6
CONTINUOUS
 10
30.7617944114
 20
15.5326039387
 11
30.7617944114
 21
14.0326039387
  0
LINE
  5
2CC
100
AcDbEntity
  8
0
100
AcDbLine
 62
7
  6
CONTINUOUS
 10
30.7674568442
 20
55.4826039387
 11
30.7674568442
 21
45.2945444077
  0
LINE
  5
2CD
100
AcDbEntity
  8
0
100
AcDbLine
 62
7
  6
CONTINUOUS
 10
31.5174568442
 20
44.3326039387
 11
31.5174568442
 21
26.8326039387
  0
LINE
  5
2CE
100
AcDbEntity
  8
0
100
AcDbLine
 62
7
  6
CONTINUOUS
 10
31.5700847883
 20
14.0326039387
 11
31.5700847883
 21
15.5326039387
  0
LINE
  5
2CF
100
AcDbEntity
  8
0
100
AcDbLine
 62
7
  6
CONTINUOUS
 10
31.7674568442
 20
40.9774965538
 11
31.7674568442
 21
40.1439287113
  0
LINE
  5
2D0
100
AcDbEntity
  8
0
100
AcDbLine
 62
7
  6
CONTINUOUS
 10
31.7674568442
 20
36.8212791661
 11
31.7674568442
 21
25.5439287113
  0
LINE
  5
2D1
100
AcDbEntity
  8
0
100
AcDbLine
 62
7
  6
CONTINUOUS
 10
31.7674568442
 20
22.2212791661
 11
31.7674568442
 21
21.5947465815
  0
LINE
  5
2D2
100
AcDbEntity
  8
0
100
AcDbLine
 62
7
  6
CONTINUOUS
 10
5.5374568442
 20
41.0326039387
 11
5.6374568442
 21
41.0326039387
  0
LINE
  5
2D3
100
AcDbEntity
  8
0
100
AcDbLine
 62
7
  6
CONTINUOUS
 10
43.4674568442
 20
41.5451844443
 11
40.2674568442
 21
41.5451844443
  0
LINE
  5
2D4
100
AcDbEntity
  8
0
100
AcDbLine
 62
7
  6
CONTINUOUS
 10
39.5474568442
 20
41.6684127448
 11
38.5674568442
 21
41.6684127448
  0
LINE
  5
2D5
100
AcDbEntity
  8
0
100
AcDbLine
 62
7
  6
CONTINUOUS
 10
11.0174568442
 20
42.6826039387
 11
9.4174568442
 21
42.6826039387
  0
LINE
  5
2D6
100
AcDbEntity
  8
0
100
AcDbLine
 62
7
  6
CONTINUOUS
 10
31.5174568442
 20
42.6826039387
 11
33.1174568442
 21
42.6826039387
  0
LINE
  5
2D7
100
AcDbEntity
  8
0
100
AcDbLine
 62
7
  6
CONTINUOUS
 10
16.1665749396
 20
52.4834858432
 11
15.7174568442
 21
52.9326039387
  0
LINE
  5
2D8
100
AcDbEntity
  8
0
100
AcDbLine
 62
7
  6
CONTINUOUS
 10
32.7674568596
 20
42.6826039387
 11
32.7674307492
 21
40.5865374484
  0
LINE
  5
2D9
100
AcDbEntity
  8
0
100
AcDbLine
 62
7
  6
CONTINUOUS
 10
33.6174568442
 20
43.754857399
 11
33.6174568442
 21
50.6326039387
  0
LINE
  5
2DA
100
AcDbEntity
  8
0
100
AcDbLine
 62
7
  6
CONTINUOUS
 10
33.7351482978
 20
15.5326039387
 11
33.7351482978
 21
14.0326039387
  0
LINE
  5
2DB
100
AcDbEntity
  8
0
100
AcDbLine
 62
7
  6
CONTINUOUS
 10
33.7674568442
 20
45.9651117092
 11
33.7674567437
 21
32.8439285661
  0
LINE
  5
2DC
100
AcDbEntity
  8
0
100
AcDbLine
 62
7
  6
CONTINUOUS
 10
33.7674568442
 20
30.8826039387
 11
33.7674568442
 21
20.8826039387
  0
LINE
  5
2DD
100
AcDbEntity
  8
0
100
AcDbLine
 62
7
  6
CONTINUOUS
 10
39.6674568442
 20
42.973520809
 11
39.5474568442
 21
42.973520809
  0
LINE
  5
2DE
100
AcDbEntity
  8
0
100
AcDbLine
 62
7
  6
CONTINUOUS
 10
40.2674568442
 20
43.0791425384
 11
42.5846141317
 21
43.0791425384
  0
LINE
  5
2DF
100
AcDbEntity
  8
0
100
AcDbLine
 62
7
  6
CONTINUOUS
 10
39.7674568442
 20
44.1701039387
 11
39.6674568442
 21
44.1701039387
  0
LINE
  5
2E0
100
AcDbEntity
  8
0
100
AcDbLine
 62
7
  6
CONTINUOUS
 10
38.5674568442
 20
44.2346795958
 11
39.5474568442
 21
44.2346795958
  0
LINE
  5
2E1
100
AcDbEntity
  8
0
100
AcDbLine
 62
7
  6
CONTINUOUS
 10
8.7674568442
 20
44.3326039387
 11
8.9174568442
 21
44.3326039387
  0
LINE
  5
2E2
100
AcDbEntity
  8
0
100
AcDbLine
 62
7
  6
CONTINUOUS
 10
33.6174568442
 20
44.3326039387
 11
33.7674568442
 21
44.3326039387
  0
LINE
  5
2E3
100
AcDbEntity
  8
0
100
AcDbLine
 62
7
  6
CONTINUOUS
 10
5.6674568442
 20
44.6826039387
 11
7.9674568442
 21
44.6826039387
  0
LINE
  5
2E4
100
AcDbEntity
  8
0
100
AcDbLine
 62
7
  6
CONTINUOUS
 10
34.5674568442
 20
44.6826039387
 11
38.5674568442
 21
44.6826039387
  0
LINE
  5
2E5
100
AcDbEntity
  8
0
100
AcDbLine
 62
7
  6
CONTINUOUS
 10
31.5174568442
 20
42.0144221205
 11
31.645209476
 21
41.666005852
  0
LINE
  5
2E6
100
AcDbEntity
  8
0
100
AcDbLine
 62
7
  6
CONTINUOUS
 10
31.9189235557
 20
42.6826039387
 11
32.0343047221
 21
41.9255298378
  0
LINE
  5
2E7
100
AcDbEntity
  8
0
100
AcDbLine
 62
7
  6
CONTINUOUS
 10
34.5674568442
 20
30.8826039387
 11
34.5674568442
 21
44.6826039387
  0
LINE
  5
2E8
100
AcDbEntity
  8
0
100
AcDbLine
 62
7
  6
CONTINUOUS
 10
34.7674568442
 20
17.1326039387
 11
34.7674568442
 21
15.5326039387
  0
LINE
  5
2E9
100
AcDbEntity
  8
0
100
AcDbLine
 62
7
  6
CONTINUOUS
 10
34.9174568442
 20
20.8826039387
 11
34.9174568442
 21
17.1326039387
  0
LINE
  5
2EA
100
AcDbEntity
  8
0
100
AcDbLine
 62
7
  6
CONTINUOUS
 10
35.1674568442
 20
13.7026039387
 11
35.1674568442
 21
12.6026039387
  0
LINE
  5
2EB
100
AcDbEntity
  8
0
100
AcDbLine
 62
7
  6
CONTINUOUS
 10
35.1674568442
 20
15.7826039387
 11
35.1674568442
 21
20.8826039387
  0
LINE
  5
2EC
100
AcDbEntity
  8
0
100
AcDbLine
 62
7
  6
CONTINUOUS
 10
35.2674568442
 20
37.8826039387
 11
35.2674568442
 21
36.5826039387
  0
LINE
  5
2ED
100
AcDbEntity
  8
0
100
AcDbLine
 62
7
  6
CONTINUOUS
 10
35.3674568442
 20
46.3326039387
 11
35.3674568442
 21
45.8812592079
  0
LINE
  5
2EE
100
AcDbEntity
  8
0
100
AcDbLine
 62
7
  6
CONTINUOUS
 10
35.3674568442
 20
20.8826039387
 11
35.3674568442
 21
13.8826039387
  0
LINE
  5
2EF
100
AcDbEntity
  8
0
100
AcDbLine
 62
7
  6
CONTINUOUS
 10
5.6674568779
 20
44.8011196933
 11
8.7674568442
 21
44.9635838489
  0
LINE
  5
2F0
100
AcDbEntity
  8
0
100
AcDbLine
 62
7
  6
CONTINUOUS
 10
39.5474568442
 20
44.7327983404
 11
39.4474568442
 21
44.7327983404
  0
LINE
  5
2F1
100
AcDbEntity
  8
0
100
AcDbLine
 62
7
  6
CONTINUOUS
 10
5.6674568779
 20
44.7826039387
 11
5.6374568442
 21
44.7826039387
  0
LINE
  5
2F2
100
AcDbEntity
  8
0
100
AcDbLine
 62
7
  6
CONTINUOUS
 10
39.5474568442
 20
44.860935323
 11
39.6674568442
 21
44.860935323
  0
LINE
  5
2F3
100
AcDbEntity
  8
0
100
AcDbLine
 62
7
  6
CONTINUOUS
 10
5.6374568442
 20
45.0326039387
 11
5.6674568442
 21
45.0326039387
  0
LINE
  5
2F4
100
AcDbEntity
  8
0
100
AcDbLine
 62
7
  6
CONTINUOUS
 10
39.5474568442
 20
45.1360002557
 11
39.4474568442
 21
45.1360002557
  0
LINE
  5
2F5
100
AcDbEntity
  8
0
100
AcDbLine
 62
7
  6
CONTINUOUS
 10
12.0174568442
 20
45.3326039387
 11
30.5174568442
 21
45.3326039387
  0
LINE
  5
2F6
100
AcDbEntity
  8
0
100
AcDbLine
 62
7
  6
CONTINUOUS
 10
30.6674568442
 20
45.4326039387
 11
11.8674568442
 21
45.4326039387
  0
LINE
  5
2F7
100
AcDbEntity
  8
0
100
AcDbLine
 62
7
  6
CONTINUOUS
 10
11.8674568442
 20
45.7326039387
 11
30.6674568442
 21
45.7326039387
  0
LINE
  5
2F8
100
AcDbEntity
  8
0
100
AcDbLine
 62
7
  6
CONTINUOUS
 10
39.6674568442
 20
45.8411132569
 11
38.5073785921
 21
45.8411132569
  0
LINE
  5
2F9
100
AcDbEntity
  8
0
100
AcDbLine
 62
7
  6
CONTINUOUS
 10
39.7674568442
 20
45.9951039387
 11
39.6674568442
 21
45.9951039387
  0
LINE
  5
2FA
100
AcDbEntity
  8
0
100
AcDbLine
 62
7
  6
CONTINUOUS
 10
36.8974568442
 20
45.9951039387
 11
37.0474568442
 21
45.9951039387
  0
LINE
  5
2FB
100
AcDbEntity
  8
0
100
AcDbLine
 62
7
  6
CONTINUOUS
 10
38.4612981125
 20
45.9951039387
 11
38.4674568442
 21
45.9951039387
  0
LINE
  5
2FC
100
AcDbEntity
  8
0
100
AcDbLine
 62
7
  6
CONTINUOUS
 10
29.0674568442
 20
46.0326039387
 11
25.5674568442
 21
46.0326039387
  0
LINE
  5
2FD
100
AcDbEntity
  8
0
100
AcDbLine
 62
7
  6
CONTINUOUS
 10
16.9674568442
 20
46.0326039387
 11
13.4674568442
 21
46.0326039387
  0
LINE
  5
2FE
100
AcDbEntity
  8
0
100
AcDbLine
 62
7
  6
CONTINUOUS
 10
13.6674568442
 20
46.2326039387
 11
16.7674568442
 21
46.2326039387
  0
LINE
  5
2FF
100
AcDbEntity
  8
0
100
AcDbLine
 62
7
  6
CONTINUOUS
 10
25.7674568442
 20
46.2326039387
 11
28.8674568442
 21
46.2326039387
  0
LINE
  5
300
100
AcDbEntity
  8
0
100
AcDbLine
 62
7
  6
CONTINUOUS
 10
30.7674568442
 20
46.3026039387
 11
30.6674568442
 21
46.3026039387
  0
LINE
  5
301
100
AcDbEntity
  8
0
100
AcDbLine
 62
7
  6
CONTINUOUS
 10
11.7674568442
 20
46.3026039387
 11
11.8674568442
 21
46.3026039387
  0
LINE
  5
302
100
AcDbEntity
  8
0
100
AcDbLine
 62
7
  6
CONTINUOUS
 10
8.9174568442
 20
46.3326039387
 11
7.1674568442
 21
46.3326039387
  0
LINE
  5
303
100
AcDbEntity
  8
0
100
AcDbLine
 62
7
  6
CONTINUOUS
 10
33.6174568442
 20
46.3326039387
 11
35.3674568442
 21
46.3326039387
  0
LINE
  5
304
100
AcDbEntity
  8
0
100
AcDbLine
 62
7
  6
CONTINUOUS
 10
16.7674568442
 20
46.6004687622
 11
13.6674568442
 21
46.6004687622
  0
LINE
  5
305
100
AcDbEntity
  8
0
100
AcDbLine
 62
7
  6
CONTINUOUS
 10
25.7674568442
 20
46.6004687622
 11
28.8674568442
 21
46.6004687622
  0
LINE
  5
306
100
AcDbEntity
  8
0
100
AcDbLine
 62
7
  6
CONTINUOUS
 10
33.7674568104
 20
44.9635838091
 11
38.5674568441
 21
44.7120265083
  0
LINE
  5
307
100
AcDbEntity
  8
0
100
AcDbLine
 62
7
  6
CONTINUOUS
 10
30.6674568442
 20
46.1275757705
 11
30.7674568442
 21
46.1223349926
  0
LINE
  5
308
100
AcDbEntity
  8
0
100
AcDbLine
 62
7
  6
CONTINUOUS
 10
33.6174568442
 20
45.9729728216
 11
38.567456088
 21
45.7135543538
  0
LINE
  5
309
100
AcDbEntity
  8
0
100
AcDbLine
 62
7
  6
CONTINUOUS
 10
29.0674568442
 20
46.0326039387
 11
28.8674568442
 21
46.2326039387
  0
LINE
  5
30A
100
AcDbEntity
  8
0
100
AcDbLine
 62
7
  6
CONTINUOUS
 10
25.7663612232
 20
50.0179787448
 11
25.5674568442
 21
50.2168831239
  0
LINE
  5
30B
100
AcDbEntity
  8
0
100
AcDbLine
 62
7
  6
CONTINUOUS
 10
36.7174568442
 20
47.961834708
 11
36.7174568442
 21
52.4612835952
  0
LINE
  5
30C
100
AcDbEntity
  8
0
100
AcDbLine
 62
7
  6
CONTINUOUS
 10
36.8674568442
 20
45.8026475389
 11
36.8674568442
 21
47.8326039387
  0
LINE
  5
30D
100
AcDbEntity
  8
0
100
AcDbLine
 62
7
  6
CONTINUOUS
 10
36.8974568442
 20
13.8826039387
 11
36.8974568442
 21
20.8826039387
  0
LINE
  5
30E
100
AcDbEntity
  8
0
100
AcDbLine
 62
7
  6
CONTINUOUS
 10
36.8974568442
 20
45.8010753056
 11
36.8974568442
 21
46.8424389051
  0
LINE
  5
30F
100
AcDbEntity
  8
0
100
AcDbLine
 62
7
  6
CONTINUOUS
 10
36.8974568442
 20
50.2952415861
 11
36.8974568442
 21
52.4326039387
  0
LINE
  5
310
100
AcDbEntity
  8
0
100
AcDbLine
 62
7
  6
CONTINUOUS
 10
36.9174568442
 20
20.8826039387
 11
36.9174568442
 21
18.2577658458
  0
LINE
  5
311
100
AcDbEntity
  8
0
100
AcDbLine
 62
7
  6
CONTINUOUS
 10
37.0474568442
 20
45.7932141387
 11
37.0474568442
 21
50.3809007904
  0
LINE
  5
312
100
AcDbEntity
  8
0
100
AcDbLine
 62
7
  6
CONTINUOUS
 10
37.2474568442
 20
50.3814600534
 11
37.2474568442
 21
45.7827325828
  0
LINE
  5
313
100
AcDbEntity
  8
0
100
AcDbLine
 62
7
  6
CONTINUOUS
 10
37.3674568442
 20
14.0326039387
 11
37.3674568442
 21
15.5326039387
  0
LINE
  5
314
100
AcDbEntity
  8
0
100
AcDbLine
 62
7
  6
CONTINUOUS
 10
37.4474568442
 20
20.8826039387
 11
37.4474568442
 21
19.3739108122
  0
LINE
  5
315
100
AcDbEntity
  8
0
100
AcDbLine
 62
7
  6
CONTINUOUS
 10
38.0674568442
 20
12.6026039387
 11
38.0674568442
 21
19.3738946931
  0
LINE
  5
316
100
AcDbEntity
  8
0
100
AcDbLine
 62
7
  6
CONTINUOUS
 10
38.4474568442
 20
46.13584615
 11
38.4474568442
 21
50.3815750132
  0
LINE
  5
317
100
AcDbEntity
  8
0
100
AcDbLine
 62
7
  6
CONTINUOUS
 10
38.4674568442
 20
50.3316259976
 11
38.4674568442
 21
45.9503428138
  0
LINE
  5
318
100
AcDbEntity
  8
0
100
AcDbLine
 62
7
  6
CONTINUOUS
 10
5.6674576665
 20
45.802647582
 11
8.9174568442
 21
45.9729728216
  0
LINE
  5
319
100
AcDbEntity
  8
0
100
AcDbLine
 62
7
  6
CONTINUOUS
 10
11.7674568442
 20
46.1223349926
 11
11.8674568442
 21
46.1275757705
  0
LINE
  5
31A
100
AcDbEntity
  8
0
100
AcDbLine
 62
7
  6
CONTINUOUS
 10
36.8674568442
 20
46.8424389051
 11
37.0474568442
 21
46.8424389051
  0
LINE
  5
31B
100
AcDbEntity
  8
0
100
AcDbLine
 62
7
  6
CONTINUOUS
 10
39.0674568442
 20
46.9199053131
 11
39.6674568442
 21
46.9199053131
  0
LINE
  5
31C
100
AcDbEntity
  8
0
100
AcDbLine
 62
7
  6
CONTINUOUS
 10
5.6674568442
 20
47.047891738
 11
5.6374568442
 21
47.047891738
  0
LINE
  5
31D
100
AcDbEntity
  8
0
100
AcDbLine
 62
7
  6
CONTINUOUS
 10
16.7674568442
 20
47.4326039387
 11
13.6674568442
 21
47.4326039387
  0
LINE
  5
31E
100
AcDbEntity
  8
0
100
AcDbLine
 62
7
  6
CONTINUOUS
 10
25.7674568442
 20
47.4326039387
 11
28.8674568442
 21
47.4326039387
  0
LINE
  5
31F
100
AcDbEntity
  8
0
100
AcDbLine
 62
7
  6
CONTINUOUS
 10
5.6374568442
 20
47.6215035838
 11
5.6674568442
 21
47.6215035838
  0
LINE
  5
320
100
AcDbEntity
  8
0
100
AcDbLine
 62
7
  6
CONTINUOUS
 10
5.6674568442
 20
48.2047025919
 11
6.0993570666
 21
48.2047025919
  0
LINE
  5
321
100
AcDbEntity
  8
0
100
AcDbLine
 62
7
  6
CONTINUOUS
 10
13.6674568442
 20
48.2047025919
 11
16.7674568442
 21
48.2047025919
  0
LINE
  5
322
100
AcDbEntity
  8
0
100
AcDbLine
 62
7
  6
CONTINUOUS
 10
25.7674568442
 20
48.2047025919
 11
28.8674568442
 21
48.2047025919
  0
LINE
  5
323
100
AcDbEntity
  8
0
100
AcDbLine
 62
7
  6
CONTINUOUS
 10
36.4355566217
 20
48.2047025919
 11
36.7174568442
 21
48.2047025919
  0
LINE
  5
324
100
AcDbEntity
  8
0
100
AcDbLine
 62
7
  6
CONTINUOUS
 10
38.4474568442
 20
46.1358460658
 11
38.4485868499
 21
46.0869513689
  0
LINE
  5
325
100
AcDbEntity
  8
0
100
AcDbLine
 62
7
  6
CONTINUOUS
 10
38.5674568442
 20
20.8826039387
 11
38.5674568442
 21
45.7135543652
  0
LINE
  5
326
100
AcDbEntity
  8
0
100
AcDbLine
 62
7
  6
CONTINUOUS
 10
38.7174568442
 20
13.2354466512
 11
38.7174568442
 21
19.3738946931
  0
LINE
  5
327
100
AcDbEntity
  8
0
100
AcDbLine
 62
7
  6
CONTINUOUS
 10
39.0674568442
 20
46.9199053131
 11
39.0674568442
 21
50.3315929441
  0
LINE
  5
328
100
AcDbEntity
  8
0
100
AcDbLine
 62
7
  6
CONTINUOUS
 10
39.4474568442
 20
45.1360002557
 11
39.4474568442
 21
44.7327983404
  0
LINE
  5
329
100
AcDbEntity
  8
0
100
AcDbLine
 62
7
  6
CONTINUOUS
 10
39.5474568442
 20
19.3739107995
 11
39.5474568442
 21
45.1359699164
  0
LINE
  5
32A
100
AcDbEntity
  8
0
100
AcDbLine
 62
7
  6
CONTINUOUS
 10
39.5674568442
 20
13.6026039387
 11
39.5674568442
 21
21.9026039387
  0
LINE
  5
32B
100
AcDbEntity
  8
0
100
AcDbLine
 62
7
  6
CONTINUOUS
 10
39.6674568442
 20
42.0993115801
 11
39.6674568442
 21
49.7314951755
  0
LINE
  5
32C
100
AcDbEntity
  8
0
100
AcDbLine
 62
7
  6
CONTINUOUS
 10
39.7674568442
 20
44.1701039387
 11
39.7674568442
 21
45.9951039387
  0
LINE
  5
32D
100
AcDbEntity
  8
0
100
AcDbLine
 62
7
  6
CONTINUOUS
 10
39.9474568442
 20
28.0826039387
 11
39.9474568442
 21
32.0826039387
  0
LINE
  5
32E
100
AcDbEntity
  8
0
100
AcDbLine
 62
7
  6
CONTINUOUS
 10
40.2674568442
 20
43.0791425384
 11
40.2674568442
 21
41.5451844443
  0
LINE
  5
32F
100
AcDbEntity
  8
0
100
AcDbLine
 62
7
  6
CONTINUOUS
 10
25.7674568442
 20
49.3326039387
 11
28.8674568442
 21
49.3496796054
  0
LINE
  5
330
100
AcDbEntity
  8
0
100
AcDbLine
 62
7
  6
CONTINUOUS
 10
38.4474568442
 20
48.8839858301
 11
37.2474568442
 21
48.8839858301
  0
LINE
  5
331
100
AcDbEntity
  8
0
100
AcDbLine
 62
7
  6
CONTINUOUS
 10
36.7174568442
 20
49.2098954116
 11
37.0474568442
 21
49.2098954116
  0
LINE
  5
332
100
AcDbEntity
  8
0
100
AcDbLine
 62
7
  6
CONTINUOUS
 10
37.2474568442
 20
49.3772722902
 11
37.0474568442
 21
49.3772722902
  0
LINE
  5
333
100
AcDbEntity
  8
0
100
AcDbLine
 62
7
  6
CONTINUOUS
 10
5.6674568442
 20
49.9616294655
 11
5.6374568442
 21
49.9616294655
  0
LINE
  5
334
100
AcDbEntity
  8
0
100
AcDbLine
 62
7
  6
CONTINUOUS
 10
28.8685524651
 20
50.0179787448
 11
25.7663612232
 21
50.0179787448
  0
LINE
  5
335
100
AcDbEntity
  8
0
100
AcDbLine
 62
7
  6
CONTINUOUS
 10
16.7685524651
 20
50.0179787448
 11
13.6663612232
 21
50.0179787448
  0
LINE
  5
336
100
AcDbEntity
  8
0
100
AcDbLine
 62
7
  6
CONTINUOUS
 10
13.4674568442
 20
50.2168831239
 11
16.9674568442
 21
50.2168831239
  0
LINE
  5
337
100
AcDbEntity
  8
0
100
AcDbLine
 62
7
  6
CONTINUOUS
 10
25.5674568442
 20
50.2168831239
 11
29.0674568442
 21
50.2168831239
  0
LINE
  5
338
100
AcDbEntity
  8
0
100
AcDbLine
 62
7
  6
CONTINUOUS
 10
36.7174568442
 20
50.2952415861
 11
37.0474568442
 21
50.2952415861
  0
LINE
  5
339
100
AcDbEntity
  8
0
100
AcDbLine
 62
7
  6
CONTINUOUS
 10
5.6374568442
 20
50.3155508483
 11
5.6674568442
 21
50.3155508483
  0
LINE
  5
33A
100
AcDbEntity
  8
0
100
AcDbLine
 62
7
  6
CONTINUOUS
 10
36.7174568442
 20
50.3155508483
 11
36.8974568442
 21
50.3155508483
  0
LINE
  5
33B
100
AcDbEntity
  8
0
100
AcDbLine
 62
7
  6
CONTINUOUS
 10
39.0674568442
 20
50.3315929441
 11
38.4674568442
 21
50.3315929441
  0
LINE
  5
33C
100
AcDbEntity
  8
0
100
AcDbLine
 62
7
  6
CONTINUOUS
 10
37.0474568442
 20
50.3809861682
 11
37.2474568442
 21
50.3809861682
  0
LINE
  5
33D
100
AcDbEntity
  8
0
100
AcDbLine
 62
7
  6
CONTINUOUS
 10
37.2474568442
 20
50.3815929441
 11
38.4474568442
 21
50.3815929441
  0
LINE
  5
33E
100
AcDbEntity
  8
0
100
AcDbLine
 62
7
  6
CONTINUOUS
 10
8.9174568442
 20
50.6326039387
 11
11.7674568442
 21
50.6326039387
  0
LINE
  5
33F
100
AcDbEntity
  8
0
100
AcDbLine
 62
7
  6
CONTINUOUS
 10
30.7674568442
 20
50.6326039387
 11
33.6174568442
 21
50.6326039387
  0
LINE
  5
340
100
AcDbEntity
  8
0
100
AcDbLine
 62
7
  6
CONTINUOUS
 10
13.6674568442
 20
49.3496796054
 11
16.7674568442
 21
49.3326039387
  0
LINE
  5
341
100
AcDbEntity
  8
0
100
AcDbLine
 62
7
  6
CONTINUOUS
 10
42.7260354879
 20
43.0566782422
 11
43.6088782004
 21
42.718117311
  0
LINE
  5
342
100
AcDbEntity
  8
0
100
AcDbLine
 62
7
  6
CONTINUOUS
 10
11.8674568442
 20
51.5826039387
 11
11.7674568442
 21
51.5826039387
  0
LINE
  5
343
100
AcDbEntity
  8
0
100
AcDbLine
 62
7
  6
CONTINUOUS
 10
30.6674568442
 20
51.5826039387
 11
30.7674568442
 21
51.5826039387
  0
LINE
  5
344
100
AcDbEntity
  8
0
100
AcDbLine
 62
7
  6
CONTINUOUS
 10
6.4674568442
 20
51.9326039387
 11
5.9674568442
 21
51.9326039387
  0
LINE
  5
345
100
AcDbEntity
  8
0
100
AcDbLine
 62
7
  6
CONTINUOUS
 10
7.2674568442
 20
52.1126039387
 11
7.3827548596
 21
52.1126039387
  0
LINE
  5
346
100
AcDbEntity
  8
0
100
AcDbLine
 62
7
  6
CONTINUOUS
 10
36.8974568442
 20
52.1882191315
 11
36.7174568442
 21
52.1882191315
  0
LINE
  5
347
100
AcDbEntity
  8
0
100
AcDbLine
 62
7
  6
CONTINUOUS
 10
7.1674568442
 20
52.1882191315
 11
5.6374568442
 21
52.1882191315
  0
LINE
  5
348
100
AcDbEntity
  8
0
100
AcDbLine
 62
7
  6
CONTINUOUS
 10
28.0674568442
 20
52.2578590673
 11
26.5674568442
 21
52.2578590673
  0
LINE
  5
349
100
AcDbEntity
  8
0
100
AcDbLine
 62
7
  6
CONTINUOUS
 10
15.9674568442
 20
52.2578590673
 11
14.4674568442
 21
52.2578590673
  0
LINE
  5
34A
100
AcDbEntity
  8
0
100
AcDbLine
 62
7
  6
CONTINUOUS
 10
14.3714521481
 20
52.2826039387
 11
16.063461216
 21
52.2826039387
  0
LINE
  5
34B
100
AcDbEntity
  8
0
100
AcDbLine
 62
7
  6
CONTINUOUS
 10
26.4714521495
 20
52.2826039387
 11
28.163461216
 21
52.2826039387
  0
LINE
  5
34C
100
AcDbEntity
  8
0
100
AcDbLine
 62
7
  6
CONTINUOUS
 10
11.7674568442
 20
52.3826039387
 11
10.7174568442
 21
52.3826039387
  0
LINE
  5
34D
100
AcDbEntity
  8
0
100
AcDbLine
 62
7
  6
CONTINUOUS
 10
30.7674568442
 20
52.3826039387
 11
31.8174568442
 21
52.3826039387
  0
LINE
  5
34E
100
AcDbEntity
  8
0
100
AcDbLine
 62
7
  6
CONTINUOUS
 10
5.6374568442
 20
52.4326039387
 11
7.1674568442
 21
52.4326039387
  0
LINE
  5
34F
100
AcDbEntity
  8
0
100
AcDbLine
 62
7
  6
CONTINUOUS
 10
36.7174568442
 20
52.4326039387
 11
36.8974568442
 21
52.4326039387
  0
LINE
  5
350
100
AcDbEntity
  8
0
100
AcDbLine
 62
7
  6
CONTINUOUS
 10
30.7674568442
 20
53.4034372721
 11
33.6174568442
 21
50.6326039387
  0
LINE
  5
351
100
AcDbEntity
  8
0
100
AcDbLine
 62
7
  6
CONTINUOUS
 10
43.4674568442
 20
40.4369301725
 11
43.4674568442
 21
41.5451844443
  0
LINE
  5
352
100
AcDbEntity
  8
0
100
AcDbLine
 62
7
  6
CONTINUOUS
 10
43.6674568442
 20
42.6638837025
 11
43.6674568442
 21
40.5136280772
  0
LINE
  5
353
100
AcDbEntity
  8
0
100
AcDbLine
 62
7
  6
CONTINUOUS
 10
25.7674568442
 20
53.4826039387
 11
25.4674568442
 21
53.4826039387
  0
LINE
  5
354
100
AcDbEntity
  8
0
100
AcDbLine
 62
7
  6
CONTINUOUS
 10
13.3674568442
 20
53.4826039387
 11
13.6674568442
 21
53.4826039387
  0
LINE
  5
355
100
AcDbEntity
  8
0
100
AcDbLine
 62
7
  6
CONTINUOUS
 10
16.7674568442
 20
53.4826039387
 11
17.0674568442
 21
53.4826039387
  0
LINE
  5
356
100
AcDbEntity
  8
0
100
AcDbLine
 62
7
  6
CONTINUOUS
 10
28.8674568442
 20
53.4826039387
 11
29.1674568442
 21
53.4826039387
  0
LINE
  5
357
100
AcDbEntity
  8
0
100
AcDbLine
 62
7
  6
CONTINUOUS
 10
30.6674568442
 20
53.9826039387
 11
28.8674568442
 21
53.9826039387
  0
LINE
  5
358
100
AcDbEntity
  8
0
100
AcDbLine
 62
7
  6
CONTINUOUS
 10
28.2674568442
 20
53.9826039387
 11
26.8174568442
 21
53.9826039387
  0
LINE
  5
359
100
AcDbEntity
  8
0
100
AcDbLine
 62
7
  6
CONTINUOUS
 10
15.7174568442
 20
53.9826039387
 11
14.2674568442
 21
53.9826039387
  0
LINE
  5
35A
100
AcDbEntity
  8
0
100
AcDbLine
 62
7
  6
CONTINUOUS
 10
13.6674568442
 20
53.9826039387
 11
11.8674568442
 21
53.9826039387
  0
LINE
  5
35B
100
AcDbEntity
  8
0
100
AcDbLine
 62
7
  6
CONTINUOUS
 10
24.6674568442
 20
54.2826039387
 11
17.8674568442
 21
54.2826039387
  0
LINE
  5
35C
100
AcDbEntity
  8
0
100
AcDbLine
 62
7
  6
CONTINUOUS
 10
28.2674568442
 20
54.4826039387
 11
26.3674568442
 21
54.4826039387
  0
LINE
  5
35D
100
AcDbEntity
  8
0
100
AcDbLine
 62
7
  6
CONTINUOUS
 10
16.1674568442
 20
54.4826039387
 11
14.2674568442
 21
54.4826039387
  0
LINE
  5
35E
100
AcDbEntity
  8
0
100
AcDbLine
 62
7
  6
CONTINUOUS
 10
17.8674568443
 20
54.5826039387
 11
24.667456844
 21
54.5826039387
  0
LINE
  5
35F
100
AcDbEntity
  8
0
100
AcDbLine
 62
7
  6
CONTINUOUS
 10
33.6174568442
 20
50.6326039387
 11
36.8674568442
 21
47.8326039387
  0
LINE
  5
360
100
AcDbEntity
  8
0
100
AcDbLine
 62
7
  6
CONTINUOUS
 10
14.4674568442
 20
54.7073488101
 11
15.9674568442
 21
54.7073488101
  0
LINE
  5
361
100
AcDbEntity
  8
0
100
AcDbLine
 62
7
  6
CONTINUOUS
 10
26.5674568442
 20
54.7073488101
 11
28.0674568442
 21
54.7073488101
  0
LINE
  5
362
100
AcDbEntity
  8
0
100
AcDbLine
 62
7
  6
CONTINUOUS
 10
17.8674568399
 20
55.3826039387
 11
24.667456849
 21
55.3826039387
  0
LINE
  5
363
100
AcDbEntity
  8
0
100
AcDbLine
 62
7
  6
CONTINUOUS
 10
11.8674568442
 20
55.4826039387
 11
13.3674568442
 21
55.4826039387
  0
LINE
  5
364
100
AcDbEntity
  8
0
100
AcDbLine
 62
7
  6
CONTINUOUS
 10
29.1674568442
 20
55.4826039387
 11
30.6674568442
 21
55.4826039387
  0
LINE
  5
365
100
AcDbEntity
  8
0
100
AcDbLine
 62
7
  6
CONTINUOUS
 10
39.6674568442
 20
49.7315929441
 11
39.0674568442
 21
50.3315929441
  0
LINE
  5
366
100
AcDbEntity
  8
0
100
AcDbLine
 62
7
  6
CONTINUOUS
 10
33.1567966724
 20
56.6432641105
 11
36.2781170159
 21
53.521943767
  0
LINE
  5
367
100
AcDbEntity
  8
0
100
AcDbLine
 62
7
  6
CONTINUOUS
 10
29.0674568089
 20
56.5826039378
 11
13.4674568565
 21
56.5826039378
  0
LINE
  5
368
100
AcDbEntity
  8
0
100
AcDbLine
 62
7
  6
CONTINUOUS
 10
11.7165043768
 20
57.0826039387
 11
32.0961365006
 21
57.0826039387
  0
LINE
  5
369
100
AcDbEntity
  8
0
100
AcDbLine
 62
7
  6
CONTINUOUS
 10
39.5674568442
 20
13.6026039387
 11
38.5674568442
 21
12.6026039387
  0
ARC
  5
36A
100
AcDbEntity
  8
0
100
AcDbCircle
 62
7
  6
CONTINUOUS
 10
21.2674568442
 20
10.8826039387
 40
15.0
100
AcDbArc
 50
91.491987015
 51
138.1896851042
  0
ARC
  5
36B
100
AcDbEntity
  8
0
100
AcDbCircle
 62
7
  6
CONTINUOUS
 10
21.2674568442
 20
10.8826039387
 40
15.0
100
AcDbArc
 50
41.8103148958
 51
88.508012985
  0
ARC
  5
36C
100
AcDbEntity
  8
0
100
AcDbCircle
 62
7
  6
CONTINUOUS
 10
6.7674568442
 20
31.1826039387
 40
2.6
100
AcDbArc
 50
320.2848627682
 51
350.6175256261
  0
ARC
  5
36D
100
AcDbEntity
  8
0
100
AcDbCircle
 62
7
  6
CONTINUOUS
 10
6.7674568442
 20
31.1826039387
 40
2.6
100
AcDbArc
 50
9.3824743739
 51
39.7151331185
  0
ARC
  5
36E
100
AcDbEntity
  8
0
100
AcDbCircle
 62
7
  6
CONTINUOUS
 10
12.7674568442
 20
23.8826039387
 40
2.6
100
AcDbArc
 50
140.2848627682
 51
170.6175256261
  0
ARC
  5
36F
100
AcDbEntity
  8
0
100
AcDbCircle
 62
7
  6
CONTINUOUS
 10
12.7674568442
 20
23.8826039387
 40
2.6
100
AcDbArc
 50
189.3824743739
 51
219.7151372318
  0
ARC
  5
370
100
AcDbEntity
  8
0
100
AcDbCircle
 62
7
  6
CONTINUOUS
 10
12.0174568442
 20
26.8326039387
 40
1.0
100
AcDbArc
 50
180.0
 51
270.0
  0
ARC
  5
371
100
AcDbEntity
  8
0
100
AcDbCircle
 62
7
  6
CONTINUOUS
 10
6.3174568442
 20
13.6326039387
 40
0.7
100
AcDbArc
 50
180.0
 51
270.0
  0
ARC
  5
372
100
AcDbEntity
  8
0
100
AcDbCircle
 62
7
  6
CONTINUOUS
 10
9.0674568442
 20
31.1826039387
 40
0.5
100
AcDbArc
 50
302.0348360443
 51
57.9651639558
  0
ARC
  5
373
100
AcDbEntity
  8
0
100
AcDbCircle
 62
7
  6
CONTINUOUS
 10
10.4674568442
 20
23.8826039387
 40
0.5
100
AcDbArc
 50
122.0348360444
 51
237.9651639557
  0
ARC
  5
374
100
AcDbEntity
  8
0
100
AcDbCircle
 62
7
  6
CONTINUOUS
 10
6.4674568442
 20
55.6826039387
 40
3.75
100
AcDbArc
 50
270.0
 51
358.9085858169
  0
ARC
  5
375
100
AcDbEntity
  8
0
100
AcDbCircle
 62
7
  6
CONTINUOUS
 10
15.2174568442
 20
53.4826039387
 40
2.75
100
AcDbArc
 50
41.1489309304
 51
133.3417582272
  0
ARC
  5
376
100
AcDbEntity
  8
0
100
AcDbCircle
 62
7
  6
CONTINUOUS
 10
12.7674568442
 20
38.4826039387
 40
2.6
100
AcDbArc
 50
140.2848627682
 51
170.6175256261
  0
ARC
  5
377
100
AcDbEntity
  8
0
100
AcDbCircle
 62
7
  6
CONTINUOUS
 10
12.7674568442
 20
38.4826039387
 40
2.6
100
AcDbArc
 50
189.3824743739
 51
219.7151372319
  0
ARC
  5
378
100
AcDbEntity
  8
0
100
AcDbCircle
 62
7
  6
CONTINUOUS
 10
12.7674568442
 20
40.9774965538
 40
2.0
100
AcDbArc
 50
159.8636966472
 51
180.0
  0
ARC
  5
379
100
AcDbEntity
  8
0
100
AcDbCircle
 62
7
  6
CONTINUOUS
 10
17.8674568442
 20
53.4826039387
 40
1.9
100
AcDbArc
 50
90.0000001287
 51
107.7500986249
  0
ARC
  5
37A
100
AcDbEntity
  8
0
100
AcDbCircle
 62
7
  6
CONTINUOUS
 10
15.2174568442
 20
53.4826039387
 40
1.85
100
AcDbArc
 50
180.0000003066
 51
359.9999999997
  0
ARC
  5
37B
100
AcDbEntity
  8
0
100
AcDbCircle
 62
7
  6
CONTINUOUS
 10
13.3674568442
 20
55.4826039387
 40
1.6
100
AcDbArc
 50
90.0
 51
180.0
  0
ARC
  5
37C
100
AcDbEntity
  8
0
100
AcDbCircle
 62
7
  6
CONTINUOUS
 10
13.4674568442
 20
55.4826039387
 40
1.5999999979
100
AcDbArc
 50
89.9999999906
 51
180.0
  0
CIRCLE
  5
37D
100
AcDbEntity
  8
0
100
AcDbCircle
 62
7
  6
CONTINUOUS
 10
15.2174568442
 20
53.4826039387
 40
1.55
  0
ARC
  5
37E
100
AcDbEntity
  8
0
100
AcDbCircle
 62
7
  6
CONTINUOUS
 10
11.7165043768
 20
55.5826039387
 40
1.5
100
AcDbArc
 50
90.0
 51
178.9085858127
  0
CIRCLE
  5
37F
100
AcDbEntity
  8
0
100
AcDbCircle
 62
7
  6
CONTINUOUS
 10
21.2674568442
 20
48.0826039387
 40
1.315
  0
ARC
  5
380
100
AcDbEntity
  8
0
100
AcDbCircle
 62
7
  6
CONTINUOUS
 10
17.8674568442
 20
53.4826039387
 40
1.1
100
AcDbArc
 50
89.9999999928
 51
180.0
  0
ARC
  5
381
100
AcDbEntity
  8
0
100
AcDbCircle
 62
7
  6
CONTINUOUS
 10
13.4674568442
 20
55.4826039387
 40
1.0999999979
100
AcDbArc
 50
89.9999993569
 51
180.0
  0
ARC
  5
382
100
AcDbEntity
  8
0
100
AcDbCircle
 62
7
  6
CONTINUOUS
 10
12.0174568442
 20
44.3326039387
 40
1.0
100
AcDbArc
 50
90.0
 51
180.0
  0
ARC
  5
383
100
AcDbEntity
  8
0
100
AcDbCircle
 62
7
  6
CONTINUOUS
 10
17.8674568442
 20
53.4826039387
 40
0.8
100
AcDbArc
 50
90.0
 51
180.0000000006
  0
ARC
  5
384
100
AcDbEntity
  8
0
100
AcDbCircle
 62
7
  6
CONTINUOUS
 10
10.4674568442
 20
38.4826039387
 40
0.5
100
AcDbArc
 50
122.0348360443
 51
237.9651639558
  0
ARC
  5
385
100
AcDbEntity
  8
0
100
AcDbCircle
 62
7
  6
CONTINUOUS
 10
5.9674568442
 20
51.6326039387
 40
0.3
100
AcDbArc
 50
90.0
 51
180.0
  0
ARC
  5
386
100
AcDbEntity
  8
0
100
AcDbCircle
 62
7
  6
CONTINUOUS
 10
13.3674568442
 20
55.1826039387
 40
0.3
100
AcDbArc
 50
0.0
 51
90.0
  0
ARC
  5
387
100
AcDbEntity
  8
0
100
AcDbCircle
 62
7
  6
CONTINUOUS
 10
14.4674568442
 20
52.4578590673
 40
0.2
100
AcDbArc
 50
180.0000000001
 51
270.0
  0
ARC
  5
388
100
AcDbEntity
  8
0
100
AcDbCircle
 62
7
  6
CONTINUOUS
 10
15.9674568442
 20
52.4578590673
 40
0.2
100
AcDbArc
 50
270.0
 51
360.0
  0
ARC
  5
389
100
AcDbEntity
  8
0
100
AcDbCircle
 62
7
  6
CONTINUOUS
 10
15.9674568442
 20
54.5073488101
 40
0.2
100
AcDbArc
 50
0.0
 51
90.0
  0
ARC
  5
38A
100
AcDbEntity
  8
0
100
AcDbCircle
 62
7
  6
CONTINUOUS
 10
14.4674568442
 20
54.5073488101
 40
0.2
100
AcDbArc
 50
90.0
 51
180.0
  0
ARC
  5
38B
100
AcDbEntity
  8
0
100
AcDbCircle
 62
7
  6
CONTINUOUS
 10
35.7674568442
 20
31.1826039387
 40
2.6
100
AcDbArc
 50
189.3824743739
 51
219.7151372318
  0
ARC
  5
38C
100
AcDbEntity
  8
0
100
AcDbCircle
 62
7
  6
CONTINUOUS
 10
35.7674568442
 20
31.1826039387
 40
2.6
100
AcDbArc
 50
140.2848666443
 51
170.6175256261
  0
ARC
  5
38D
100
AcDbEntity
  8
0
100
AcDbCircle
 62
7
  6
CONTINUOUS
 10
29.7674568442
 20
23.8826039387
 40
2.6
100
AcDbArc
 50
320.2848627682
 51
350.6175256261
  0
ARC
  5
38E
100
AcDbEntity
  8
0
100
AcDbCircle
 62
7
  6
CONTINUOUS
 10
29.7674568442
 20
23.8826039387
 40
2.6
100
AcDbArc
 50
9.3824743739
 51
39.7151372318
  0
ARC
  5
38F
100
AcDbEntity
  8
0
100
AcDbCircle
 62
7
  6
CONTINUOUS
 10
30.5174568442
 20
26.8326039387
 40
1.0
100
AcDbArc
 50
270.0
 51
360.0
  0
ARC
  5
390
100
AcDbEntity
  8
0
100
AcDbCircle
 62
7
  6
CONTINUOUS
 10
33.4674568442
 20
31.1826039387
 40
0.5
100
AcDbArc
 50
122.0348360443
 51
237.9651639558
  0
ARC
  5
391
100
AcDbEntity
  8
0
100
AcDbCircle
 62
7
  6
CONTINUOUS
 10
32.0674568442
 20
23.8826039387
 40
0.5
100
AcDbArc
 50
302.0348360444
 51
57.9651639557
  0
ARC
  5
392
100
AcDbEntity
  8
0
100
AcDbCircle
 62
7
  6
CONTINUOUS
 10
25.1174568442
 20
16.8326039387
 40
0.3
100
AcDbArc
 50
90.0
 51
269.9997023268
  0
ARC
  5
393
100
AcDbEntity
  8
0
100
AcDbCircle
 62
7
  6
CONTINUOUS
 10
24.0174568442
 20
16.8326039387
 40
0.3
100
AcDbArc
 50
270.0000496138
 51
90.0
  0
ARC
  5
394
100
AcDbEntity
  8
0
100
AcDbCircle
 62
7
  6
CONTINUOUS
 10
38.9174568442
 20
13.2354466512
 40
0.2
100
AcDbArc
 50
180.0000000046
 51
315.0000000055
  0
ARC
  5
395
100
AcDbEntity
  8
0
100
AcDbCircle
 62
7
  6
CONTINUOUS
 10
29.7674568442
 20
38.4826039387
 40
2.6
100
AcDbArc
 50
320.2848627681
 51
350.6175256261
  0
ARC
  5
396
100
AcDbEntity
  8
0
100
AcDbCircle
 62
7
  6
CONTINUOUS
 10
29.7674568442
 20
38.4826039387
 40
2.6
100
AcDbArc
 50
9.3824743739
 51
39.7151372318
  0
ARC
  5
397
100
AcDbEntity
  8
0
100
AcDbCircle
 62
7
  6
CONTINUOUS
 10
29.7674568442
 20
40.9774965538
 40
2.0
100
AcDbArc
 50
0.0
 51
20.1363034259
  0
ARC
  5
398
100
AcDbEntity
  8
0
100
AcDbCircle
 62
7
  6
CONTINUOUS
 10
30.5174568442
 20
44.3326039387
 40
1.0
100
AcDbArc
 50
0.0
 51
90.0
  0
ARC
  5
399
100
AcDbEntity
  8
0
100
AcDbCircle
 62
7
  6
CONTINUOUS
 10
32.0674568442
 20
38.4826039387
 40
0.5
100
AcDbArc
 50
302.0348360443
 51
57.9651639558
  0
ARC
  5
39A
100
AcDbEntity
  8
0
100
AcDbCircle
 62
7
  6
CONTINUOUS
 10
27.3174568442
 20
53.4826039387
 40
2.75
100
AcDbArc
 50
46.6582417728
 51
138.8510690726
  0
ARC
  5
39B
100
AcDbEntity
  8
0
100
AcDbCircle
 62
7
  6
CONTINUOUS
 10
24.6674568442
 20
53.4826039387
 40
1.9
100
AcDbArc
 50
72.2499013808
 51
89.9999998542
  0
ARC
  5
39C
100
AcDbEntity
  8
0
100
AcDbCircle
 62
7
  6
CONTINUOUS
 10
27.3174568442
 20
53.4826039387
 40
1.85
100
AcDbArc
 50
180.0
 51
359.9999999299
  0
ARC
  5
39D
100
AcDbEntity
  8
0
100
AcDbCircle
 62
7
  6
CONTINUOUS
 10
29.1674568442
 20
55.4826039387
 40
1.6
100
AcDbArc
 50
0.0
 51
90.0
  0
ARC
  5
39E
100
AcDbEntity
  8
0
100
AcDbCircle
 62
7
  6
CONTINUOUS
 10
29.0674568442
 20
55.4826039387
 40
1.5999999979
100
AcDbArc
 50
0.0
 51
90.0000000127
  0
CIRCLE
  5
39F
100
AcDbEntity
  8
0
100
AcDbCircle
 62
7
  6
CONTINUOUS
 10
27.3174568442
 20
53.4826039387
 40
1.55
  0
ARC
  5
3A0
100
AcDbEntity
  8
0
100
AcDbCircle
 62
7
  6
CONTINUOUS
 10
32.0961365006
 20
55.5826039387
 40
1.5
100
AcDbArc
 50
44.9999999999
 51
90.0
  0
ARC
  5
3A1
100
AcDbEntity
  8
0
100
AcDbCircle
 62
7
  6
CONTINUOUS
 10
24.6674568442
 20
53.4826039387
 40
1.1
100
AcDbArc
 50
0.0
 51
90.0000000072
  0
ARC
  5
3A2
100
AcDbEntity
  8
0
100
AcDbCircle
 62
7
  6
CONTINUOUS
 10
29.0674568442
 20
55.4826039387
 40
1.0999999979
100
AcDbArc
 50
0.0
 51
90.0000018366
  0
ARC
  5
3A3
100
AcDbEntity
  8
0
100
AcDbCircle
 62
7
  6
CONTINUOUS
 10
24.6674568442
 20
53.4826039387
 40
0.8
100
AcDbArc
 50
0.0
 51
90.0
  0
ARC
  5
3A4
100
AcDbEntity
  8
0
100
AcDbCircle
 62
7
  6
CONTINUOUS
 10
29.1674568442
 20
55.1826039387
 40
0.3
100
AcDbArc
 50
90.0
 51
180.0
  0
ARC
  5
3A5
100
AcDbEntity
  8
0
100
AcDbCircle
 62
7
  6
CONTINUOUS
 10
26.5674568442
 20
52.4578590673
 40
0.2
100
AcDbArc
 50
180.0
 51
270.0
  0
ARC
  5
3A6
100
AcDbEntity
  8
0
100
AcDbCircle
 62
7
  6
CONTINUOUS
 10
26.5674568442
 20
54.5073488101
 40
0.2
100
AcDbArc
 50
90.0
 51
180.0
  0
ARC
  5
3A7
100
AcDbEntity
  8
0
100
AcDbCircle
 62
7
  6
CONTINUOUS
 10
28.0674568442
 20
54.5073488101
 40
0.2
100
AcDbArc
 50
0.0
 51
90.0
  0
ARC
  5
3A8
100
AcDbEntity
  8
0
100
AcDbCircle
 62
7
  6
CONTINUOUS
 10
28.0674568442
 20
52.4578590673
 40
0.2
100
AcDbArc
 50
269.9999999994
 51
360.0
  0
ARC
  5
3A9
100
AcDbEntity
  8
0
100
AcDbCircle
 62
7
  6
CONTINUOUS
 10
39.7044108559
 20
46.201544737
 40
1.2665775895
100
AcDbArc
 50
202.7616015857
 51
203.1891974773
  0
ARC
  5
3AA
100
AcDbEntity
  8
0
100
AcDbCircle
 62
7
  6
CONTINUOUS
 10
39.4474568442
 20
46.1360002557
 40
1.0
100
AcDbArc
 50
206.951178291
 51
270.0
  0
ARC
  5
3AB
100
AcDbEntity
  8
0
100
AcDbCircle
 62
7
  6
CONTINUOUS
 10
37.9741315327
 20
46.500141362
 40
0.4905789327
100
AcDbArc
 50
12.316805902
 51
14.7989261278
  0
ARC
  5
3AC
100
AcDbEntity
  8
0
100
AcDbCircle
 62
7
  6
CONTINUOUS
 10
37.8793496916
 20
48.2352282154
 40
1.9306864485
100
AcDbArc
 50
72.0024634324
 51
72.6663451282
  0
ARC
  5
3AD
100
AcDbEntity
  8
0
100
AcDbCircle
 62
7
  6
CONTINUOUS
 10
35.2174568442
 20
52.4612835952
 40
1.5
100
AcDbArc
 50
0.0
 51
45.0000000003
  0
ARC
  5
3AE
100
AcDbEntity
  8
0
100
AcDbCircle
 62
7
  6
CONTINUOUS
 10
37.9763194218
 20
48.539163564
 40
0.4911457024
100
AcDbArc
 50
5.2928853174
 51
10.4112266765
  0
SPLINE
  5
3AF
100
AcDbEntity
  8
0
100
AcDbSpline
 62
7
  6
CONTINUOUS
 70
0
 71
3
 72
9
 73
5
 74
0
 42
0.0000001
 43
0.0000001
 44
0.0000000001
 40
0.0
 40
0.0
 40
0.0
 40
0.0
 40
0.4982346611
 40
1.0
 40
1.0
 40
1.0
 40
1.0
 10
38.4486618651
 20
46.0869543922
 30
0.0
 10
38.4518165542
 20
46.0227515854
 30
0.0
 10
38.4705850647
 20
45.894256247
 30
0.0
 10
38.5114251352
 20
45.7712032456
 30
0.0
 10
38.5364709736
 20
45.711508798
 30
0.0
  0
SPLINE
  5
3B0
100
AcDbEntity
  8
0
100
AcDbSpline
 62
7
  6
CONTINUOUS
 70
0
 71
3
 72
11
 73
7
 74
0
 42
0.0000001
 43
0.0000001
 44
0.0000000001
 40
0.0
 40
0.0
 40
0.0
 40
0.0
 40
0.2448994352
 40
0.4940386593
 40
0.74625301
 40
1.0
 40
1.0
 40
1.0
 40
1.0
 10
38.5597332779
 20
45.6593545423
 30
0.0
 10
38.6049165755
 20
45.5637492983
 30
0.0
 10
38.7195626379
 20
45.3815816743
 30
0.0
 10
38.9380932907
 20
45.1433716963
 30
0.0
 10
39.1859903999
 20
44.9309085741
 30
0.0
 10
39.3601302417
 20
44.7989685385
 30
0.0
 10
39.4474568442
 20
44.7327983404
 30
0.0
  0
SPLINE
  5
3B1
100
AcDbEntity
  8
0
100
AcDbSpline
 62
7
  6
CONTINUOUS
 70
0
 71
3
 72
15
 73
11
 74
0
 42
0.0000001
 43
0.0000001
 44
0.0000000001
 40
0.0
 40
0.0
 40
0.0
 40
0.0
 40
0.129722471
 40
0.2589684111
 40
0.3867237764
 40
0.5127234791
 40
0.6367923384
 40
0.7590342612
 40
0.880010696
 40
1.0
 40
1.0
 40
1.0
 40
1.0
 10
40.2674568442
 20
43.0791425384
 30
0.0
 10
40.2283095672
 20
43.0791425384
 30
0.0
 10
40.1499801667
 20
43.0862942265
 30
0.0
 10
40.036960759
 20
43.1177902127
 30
0.0
 10
39.9326426568
 20
43.1691435469
 30
0.0
 10
39.8411500831
 20
43.2383518813
 30
0.0
 10
39.7658524465
 20
43.3227306619
 30
0.0
 10
39.7097863809
 20
43.4192666052
 30
0.0
 10
39.6753099718
 20
43.5241182145
 30
0.0
 10
39.6674568442
 20
43.5970596446
 30
0.0
 10
39.6674568442
 20
43.6332696743
 30
0.0
  0
SPLINE
  5
3B2
100
AcDbEntity
  8
0
100
AcDbSpline
 62
7
  6
CONTINUOUS
 70
0
 71
3
 72
9
 73
5
 74
0
 42
0.0000001
 43
0.0000001
 44
0.0000000001
 40
0.0
 40
0.0
 40
0.0
 40
0.0
 40
0.5015729533
 40
1.0
 40
1.0
 40
1.0
 40
1.0
 10
40.2674568442
 20
40.4369301725
 30
0.0
 10
40.1410300298
 20
40.4369301725
 30
0.0
 10
39.8883637887
 20
40.4615384507
 30
0.0
 10
39.6452912771
 20
40.5349746954
 30
0.0
 10
39.5292648686
 20
40.5831591126
 30
0.0
  0
SPLINE
  5
3B3
100
AcDbEntity
  8
0
100
AcDbSpline
 62
7
  6
CONTINUOUS
 70
0
 71
3
 72
15
 73
11
 74
0
 42
0.0000001
 43
0.0000001
 44
0.0000000001
 40
0.0
 40
0.0
 40
0.0
 40
0.0
 40
0.171009064
 40
0.3371352215
 40
0.4920883773
 40
0.6314324651
 40
0.7518277048
 40
0.851720986
 40
0.9323161936
 40
1.0
 40
1.0
 40
1.0
 40
1.0
 10
43.4674568442
 20
40.4369301725
 30
0.0
 10
43.4804459578
 20
40.4369301725
 30
0.0
 10
43.5060629652
 20
40.4379011647
 30
0.0
 10
43.5432390448
 20
40.4421216298
 30
0.0
 10
43.577570745
 20
40.4490331998
 30
0.0
 10
43.6077446056
 20
40.4582921328
 30
0.0
 10
43.6327180103
 20
40.4695951965
 30
0.0
 10
43.6517254134
 20
40.4825776841
 30
0.0
 10
43.6641835436
 20
40.49716731
 30
0.0
 10
43.6674568442
 20
40.5084871061
 30
0.0
 10
43.6674568442
 20
40.5136280772
 30
0.0
  0
SPLINE
  5
3B4
100
AcDbEntity
  8
0
100
AcDbSpline
 62
7
  6
CONTINUOUS
 70
0
 71
3
 72
11
 73
7
 74
0
 42
0.0000001
 43
0.0000001
 44
0.0000000001
 40
0.0
 40
0.0
 40
0.0
 40
0.0
 40
0.3267409975
 40
0.5976872762
 40
0.8161148675
 40
1.0
 40
1.0
 40
1.0
 40
1.0
 10
43.6088782004
 20
42.718117311
 30
0.0
 10
43.6174195983
 20
42.7148417744
 30
0.0
 10
43.6327320516
 20
42.7079169026
 30
0.0
 10
43.6517171012
 20
42.6949283024
 30
0.0
 10
43.6642162467
 20
42.6803646981
 30
0.0
 10
43.6674568442
 20
42.6690320257
 30
0.0
 10
43.6674568442
 20
42.6638837025
 30
0.0
  0
SPLINE
  5
3B5
100
AcDbEntity
  8
0
100
AcDbSpline
 62
7
  6
CONTINUOUS
 70
0
 71
3
 72
10
 73
6
 74
0
 42
0.0000001
 43
0.0000001
 44
0.0000000001
 40
0.0
 40
0.0
 40
0.0
 40
0.0
 40
0.5336899359
 40
0.779141549
 40
1.0
 40
1.0
 40
1.0
 40
1.0
 10
42.5846141317
 20
43.0791425384
 30
0.0
 10
42.6102006548
 20
43.0791425384
 30
0.0
 10
42.6476718276
 20
43.0764971788
 30
0.0
 10
42.6947179765
 20
43.0670462031
 30
0.0
 10
42.7161489914
 20
43.0604696101
 30
0.0
 10
42.7260354879
 20
43.0566782422
 30
0.0
  0
SPLINE
  5
3B6
100
AcDbEntity
  8
0
100
AcDbSpline
 62
7
  6
CONTINUOUS
 70
0
 71
3
 72
15
 73
11
 74
0
 42
0.0000001
 43
0.0000001
 44
0.0000000001
 40
0.0
 40
0.0
 40
0.0
 40
0.0
 40
0.119989377
 40
0.240965969
 40
0.3632079673
 40
0.4872768294
 40
0.6132765388
 40
0.7410318333
 40
0.8702776065
 40
1.0
 40
1.0
 40
1.0
 40
1.0
 10
39.6674568442
 20
42.0993115801
 30
0.0
 10
39.6674568442
 20
42.0631015285
 30
0.0
 10
39.6753100283
 20
41.9901600354
 30
0.0
 10
39.7097864401
 20
41.8853083299
 30
0.0
 10
39.7658526058
 20
41.7887723566
 30
0.0
 10
39.8411502945
 20
41.7043935924
 30
0.0
 10
39.9326428854
 20
41.6351853071
 30
0.0
 10
40.0369609502
 20
41.5838320659
 30
0.0
 10
40.1499802589
 20
41.5523360801
 30
0.0
 10
40.2283095906
 20
41.5451844443
 30
0.0
 10
40.2674568442
 20
41.5451844443
 30
0.0
  0
SPLINE
  5
3B7
100
AcDbEntity
  8
0
100
AcDbSpline
 62
7
  6
CONTINUOUS
 70
0
 71
3
 72
15
 73
11
 74
0
 42
0.0000001
 43
0.0000001
 44
0.0000000001
 40
0.0
 40
0.0
 40
0.0
 40
0.0
 40
0.0676838064
 40
0.148279014
 40
0.2481722952
 40
0.3685675349
 40
0.5079116227
 40
0.6628647785
 40
0.828990936
 40
1.0
 40
1.0
 40
1.0
 40
1.0
 10
43.6674568442
 20
41.621882349
 30
0.0
 10
43.6674568442
 20
41.6167413779
 30
0.0
 10
43.6641835436
 20
41.6054215818
 30
0.0
 10
43.6517254134
 20
41.5908319558
 30
0.0
 10
43.6327180103
 20
41.5778494683
 30
0.0
 10
43.6077446055
 20
41.5665464045
 30
0.0
 10
43.577570745
 20
41.5572874716
 30
0.0
 10
43.5432390448
 20
41.5503759016
 30
0.0
 10
43.5060629652
 20
41.5461554365
 30
0.0
 10
43.4804459578
 20
41.5451844443
 30
0.0
 10
43.4674568442
 20
41.5451844443
 30
0.0
  0
SPLINE
  5
3B8
100
AcDbEntity
  8
0
100
AcDbSpline
 62
7
  6
CONTINUOUS
 70
0
 71
3
 72
10
 73
6
 74
0
 42
0.0000001
 43
0.0000001
 44
0.0000000001
 40
0.0
 40
0.0
 40
0.0
 40
0.0
 40
0.2780702546
 40
0.5469719484
 40
1.0
 40
1.0
 40
1.0
 40
1.0
 10
26.8174568442
 20
53.9826039387
 30
0.0
 10
26.7769940204
 20
54.0230667625
 30
0.0
 10
26.697546968
 20
54.1028027774
 30
0.0
 10
26.5516105974
 20
54.2478918418
 30
0.0
 10
26.4469796537
 20
54.3533616105
 30
0.0
 10
26.3809160677
 20
54.4191406162
 30
0.0
  0
SPLINE
  5
3B9
100
AcDbEntity
  8
0
100
AcDbSpline
 62
7
  6
CONTINUOUS
 70
0
 71
3
 72
21
 73
17
 74
0
 42
0.0000001
 43
0.0000001
 44
0.0000000001
 40
0.0
 40
0.0
 40
0.0
 40
0.0
 40
0.1428292089
 40
0.2119405259
 40
0.2774725967
 40
0.3387556674
 40
0.3681297623
 40
0.396932157
 40
0.4537432927
 40
0.5108653297
 40
0.5689854832
 40
0.6282784812
 40
0.6886447548
 40
0.7499007495
 40
0.8743030087
 40
1.0
 40
1.0
 40
1.0
 40
1.0
 10
17.2882115614
 20
55.2921549607
 30
0.0
 10
17.1828611905
 20
55.2822828106
 30
0.0
 10
17.0264101887
 20
55.2463624575
 30
0.0
 10
16.8449109181
 20
55.1473776521
 30
0.0
 10
16.7345481419
 20
55.0509265022
 30
0.0
 10
16.6690098725
 20
54.9537544204
 30
0.0
 10
16.6352789184
 20
54.8716997774
 30
0.0
 10
16.6129374176
 20
54.7892894388
 30
0.0
 10
16.6026653083
 20
54.6832964783
 30
0.0
 10
16.610866341
 20
54.5558081898
 30
0.0
 10
16.6310948374
 20
54.4280074401
 30
0.0
 10
16.6576144725
 20
54.298991349
 30
0.0
 10
16.6859508769
 20
54.1679936084
 30
0.0
 10
16.7220892117
 20
53.9893477095
 30
0.0
 10
16.757378145
 20
53.7611520801
 30
0.0
 10
16.7674578464
 20
53.5757243046
 30
0.0
 10
16.7674568442
 20
53.4826044264
 30
0.0
  0
SPLINE
  5
3BA
100
AcDbEntity
  8
0
100
AcDbSpline
 62
7
  6
CONTINUOUS
 70
0
 71
3
 72
22
 73
18
 74
0
 42
0.0000001
 43
0.0000001
 44
0.0000000001
 40
0.0
 40
0.0
 40
0.0
 40
0.0
 40
0.1004799782
 40
0.1499686512
 40
0.1983992707
 40
0.2912379424
 40
0.3774830388
 40
0.4556922121
 40
0.5254169035
 40
0.6430274696
 40
0.693727912
 40
0.7407471282
 40
0.7855286599
 40
0.8292413241
 40
0.8725611788
 40
0.9156548969
 40
1.0
 40
1.0
 40
1.0
 40
1.0
 10
32.7674568483
 20
41.8963982955
 30
0.0
 10
32.8109267701
 20
41.8976523154
 30
0.0
 10
32.8758999772
 20
41.896479645
 30
0.0
 10
32.9616225518
 20
41.8915527816
 30
0.0
 10
33.0439564576
 20
41.8853663491
 30
0.0
 10
33.1419245514
 20
41.8751795762
 30
0.0
 10
33.2521368471
 20
41.8589866108
 30
0.0
 10
33.3513146639
 20
41.8373508042
 30
0.0
 10
33.460666366
 20
41.8016391602
 30
0.0
 10
33.5533225488
 20
41.7538254458
 30
0.0
 10
33.6258159357
 20
41.6948560903
 30
0.0
 10
33.6680092843
 20
41.6495730816
 30
0.0
 10
33.7012516369
 20
41.6009883185
 30
0.0
 10
33.7265185448
 20
41.5496557239
 30
0.0
 10
33.7451544957
 20
41.4963818
 30
0.0
 10
33.7622582556
 20
41.4243942183
 30
0.0
 10
33.7673396542
 20
41.3690688885
 30
0.0
 10
33.7674567312
 20
41.3325642878
 30
0.0
  0
SPLINE
  5
3BB
100
AcDbEntity
  8
0
100
AcDbSpline
 62
7
  6
CONTINUOUS
 70
0
 71
3
 72
18
 73
14
 74
0
 42
0.0000001
 43
0.0000001
 44
0.0000000001
 40
0.0
 40
0.0
 40
0.0
 40
0.0
 40
0.2102949539
 40
0.3885439719
 40
0.5317107292
 40
0.5912816647
 40
0.6441015632
 40
0.6914670688
 40
0.7350274907
 40
0.7766302586
 40
0.818063187
 40
0.9050586335
 40
1.0
 40
1.0
 40
1.0
 40
1.0
 10
10.5006088197
 20
41.9255298451
 30
0.0
 10
10.539498432
 20
41.923710717
 30
0.0
 10
10.6113325012
 20
41.9189909717
 30
0.0
 10
10.7088224781
 20
41.9044066161
 30
0.0
 10
10.7769465994
 20
41.8846182713
 30
0.0
 10
10.8197367229
 20
41.8641928257
 30
0.0
 10
10.844667544
 20
41.8481042783
 30
0.0
 10
10.864670862
 20
41.830369201
 30
0.0
 10
10.87993426
 20
41.8109750327
 30
0.0
 10
10.8906666747
 20
41.7899714257
 30
0.0
 10
10.8994202124
 20
41.7595527547
 30
0.0
 10
10.9003018863
 20
41.7175871822
 30
0.0
 10
10.8935205286
 20
41.6844276626
 30
0.0
 10
10.8888290437
 20
41.6674887485
 30
0.0
  0
SPLINE
  5
3BC
100
AcDbEntity
  8
0
100
AcDbSpline
 62
7
  6
CONTINUOUS
 70
0
 71
3
 72
13
 73
9
 74
0
 42
0.0000001
 43
0.0000001
 44
0.0000000001
 40
0.0
 40
0.0
 40
0.0
 40
0.0
 40
0.2400768223
 40
0.3634344702
 40
0.4884071648
 40
0.6148286599
 40
0.7425321888
 40
1.0
 40
1.0
 40
1.0
 40
1.0
 10
32.0343040092
 20
41.9255298751
 30
0.0
 10
32.092830576
 20
41.920553731
 30
0.0
 10
32.1814618328
 20
41.913323523
 30
0.0
 10
32.3007500121
 20
41.9061900078
 30
0.0
 10
32.3923661629
 20
41.9024579693
 30
0.0
 10
32.4850837696
 20
41.8999184844
 30
0.0
 10
32.610228467
 20
41.8974962543
 30
0.0
 10
32.7044645198
 20
41.8965992824
 30
0.0
 10
32.7674568483
 20
41.8963982955
 30
0.0
  0
SPLINE
  5
3BD
100
AcDbEntity
  8
0
100
AcDbSpline
 62
7
  6
CONTINUOUS
 70
0
 71
3
 72
11
 73
7
 74
0
 42
0.0000001
 43
0.0000001
 44
0.0000000001
 40
0.0
 40
0.0
 40
0.0
 40
0.0
 40
0.2257794848
 40
0.4740071631
 40
0.7357645099
 40
1.0
 40
1.0
 40
1.0
 40
1.0
 10
32.0343041817
 20
41.9255297825
 30
0.0
 10
32.0756775999
 20
41.830927723
 30
0.0
 10
32.1485607585
 20
41.6261124537
 30
0.0
 10
32.2269371577
 20
41.298327187
 30
0.0
 10
32.2745824366
 20
40.9469614699
 30
0.0
 10
32.2860779059
 20
40.7063406581
 30
0.0
 10
32.2864657739
 20
40.585500939
 30
0.0
  0
SPLINE
  5
3BE
100
AcDbEntity
  8
0
100
AcDbSpline
 62
7
  6
CONTINUOUS
 70
0
 71
3
 72
20
 73
16
 74
0
 42
0.0000001
 43
0.0000001
 44
0.0000000001
 40
0.0
 40
0.0
 40
0.0
 40
0.0
 40
0.0948942433
 40
0.1826065009
 40
0.2242808651
 40
0.2659052148
 40
0.3093535165
 40
0.3566044579
 40
0.4094118971
 40
0.4690107312
 40
0.6117369171
 40
0.6962355418
 40
0.7899657693
 40
0.8917876687
 40
1.0
 40
1.0
 40
1.0
 40
1.0
 10
31.6462354963
 20
41.6670899439
 30
0.0
 10
31.641553469
 20
41.6840427623
 30
0.0
 10
31.634783952
 20
41.7173630667
 30
0.0
 10
31.6354765756
 20
41.7595270989
 30
0.0
 10
31.6440438647
 20
41.7902256855
 30
0.0
 10
31.6547046186
 20
41.8113355102
 30
0.0
 10
31.6699941463
 20
41.8307098236
 30
0.0
 10
31.6901529115
 20
41.8482611572
 30
0.0
 10
31.7153033351
 20
41.8640312781
 30
0.0
 10
31.7581867577
 20
41.8841401539
 30
0.0
 10
31.8093402175
 20
41.8996392999
 30
0.0
 10
31.8677715514
 20
41.9108975744
 30
0.0
 10
31.9193229486
 20
41.917227375
 30
0.0
 10
31.9754315788
 20
41.9218921406
 30
0.0
 10
32.0142845979
 20
41.9243246689
 30
0.0
 10
32.0343041817
 20
41.9255297825
 30
0.0
  0
SPLINE
  5
3BF
100
AcDbEntity
  8
0
100
AcDbSpline
 62
7
  6
CONTINUOUS
 70
0
 71
3
 72
11
 73
7
 74
0
 42
0.0000001
 43
0.0000001
 44
0.0000000001
 40
0.0
 40
0.0
 40
0.0
 40
0.0
 40
0.2257794762
 40
0.474007154
 40
0.7357645044
 40
1.0
 40
1.0
 40
1.0
 40
1.0
 10
10.5006088213
 20
41.9255298462
 30
0.0
 10
10.4592354426
 20
41.8309277996
 30
0.0
 10
10.3863523486
 20
41.6261125666
 30
0.0
 10
10.307975997
 20
41.2983273728
 30
0.0
 10
10.2603307109
 20
40.9469617367
 30
0.0
 10
10.2488352018
 20
40.7063409793
 30
0.0
 10
10.2484473046
 20
40.5855012857
 30
0.0
  0
SPLINE
  5
3C0
100
AcDbEntity
  8
0
100
AcDbSpline
 62
7
  6
CONTINUOUS
 70
0
 71
3
 72
23
 73
19
 74
0
 42
0.0000001
 43
0.0000001
 44
0.0000000001
 40
0.0
 40
0.0
 40
0.0
 40
0.0
 40
0.014395644
 40
0.0294758283
 40
0.0443656523
 40
0.0591136524
 40
0.0888993428
 40
0.1189329538
 40
0.1490721995
 40
0.1793173135
 40
0.240175919
 40
0.3015403924
 40
0.3633565488
 40
0.4883069935
 40
0.6148169364
 40
0.7425390243
 40
0.8710655611
 40
1.0
 40
1.0
 40
1.0
 40
1.0
 10
10.5006124637
 20
41.9255283083
 30
0.0
 10
10.4971515908
 20
41.9248741881
 30
0.0
 10
10.489924645
 20
41.9244581463
 30
0.0
 10
10.4791142662
 20
41.9236003458
 30
0.0
 10
10.4682144932
 20
41.9226176763
 30
0.0
 10
10.4537366636
 20
41.9212956033
 30
0.0
 10
10.4355570155
 20
41.9197543223
 30
0.0
 10
10.4136157774
 20
41.9180183068
 30
0.0
 10
10.3915587251
 20
41.916319183
 30
0.0
 10
10.3619760529
 20
41.914120979
 30
0.0
 10
10.3247622346
 20
41.9115242333
 30
0.0
 10
10.279817809
 20
41.9087621594
 30
0.0
 10
10.2191849601
 20
41.9056937711
 30
0.0
 10
10.1425947725
 20
41.9026455885
 30
0.0
 10
10.0498583597
 20
41.8999778786
 30
0.0
 10
9.9562300619
 20
41.8979867003
 30
0.0
 10
9.8619950936
 20
41.8967618693
 30
0.0
 10
9.7990028718
 20
41.8964596369
 30
0.0
 10
9.7674568634
 20
41.8963983638
 30
0.0
  0
SPLINE
  5
3C1
100
AcDbEntity
  8
0
100
AcDbSpline
 62
7
  6
CONTINUOUS
 70
0
 71
3
 72
16
 73
12
 74
0
 42
0.0000001
 43
0.0000001
 44
0.0000000001
 40
0.0
 40
0.0
 40
0.0
 40
0.0
 40
0.1465961306
 40
0.2895082024
 40
0.4255068998
 40
0.4905343583
 40
0.5534494825
 40
0.6730774893
 40
0.7859037132
 40
0.893844582
 40
1.0
 40
1.0
 40
1.0
 40
1.0
 10
32.7673785834
 20
40.5865437624
 30
0.0
 10
32.8350277806
 20
40.5865432645
 30
0.0
 10
32.9688126327
 20
40.5956869394
 30
0.0
 10
33.1615804112
 20
40.6364354567
 30
0.0
 10
33.3104505164
 20
40.6938769404
 30
0.0
 10
33.4172663126
 20
40.7527424055
 30
0.0
 10
33.5117320887
 20
40.8172632754
 30
0.0
 10
33.6120248556
 20
40.9111895798
 30
0.0
 10
33.7012986901
 20
41.0420819793
 30
0.0
 10
33.7553380011
 20
41.1844338022
 30
0.0
 10
33.7673382182
 20
41.2836241308
 30
0.0
 10
33.7674568464
 20
41.3326111521
 30
0.0
  0
SPLINE
  5
3C2
100
AcDbEntity
  8
0
100
AcDbSpline
 62
7
  6
CONTINUOUS
 70
0
 71
3
 72
9
 73
5
 74
0
 42
0.0000001
 43
0.0000001
 44
0.0000000001
 40
0.0
 40
0.0
 40
0.0
 40
0.0
 40
0.4827202806
 40
1.0
 40
1.0
 40
1.0
 40
1.0
 10
32.2864607785
 20
40.5855013765
 30
0.0
 10
32.363838141
 20
40.5864708868
 30
0.0
 10
32.5241497025
 20
40.5869065911
 30
0.0
 10
32.6844550275
 20
40.5865375853
 30
0.0
 10
32.7673785833
 20
40.5865374484
 30
0.0
  0
SPLINE
  5
3C3
100
AcDbEntity
  8
0
100
AcDbSpline
 62
7
  6
CONTINUOUS
 70
0
 71
3
 72
15
 73
11
 74
0
 42
0.0000001
 43
0.0000001
 44
0.0000000001
 40
0.0
 40
0.0
 40
0.0
 40
0.0
 40
0.1176249901
 40
0.2305773655
 40
0.342083298
 40
0.4560664123
 40
0.5766313976
 40
0.7066157794
 40
0.8475230533
 40
1.0
 40
1.0
 40
1.0
 40
1.0
 10
31.771273677
 20
40.9462675372
 30
0.0
 10
31.7745878052
 20
40.9191503568
 30
0.0
 10
31.7856762243
 20
40.8663847438
 30
0.0
 10
31.8172884672
 20
40.7928855152
 30
0.0
 10
31.8635640343
 20
40.7285384297
 30
0.0
 10
31.9243889696
 20
40.6749752641
 30
0.0
 10
31.9989847978
 20
40.6337382007
 30
0.0
 10
32.085580944
 20
40.6047183334
 30
0.0
 10
32.1827779468
 20
40.587910261
 30
0.0
 10
32.2510500813
 20
40.5850576239
 30
0.0
 10
32.2864607833
 20
40.5855008765
 30
0.0
  0
SPLINE
  5
3C4
100
AcDbEntity
  8
0
100
AcDbSpline
 62
7
  6
CONTINUOUS
 70
0
 71
3
 72
14
 73
10
 74
0
 42
0.0000001
 43
0.0000001
 44
0.0000000001
 40
0.0
 40
0.0
 40
0.0
 40
0.0
 40
0.1168967985
 40
0.2339190721
 40
0.3535655571
 40
0.476930309
 40
0.6040490048
 40
0.7342451506
 40
1.0
 40
1.0
 40
1.0
 40
1.0
 10
33.4100275431
 20
43.2838662739
 30
0.0
 10
33.4464161166
 20
43.2516679715
 30
0.0
 10
33.5128954257
 20
43.179717178
 30
0.0
 10
33.591649819
 20
43.0548998904
 30
0.0
 10
33.6522133641
 20
42.9175721731
 30
0.0
 10
33.697347905
 20
42.770210785
 30
0.0
 10
33.7298001315
 20
42.6151751978
 30
0.0
 10
33.7596509678
 20
42.3997014508
 30
0.0
 10
33.7674564959
 20
42.2348773772
 30
0.0
 10
33.7674570009
 20
42.1244151992
 30
0.0
  0
LINE
  5
3C5
100
AcDbEntity
  8
0
100
AcDbLine
 62
7
  6
CONTINUOUS
 10
33.7674568441
 20
44.1850288631
 11
33.6194341577
 21
44.1860488519
  0
SPLINE
  5
3C6
100
AcDbEntity
  8
0
100
AcDbSpline
 62
7
  6
CONTINUOUS
 70
0
 71
3
 72
14
 73
10
 74
0
 42
0.0000001
 43
0.0000001
 44
0.0000000001
 40
0.0
 40
0.0
 40
0.0
 40
0.0
 40
0.265852921
 40
0.3960616595
 40
0.5231646373
 40
0.6464893611
 40
0.7660872365
 40
0.8830802686
 40
1.0
 40
1.0
 40
1.0
 40
1.0
 10
8.7674498612
 20
42.1244415146
 30
0.0
 10
8.7674758366
 20
42.2352353543
 30
0.0
 10
8.7753352873
 20
42.4005390529
 30
0.0
 10
8.8053594157
 20
42.616607844
 30
0.0
 10
8.8380063387
 20
42.7720121002
 30
0.0
 10
8.8834395857
 20
42.9196643339
 30
0.0
 10
8.9444300017
 20
43.0571879103
 30
0.0
 10
9.0237725894
 20
43.1820761864
 30
0.0
 10
9.0907304208
 20
43.2539394766
 30
0.0
 10
9.1273637752
 20
43.2860678746
 30
0.0
  0
SPLINE
  5
3C7
100
AcDbEntity
  8
0
100
AcDbSpline
 62
7
  6
CONTINUOUS
 70
0
 71
3
 72
22
 73
18
 74
0
 42
0.0000001
 43
0.0000001
 44
0.0000000001
 40
0.0
 40
0.0
 40
0.0
 40
0.0
 40
0.0842872419
 40
0.1272880223
 40
0.1705849666
 40
0.2143272901
 40
0.2591533957
 40
0.3061586543
 40
0.3568121952
 40
0.4125391985
 40
0.4745978748
 40
0.6224480148
 40
0.7086250664
 40
0.8015531046
 40
0.8500719918
 40
0.8996280619
 40
1.0
 40
1.0
 40
1.0
 40
1.0
 10
8.7674569485
 20
41.3325582903
 30
0.0
 10
8.7675796131
 20
41.369038431
 30
0.0
 10
8.7726472291
 20
41.4243020197
 30
0.0
 10
8.7897871637
 20
41.4962059505
 30
0.0
 10
8.8084261657
 20
41.5494370822
 30
0.0
 10
8.8336050204
 20
41.6008321595
 30
0.0
 10
8.8667317178
 20
41.6495347576
 30
0.0
 10
8.9089968884
 20
41.6947651864
 30
0.0
 10
8.960915903
 20
41.7364439434
 30
0.0
 10
9.0230616665
 20
41.7748716579
 30
0.0
 10
9.1275456777
 20
41.8235297773
 30
0.0
 10
9.2528884875
 20
41.8548573092
 30
0.0
 10
9.3928541922
 20
41.8753023231
 30
0.0
 10
9.4909532422
 20
41.8848858066
 30
0.0
 10
9.5733703359
 20
41.8913363322
 30
0.0
 10
9.6590360204
 20
41.8972547363
 30
0.0
 10
9.7240771556
 20
41.8987223292
 30
0.0
 10
9.7674569115
 20
41.896398367
 30
0.0
  0
SPLINE
  5
3C8
100
AcDbEntity
  8
0
100
AcDbSpline
 62
7
  6
CONTINUOUS
 70
0
 71
3
 72
10
 73
6
 74
0
 42
0.0000001
 43
0.0000001
 44
0.0000000001
 40
0.0
 40
0.0
 40
0.0
 40
0.0
 40
0.2780702546
 40
0.5469719484
 40
1.0
 40
1.0
 40
1.0
 40
1.0
 10
15.7174568442
 20
53.9826039387
 30
0.0
 10
15.7579196679
 20
54.0230667625
 30
0.0
 10
15.8376556828
 20
54.1025138149
 30
0.0
 10
15.9827447472
 20
54.2484501855
 30
0.0
 10
16.0882145159
 20
54.3530811292
 30
0.0
 10
16.1539935216
 20
54.4191447152
 30
0.0
  0
SPLINE
  5
3C9
100
AcDbEntity
  8
0
100
AcDbSpline
 62
7
  6
CONTINUOUS
 70
0
 71
3
 72
15
 73
11
 74
0
 42
0.0000001
 43
0.0000001
 44
0.0000000001
 40
0.0
 40
0.0
 40
0.0
 40
0.0
 40
0.1524781815
 40
0.2933998599
 40
0.4234021092
 40
0.5439779967
 40
0.6579582549
 40
0.7694525481
 40
0.88239028
 40
1.0
 40
1.0
 40
1.0
 40
1.0
 10
10.2484504362
 20
40.5855003765
 30
0.0
 10
10.2838615096
 20
40.5850572007
 30
0.0
 10
10.352137468
 20
40.5879122487
 30
0.0
 10
10.449341607
 20
40.6047261059
 30
0.0
 10
10.5359466302
 20
40.6337512881
 30
0.0
 10
10.6105482545
 20
40.6749907499
 30
0.0
 10
10.6713719745
 20
40.7285547343
 30
0.0
 10
10.7176393779
 20
40.7928997974
 30
0.0
 10
10.7492415076
 20
40.8663929488
 30
0.0
 10
10.7603260978
 20
40.9191520524
 30
0.0
 10
10.763639869
 20
40.9462657685
 30
0.0
  0
SPLINE
  5
3CA
100
AcDbEntity
  8
0
100
AcDbSpline
 62
7
  6
CONTINUOUS
 70
0
 71
3
 72
9
 73
5
 74
0
 42
0.0000001
 43
0.0000001
 44
0.0000000001
 40
0.0
 40
0.0
 40
0.0
 40
0.0
 40
0.5172808751
 40
1.0
 40
1.0
 40
1.0
 40
1.0
 10
9.7673857185
 20
40.5865372873
 30
0.0
 10
9.8503347926
 20
40.5865371879
 30
0.0
 10
10.0106890897
 20
40.5869063979
 30
0.0
 10
10.1710496282
 20
40.586471003
 30
0.0
 10
10.2484504446
 20
40.5855012463
 30
0.0
  0
SPLINE
  5
3CB
100
AcDbEntity
  8
0
100
AcDbSpline
 62
7
  6
CONTINUOUS
 70
0
 71
3
 72
16
 73
12
 74
0
 42
0.0000001
 43
0.0000001
 44
0.0000000001
 40
0.0
 40
0.0
 40
0.0
 40
0.0
 40
0.1061651658
 40
0.2141060644
 40
0.3269507881
 40
0.4466044564
 40
0.5095294019
 40
0.5745628537
 40
0.710555465
 40
0.8534328742
 40
1.0
 40
1.0
 40
1.0
 40
1.0
 10
8.767456957
 20
41.3325550644
 30
0.0
 10
8.7675856521
 20
41.2835704449
 30
0.0
 10
8.7795871366
 20
41.184391303
 30
0.0
 10
8.8336274315
 20
41.0420478936
 30
0.0
 10
8.9229063417
 20
40.9111613644
 30
0.0
 10
9.0232035127
 20
40.8172311645
 30
0.0
 10
9.1176752244
 20
40.7527132031
 30
0.0
 10
9.2244831384
 20
40.6938596803
 30
0.0
 10
9.3733171495
 20
40.6364337331
 30
0.0
 10
9.5660232949
 20
40.5956848534
 30
0.0
 10
9.6997593965
 20
40.5865375799
 30
0.0
 10
9.767385718
 20
40.586531767
 30
0.0
  0
SPLINE
  5
3CC
100
AcDbEntity
  8
0
100
AcDbSpline
 62
7
  6
CONTINUOUS
 70
0
 71
3
 72
21
 73
17
 74
0
 42
0.0000001
 43
0.0000001
 44
0.0000000001
 40
0.0
 40
0.0
 40
0.0
 40
0.0
 40
0.1503921102
 40
0.2935393014
 40
0.3603635967
 40
0.4232768848
 40
0.4820187618
 40
0.5368504682
 40
0.5886528576
 40
0.6389464651
 40
0.6899593271
 40
0.7436154645
 40
0.8015538541
 40
0.8640039334
 40
0.9305166251
 40
1.0
 40
1.0
 40
1.0
 40
1.0
 10
25.7674568442
 20
53.482602114
 30
0.0
 10
25.767435512
 20
53.5940675118
 30
0.0
 10
25.7817646995
 20
53.811867961
 30
0.0
 10
25.8289531922
 20
54.0750197827
 30
0.0
 10
25.8716608634
 20
54.2726956402
 30
0.0
 10
25.9003003628
 20
54.4094325253
 30
0.0
 10
25.9218385865
 20
54.5385284862
 30
0.0
 10
25.931615386
 20
54.6609554469
 30
0.0
 10
25.9247419942
 20
54.7775777079
 30
0.0
 10
25.8967251809
 20
54.8884067018
 30
0.0
 10
25.8439622776
 20
54.9915590675
 30
0.0
 10
25.7656632444
 20
55.0844954814
 30
0.0
 10
25.6627272619
 20
55.163654404
 30
0.0
 10
25.538732039
 20
55.2269850964
 30
0.0
 10
25.3978486098
 20
55.2712154591
 30
0.0
 10
25.2979749796
 20
55.2873501056
 30
0.0
 10
25.2467008141
 20
55.2921534325
 30
0.0
  0
LINE
  5
3CD
100
AcDbEntity
  8
0
100
AcDbLine
 62
7
  6
CONTINUOUS
 10
8.9154849608
 20
44.1860487122
 11
8.7674568442
 21
44.1850288631
  0
ELLIPSE
  5
3CE
100
AcDbEntity
  8
0
100
AcDbEllipse
 62
7
  6
CONTINUOUS
 10
29.0674568442
 20
50.015781468
 30
0.0
 11
0.2
 21
-0.0
 31
0.0
 40
0.1051042353
 41
3.0368728985
 42
3.1415926536
  0
ELLIPSE
  5
3CF
100
AcDbEntity
  8
0
100
AcDbEllipse
 62
7
  6
CONTINUOUS
 10
25.5674568442
 20
50.015781468
 30
0.0
 11
0.2
 21
-0.0
 31
0.0
 40
0.1051042353
 41
0.0
 42
0.1047197551
  0
ELLIPSE
  5
3D0
100
AcDbEntity
  8
0
100
AcDbEllipse
 62
7
  6
CONTINUOUS
 10
16.9674568442
 20
50.015781468
 30
0.0
 11
0.2
 21
0.0
 31
0.0
 40
0.1051042353
 41
3.0368728985
 42
3.1415926536
  0
ELLIPSE
  5
3D1
100
AcDbEntity
  8
0
100
AcDbEllipse
 62
7
  6
CONTINUOUS
 10
13.4674568442
 20
50.015781468
 30
0.0
 11
0.2
 21
-0.0
 31
0.0
 40
0.1051042353
 41
0.0
 42
0.1047197551
  0
ENDSEC
  0
SECTION
  2
OBJECTS
  0
DICTIONARY
  5
C
100
AcDbDictionary
280
0
281
1
  3
ACAD_GROUP
350
D
  3
ACAD_MLINESTYLE
350
17
  3
ACAD_LAYOUT
350
1A
  3
ACAD_PLOTSETTINGS
350
19
  3
ACAD_PLOTSTYLENAME
350
E
  0
DICTIONARY
  5
D
102
{ACAD_REACTORS
330
C
102
}
100
AcDbDictionary
280
0
281
1
  0
ACDBDICTIONARYWDFLT
  5
E
102
{ACAD_REACTORS
330
C
102
}
100
AcDbDictionary
281
1
  3
Normal
350
F
100
AcDbDictionaryWithDefault
340
F
  0
DICTIONARY
  5
17
102
{ACAD_REACTORS
330
C
102
}
100
AcDbDictionary
280
0
281
1
  3
Standard
350
18
  0
DICTIONARY
  5
19
102
{ACAD_REACTORS
330
C
102
}
100
AcDbDictionary
281
1
  0
DICTIONARY
  5
1A
102
{ACAD_REACTORS
330
C
102
}
100
AcDbDictionary
281
1
  3
Model
350
3D2
  3
Layout1
350
3D3
  0
ACDBPLACEHOLDER
  5
F
102
{ACAD_REACTORS
330
E
102
}
  0
MLINESTYLE
  5
18
102
{ACAD_REACTORS
330
17
102
}
100
AcDbMlineStyle
  2
STANDARD
 70
0
  3

 62
256
 51
90.0
 52
90.0
 71
2
 49
0.5
 62
256
  6
BYLAYER
 49
-0.5
 62
256
  6
BYLAYER
  0
LAYOUT
  5
3D2
102
{ACAD_REACTORS
330
1A
102
}
100
AcDbPlotSettings
  1

  2
none_device
  4

  6

 40
0.0
 41
0.0
 42
0.0
 43
0.0
 44
210.0
 45
297.0
 46
0.0
 47
0.0
 48
0.0
 49
0.0
140
0.0
141
0.0
142
1.0
143
1.0
 70
1024
 72
1
 73
0
 74
0
  7

 75
0
147
1.0
148
0.0
149
0.0
100
AcDbLayout
  1
Model
 70
0
 71
0
 10
0.0
 20
0.0
 11
210.0
 21
297.0
 12
0.0
 22
0.0
 32
0.0
 14
0.0
 24
0.0
 34
0.0
 15
0.0
 25
0.0
 35
0.0
146
0.0
 13
0.0
 23
0.0
 33
0.0
 16
1.0
 26
0.0
 36
0.0
 17
0.0
 27
1.0
 37
0.0
 76
0
330
210
345
0
346
0
  0
LAYOUT
  5
3D3
102
{ACAD_REACTORS
330
1A
102
}
100
AcDbPlotSettings
  1

  2
none_device
  4

  6

 40
0.0
 41
0.0
 42
0.0
 43
0.0
 44
210.0
 45
297.0
 46
0.0
 47
0.0
 48
0.0
 49
0.0
140
0.0
141
0.0
142
1.0
143
1.0
 70
0
 72
1
 73
0
 74
0
  7

 75
0
147
1.0
148
0.0
149
0.0
100
AcDbLayout
  1
Layout1
 70
0
 71
1
 10
0.0
 20
0.0
 11
210.0
 21
297.0
 12
0.0
 22
0.0
 32
0.0
 14
0.0
 24
0.0
 34
0.0
 15
0.0
 25
0.0
 35
0.0
146
0.0
 13
0.0
 23
0.0
 33
0.0
 16
1.0
 26
0.0
 36
0.0
 17
0.0
 27
1.0
 37
0.0
 76
0
330
211
345
0
346
0
  0
ENDSEC
  0
EOF
