999
DXF file: C:\Users\sesa63760\Dev\_Creo\CAD\MCADPD0005309_3D-CAD\drw0001_3.dxf
999
Pro/ENGINEER 2019471 by Parametric Technology Corporation
  0
SECTION
  2
HEADER
  9
$ACADVER
  1
AC1024
  9
$DWGCODEPAGE
  3
ANSI_1252
  9
$EXTMAX
 10
178.4856883938
 20
252.4297592998
 30
0.0
  9
$EXTMIN
 10
0.0
 20
0.0
 30
0.0
  9
$LIMMIN
 10
0.0
 20
0.0
  9
$LIMMAX
 10
178.4856883938
 20
252.4297592998
  9
$VIEWCTR
 10
89.2428441969
 20
126.2148796499
  9
$VIEWSIZE
 40
252.4297592998
  9
$CLAYER
  8
0
  9
$LTSCALE
 40
16.4546806062
  9
$CELTYPE
  6
BYLAYER
  9
$DIMSCALE
 40
1.0
  9
$DIMASZ
 40
2.1248296237
  9
$DIMEXO
 40
1.0
  9
$DIMDLI
 40
11.3686884188
  9
$DIMEXE
 40
1.0
  9
$DIMCEN
 40
2.6925840992
  9
$DIMLFAC
 40
1.0
  9
$DIMBLK
  1
_FILLED
  9
$DIMALT
 70
0
  9
$DIMALTF
 40
0.0393700787
  9
$DIMTXT
 40
2.9747614732
  9
$DIMTOL
 70
1
  9
$DIMLIM
 70
0
  9
$DIMTFAC
 40
1.0
  9
$DIMTP
 40
0.01
  9
$DIMTM
 40
0.01
  9
$DIMGAP
 40
0.625
  9
$DIMDSEP
 70
46
  9
$AUNITS
 70
0
  9
$PDMODE
 70
3
  9
$PDSIZE
 40
0.3125
  9
$HANDSEED
  5
264
  9
$TILEMODE
 70
1
  9
$MEASUREMENT
 70
1
  9
$INSUNITS
 70
4
  0
ENDSEC
  0
SECTION
  2
CLASSES
  0
CLASS
  1
ACDBDICTIONARYWDFLT
  2
AcDbDictionaryWithDefault
  3
AutoCAD 2000
 90
0
 91
1
280
0
281
0
  0
CLASS
  1
ACDBPLACEHOLDER
  2
AcDbPlaceHolder
  3
AutoCAD 2000
 90
0
 91
1
280
0
281
0
  0
CLASS
  1
LAYOUT
  2
AcDbLayout
  3
AutoCAD 2000
 90
0
 91
0
280
0
281
0
  0
ENDSEC
  0
SECTION
  2
TABLES
  0
TABLE
  2
VPORT
  5
8
100
AcDbSymbolTable
 70
2
  0
VPORT
  5
1F4
100
AcDbSymbolTableRecord
100
AcDbViewportTableRecord
  2
*ACTIVE
 70
0
 10
0.0
 20
0.0
 11
1.0
 21
1.0
 12
89.2428441969
 22
126.2148796499
 13
0.0
 23
0.0
 14
1.0
 24
1.0
 15
0.0
 25
0.0
 16
0.0
 26
0.0
 36
1.0
 17
0.0
 27
0.0
 37
0.0
 40
252.4297592998
 41
0.7070707071
 42
50.0
 43
0.0
 44
0.0
 50
0.0
 51
0.0
 71
0
 72
100
 73
1
 74
1
 75
0
 76
0
 77
0
 78
0
  0
ENDTAB
  0
TABLE
  2
LTYPE
  5
5
100
AcDbSymbolTable
 70
6
  0
LTYPE
  5
14
100
AcDbSymbolTableRecord
100
AcDbLinetypeTableRecord
  2
BYBLOCK
 70
0
  3

 72
65
 73
0
 40
0.0
  0
LTYPE
  5
15
100
AcDbSymbolTableRecord
100
AcDbLinetypeTableRecord
  2
BYLAYER
 70
0
  3

 72
65
 73
0
 40
0.0
  0
LTYPE
  5
16
100
AcDbSymbolTableRecord
100
AcDbLinetypeTableRecord
  2
CONTINUOUS
 70
64
  3
Solid line
 72
65
 73
0
 40
0.0
  0
LTYPE
  5
1F5
100
AcDbSymbolTableRecord
100
AcDbLinetypeTableRecord
  2
CENTER
 70
64
  3
____ _ ____ _ ____ _ ____ _ ____ _ ____ _ ____
 72
65
 73
4
 40
0.6
 49
0.375
 74
0
 49
-0.075
 74
0
 49
0.075
 74
0
 49
-0.075
 74
0
  0
LTYPE
  5
1F6
100
AcDbSymbolTableRecord
100
AcDbLinetypeTableRecord
  2
HIDDEN
 70
64
  3
- - - - - - - - - - - - - - - - - - - -
 72
65
 73
2
 40
0.2
 49
0.1
 74
0
 49
-0.1
 74
0
  0
LTYPE
  5
1F7
100
AcDbSymbolTableRecord
100
AcDbLinetypeTableRecord
  2
PHANTOM
 70
64
  3
_____ _ _ _____ _ _ _____ _ _ _____
 72
65
 73
6
 40
0.8
 49
0.45
 74
0
 49
-0.05
 74
0
 49
0.1
 74
0
 49
-0.05
 74
0
 49
0.1
 74
0
 49
-0.05
 74
0
  0
LTYPE
  5
1F8
100
AcDbSymbolTableRecord
100
AcDbLinetypeTableRecord
  2
DOT
 70
64
  3
. . . . . . . . . . . . . . . . . . . .
 72
65
 73
2
 40
0.2
 49
0.1
 74
0
 49
-0.1
 74
0
  0
LTYPE
  5
1F9
100
AcDbSymbolTableRecord
100
AcDbLinetypeTableRecord
  2
DASHED
 70
64
  3
- - - - - - - - - - - - - - - - - - - -
 72
65
 73
2
 40
0.2
 49
0.1
 74
0
 49
-0.1
 74
0
  0
ENDTAB
  0
TABLE
  2
LAYER
  5
2
100
AcDbSymbolTable
 70
36
  0
LAYER
  5
10
100
AcDbSymbolTableRecord
100
AcDbLayerTableRecord
  2
0
 70
0
 62
7
  6
CONTINUOUS
370
-3
390
F
  0
LAYER
  5
1FA
100
AcDbSymbolTableRecord
100
AcDbLayerTableRecord
  2
DEFAULT_1
 70
0
 62
7
  6
CENTER
370
-3
390
F
  0
LAYER
  5
1FB
100
AcDbSymbolTableRecord
100
AcDbLayerTableRecord
  2
DEFAULT_2
 70
0
 62
7
  6
HIDDEN
370
-3
390
F
  0
LAYER
  5
1FC
100
AcDbSymbolTableRecord
100
AcDbLayerTableRecord
  2
DEFAULT_3
 70
0
 62
7
  6
PHANTOM
370
-3
390
F
  0
LAYER
  5
1FD
100
AcDbSymbolTableRecord
100
AcDbLayerTableRecord
  2
00_COMPONENTS
 70
0
 62
7
  6
CONTINUOUS
370
-3
390
F
  0
LAYER
  5
1FE
100
AcDbSymbolTableRecord
100
AcDbLayerTableRecord
  2
01_1_DEFAULT_DATUMS
 70
0
 62
7
  6
CONTINUOUS
370
-3
390
F
  0
LAYER
  5
1FF
100
AcDbSymbolTableRecord
100
AcDbLayerTableRecord
  2
01_PLANES
 70
0
 62
7
  6
CONTINUOUS
370
-3
390
F
  0
LAYER
  5
200
100
AcDbSymbolTableRecord
100
AcDbLayerTableRecord
  2
02_COORD_SYS
 70
0
 62
7
  6
CONTINUOUS
370
-3
390
F
  0
LAYER
  5
201
100
AcDbSymbolTableRecord
100
AcDbLayerTableRecord
  2
03_AXES
 70
0
 62
7
  6
CONTINUOUS
370
-3
390
F
  0
LAYER
  5
202
100
AcDbSymbolTableRecord
100
AcDbLayerTableRecord
  2
04_POINTS
 70
0
 62
7
  6
CONTINUOUS
370
-3
390
F
  0
LAYER
  5
203
100
AcDbSymbolTableRecord
100
AcDbLayerTableRecord
  2
05_CURVES
 70
0
 62
7
  6
CONTINUOUS
370
-3
390
F
  0
LAYER
  5
204
100
AcDbSymbolTableRecord
100
AcDbLayerTableRecord
  2
06_SURFS
 70
0
 62
7
  6
CONTINUOUS
370
-3
390
F
  0
LAYER
  5
205
100
AcDbSymbolTableRecord
100
AcDbLayerTableRecord
  2
07_COSMETICS
 70
0
 62
7
  6
CONTINUOUS
370
-3
390
F
  0
LAYER
  5
206
100
AcDbSymbolTableRecord
100
AcDbLayerTableRecord
  2
10_NOTES
 70
0
 62
7
  6
CONTINUOUS
370
-3
390
F
  0
LAYER
  5
207
100
AcDbSymbolTableRecord
100
AcDbLayerTableRecord
  2
11_NOTES_PUB
 70
0
 62
7
  6
CONTINUOUS
370
-3
390
F
  0
LAYER
  5
208
100
AcDbSymbolTableRecord
100
AcDbLayerTableRecord
  2
13_REF_GTOL
 70
0
 62
7
  6
CONTINUOUS
370
-3
390
F
  0
LAYER
  5
209
100
AcDbSymbolTableRecord
100
AcDbLayerTableRecord
  2
16_MISC
 70
0
 62
7
  6
CONTINUOUS
370
-3
390
F
  0
LAYER
  5
20A
100
AcDbSymbolTableRecord
100
AcDbLayerTableRecord
  2
17_NO_PRINT
 70
0
 62
7
  6
CONTINUOUS
370
-3
390
F
  0
LAYER
  5
20B
100
AcDbSymbolTableRecord
100
AcDbLayerTableRecord
  2
18_DATUM_CAMS_JOINTS
 70
0
 62
7
  6
CONTINUOUS
370
-3
390
F
  0
LAYER
  5
20C
100
AcDbSymbolTableRecord
100
AcDbLayerTableRecord
  2
19_DATUM_FUNCTIONAL
 70
0
 62
7
  6
CONTINUOUS
370
-3
390
F
  0
LAYER
  5
20D
100
AcDbSymbolTableRecord
100
AcDbLayerTableRecord
  2
20_DATUM_KINEMATIC_SCHEME
 70
0
 62
7
  6
CONTINUOUS
370
-3
390
F
  0
ENDTAB
  0
TABLE
  2
STYLE
  5
3
100
AcDbSymbolTable
 70
1
  0
STYLE
  5
11
100
AcDbSymbolTableRecord
100
AcDbTextStyleTableRecord
  2
STANDARD
 70
0
 40
0.0
 41
1.0
 50
0.0
 71
0
 42
0.2
  3
ARIAL.TTF
  4

  0
STYLE
  5
20E
100
AcDbSymbolTableRecord
100
AcDbTextStyleTableRecord
  2
TEXTSTYLE_1
 70
0
 40
0.0
 41
0.8
 50
0.0
 71
0
 42
0.2
  3
gdt
  4

  0
ENDTAB
  0
TABLE
  2
VIEW
  5
6
100
AcDbSymbolTable
 70
0
  0
ENDTAB
  0
TABLE
  2
UCS
  5
7
100
AcDbSymbolTable
 70
0
  0
ENDTAB
  0
TABLE
  2
APPID
  5
9
100
AcDbSymbolTable
 70
1
  0
APPID
  5
20F
100
AcDbSymbolTableRecord
100
AcDbRegAppTableRecord
  2
ACAD
 70
0
  0
ENDTAB
  0
TABLE
  2
BLOCK_RECORD
  5
1
100
AcDbSymbolTable
 70
0
  0
BLOCK_RECORD
  5
210
100
AcDbSymbolTableRecord
100
AcDbBlockTableRecord
  2
*Model_Space
  0
BLOCK_RECORD
  5
211
100
AcDbSymbolTableRecord
100
AcDbBlockTableRecord
  2
*Paper_Space
  0
BLOCK_RECORD
  5
212
100
AcDbSymbolTableRecord
100
AcDbBlockTableRecord
  2
_FILLED
  0
ENDTAB
  0
TABLE
  2
DIMSTYLE
  5
A
100
AcDbSymbolTable
 70
1
100
AcDbDimStyleTable
 71
0
  0
DIMSTYLE
105
213
100
AcDbSymbolTableRecord
100
AcDbDimStyleTableRecord
  2
STANDARD
 70
0
  3

  4

 40
1.0
 41
2.1248296237
 42
1.0
 43
0.38
 44
1.0
 45
0.0
 46
0.0
 47
0.01
 48
0.01
140
2.9747614732
141
0.09
142
0.0
143
25.4
144
1.0
145
0.0
146
1.0
147
0.625
 71
1
 72
0
 73
0
 74
0
 75
0
 76
0
 77
1
 78
8
 79
2
170
0
171
1
172
0
173
0
174
0
175
0
176
0
177
0
178
0
270
2
179
2
271
2
272
2
273
2
274
2
275
0
280
0
281
0
282
0
283
1
284
8
285
0
286
0
287
3
288
0
340
11
278
46
341
212
342
212
343
212
344
212
  0
ENDTAB
  0
ENDSEC
  0
SECTION
  2
BLOCKS
  0
BLOCK
  5
20
100
AcDbEntity
  8
0
100
AcDbBlockBegin
  2
*Model_Space
 70
0
 10
0.0
 20
0.0
 30
0.0
  3
*Model_Space
  1

  0
ENDBLK
  5
21
100
AcDbEntity
  8
0
100
AcDbBlockEnd
  0
BLOCK
  5
1C
100
AcDbEntity
  8
0
100
AcDbBlockBegin
  2
*Paper_Space
 70
0
 10
0.0
 20
0.0
 30
0.0
  3
*Paper_Space
  1

  0
ENDBLK
  5
1D
100
AcDbEntity
  8
0
100
AcDbBlockEnd
  0
BLOCK
  5
214
100
AcDbEntity
  8
0
100
AcDbBlockBegin
  2
_FILLED
 70
64
 10
0.0
 20
0.0
  3
_FILLED
  1

  0
SOLID
  5
215
100
AcDbEntity
  8
0
  6
BYBLOCK
 62
0
100
AcDbTrace
 10
0.0
 20
0.0
 11
-1.0
 21
0.25
 12
-1.0
 22
-0.25
 13
-1.0
 23
-0.25
  0
ENDBLK
  5
216
100
AcDbEntity
  8
0
  6
BYBLOCK
 62
0
100
AcDbBlockEnd
  0
ENDSEC
  0
SECTION
  2
ENTITIES
  0
LINE
  5
217
100
AcDbEntity
  8
0
100
AcDbLine
 62
7
  6
BYLAYER
 10
160.8146166258
 20
50.7328227571
 11
55.4146166258
 21
50.7328227571
  0
LINE
  5
218
100
AcDbEntity
  8
0
100
AcDbLine
 62
7
  6
BYLAYER
 10
45.6146166258
 20
50.7328227571
 11
55.3558503436
 21
50.7328227571
  0
LINE
  5
219
100
AcDbEntity
  8
0
100
AcDbLine
 62
7
  6
BYLAYER
 10
21.1146166258
 20
107.7328227571
 11
21.1146166258
 21
202.9328227571
  0
LINE
  5
21A
100
AcDbEntity
  8
0
100
AcDbLine
 62
7
  6
BYLAYER
 10
23.1146166258
 20
188.4328227571
 11
23.1146166258
 21
137.9328227571
  0
LINE
  5
21B
100
AcDbEntity
  8
0
100
AcDbLine
 62
7
  6
BYLAYER
 10
44.1146166258
 20
52.2328227571
 11
162.3146166258
 21
52.2328227571
  0
LINE
  5
21C
100
AcDbEntity
  8
0
100
AcDbLine
 62
7
  6
BYLAYER
 10
24.6146166258
 20
115.2328227571
 11
24.6146166258
 21
105.7328227571
  0
LINE
  5
21D
100
AcDbEntity
  8
0
100
AcDbLine
 62
7
  6
BYLAYER
 10
26.1146166258
 20
184.9328227571
 11
26.1146166258
 21
159.9328227571
  0
LINE
  5
21E
100
AcDbEntity
  8
0
100
AcDbLine
 62
7
  6
BYLAYER
 10
21.1146166258
 20
135.9328227571
 11
23.1146166258
 21
137.9328227571
  0
LINE
  5
21F
100
AcDbEntity
  8
0
100
AcDbLine
 62
7
  6
BYLAYER
 10
162.3146166258
 20
68.3328227571
 11
84.4449194056
 21
68.3328227571
  0
LINE
  5
220
100
AcDbEntity
  8
0
100
AcDbLine
 62
7
  6
BYLAYER
 10
87.2806271143
 20
72.3328227571
 11
158.3145019225
 21
72.3328227571
  0
LINE
  5
221
100
AcDbEntity
  8
0
100
AcDbLine
 62
7
  6
BYLAYER
 10
44.1146166258
 20
105.7328227571
 11
44.1146166258
 21
52.2328227571
  0
LINE
  5
222
100
AcDbEntity
  8
0
100
AcDbLine
 62
7
  6
BYLAYER
 10
45.9512835698
 20
81.7328228328
 11
45.9512835698
 21
52.2328227571
  0
LINE
  5
223
100
AcDbEntity
  8
0
100
AcDbLine
 62
7
  6
BYLAYER
 10
46.1146166258
 20
159.9328227571
 11
46.1146166258
 21
184.9328227571
  0
LINE
  5
224
100
AcDbEntity
  8
0
100
AcDbLine
 62
7
  6
BYLAYER
 10
47.784313846
 20
81.7328227512
 11
47.784313846
 21
50.7328227571
  0
LINE
  5
225
100
AcDbEntity
  8
0
100
AcDbLine
 62
7
  6
BYLAYER
 10
86.2779496836
 20
81.732822749
 11
45.951283568
 21
81.732822943
  0
LINE
  5
226
100
AcDbEntity
  8
0
100
AcDbLine
 62
7
  6
BYLAYER
 10
55.3558503436
 20
50.7328227571
 11
55.3558503436
 21
52.2328227571
  0
LINE
  5
227
100
AcDbEntity
  8
0
100
AcDbLine
 62
7
  6
BYLAYER
 10
55.4146166258
 20
52.2328227571
 11
55.4146166258
 21
50.7328227571
  0
LINE
  5
228
100
AcDbEntity
  8
0
100
AcDbLine
 62
7
  6
BYLAYER
 10
56.1146166258
 20
184.9328227571
 11
56.1146166258
 21
159.9328227571
  0
LINE
  5
229
100
AcDbEntity
  8
0
100
AcDbLine
 62
7
  6
BYLAYER
 10
57.3968187394
 20
89.7328227571
 11
74.8324145147
 21
89.7328227571
  0
LINE
  5
22A
100
AcDbEntity
  8
0
100
AcDbLine
 62
7
  6
BYLAYER
 10
56.5250389482
 20
91.7328227571
 11
75.7041943007
 21
91.7328227571
  0
LINE
  5
22B
100
AcDbEntity
  8
0
100
AcDbLine
 62
7
  6
BYLAYER
 10
61.1146166258
 20
202.9328227571
 11
61.1146166258
 21
195.9328227571
  0
LINE
  5
22C
100
AcDbEntity
  8
0
100
AcDbLine
 62
7
  6
BYLAYER
 10
111.1146166258
 20
190.4328227571
 11
109.1146166258
 21
188.4328227571
  0
LINE
  5
22D
100
AcDbEntity
  8
0
100
AcDbLine
 62
7
  6
BYLAYER
 10
70.9209189867
 20
197.9328227571
 11
70.9209189867
 21
202.9328227571
  0
LINE
  5
22E
100
AcDbEntity
  8
0
100
AcDbLine
 62
7
  6
BYLAYER
 10
23.1146166258
 20
105.7328227571
 11
109.1146166258
 21
105.7328227571
  0
LINE
  5
22F
100
AcDbEntity
  8
0
100
AcDbLine
 62
7
  6
BYLAYER
 10
73.9774169743
 20
202.9328227571
 11
73.9774169743
 21
197.9328227571
  0
LINE
  5
230
100
AcDbEntity
  8
0
100
AcDbLine
 62
7
  6
BYLAYER
 10
76.1146166258
 20
159.9328227571
 11
76.1146166258
 21
184.9328227571
  0
LINE
  5
231
100
AcDbEntity
  8
0
100
AcDbLine
 62
7
  6
BYLAYER
 10
21.1146166258
 20
107.7328227571
 11
111.1146166258
 21
107.7328227571
  0
LINE
  5
232
100
AcDbEntity
  8
0
100
AcDbLine
 62
7
  6
BYLAYER
 10
111.1146166258
 20
113.2328227571
 11
21.1146166258
 21
113.2328227571
  0
LINE
  5
233
100
AcDbEntity
  8
0
100
AcDbLine
 62
7
  6
BYLAYER
 10
84.4449194056
 20
68.3328227571
 11
84.4449194056
 21
81.7328227538
  0
LINE
  5
234
100
AcDbEntity
  8
0
100
AcDbLine
 62
7
  6
BYLAYER
 10
23.1146166258
 20
115.2328227571
 11
109.1146166258
 21
115.2328227571
  0
LINE
  5
235
100
AcDbEntity
  8
0
100
AcDbLine
 62
7
  6
BYLAYER
 10
86.1146166258
 20
184.9328227571
 11
86.1146166258
 21
159.9328227571
  0
LINE
  5
236
100
AcDbEntity
  8
0
100
AcDbLine
 62
7
  6
BYLAYER
 10
86.2779496836
 20
71.1893941285
 11
86.2779496836
 21
81.7328227569
  0
LINE
  5
237
100
AcDbEntity
  8
0
100
AcDbLine
 62
7
  6
BYLAYER
 10
88.1146166258
 20
105.7328227571
 11
88.1146166258
 21
72.3328227571
  0
LINE
  5
238
100
AcDbEntity
  8
0
100
AcDbLine
 62
7
  6
BYLAYER
 10
88.2518162772
 20
202.9328227571
 11
88.2518162772
 21
197.9328227571
  0
LINE
  5
239
100
AcDbEntity
  8
0
100
AcDbLine
 62
7
  6
BYLAYER
 10
91.3083142648
 20
202.9328227571
 11
91.3083142648
 21
197.9328227571
  0
LINE
  5
23A
100
AcDbEntity
  8
0
100
AcDbLine
 62
7
  6
BYLAYER
 10
21.1146166258
 20
190.4328227571
 11
23.1146166258
 21
188.4328227571
  0
LINE
  5
23B
100
AcDbEntity
  8
0
100
AcDbLine
 62
7
  6
BYLAYER
 10
101.1146166258
 20
195.9328227571
 11
101.1146166258
 21
202.9328227571
  0
LINE
  5
23C
100
AcDbEntity
  8
0
100
AcDbLine
 62
7
  6
BYLAYER
 10
106.1146166258
 20
159.9328227571
 11
106.1146166258
 21
184.9328227571
  0
LINE
  5
23D
100
AcDbEntity
  8
0
100
AcDbLine
 62
7
  6
BYLAYER
 10
111.1146166258
 20
135.9328227571
 11
21.1146166258
 21
135.9328227571
  0
LINE
  5
23E
100
AcDbEntity
  8
0
100
AcDbLine
 62
7
  6
BYLAYER
 10
23.1146166258
 20
137.9328227571
 11
109.1146166258
 21
137.9328227571
  0
LINE
  5
23F
100
AcDbEntity
  8
0
100
AcDbLine
 62
7
  6
BYLAYER
 10
107.6146166258
 20
105.7328227571
 11
107.6146166258
 21
115.2328227571
  0
LINE
  5
240
100
AcDbEntity
  8
0
100
AcDbLine
 62
7
  6
BYLAYER
 10
109.1146166258
 20
137.9328227571
 11
109.1146166258
 21
188.4328227571
  0
LINE
  5
241
100
AcDbEntity
  8
0
100
AcDbLine
 62
7
  6
BYLAYER
 10
111.1146166258
 20
107.7328227571
 11
111.1146166258
 21
202.9328227571
  0
LINE
  5
242
100
AcDbEntity
  8
0
100
AcDbLine
 62
7
  6
BYLAYER
 10
111.1146166258
 20
135.9328227571
 11
109.1146166258
 21
137.9328227571
  0
LINE
  5
243
100
AcDbEntity
  8
0
100
AcDbLine
 62
7
  6
BYLAYER
 10
26.1146166258
 20
159.9328227571
 11
46.1146166258
 21
159.9328227571
  0
LINE
  5
244
100
AcDbEntity
  8
0
100
AcDbLine
 62
7
  6
BYLAYER
 10
56.1146166258
 20
159.9328227571
 11
76.1146166258
 21
159.9328227571
  0
LINE
  5
245
100
AcDbEntity
  8
0
100
AcDbLine
 62
7
  6
BYLAYER
 10
86.1146166258
 20
159.9328227571
 11
106.1146166258
 21
159.9328227571
  0
LINE
  5
246
100
AcDbEntity
  8
0
100
AcDbLine
 62
7
  6
BYLAYER
 10
152.3146166258
 20
50.7328227571
 11
152.3146166258
 21
72.3328227571
  0
LINE
  5
247
100
AcDbEntity
  8
0
100
AcDbLine
 62
7
  6
BYLAYER
 10
106.1146166258
 20
184.9328227571
 11
86.1146166258
 21
184.9328227571
  0
LINE
  5
248
100
AcDbEntity
  8
0
100
AcDbLine
 62
7
  6
BYLAYER
 10
76.1146166258
 20
184.9328227571
 11
56.1146166258
 21
184.9328227571
  0
LINE
  5
249
100
AcDbEntity
  8
0
100
AcDbLine
 62
7
  6
BYLAYER
 10
46.1146166258
 20
184.9328227571
 11
26.1146166258
 21
184.9328227571
  0
LINE
  5
24A
100
AcDbEntity
  8
0
100
AcDbLine
 62
7
  6
BYLAYER
 10
109.1146166258
 20
188.4328227571
 11
23.1146166258
 21
188.4328227571
  0
LINE
  5
24B
100
AcDbEntity
  8
0
100
AcDbLine
 62
7
  6
BYLAYER
 10
21.1146166258
 20
190.4328227571
 11
111.1146166258
 21
190.4328227571
  0
LINE
  5
24C
100
AcDbEntity
  8
0
100
AcDbLine
 62
7
  6
BYLAYER
 10
101.1146166258
 20
195.9328227571
 11
61.1146166258
 21
195.9328227571
  0
LINE
  5
24D
100
AcDbEntity
  8
0
100
AcDbLine
 62
7
  6
BYLAYER
 10
162.3146166258
 20
68.3328227571
 11
162.3146166258
 21
52.2328227571
  0
LINE
  5
24E
100
AcDbEntity
  8
0
100
AcDbLine
 62
7
  6
BYLAYER
 10
63.1146166258
 20
197.9328227571
 11
99.1146166258
 21
197.9328227571
  0
LINE
  5
24F
100
AcDbEntity
  8
0
100
AcDbLine
 62
7
  6
BYLAYER
 10
111.1146166258
 20
202.9328227571
 11
21.1146166258
 21
202.9328227571
  0
ARC
  5
250
100
AcDbEntity
  8
0
100
AcDbCircle
 62
7
  6
BYLAYER
 10
158.3146166258
 20
68.3328227571
 40
4.0
100
AcDbArc
 50
0.0
 51
90.0
  0
ARC
  5
251
100
AcDbEntity
  8
0
100
AcDbCircle
 62
7
  6
BYLAYER
 10
23.1146166258
 20
107.7328227571
 40
2.0
100
AcDbArc
 50
180.0
 51
269.9999999999
  0
ARC
  5
252
100
AcDbEntity
  8
0
100
AcDbCircle
 62
7
  6
BYLAYER
 10
109.1146166258
 20
107.7328227571
 40
2.0
100
AcDbArc
 50
270.0000000001
 51
360.0
  0
ARC
  5
253
100
AcDbEntity
  8
0
100
AcDbCircle
 62
7
  6
BYLAYER
 10
109.1146166258
 20
113.2328227571
 40
2.0
100
AcDbArc
 50
0.0
 51
89.9999999999
  0
ARC
  5
254
100
AcDbEntity
  8
0
100
AcDbCircle
 62
7
  6
BYLAYER
 10
23.1146166258
 20
113.2328227571
 40
2.0
100
AcDbArc
 50
90.0000000001
 51
180.0
  0
ARC
  5
255
100
AcDbEntity
  8
0
100
AcDbCircle
 62
7
  6
BYLAYER
 10
160.8146166258
 20
52.2328227571
 40
1.5
100
AcDbArc
 50
270.0
 51
360.0
  0
ARC
  5
256
100
AcDbEntity
  8
0
100
AcDbCircle
 62
7
  6
BYLAYER
 10
45.6146166258
 20
52.2328227571
 40
1.5
100
AcDbArc
 50
180.0
 51
270.0
  0
SPLINE
  5
257
100
AcDbEntity
  8
0
100
AcDbSpline
 62
7
  6
BYLAYER
 70
0
 71
3
 72
11
 73
7
 74
0
 42
0.0000001
 43
0.0000001
 44
0.0000000001
 40
0.0
 40
0.0
 40
0.0
 40
0.0
 40
0.2699682592
 40
0.5333223769
 40
0.7810708907
 40
1.0
 40
1.0
 40
1.0
 40
1.0
 10
84.4449194056
 20
68.3328227571
 30
0.0
 10
84.6214561728
 20
68.5824834475
 30
0.0
 10
84.9701727082
 20
69.0756749498
 30
0.0
 10
85.4721059656
 20
69.804371013
 30
0.0
 10
85.9190011271
 20
70.4998484011
 30
0.0
 10
86.177089409
 20
70.9628708964
 30
0.0
 10
86.2779496836
 20
71.1893941285
 30
0.0
  0
SPLINE
  5
258
100
AcDbEntity
  8
0
100
AcDbSpline
 62
7
  6
BYLAYER
 70
0
 71
3
 72
12
 73
8
 74
0
 42
0.0000001
 43
0.0000001
 44
0.0000000001
 40
0.0
 40
0.0
 40
0.0
 40
0.0
 40
0.1567203561
 40
0.2559347346
 40
0.3714891064
 40
0.6532021067
 40
1.0
 40
1.0
 40
1.0
 40
1.0
 10
87.2806271143
 20
72.3328227571
 30
0.0
 10
87.1982279123
 20
72.3328227571
 30
0.0
 10
87.0652583417
 20
72.279524511
 30
0.0
 10
86.9109656748
 20
72.1608852546
 30
0.0
 10
86.7272402319
 20
71.9738311364
 30
0.0
 10
86.5026827649
 20
71.6510512461
 30
0.0
 10
86.3521161506
 20
71.3559654363
 30
0.0
 10
86.2779496836
 20
71.1893941285
 30
0.0
  0
SPLINE
  5
259
100
AcDbEntity
  8
0
100
AcDbSpline
 62
7
  6
BYLAYER
 70
0
 71
3
 72
18
 73
14
 74
0
 42
0.0000001
 43
0.0000001
 44
0.0000000001
 40
0.0
 40
0.0
 40
0.0
 40
0.0
 40
0.1498880394
 40
0.2213097438
 40
0.2889748592
 40
0.4117084488
 40
0.4680092285
 40
0.5223268916
 40
0.5760430877
 40
0.6303972958
 40
0.7442052106
 40
0.8674381101
 40
1.0
 40
1.0
 40
1.0
 40
1.0
 10
86.2779496836
 20
81.7328227569
 30
0.0
 10
86.2779486831
 20
82.5854817359
 30
0.0
 10
86.2038686783
 20
83.846975275
 30
0.0
 10
85.9287474258
 20
85.4695648016
 30
0.0
 10
85.5526433555
 20
86.9112809852
 30
0.0
 10
84.9859869687
 20
88.2156458421
 30
0.0
 10
84.190373965
 20
89.2847815446
 30
0.0
 10
83.5155140228
 20
89.9377696854
 30
0.0
 10
82.7539867251
 20
90.4672504951
 30
0.0
 10
81.6193465606
 20
91.0290726172
 30
0.0
 10
80.0079490958
 20
91.4719150222
 30
0.0
 10
77.9143074516
 20
91.7024399087
 30
0.0
 10
76.4582910658
 20
91.7328156683
 30
0.0
 10
75.7041943007
 20
91.7328227571
 30
0.0
  0
SPLINE
  5
25A
100
AcDbEntity
  8
0
100
AcDbSpline
 62
7
  6
BYLAYER
 70
0
 71
3
 72
15
 73
11
 74
0
 42
0.0000001
 43
0.0000001
 44
0.0000000001
 40
0.0
 40
0.0
 40
0.0
 40
0.0
 40
0.0693687322
 40
0.1523587012
 40
0.2562193672
 40
0.3820030408
 40
0.5270141989
 40
0.6839655475
 40
0.8441740126
 40
1.0
 40
1.0
 40
1.0
 40
1.0
 10
74.8324187564
 20
89.732822757
 30
0.0
 10
74.8865166228
 20
89.7328227565
 30
0.0
 10
75.0061641258
 20
89.7600848547
 30
0.0
 10
75.1727740101
 20
89.8768805373
 30
0.0
 10
75.3261476635
 20
90.0692621465
 30
0.0
 10
75.462281021
 20
90.3292639694
 30
0.0
 10
75.5706033891
 20
90.6457999265
 30
0.0
 10
75.6494160932
 20
90.9981234292
 30
0.0
 10
75.6943228245
 20
91.3647429294
 30
0.0
 10
75.7041991436
 20
91.6113003769
 30
0.0
 10
75.7041991538
 20
91.7328227571
 30
0.0
  0
SPLINE
  5
25B
100
AcDbEntity
  8
0
100
AcDbSpline
 62
7
  6
BYLAYER
 70
0
 71
3
 72
16
 73
12
 74
0
 42
0.0000001
 43
0.0000001
 44
0.0000000001
 40
0.0
 40
0.0
 40
0.0
 40
0.0
 40
0.13809956
 40
0.2679905346
 40
0.3860380674
 40
0.4418261445
 40
0.4968302459
 40
0.6089365065
 40
0.7294283454
 40
0.8600872731
 40
1.0
 40
1.0
 40
1.0
 40
1.0
 10
47.7843047711
 20
81.7328227528
 30
0.0
 10
47.7843272395
 20
82.4055910128
 30
0.0
 10
47.8714998241
 20
83.7133843697
 30
0.0
 10
48.2897089144
 20
85.5568646106
 30
0.0
 10
48.9500398426
 20
86.9052233289
 30
0.0
 10
49.6703488941
 20
87.7623917137
 30
0.0
 10
50.4979279293
 20
88.472619779
 30
0.0
 10
51.7674132151
 20
89.1125286034
 30
0.0
 10
53.497149678
 20
89.5250382335
 30
0.0
 10
55.3965676055
 20
89.7102246913
 30
0.0
 10
56.7152141543
 20
89.7328164048
 30
0.0
 10
57.3968154705
 20
89.7328227571
 30
0.0
  0
SPLINE
  5
25C
100
AcDbEntity
  8
0
100
AcDbSpline
 62
7
  6
BYLAYER
 70
0
 71
3
 72
16
 73
12
 74
0
 42
0.0000001
 43
0.0000001
 44
0.0000000001
 40
0.0
 40
0.0
 40
0.0
 40
0.0
 40
0.1400006198
 40
0.2707416572
 40
0.3912689463
 40
0.5033741587
 40
0.5583775156
 40
0.6141631572
 40
0.7321896091
 40
0.8620246028
 40
1.0
 40
1.0
 40
1.0
 40
1.0
 10
74.8324149353
 20
89.7328227571
 30
0.0
 10
75.5144439632
 20
89.7328121072
 30
0.0
 10
76.8339162352
 20
89.7102079407
 30
0.0
 10
78.7343355799
 20
89.5248217762
 30
0.0
 10
80.4645078746
 20
89.1115828176
 30
0.0
 10
81.7338416407
 20
88.4709593511
 30
0.0
 10
82.5609612138
 20
87.7602278549
 30
0.0
 10
83.2807185867
 20
86.9027586304
 30
0.0
 10
83.9402692267
 20
85.5544816983
 30
0.0
 10
84.3578008283
 20
83.7118896673
 30
0.0
 10
84.4449178331
 20
82.4049856771
 30
0.0
 10
84.4449205876
 20
81.7328227525
 30
0.0
  0
SPLINE
  5
25D
100
AcDbEntity
  8
0
100
AcDbSpline
 62
7
  6
BYLAYER
 70
0
 71
3
 72
15
 73
11
 74
0
 42
0.0000001
 43
0.0000001
 44
0.0000000001
 40
0.0
 40
0.0
 40
0.0
 40
0.0
 40
0.1558258901
 40
0.316034289
 40
0.4729856148
 40
0.6179967905
 40
0.7437805108
 40
0.8476412294
 40
0.9306312384
 40
1.0
 40
1.0
 40
1.0
 40
1.0
 10
56.5250389715
 20
91.7328227571
 30
0.0
 10
56.5250389715
 20
91.6113004693
 30
0.0
 10
56.5349152498
 20
91.3647431823
 30
0.0
 10
56.5798218736
 20
90.9981238673
 30
0.0
 10
56.6586344354
 20
90.6458004416
 30
0.0
 10
56.7669566596
 20
90.3292644507
 30
0.0
 10
56.9030898964
 20
90.0692625086
 30
0.0
 10
57.0564634678
 20
89.8768807389
 30
0.0
 10
57.2230733344
 20
89.7600849048
 30
0.0
 10
57.3427208756
 20
89.7328227571
 30
0.0
 10
57.3968187575
 20
89.7328227571
 30
0.0
  0
SPLINE
  5
25E
100
AcDbEntity
  8
0
100
AcDbSpline
 62
7
  6
BYLAYER
 70
0
 71
3
 72
18
 73
14
 74
0
 42
0.0000001
 43
0.0000001
 44
0.0000000001
 40
0.0
 40
0.0
 40
0.0
 40
0.0
 40
0.1498883501
 40
0.2213093778
 40
0.2889737503
 40
0.4117082981
 40
0.4680068229
 40
0.5223270044
 40
0.5760421286
 40
0.6303977105
 40
0.7442050158
 40
0.8674375667
 40
1.0
 40
1.0
 40
1.0
 40
1.0
 10
45.9512835698
 20
81.7328228328
 30
0.0
 10
45.9512977849
 20
82.5854808198
 30
0.0
 10
46.0253408181
 20
83.8469693497
 30
0.0
 10
46.3004930883
 20
85.4695459483
 30
0.0
 10
46.6766331435
 20
86.9112359969
 30
0.0
 10
47.2431920216
 20
88.2156522843
 30
0.0
 10
48.0389522937
 20
89.2846686116
 30
0.0
 10
48.7136791847
 20
89.9377838951
 30
0.0
 10
49.47528781
 20
90.4671786657
 30
0.0
 10
50.6098627701
 20
91.0291089088
 30
0.0
 10
52.2213226768
 20
91.4717701253
 30
0.0
 10
54.3149222471
 20
91.7024186285
 30
0.0
 10
55.7709415319
 20
91.7328190127
 30
0.0
 10
56.5250389482
 20
91.7328227571
 30
0.0
  0
SPLINE
  5
25F
100
AcDbEntity
  8
0
100
AcDbSpline
 62
7
  6
BYLAYER
 70
0
 71
3
 72
11
 73
7
 74
0
 42
0.0000001
 43
0.0000001
 44
0.0000000001
 40
0.0
 40
0.0
 40
0.0
 40
0.0
 40
0.2398724289
 40
0.4857072326
 40
0.7399260503
 40
1.0
 40
1.0
 40
1.0
 40
1.0
 10
47.3260562765
 20
50.7328227571
 30
0.0
 10
47.1465987397
 20
50.7328227571
 30
0.0
 10
46.7787873869
 20
50.8134145689
 30
0.0
 10
46.3223153535
 20
51.152118035
 30
0.0
 10
46.0208298048
 20
51.6497554984
 30
0.0
 10
45.951283568
 20
52.0382517071
 30
0.0
 10
45.951283568
 20
52.2328227572
 30
0.0
  0
ELLIPSE
  5
260
100
AcDbEntity
  8
0
100
AcDbEllipse
 62
7
  6
BYLAYER
 10
63.1146166258
 20
195.9328227571
 30
0.0
 11
2.0
 21
-0.0
 31
0.0
 40
1.0
 41
1.5707963268
 42
3.1415926536
  0
ELLIPSE
  5
261
100
AcDbEntity
  8
0
100
AcDbEllipse
 62
7
  6
BYLAYER
 10
99.1146166258
 20
195.9328227571
 30
0.0
 11
2.0
 21
-0.0
 31
0.0
 40
1.0
 41
0.0
 42
1.5707963268
  0
ENDSEC
  0
SECTION
  2
OBJECTS
  0
DICTIONARY
  5
C
100
AcDbDictionary
280
0
281
1
  3
ACAD_GROUP
350
D
  3
ACAD_MLINESTYLE
350
17
  3
ACAD_LAYOUT
350
1A
  3
ACAD_PLOTSETTINGS
350
19
  3
ACAD_PLOTSTYLENAME
350
E
  0
DICTIONARY
  5
D
102
{ACAD_REACTORS
330
C
102
}
100
AcDbDictionary
280
0
281
1
  0
ACDBDICTIONARYWDFLT
  5
E
102
{ACAD_REACTORS
330
C
102
}
100
AcDbDictionary
281
1
  3
Normal
350
F
100
AcDbDictionaryWithDefault
340
F
  0
DICTIONARY
  5
17
102
{ACAD_REACTORS
330
C
102
}
100
AcDbDictionary
280
0
281
1
  3
Standard
350
18
  0
DICTIONARY
  5
19
102
{ACAD_REACTORS
330
C
102
}
100
AcDbDictionary
281
1
  0
DICTIONARY
  5
1A
102
{ACAD_REACTORS
330
C
102
}
100
AcDbDictionary
281
1
  3
Model
350
262
  3
Layout1
350
263
  0
ACDBPLACEHOLDER
  5
F
102
{ACAD_REACTORS
330
E
102
}
  0
MLINESTYLE
  5
18
102
{ACAD_REACTORS
330
17
102
}
100
AcDbMlineStyle
  2
STANDARD
 70
0
  3

 62
256
 51
90.0
 52
90.0
 71
2
 49
0.5
 62
256
  6
BYLAYER
 49
-0.5
 62
256
  6
BYLAYER
  0
LAYOUT
  5
262
102
{ACAD_REACTORS
330
1A
102
}
100
AcDbPlotSettings
  1

  2
none_device
  4

  6

 40
0.0
 41
0.0
 42
0.0
 43
0.0
 44
210.0
 45
297.0
 46
0.0
 47
0.0
 48
0.0
 49
0.0
140
0.0
141
0.0
142
1.0
143
1.0
 70
1024
 72
1
 73
0
 74
0
  7

 75
0
147
1.0
148
0.0
149
0.0
100
AcDbLayout
  1
Model
 70
0
 71
0
 10
0.0
 20
0.0
 11
210.0
 21
297.0
 12
0.0
 22
0.0
 32
0.0
 14
0.0
 24
0.0
 34
0.0
 15
0.0
 25
0.0
 35
0.0
146
0.0
 13
0.0
 23
0.0
 33
0.0
 16
1.0
 26
0.0
 36
0.0
 17
0.0
 27
1.0
 37
0.0
 76
0
330
210
345
0
346
0
  0
LAYOUT
  5
263
102
{ACAD_REACTORS
330
1A
102
}
100
AcDbPlotSettings
  1

  2
none_device
  4

  6

 40
0.0
 41
0.0
 42
0.0
 43
0.0
 44
210.0
 45
297.0
 46
0.0
 47
0.0
 48
0.0
 49
0.0
140
0.0
141
0.0
142
1.0
143
1.0
 70
0
 72
1
 73
0
 74
0
  7

 75
0
147
1.0
148
0.0
149
0.0
100
AcDbLayout
  1
Layout1
 70
0
 71
1
 10
0.0
 20
0.0
 11
210.0
 21
297.0
 12
0.0
 22
0.0
 32
0.0
 14
0.0
 24
0.0
 34
0.0
 15
0.0
 25
0.0
 35
0.0
146
0.0
 13
0.0
 23
0.0
 33
0.0
 16
1.0
 26
0.0
 36
0.0
 17
0.0
 27
1.0
 37
0.0
 76
0
330
211
345
0
346
0
  0
ENDSEC
  0
EOF
