999
DXF file: C:\Users\sesa63760\Dev\_Creo\CAD\MCADID0000546_3D-CAD\drw0001_1.dxf
999
Pro/ENGINEER 2019471 by Parametric Technology Corporation
  0
SECTION
  2
HEADER
  9
$ACADVER
  1
AC1024
  9
$DWGCODEPAGE
  3
ANSI_1252
  9
$EXTMAX
 10
199.4465758433
 20
282.0744429784
 30
0.0
  9
$EXTMIN
 10
0.0
 20
0.0
 30
0.0
  9
$LIMMIN
 10
0.0
 20
0.0
  9
$LIMMAX
 10
199.4465758433
 20
282.0744429784
  9
$VIEWCTR
 10
99.7232879216
 20
141.0372214892
  9
$VIEWSIZE
 40
282.0744429784
  9
$CLAYER
  8
0
  9
$LTSCALE
 40
18.3870748016
  9
$CELTYPE
  6
BYLAYER
  9
$DIMSCALE
 40
1.0
  9
$DIMASZ
 40
2.3743639981
  9
$DIMEXO
 40
1.0
  9
$DIMDLI
 40
12.7037971356
  9
$DIMEXE
 40
1.0
  9
$DIMCEN
 40
3.0087940584
  9
$DIMLFAC
 40
1.0
  9
$DIMBLK
  1
_FILLED
  9
$DIMALT
 70
0
  9
$DIMALTF
 40
0.0393700787
  9
$DIMTXT
 40
3.3241095974
  9
$DIMTOL
 70
1
  9
$DIMLIM
 70
0
  9
$DIMTFAC
 40
1.0
  9
$DIMTP
 40
0.01
  9
$DIMTM
 40
0.01
  9
$DIMGAP
 40
0.625
  9
$DIMDSEP
 70
46
  9
$AUNITS
 70
0
  9
$PDMODE
 70
3
  9
$PDSIZE
 40
0.3125
  9
$HANDSEED
  5
48E
  9
$TILEMODE
 70
1
  9
$MEASUREMENT
 70
1
  9
$INSUNITS
 70
4
  0
ENDSEC
  0
SECTION
  2
CLASSES
  0
CLASS
  1
ACDBDICTIONARYWDFLT
  2
AcDbDictionaryWithDefault
  3
AutoCAD 2000
 90
0
 91
1
280
0
281
0
  0
CLASS
  1
ACDBPLACEHOLDER
  2
AcDbPlaceHolder
  3
AutoCAD 2000
 90
0
 91
1
280
0
281
0
  0
CLASS
  1
LAYOUT
  2
AcDbLayout
  3
AutoCAD 2000
 90
0
 91
0
280
0
281
0
  0
ENDSEC
  0
SECTION
  2
TABLES
  0
TABLE
  2
VPORT
  5
8
100
AcDbSymbolTable
 70
2
  0
VPORT
  5
1F4
100
AcDbSymbolTableRecord
100
AcDbViewportTableRecord
  2
*ACTIVE
 70
0
 10
0.0
 20
0.0
 11
1.0
 21
1.0
 12
99.7232879216
 22
141.0372214892
 13
0.0
 23
0.0
 14
1.0
 24
1.0
 15
0.0
 25
0.0
 16
0.0
 26
0.0
 36
1.0
 17
0.0
 27
0.0
 37
0.0
 40
282.0744429784
 41
0.7070707071
 42
50.0
 43
0.0
 44
0.0
 50
0.0
 51
0.0
 71
0
 72
100
 73
1
 74
1
 75
0
 76
0
 77
0
 78
0
  0
ENDTAB
  0
TABLE
  2
LTYPE
  5
5
100
AcDbSymbolTable
 70
6
  0
LTYPE
  5
14
100
AcDbSymbolTableRecord
100
AcDbLinetypeTableRecord
  2
BYBLOCK
 70
0
  3

 72
65
 73
0
 40
0.0
  0
LTYPE
  5
15
100
AcDbSymbolTableRecord
100
AcDbLinetypeTableRecord
  2
BYLAYER
 70
0
  3

 72
65
 73
0
 40
0.0
  0
LTYPE
  5
16
100
AcDbSymbolTableRecord
100
AcDbLinetypeTableRecord
  2
CONTINUOUS
 70
64
  3
Solid line
 72
65
 73
0
 40
0.0
  0
LTYPE
  5
1F5
100
AcDbSymbolTableRecord
100
AcDbLinetypeTableRecord
  2
CENTER
 70
64
  3
____ _ ____ _ ____ _ ____ _ ____ _ ____ _ ____
 72
65
 73
4
 40
0.6
 49
0.375
 74
0
 49
-0.075
 74
0
 49
0.075
 74
0
 49
-0.075
 74
0
  0
LTYPE
  5
1F6
100
AcDbSymbolTableRecord
100
AcDbLinetypeTableRecord
  2
HIDDEN
 70
64
  3
- - - - - - - - - - - - - - - - - - - -
 72
65
 73
2
 40
0.2
 49
0.1
 74
0
 49
-0.1
 74
0
  0
LTYPE
  5
1F7
100
AcDbSymbolTableRecord
100
AcDbLinetypeTableRecord
  2
PHANTOM
 70
64
  3
_____ _ _ _____ _ _ _____ _ _ _____
 72
65
 73
6
 40
0.8
 49
0.45
 74
0
 49
-0.05
 74
0
 49
0.1
 74
0
 49
-0.05
 74
0
 49
0.1
 74
0
 49
-0.05
 74
0
  0
LTYPE
  5
1F8
100
AcDbSymbolTableRecord
100
AcDbLinetypeTableRecord
  2
DOT
 70
64
  3
. . . . . . . . . . . . . . . . . . . .
 72
65
 73
2
 40
0.2
 49
0.1
 74
0
 49
-0.1
 74
0
  0
LTYPE
  5
1F9
100
AcDbSymbolTableRecord
100
AcDbLinetypeTableRecord
  2
DASHED
 70
64
  3
- - - - - - - - - - - - - - - - - - - -
 72
65
 73
2
 40
0.2
 49
0.1
 74
0
 49
-0.1
 74
0
  0
ENDTAB
  0
TABLE
  2
LAYER
  5
2
100
AcDbSymbolTable
 70
36
  0
LAYER
  5
10
100
AcDbSymbolTableRecord
100
AcDbLayerTableRecord
  2
0
 70
0
 62
7
  6
CONTINUOUS
370
-3
390
F
  0
LAYER
  5
1FA
100
AcDbSymbolTableRecord
100
AcDbLayerTableRecord
  2
DEFAULT_1
 70
0
 62
7
  6
CENTER
370
-3
390
F
  0
LAYER
  5
1FB
100
AcDbSymbolTableRecord
100
AcDbLayerTableRecord
  2
DEFAULT_2
 70
0
 62
8
  6
HIDDEN
370
-3
390
F
  0
LAYER
  5
1FC
100
AcDbSymbolTableRecord
100
AcDbLayerTableRecord
  2
DEFAULT_3
 70
0
 62
7
  6
PHANTOM
370
-3
390
F
  0
LAYER
  5
1FD
100
AcDbSymbolTableRecord
100
AcDbLayerTableRecord
  2
00_COMPONENTS
 70
0
 62
7
  6
CONTINUOUS
370
-3
390
F
  0
LAYER
  5
1FE
100
AcDbSymbolTableRecord
100
AcDbLayerTableRecord
  2
01_1_DEFAULT_DATUMS
 70
0
 62
7
  6
CONTINUOUS
370
-3
390
F
  0
LAYER
  5
1FF
100
AcDbSymbolTableRecord
100
AcDbLayerTableRecord
  2
01_PLANES
 70
0
 62
7
  6
CONTINUOUS
370
-3
390
F
  0
LAYER
  5
200
100
AcDbSymbolTableRecord
100
AcDbLayerTableRecord
  2
02_COORD_SYS
 70
0
 62
7
  6
CONTINUOUS
370
-3
390
F
  0
LAYER
  5
201
100
AcDbSymbolTableRecord
100
AcDbLayerTableRecord
  2
03_AXES
 70
0
 62
7
  6
CONTINUOUS
370
-3
390
F
  0
LAYER
  5
202
100
AcDbSymbolTableRecord
100
AcDbLayerTableRecord
  2
04_POINTS
 70
0
 62
7
  6
CONTINUOUS
370
-3
390
F
  0
LAYER
  5
203
100
AcDbSymbolTableRecord
100
AcDbLayerTableRecord
  2
05_CURVES
 70
0
 62
7
  6
CONTINUOUS
370
-3
390
F
  0
LAYER
  5
204
100
AcDbSymbolTableRecord
100
AcDbLayerTableRecord
  2
06_SURFS
 70
0
 62
7
  6
CONTINUOUS
370
-3
390
F
  0
LAYER
  5
205
100
AcDbSymbolTableRecord
100
AcDbLayerTableRecord
  2
07_COSMETICS
 70
0
 62
7
  6
CONTINUOUS
370
-3
390
F
  0
LAYER
  5
206
100
AcDbSymbolTableRecord
100
AcDbLayerTableRecord
  2
10_NOTES
 70
0
 62
7
  6
CONTINUOUS
370
-3
390
F
  0
LAYER
  5
207
100
AcDbSymbolTableRecord
100
AcDbLayerTableRecord
  2
11_NOTES_PUB
 70
0
 62
7
  6
CONTINUOUS
370
-3
390
F
  0
LAYER
  5
208
100
AcDbSymbolTableRecord
100
AcDbLayerTableRecord
  2
13_REF_GTOL
 70
0
 62
7
  6
CONTINUOUS
370
-3
390
F
  0
LAYER
  5
209
100
AcDbSymbolTableRecord
100
AcDbLayerTableRecord
  2
16_MISC
 70
0
 62
7
  6
CONTINUOUS
370
-3
390
F
  0
LAYER
  5
20A
100
AcDbSymbolTableRecord
100
AcDbLayerTableRecord
  2
17_NO_PRINT
 70
0
 62
7
  6
CONTINUOUS
370
-3
390
F
  0
LAYER
  5
20B
100
AcDbSymbolTableRecord
100
AcDbLayerTableRecord
  2
18_DATUM_CAMS_JOINTS
 70
0
 62
7
  6
CONTINUOUS
370
-3
390
F
  0
LAYER
  5
20C
100
AcDbSymbolTableRecord
100
AcDbLayerTableRecord
  2
19_DATUM_FUNCTIONAL
 70
0
 62
7
  6
CONTINUOUS
370
-3
390
F
  0
LAYER
  5
20D
100
AcDbSymbolTableRecord
100
AcDbLayerTableRecord
  2
20_DATUM_KINEMATIC_SCHEME
 70
0
 62
7
  6
CONTINUOUS
370
-3
390
F
  0
ENDTAB
  0
TABLE
  2
STYLE
  5
3
100
AcDbSymbolTable
 70
1
  0
STYLE
  5
11
100
AcDbSymbolTableRecord
100
AcDbTextStyleTableRecord
  2
STANDARD
 70
0
 40
0.0
 41
0.8
 50
0.0
 71
0
 42
0.2
  3
txt
  4

  0
STYLE
  5
20E
100
AcDbSymbolTableRecord
100
AcDbTextStyleTableRecord
  2
TEXTSTYLE_1
 70
0
 40
0.0
 41
0.8
 50
0.0
 71
0
 42
0.2
  3
gdt
  4

  0
ENDTAB
  0
TABLE
  2
VIEW
  5
6
100
AcDbSymbolTable
 70
0
  0
ENDTAB
  0
TABLE
  2
UCS
  5
7
100
AcDbSymbolTable
 70
0
  0
ENDTAB
  0
TABLE
  2
APPID
  5
9
100
AcDbSymbolTable
 70
1
  0
APPID
  5
20F
100
AcDbSymbolTableRecord
100
AcDbRegAppTableRecord
  2
ACAD
 70
0
  0
ENDTAB
  0
TABLE
  2
BLOCK_RECORD
  5
1
100
AcDbSymbolTable
 70
0
  0
BLOCK_RECORD
  5
210
100
AcDbSymbolTableRecord
100
AcDbBlockTableRecord
  2
*Model_Space
  0
BLOCK_RECORD
  5
211
100
AcDbSymbolTableRecord
100
AcDbBlockTableRecord
  2
*Paper_Space
  0
BLOCK_RECORD
  5
212
100
AcDbSymbolTableRecord
100
AcDbBlockTableRecord
  2
_FILLED
  0
ENDTAB
  0
TABLE
  2
DIMSTYLE
  5
A
100
AcDbSymbolTable
 70
1
100
AcDbDimStyleTable
 71
0
  0
DIMSTYLE
105
213
100
AcDbSymbolTableRecord
100
AcDbDimStyleTableRecord
  2
STANDARD
 70
0
  3

  4

 40
1.0
 41
2.3743639981
 42
1.0
 43
0.38
 44
1.0
 45
0.0
 46
0.0
 47
0.01
 48
0.01
140
3.3241095974
141
0.09
142
0.0
143
25.4
144
1.0
145
0.0
146
1.0
147
0.625
 71
1
 72
0
 73
0
 74
0
 75
0
 76
0
 77
1
 78
8
 79
2
170
0
171
1
172
0
173
0
174
0
175
0
176
0
177
0
178
0
270
2
179
2
271
2
272
2
273
2
274
2
275
0
280
0
281
0
282
0
283
1
284
8
285
0
286
0
287
3
288
0
340
11
278
46
341
212
342
212
343
212
344
212
  0
ENDTAB
  0
ENDSEC
  0
SECTION
  2
BLOCKS
  0
BLOCK
  5
20
100
AcDbEntity
  8
0
100
AcDbBlockBegin
  2
*Model_Space
 70
0
 10
0.0
 20
0.0
 30
0.0
  3
*Model_Space
  1

  0
ENDBLK
  5
21
100
AcDbEntity
  8
0
100
AcDbBlockEnd
  0
BLOCK
  5
1C
100
AcDbEntity
  8
0
100
AcDbBlockBegin
  2
*Paper_Space
 70
0
 10
0.0
 20
0.0
 30
0.0
  3
*Paper_Space
  1

  0
ENDBLK
  5
1D
100
AcDbEntity
  8
0
100
AcDbBlockEnd
  0
BLOCK
  5
214
100
AcDbEntity
  8
0
100
AcDbBlockBegin
  2
_FILLED
 70
64
 10
0.0
 20
0.0
  3
_FILLED
  1

  0
SOLID
  5
215
100
AcDbEntity
  8
0
  6
BYBLOCK
 62
0
100
AcDbTrace
 10
0.0
 20
0.0
 11
-1.0
 21
0.25
 12
-1.0
 22
-0.25
 13
-1.0
 23
-0.25
  0
ENDBLK
  5
216
100
AcDbEntity
  8
0
  6
BYBLOCK
 62
0
100
AcDbBlockEnd
  0
ENDSEC
  0
SECTION
  2
ENTITIES
  0
LINE
  5
217
100
AcDbEntity
  8
0
100
AcDbLine
 62
7
  6
CONTINUOUS
 10
26.4943818421
 20
199.0263333553
 11
25.8224107737
 21
194.5152727531
  0
LINE
  5
218
100
AcDbEntity
  8
0
100
AcDbLine
 62
7
  6
CONTINUOUS
 10
26.4943818421
 20
199.0263333553
 11
45.1368411943
 21
209.7894980333
  0
LINE
  5
219
100
AcDbEntity
  8
0
100
AcDbLine
 62
7
  6
CONTINUOUS
 10
53.7842309754
 20
214.7820410497
 11
62.1262968468
 21
219.5983062769
  0
LINE
  5
21A
100
AcDbEntity
  8
0
100
AcDbLine
 62
7
  6
CONTINUOUS
 10
65.4612456872
 20
221.5237283945
 11
66.9407213308
 21
222.3778989568
  0
LINE
  5
21B
100
AcDbEntity
  8
0
100
AcDbLine
 62
7
  6
CONTINUOUS
 10
28.4387167568
 20
197.9037964642
 11
30.913580187
 21
199.3326510027
  0
LINE
  5
21C
100
AcDbEntity
  8
0
100
AcDbLine
 62
7
  6
CONTINUOUS
 10
25.3360318724
 20
194.7960773901
 11
25.9139410069
 21
195.1297313927
  0
LINE
  5
21D
100
AcDbEntity
  8
0
100
AcDbLine
 62
7
  6
CONTINUOUS
 10
28.4387167568
 20
195.4542892128
 11
30.0349093625
 21
196.3758459424
  0
LINE
  5
21E
100
AcDbEntity
  8
0
100
AcDbLine
 62
7
  6
CONTINUOUS
 10
43.5716475925
 20
204.578076043
 11
41.3153505269
 21
199.7164200786
  0
LINE
  5
21F
100
AcDbEntity
  8
0
100
AcDbLine
 62
7
  6
CONTINUOUS
 10
35.1562385379
 20
196.8832064756
 11
32.6813751077
 21
195.454351937
  0
LINE
  5
220
100
AcDbEntity
  8
0
100
AcDbLine
 62
7
  6
CONTINUOUS
 10
33.3531411224
 20
190.5757949435
 11
34.7673487968
 21
191.3922832512
  0
LINE
  5
221
100
AcDbEntity
  8
0
100
AcDbLine
 62
7
  6
CONTINUOUS
 10
28.4387167568
 20
197.9037964642
 11
28.4387167568
 21
195.4542892128
  0
LINE
  5
222
100
AcDbEntity
  8
0
100
AcDbLine
 62
7
  6
CONTINUOUS
 10
28.4387167568
 20
193.0047819614
 11
28.4387167568
 21
125.0717808562
  0
LINE
  5
223
100
AcDbEntity
  8
0
100
AcDbLine
 62
7
  6
CONTINUOUS
 10
30.0349093625
 20
196.9648253552
 11
30.0349093625
 21
195.6584214878
  0
LINE
  5
224
100
AcDbEntity
  8
0
100
AcDbLine
 62
7
  6
CONTINUOUS
 10
30.913580187
 20
199.3326510027
 11
30.913580187
 21
198.1895476187
  0
LINE
  5
225
100
AcDbEntity
  8
0
100
AcDbLine
 62
7
  6
CONTINUOUS
 10
32.6813751077
 20
195.454351937
 11
32.6813751077
 21
193.0048446856
  0
LINE
  5
226
100
AcDbEntity
  8
0
100
AcDbLine
 62
7
  6
CONTINUOUS
 10
33.3531411224
 20
190.5757949435
 11
33.3531411224
 21
169.9182837901
  0
LINE
  5
227
100
AcDbEntity
  8
0
100
AcDbLine
 62
7
  6
CONTINUOUS
 10
60.5421396856
 20
214.375935736
 11
58.28584262
 21
209.5142797715
  0
LINE
  5
228
100
AcDbEntity
  8
0
100
AcDbLine
 62
7
  6
CONTINUOUS
 10
72.2793577977
 20
205.2524848788
 11
63.0870079139
 21
199.9453108785
  0
LINE
  5
229
100
AcDbEntity
  8
0
100
AcDbLine
 62
7
  6
CONTINUOUS
 10
39.2221341773
 20
177.5174176627
 11
39.2221341773
 21
179.3381033923
  0
LINE
  5
22A
100
AcDbEntity
  8
0
100
AcDbLine
 62
7
  6
CONTINUOUS
 10
41.3153505269
 20
199.7164200786
 11
41.3153505269
 21
197.2669128272
  0
LINE
  5
22B
100
AcDbEntity
  8
0
100
AcDbLine
 62
7
  6
CONTINUOUS
 10
41.6906868255
 20
196.4582005321
 11
41.6906868255
 21
198.9077077835
  0
LINE
  5
22C
100
AcDbEntity
  8
0
100
AcDbLine
 62
7
  6
CONTINUOUS
 10
58.7020347961
 20
197.0267739065
 11
60.9583318617
 21
201.8884298709
  0
LINE
  5
22D
100
AcDbEntity
  8
0
100
AcDbLine
 62
7
  6
CONTINUOUS
 10
60.9583318617
 20
199.4389226195
 11
58.7020347961
 21
194.5772666551
  0
LINE
  5
22E
100
AcDbEntity
  8
0
100
AcDbLine
 62
7
  6
CONTINUOUS
 10
45.0549044671
 20
170.6855801598
 11
47.2946164844
 21
172.7220659273
  0
LINE
  5
22F
100
AcDbEntity
  8
0
100
AcDbLine
 62
7
  6
CONTINUOUS
 10
63.0870167458
 20
193.8215125757
 11
60.2585778453
 21
192.1885223627
  0
LINE
  5
230
100
AcDbEntity
  8
0
100
AcDbLine
 62
7
  6
CONTINUOUS
 10
39.8744058108
 20
179.7146903475
 11
39.2221341773
 21
179.3381033923
  0
LINE
  5
231
100
AcDbEntity
  8
0
100
AcDbLine
 62
7
  6
CONTINUOUS
 10
37.5757244894
 20
176.5668682602
 11
40.7576917568
 21
178.4039669526
  0
LINE
  5
232
100
AcDbEntity
  8
0
100
AcDbLine
 62
7
  6
CONTINUOUS
 10
36.4115156957
 20
175.3173666044
 11
37.8257233701
 21
176.1338549121
  0
LINE
  5
233
100
AcDbEntity
  8
0
100
AcDbLine
 62
7
  6
CONTINUOUS
 10
43.6368411943
 20
200.8024249747
 11
43.6368411943
 21
203.2519322261
  0
LINE
  5
234
100
AcDbEntity
  8
0
100
AcDbLine
 62
7
  6
CONTINUOUS
 10
45.1368411943
 20
203.2519322261
 11
45.1368411943
 21
211.4169563974
  0
LINE
  5
235
100
AcDbEntity
  8
0
100
AcDbLine
 62
7
  6
CONTINUOUS
 10
45.8868411943
 20
211.4169563974
 11
45.8868411943
 21
212.2334588146
  0
LINE
  5
236
100
AcDbEntity
  8
0
100
AcDbLine
 62
7
  6
CONTINUOUS
 10
46.2932314288
 20
175.2556958471
 11
46.2932314288
 21
171.8115442184
  0
LINE
  5
237
100
AcDbEntity
  8
0
100
AcDbLine
 62
7
  6
CONTINUOUS
 10
47.7074391032
 20
173.0805925459
 11
47.7074391032
 21
175.3482540778
  0
LINE
  5
238
100
AcDbEntity
  8
0
100
AcDbLine
 62
7
  6
CONTINUOUS
 10
47.8551264933
 20
195.3487473963
 11
47.8551264933
 21
192.8992401449
  0
LINE
  5
239
100
AcDbEntity
  8
0
100
AcDbLine
 62
7
  6
CONTINUOUS
 10
49.2558804273
 20
192.6825494638
 11
49.2558804273
 21
195.1320567152
  0
LINE
  5
23A
100
AcDbEntity
  8
0
100
AcDbLine
 62
7
  6
CONTINUOUS
 10
75.1078732414
 20
193.0052180516
 11
84.3002231252
 21
198.3123920519
  0
LINE
  5
23B
100
AcDbEntity
  8
0
100
AcDbLine
 62
7
  6
CONTINUOUS
 10
47.0804883032
 20
175.7102161023
 11
46.2932314288
 21
175.2556958471
  0
LINE
  5
23C
100
AcDbEntity
  8
0
100
AcDbLine
 62
7
  6
CONTINUOUS
 10
39.9115000266
 20
169.2551797314
 11
41.3257077011
 21
170.0716680391
  0
LINE
  5
23D
100
AcDbEntity
  8
0
100
AcDbLine
 62
7
  6
CONTINUOUS
 10
49.5553723412
 20
174.2813734615
 11
48.2763758072
 21
173.5429488761
  0
LINE
  5
23E
100
AcDbEntity
  8
0
100
AcDbLine
 62
7
  6
CONTINUOUS
 10
41.5757065818
 20
169.638654691
 11
44.7576738493
 21
171.4757533835
  0
LINE
  5
23F
100
AcDbEntity
  8
0
100
AcDbLine
 62
7
  6
CONTINUOUS
 10
40.6363712914
 20
167.9996107865
 11
44.1718904775
 21
170.0408315559
  0
LINE
  5
240
100
AcDbEntity
  8
0
100
AcDbLine
 62
7
  6
CONTINUOUS
 10
46.5610477846
 20
169.5772251472
 11
47.0341123274
 21
169.8503474581
  0
LINE
  5
241
100
AcDbEntity
  8
0
100
AcDbLine
 62
7
  6
CONTINUOUS
 10
105.2377000002
 20
88.0075032204
 11
94.4826148101
 21
86.9421184194
  0
LINE
  5
242
100
AcDbEntity
  8
0
100
AcDbLine
 62
7
  6
CONTINUOUS
 10
56.3868411943
 20
211.4169563974
 11
56.3868411943
 21
212.2334588146
  0
LINE
  5
243
100
AcDbEntity
  8
0
100
AcDbLine
 62
7
  6
CONTINUOUS
 10
57.1368411943
 20
203.2519322261
 11
57.1368411943
 21
211.4169563974
  0
LINE
  5
244
100
AcDbEntity
  8
0
100
AcDbLine
 62
7
  6
CONTINUOUS
 10
57.2534203927
 20
167.5693423599
 11
57.2534203927
 21
169.8370038917
  0
LINE
  5
245
100
AcDbEntity
  8
0
100
AcDbLine
 62
7
  6
CONTINUOUS
 10
75.6725268893
 20
206.8246335994
 11
77.9288239549
 21
211.6862895639
  0
LINE
  5
246
100
AcDbEntity
  8
0
100
AcDbLine
 62
7
  6
CONTINUOUS
 10
77.9288239549
 20
209.2367823125
 11
75.724897234
 21
204.487969024
  0
LINE
  5
247
100
AcDbEntity
  8
0
100
AcDbLine
 62
7
  6
CONTINUOUS
 10
54.6008857566
 20
165.1743299738
 11
56.8405977739
 21
167.2108157412
  0
LINE
  5
248
100
AcDbEntity
  8
0
100
AcDbLine
 62
7
  6
CONTINUOUS
 10
75.1078732414
 20
184.8401938803
 11
84.3002231252
 21
190.1473678806
  0
LINE
  5
249
100
AcDbEntity
  8
0
100
AcDbLine
 62
7
  6
CONTINUOUS
 10
75.8149917985
 20
183.2072257632
 11
87.1286531939
 21
189.7391322252
  0
LINE
  5
24A
100
AcDbEntity
  8
0
100
AcDbLine
 62
7
  6
CONTINUOUS
 10
56.6264695926
 20
170.1989659162
 11
55.3474730587
 21
169.4605413309
  0
LINE
  5
24B
100
AcDbEntity
  8
0
100
AcDbLine
 62
7
  6
CONTINUOUS
 10
75.8149917985
 20
181.1659697204
 11
87.1286531939
 21
187.6978761823
  0
LINE
  5
24C
100
AcDbEntity
  8
0
100
AcDbLine
 62
7
  6
CONTINUOUS
 10
49.5610343539
 20
164.3810649704
 11
50.0763772539
 21
164.6785965564
  0
LINE
  5
24D
100
AcDbEntity
  8
0
100
AcDbLine
 62
7
  6
CONTINUOUS
 10
59.1013536306
 20
168.7701232754
 11
57.8223570967
 21
168.0316986901
  0
LINE
  5
24E
100
AcDbEntity
  8
0
100
AcDbLine
 62
7
  6
CONTINUOUS
 10
25.8681108779
 20
125.5412497809
 11
61.9406559383
 21
104.7152273276
  0
LINE
  5
24F
100
AcDbEntity
  8
0
100
AcDbLine
 62
7
  6
CONTINUOUS
 10
139.9955284009
 20
60.6078250199
 11
135.894291995
 21
62.9756213961
  0
LINE
  5
250
100
AcDbEntity
  8
0
100
AcDbLine
 62
7
  6
CONTINUOUS
 10
25.0390008202
 20
127.0345633633
 11
94.4826148101
 21
86.9421184194
  0
LINE
  5
251
100
AcDbEntity
  8
0
100
AcDbLine
 62
7
  6
CONTINUOUS
 10
138.9599667972
 20
62.8967557589
 11
134.8587303914
 21
65.2645521352
  0
LINE
  5
252
100
AcDbEntity
  8
0
100
AcDbLine
 62
7
  6
CONTINUOUS
 10
105.2377000002
 20
88.0075032204
 11
96.8162271785
 21
92.8697818382
  0
LINE
  5
253
100
AcDbEntity
  8
0
100
AcDbLine
 62
7
  6
CONTINUOUS
 10
97.6446764614
 20
92.4186809244
 11
134.8587303914
 21
70.9336229272
  0
LINE
  5
254
100
AcDbEntity
  8
0
100
AcDbLine
 62
7
  6
CONTINUOUS
 10
57.6766171607
 20
196.4347522925
 11
57.6766171607
 21
193.9852450411
  0
LINE
  5
255
100
AcDbEntity
  8
0
100
AcDbLine
 62
7
  6
CONTINUOUS
 10
58.28584262
 20
209.5142797715
 11
58.28584262
 21
207.0647725201
  0
LINE
  5
256
100
AcDbEntity
  8
0
100
AcDbLine
 62
7
  6
CONTINUOUS
 10
58.6368411943
 20
200.8024249747
 11
58.6368411943
 21
203.2519322261
  0
LINE
  5
257
100
AcDbEntity
  8
0
100
AcDbLine
 62
7
  6
CONTINUOUS
 10
58.6611789186
 20
206.256060225
 11
58.6611789186
 21
208.7055674764
  0
LINE
  5
258
100
AcDbEntity
  8
0
100
AcDbLine
 62
7
  6
CONTINUOUS
 10
58.7020347961
 20
194.5772666551
 11
58.7020347961
 21
197.0267739065
  0
LINE
  5
259
100
AcDbEntity
  8
0
100
AcDbLine
 62
7
  6
CONTINUOUS
 10
60.2585778453
 20
192.1885223627
 11
60.2585778453
 21
190.1472663198
  0
LINE
  5
25A
100
AcDbEntity
  8
0
100
AcDbLine
 62
7
  6
CONTINUOUS
 10
60.6073332874
 20
210.6002846677
 11
60.6073332874
 21
212.6415407105
  0
LINE
  5
25B
100
AcDbEntity
  8
0
100
AcDbLine
 62
7
  6
CONTINUOUS
 10
60.9583318617
 20
201.8884298709
 11
60.9583318617
 21
199.4389226195
  0
LINE
  5
25C
100
AcDbEntity
  8
0
100
AcDbLine
 62
7
  6
CONTINUOUS
 10
61.2237984155
 20
185.8622565786
 11
61.2237984155
 21
183.8210005358
  0
LINE
  5
25D
100
AcDbEntity
  8
0
100
AcDbLine
 62
7
  6
CONTINUOUS
 10
61.3193189761
 20
149.8531571453
 11
61.3193189761
 21
106.088585771
  0
LINE
  5
25E
100
AcDbEntity
  8
0
100
AcDbLine
 62
7
  6
CONTINUOUS
 10
61.3573332874
 20
212.6415407105
 11
61.3573332874
 21
217.9488064218
  0
LINE
  5
25F
100
AcDbEntity
  8
0
100
AcDbLine
 62
7
  6
CONTINUOUS
 10
62.208369473
 20
187.3713013149
 11
62.208369473
 21
186.0648974474
  0
LINE
  5
260
100
AcDbEntity
  8
0
100
AcDbLine
 62
7
  6
CONTINUOUS
 10
63.0870079139
 20
199.9453108785
 11
63.0870167458
 21
190.5555593446
  0
LINE
  5
261
100
AcDbEntity
  8
0
100
AcDbLine
 62
7
  6
CONTINUOUS
 10
64.1073332874
 20
217.9488064218
 11
64.1073332874
 21
219.5818112561
  0
LINE
  5
262
100
AcDbEntity
  8
0
100
AcDbLine
 62
7
  6
CONTINUOUS
 10
64.6392923473
 20
206.7609519286
 11
64.6392923473
 21
208.8022079715
  0
LINE
  5
263
100
AcDbEntity
  8
0
100
AcDbLine
 62
7
  6
CONTINUOUS
 10
61.3193189761
 20
147.893509528
 11
62.1678725519
 21
149.3632555929
  0
LINE
  5
264
100
AcDbEntity
  8
0
100
AcDbLine
 62
7
  6
CONTINUOUS
 10
70.1581905404
 20
173.8175919475
 11
72.6330539707
 21
175.246446486
  0
LINE
  5
265
100
AcDbEntity
  8
0
100
AcDbLine
 62
7
  6
CONTINUOUS
 10
108.1296665988
 20
195.7403030104
 11
110.6045300291
 21
197.1691575489
  0
LINE
  5
266
100
AcDbEntity
  8
0
100
AcDbLine
 62
7
  6
CONTINUOUS
 10
67.0115640394
 20
171.1435350283
 11
68.4257717138
 21
171.9600233361
  0
LINE
  5
267
100
AcDbEntity
  8
0
100
AcDbLine
 62
7
  6
CONTINUOUS
 10
56.1070290741
 20
164.0659749612
 11
56.5800936169
 21
164.339097272
  0
LINE
  5
268
100
AcDbEntity
  8
0
100
AcDbLine
 62
7
  6
CONTINUOUS
 10
70.1581905404
 20
171.3680846961
 11
71.7543831461
 21
172.2896414257
  0
LINE
  5
269
100
AcDbEntity
  8
0
100
AcDbLine
 62
7
  6
CONTINUOUS
 10
79.3505786958
 20
173.8176140432
 11
110.6045683006
 21
191.8620056444
  0
LINE
  5
26A
100
AcDbEntity
  8
0
100
AcDbLine
 62
7
  6
CONTINUOUS
 10
76.8757152655
 20
169.9392522533
 11
79.3505786958
 21
171.3681067919
  0
LINE
  5
26B
100
AcDbEntity
  8
0
100
AcDbLine
 62
7
  6
CONTINUOUS
 10
110.6045683006
 20
189.412498393
 11
113.0794317309
 21
190.8413529315
  0
LINE
  5
26C
100
AcDbEntity
  8
0
100
AcDbLine
 62
7
  6
CONTINUOUS
 10
78.1485021725
 20
170.2658405217
 11
111.8066448239
 21
189.698262246
  0
LINE
  5
26D
100
AcDbEntity
  8
0
100
AcDbLine
 62
7
  6
CONTINUOUS
 10
134.8587303914
 20
72.2864729225
 11
96.8162271785
 21
94.2498255157
  0
LINE
  5
26E
100
AcDbEntity
  8
0
100
AcDbLine
 62
7
  6
CONTINUOUS
 10
146.6833486294
 20
72.1912380617
 11
147.8147241896
 21
71.5380528545
  0
LINE
  5
26F
100
AcDbEntity
  8
0
100
AcDbLine
 62
7
  6
CONTINUOUS
 10
64.8256185864
 20
205.1466070892
 11
64.8256185864
 21
202.6970998378
  0
LINE
  5
270
100
AcDbEntity
  8
0
100
AcDbLine
 62
7
  6
CONTINUOUS
 10
64.8574133535
 20
181.7231794322
 11
64.8574133535
 21
183.7644354751
  0
LINE
  5
271
100
AcDbEntity
  8
0
100
AcDbLine
 62
7
  6
CONTINUOUS
 10
66.2263725204
 20
202.4804091567
 11
66.2263725204
 21
204.9299164081
  0
LINE
  5
272
100
AcDbEntity
  8
0
100
AcDbLine
 62
7
  6
CONTINUOUS
 10
66.9497772838
 20
208.8022135252
 11
66.9497772838
 21
214.1094792365
  0
LINE
  5
273
100
AcDbEntity
  8
0
100
AcDbLine
 62
7
  6
CONTINUOUS
 10
67.0115640394
 20
150.486023875
 11
67.0115640394
 21
171.1435350283
  0
LINE
  5
274
100
AcDbEntity
  8
0
100
AcDbLine
 62
7
  6
CONTINUOUS
 10
68.208369473
 20
187.3713013149
 11
68.208369473
 21
186.0648974474
  0
LINE
  5
275
100
AcDbEntity
  8
0
100
AcDbLine
 62
7
  6
CONTINUOUS
 10
68.3904162276
 20
143.8111019828
 11
68.3904162276
 21
102.0061782258
  0
LINE
  5
276
100
AcDbEntity
  8
0
100
AcDbLine
 62
7
  6
CONTINUOUS
 10
68.4257717138
 20
171.9600233361
 11
68.4257717138
 21
151.3025121827
  0
LINE
  5
277
100
AcDbEntity
  8
0
100
AcDbLine
 62
7
  6
CONTINUOUS
 10
69.2649446643
 20
214.1094848015
 11
69.2649446643
 21
208.8022190902
  0
LINE
  5
278
100
AcDbEntity
  8
0
100
AcDbLine
 62
7
  6
CONTINUOUS
 10
70.1581905404
 20
173.8175919475
 11
70.1581905404
 21
171.3680846961
  0
LINE
  5
279
100
AcDbEntity
  8
0
100
AcDbLine
 62
7
  6
CONTINUOUS
 10
71.5754296008
 20
208.8022246439
 11
71.5754296008
 21
206.7609686011
  0
LINE
  5
27A
100
AcDbEntity
  8
0
100
AcDbLine
 62
7
  6
CONTINUOUS
 10
71.7543831461
 20
172.8786208385
 11
71.7543831461
 21
171.5722169711
  0
LINE
  5
27B
100
AcDbEntity
  8
0
100
AcDbLine
 62
7
  6
CONTINUOUS
 10
72.1073332874
 20
217.9488064218
 11
72.1073332874
 21
219.5818112561
  0
LINE
  5
27C
100
AcDbEntity
  8
0
100
AcDbLine
 62
7
  6
CONTINUOUS
 10
69.6985750753
 20
146.0769121493
 11
68.3904162276
 21
143.8111019828
  0
LINE
  5
27D
100
AcDbEntity
  8
0
100
AcDbLine
 62
7
  6
CONTINUOUS
 10
59.1070156434
 20
158.8698147843
 11
59.6223585434
 21
159.1673463703
  0
LINE
  5
27E
100
AcDbEntity
  8
0
100
AcDbLine
 62
7
  6
CONTINUOUS
 10
113.2208642742
 20
188.8817807369
 11
79.5627216228
 21
169.4493590127
  0
LINE
  5
27F
100
AcDbEntity
  8
0
100
AcDbLine
 62
7
  6
CONTINUOUS
 10
78.1485021725
 20
168.2245844789
 11
76.8757152655
 21
167.4897450019
  0
LINE
  5
280
100
AcDbEntity
  8
0
100
AcDbLine
 62
7
  6
CONTINUOUS
 10
60.3746539058
 20
157.3502612335
 11
59.7283338704
 21
156.9771104145
  0
LINE
  5
281
100
AcDbEntity
  8
0
100
AcDbLine
 62
7
  6
CONTINUOUS
 10
105.9376947509
 20
177.7365954065
 11
86.8458911461
 21
166.7140032519
  0
LINE
  5
282
100
AcDbEntity
  8
0
100
AcDbLine
 62
7
  6
CONTINUOUS
 10
49.7678166849
 20
162.5225280204
 11
51.0882894583
 21
162.9444687721
  0
LINE
  5
283
100
AcDbEntity
  8
0
100
AcDbLine
 62
7
  6
CONTINUOUS
 10
61.2237984155
 20
183.8210005358
 11
60.2585778453
 21
190.1472663198
  0
LINE
  5
284
100
AcDbEntity
  8
0
100
AcDbLine
 62
7
  6
CONTINUOUS
 10
60.2585778453
 20
192.1885223627
 11
61.2237984155
 21
185.8622565786
  0
LINE
  5
285
100
AcDbEntity
  8
0
100
AcDbLine
 62
7
  6
CONTINUOUS
 10
72.6330539707
 20
175.246446486
 11
72.6330539707
 21
174.103343102
  0
LINE
  5
286
100
AcDbEntity
  8
0
100
AcDbLine
 62
7
  6
CONTINUOUS
 10
72.6330745785
 20
169.9392420552
 11
72.6330745785
 21
144.3827163991
  0
LINE
  5
287
100
AcDbEntity
  8
0
100
AcDbLine
 62
7
  6
CONTINUOUS
 10
72.9865528979
 20
193.0052129526
 11
72.9865528979
 21
184.8401887813
  0
LINE
  5
288
100
AcDbEntity
  8
0
100
AcDbLine
 62
7
  6
CONTINUOUS
 10
74.6471092538
 20
206.2326119854
 11
74.6471092538
 21
205.1102161273
  0
LINE
  5
289
100
AcDbEntity
  8
0
100
AcDbLine
 62
7
  6
CONTINUOUS
 10
74.8573332874
 20
212.6415407105
 11
74.8573332874
 21
217.9488064218
  0
LINE
  5
28A
100
AcDbEntity
  8
0
100
AcDbLine
 62
7
  6
CONTINUOUS
 10
75.1078732414
 20
193.0052180516
 11
75.1078732414
 21
184.8401938803
  0
LINE
  5
28B
100
AcDbEntity
  8
0
100
AcDbLine
 62
7
  6
CONTINUOUS
 10
75.6073332874
 20
210.6002846677
 11
75.6073332874
 21
212.6415407105
  0
LINE
  5
28C
100
AcDbEntity
  8
0
100
AcDbLine
 62
7
  6
CONTINUOUS
 10
75.6725268893
 20
204.5182043726
 11
75.6725268893
 21
206.8246335994
  0
LINE
  5
28D
100
AcDbEntity
  8
0
100
AcDbLine
 62
7
  6
CONTINUOUS
 10
75.8149917985
 20
183.2072257632
 11
75.8149917985
 21
181.1659697204
  0
LINE
  5
28E
100
AcDbEntity
  8
0
100
AcDbLine
 62
7
  6
CONTINUOUS
 10
76.8756946578
 20
174.1033533001
 11
76.8756946578
 21
175.2464566841
  0
LINE
  5
28F
100
AcDbEntity
  8
0
100
AcDbLine
 62
7
  6
CONTINUOUS
 10
76.8757152655
 20
144.3827265971
 11
76.8757152655
 21
169.9392522533
  0
LINE
  5
290
100
AcDbEntity
  8
0
100
AcDbLine
 62
7
  6
CONTINUOUS
 10
77.7543831461
 20
172.8786208385
 11
77.7543831461
 21
171.5722169711
  0
LINE
  5
291
100
AcDbEntity
  8
0
100
AcDbLine
 62
7
  6
CONTINUOUS
 10
77.915147308
 20
150.9432816327
 11
77.915147308
 21
168.0898577892
  0
LINE
  5
292
100
AcDbEntity
  8
0
100
AcDbLine
 62
7
  6
CONTINUOUS
 10
77.9288239549
 20
211.6862895639
 11
77.9288239549
 21
209.2367823125
  0
LINE
  5
293
100
AcDbEntity
  8
0
100
AcDbLine
 62
7
  6
CONTINUOUS
 10
78.1485021725
 20
149.6083293683
 11
78.1485021725
 21
170.2658405217
  0
LINE
  5
294
100
AcDbEntity
  8
0
100
AcDbLine
 62
7
  6
CONTINUOUS
 10
79.3505786958
 20
173.8176140432
 11
79.3505786958
 21
171.3681067919
  0
LINE
  5
295
100
AcDbEntity
  8
0
100
AcDbLine
 62
7
  6
CONTINUOUS
 10
79.5627216228
 20
169.4493590127
 11
79.5627216228
 21
148.7918478593
  0
LINE
  5
296
100
AcDbEntity
  8
0
100
AcDbLine
 62
7
  6
CONTINUOUS
 10
84.7245619707
 20
157.5091296924
 11
84.7768871364
 21
157.574223299
  0
LINE
  5
297
100
AcDbEntity
  8
0
100
AcDbLine
 62
7
  6
CONTINUOUS
 10
68.4257717138
 20
151.3025121827
 11
67.0115640394
 21
150.486023875
  0
LINE
  5
298
100
AcDbEntity
  8
0
100
AcDbLine
 62
7
  6
CONTINUOUS
 10
67.4316342886
 20
149.1051396629
 11
66.0174266142
 21
148.2886513552
  0
LINE
  5
299
100
AcDbEntity
  8
0
100
AcDbLine
 62
7
  6
CONTINUOUS
 10
92.3453922576
 20
162.5405304452
 11
91.4983628886
 21
162.0515007301
  0
LINE
  5
29A
100
AcDbEntity
  8
0
100
AcDbLine
 62
7
  6
CONTINUOUS
 10
83.7772647875
 20
157.5937492722
 11
83.3103425204
 21
157.3241731847
  0
LINE
  5
29B
100
AcDbEntity
  8
0
100
AcDbLine
 62
7
  6
CONTINUOUS
 10
59.3137979744
 20
157.0112778344
 11
60.6342707478
 21
157.4332185861
  0
LINE
  5
29C
100
AcDbEntity
  8
0
100
AcDbLine
 62
7
  6
CONTINUOUS
 10
96.8162271785
 20
118.7448980295
 11
134.8587303914
 21
96.7815454364
  0
LINE
  5
29D
100
AcDbEntity
  8
0
100
AcDbLine
 62
7
  6
CONTINUOUS
 10
42.7053680356
 20
170.2908611423
 11
42.7576828031
 21
170.2257812648
  0
LINE
  5
29E
100
AcDbEntity
  8
0
100
AcDbLine
 62
7
  6
CONTINUOUS
 10
46.2932314288
 20
175.2556958471
 11
44.9296860866
 21
176.9519542491
  0
LINE
  5
29F
100
AcDbEntity
  8
0
100
AcDbLine
 62
7
  6
CONTINUOUS
 10
84.3002231252
 20
190.1473678806
 11
84.3002142933
 21
199.5371194145
  0
LINE
  5
2A0
100
AcDbEntity
  8
0
100
AcDbLine
 62
7
  6
CONTINUOUS
 10
84.653939906
 20
134.4215646289
 11
84.653939906
 21
92.6166408718
  0
LINE
  5
2A1
100
AcDbEntity
  8
0
100
AcDbLine
 62
7
  6
CONTINUOUS
 10
85.1788615662
 20
197.1691610078
 11
85.1788615662
 21
195.8627571404
  0
LINE
  5
2A2
100
AcDbEntity
  8
0
100
AcDbLine
 62
7
  6
CONTINUOUS
 10
87.1286531939
 20
189.7391322252
 11
87.1286531939
 21
187.6978761823
  0
LINE
  5
2A3
100
AcDbEntity
  8
0
100
AcDbLine
 62
7
  6
CONTINUOUS
 10
86.8458911461
 20
155.2829694121
 11
96.5775913634
 21
160.9015356139
  0
LINE
  5
2A4
100
AcDbEntity
  8
0
100
AcDbLine
 62
7
  6
CONTINUOUS
 10
101.0937564347
 20
163.5089291695
 11
105.9376947509
 21
166.3055615667
  0
LINE
  5
2A5
100
AcDbEntity
  8
0
100
AcDbLine
 62
7
  6
CONTINUOUS
 10
113.0794317309
 20
165.2848272754
 11
112.1146972586
 21
164.7278408928
  0
LINE
  5
2A6
100
AcDbEntity
  8
0
100
AcDbLine
 62
7
  6
CONTINUOUS
 10
80.6688677255
 20
146.5726911186
 11
76.8757152655
 21
144.3827265971
  0
LINE
  5
2A7
100
AcDbEntity
  8
0
100
AcDbLine
 62
7
  6
CONTINUOUS
 10
158.0645502776
 20
89.2916740391
 11
171.0753692203
 21
81.7800441559
  0
LINE
  5
2A8
100
AcDbEntity
  8
0
100
AcDbLine
 62
7
  6
CONTINUOUS
 10
134.8587303914
 20
103.3134811411
 11
99.6446425273
 21
123.6438843135
  0
LINE
  5
2A9
100
AcDbEntity
  8
0
100
AcDbLine
 62
7
  6
CONTINUOUS
 10
134.8587303914
 20
103.8034662237
 11
138.9599667972
 21
101.4356698474
  0
LINE
  5
2AA
100
AcDbEntity
  8
0
100
AcDbLine
 62
7
  6
CONTINUOUS
 10
100.3517463646
 20
124.0521284674
 11
134.9056867227
 21
104.102853013
  0
LINE
  5
2AB
100
AcDbEntity
  8
0
100
AcDbLine
 62
7
  6
CONTINUOUS
 10
61.3193189761
 20
147.893509528
 11
92.3613032985
 21
129.9718169662
  0
LINE
  5
2AC
100
AcDbEntity
  8
0
100
AcDbLine
 62
7
  6
CONTINUOUS
 10
88.2600811568
 20
166.6214688166
 11
88.2600811568
 21
164.8007978511
  0
LINE
  5
2AD
100
AcDbEntity
  8
0
100
AcDbLine
 62
7
  6
CONTINUOUS
 10
89.3207251367
 20
168.1428407936
 11
89.3207251367
 21
164.188448617
  0
LINE
  5
2AE
100
AcDbEntity
  8
0
100
AcDbLine
 62
7
  6
CONTINUOUS
 10
86.7752514176
 20
138.0958043419
 11
84.653939906
 21
134.4215646289
  0
LINE
  5
2AF
100
AcDbEntity
  8
0
100
AcDbLine
 62
7
  6
CONTINUOUS
 10
82.9568200414
 20
146.8322081956
 11
109.8267658556
 21
162.3454860428
  0
LINE
  5
2B0
100
AcDbEntity
  8
0
100
AcDbLine
 62
7
  6
CONTINUOUS
 10
94.4826148101
 20
133.6460566792
 11
105.2377000002
 21
134.7114414802
  0
LINE
  5
2B1
100
AcDbEntity
  8
0
100
AcDbLine
 62
7
  6
CONTINUOUS
 10
36.7472678031
 20
164.0395165662
 11
63.6174373587
 21
148.5263678944
  0
LINE
  5
2B2
100
AcDbEntity
  8
0
100
AcDbLine
 62
7
  6
CONTINUOUS
 10
72.6330745785
 20
144.3827163991
 11
65.9799760185
 21
148.2237977468
  0
LINE
  5
2B3
100
AcDbEntity
  8
0
100
AcDbLine
 62
7
  6
CONTINUOUS
 10
76.2479414718
 20
144.1736120745
 11
94.4826148101
 21
133.6460566792
  0
LINE
  5
2B4
100
AcDbEntity
  8
0
100
AcDbLine
 62
7
  6
CONTINUOUS
 10
138.1583034624
 20
109.7367224061
 11
103.6044240157
 21
129.685962694
  0
LINE
  5
2B5
100
AcDbEntity
  8
0
100
AcDbLine
 62
7
  6
CONTINUOUS
 10
142.4954859833
 20
107.5594027025
 11
138.3942495775
 21
109.9271990787
  0
LINE
  5
2B6
100
AcDbEntity
  8
0
100
AcDbLine
 62
7
  6
CONTINUOUS
 10
103.6044240157
 20
130.5024651112
 11
138.8184394511
 21
110.1721037545
  0
LINE
  5
2B7
100
AcDbEntity
  8
0
100
AcDbLine
 62
7
  6
CONTINUOUS
 10
162.564473926
 20
97.0859467543
 11
175.5752928687
 21
89.5743168711
  0
LINE
  5
2B8
100
AcDbEntity
  8
0
100
AcDbLine
 62
7
  6
CONTINUOUS
 10
40.6363712914
 20
167.9996107865
 11
45.4828218472
 21
165.2015745536
  0
LINE
  5
2B9
100
AcDbEntity
  8
0
100
AcDbLine
 62
7
  6
CONTINUOUS
 10
49.9965660781
 20
162.5956220613
 11
55.0288031366
 21
159.6903243676
  0
LINE
  5
2BA
100
AcDbEntity
  8
0
100
AcDbLine
 62
7
  6
CONTINUOUS
 10
59.5425473676
 20
157.0843718753
 11
59.7283338704
 21
156.9771104145
  0
LINE
  5
2BB
100
AcDbEntity
  8
0
100
AcDbLine
 62
7
  6
CONTINUOUS
 10
92.3613032985
 20
129.9718169662
 11
96.8162271785
 21
120.124941707
  0
LINE
  5
2BC
100
AcDbEntity
  8
0
100
AcDbLine
 62
7
  6
CONTINUOUS
 10
87.1286531939
 20
189.7391322252
 11
86.1634326237
 21
196.0653980092
  0
LINE
  5
2BD
100
AcDbEntity
  8
0
100
AcDbLine
 62
7
  6
CONTINUOUS
 10
96.8162271785
 20
120.124941707
 11
96.8162271785
 21
92.8697818382
  0
LINE
  5
2BE
100
AcDbEntity
  8
0
100
AcDbLine
 62
7
  6
CONTINUOUS
 10
98.331388638
 20
198.9246414963
 11
98.331388638
 21
196.0668830364
  0
LINE
  5
2BF
100
AcDbEntity
  8
0
100
AcDbLine
 62
7
  6
CONTINUOUS
 10
98.8666269391
 20
173.6541368709
 11
98.8666269391
 21
171.3864523448
  0
LINE
  5
2C0
100
AcDbEntity
  8
0
100
AcDbLine
 62
7
  6
CONTINUOUS
 10
94.4826148101
 20
133.6460566792
 11
92.3613032985
 21
129.9718169662
  0
LINE
  5
2C1
100
AcDbEntity
  8
0
100
AcDbLine
 62
7
  6
CONTINUOUS
 10
122.978967883
 20
158.9979050201
 11
86.7752514176
 21
138.0958043419
  0
LINE
  5
2C2
100
AcDbEntity
  8
0
100
AcDbLine
 62
7
  6
CONTINUOUS
 10
79.142641312
 20
147.4109558588
 11
80.5568607623
 21
146.5944743498
  0
LINE
  5
2C3
100
AcDbEntity
  8
0
100
AcDbLine
 62
7
  6
CONTINUOUS
 10
79.5627216228
 20
148.7918478593
 11
78.1485021725
 21
149.6083293683
  0
LINE
  5
2C4
100
AcDbEntity
  8
0
100
AcDbLine
 62
7
  6
CONTINUOUS
 10
44.5608549754
 20
169.8162678786
 11
44.1718904775
 21
170.0408315559
  0
LINE
  5
2C5
100
AcDbEntity
  8
0
100
AcDbLine
 62
7
  6
CONTINUOUS
 10
144.4753425775
 20
113.438098802
 11
106.4328393646
 21
135.4014513952
  0
LINE
  5
2C6
100
AcDbEntity
  8
0
100
AcDbLine
 62
7
  6
CONTINUOUS
 10
103.6044240157
 20
129.685962694
 11
103.6044240157
 21
130.5024651112
  0
LINE
  5
2C7
100
AcDbEntity
  8
0
100
AcDbLine
 62
7
  6
CONTINUOUS
 10
106.331388638
 20
198.9246414963
 11
106.331388638
 21
196.0668830364
  0
LINE
  5
2C8
100
AcDbEntity
  8
0
100
AcDbLine
 62
7
  6
CONTINUOUS
 10
108.1296665988
 20
194.5971996264
 11
108.1296665988
 21
195.7403030104
  0
LINE
  5
2C9
100
AcDbEntity
  8
0
100
AcDbLine
 62
7
  6
CONTINUOUS
 10
96.8162271785
 20
120.124941707
 11
105.2377000002
 21
134.7114414802
  0
LINE
  5
2CA
100
AcDbEntity
  8
0
100
AcDbLine
 62
7
  6
CONTINUOUS
 10
128.8410938454
 20
148.3387859263
 11
105.2377000002
 21
134.7114414802
  0
LINE
  5
2CB
100
AcDbEntity
  8
0
100
AcDbLine
 62
7
  6
CONTINUOUS
 10
59.7283338704
 20
168.4081442543
 11
40.6363712914
 21
179.4306446263
  0
LINE
  5
2CC
100
AcDbEntity
  8
0
100
AcDbLine
 62
7
  6
CONTINUOUS
 10
86.8458911461
 20
155.2829694121
 11
83.3103425204
 21
157.3241731847
  0
LINE
  5
2CD
100
AcDbEntity
  8
0
100
AcDbLine
 62
7
  6
CONTINUOUS
 10
85.9065896679
 20
156.9220039935
 11
82.7245959047
 21
158.7590873888
  0
LINE
  5
2CE
100
AcDbEntity
  8
0
100
AcDbLine
 62
7
  6
CONTINUOUS
 10
87.5708048764
 20
156.5385376353
 11
86.1565854261
 21
157.3550191443
  0
LINE
  5
2CF
100
AcDbEntity
  8
0
100
AcDbLine
 62
7
  6
CONTINUOUS
 10
72.6330745785
 20
167.4897348039
 11
68.4257717138
 21
169.9187672933
  0
LINE
  5
2D0
100
AcDbEntity
  8
0
100
AcDbLine
 62
7
  6
CONTINUOUS
 10
33.3531411224
 20
190.1675019188
 11
25.3360318724
 21
194.7960773901
  0
LINE
  5
2D1
100
AcDbEntity
  8
0
100
AcDbLine
 62
7
  6
CONTINUOUS
 10
110.6045300291
 20
197.1691575489
 11
110.6045300291
 21
195.0900473283
  0
LINE
  5
2D2
100
AcDbEntity
  8
0
100
AcDbLine
 62
7
  6
CONTINUOUS
 10
110.6045683006
 20
191.8620056444
 11
110.6045683006
 21
189.412498393
  0
LINE
  5
2D3
100
AcDbEntity
  8
0
100
AcDbLine
 62
7
  6
CONTINUOUS
 10
113.0794317309
 20
190.8413529315
 11
113.0794317309
 21
188.9634350066
  0
LINE
  5
2D4
100
AcDbEntity
  8
0
100
AcDbLine
 62
7
  6
CONTINUOUS
 10
113.0794317309
 20
167.322489957
 11
113.0794317309
 21
165.2848272754
  0
LINE
  5
2D5
100
AcDbEntity
  8
0
100
AcDbLine
 62
7
  6
CONTINUOUS
 10
113.2208642742
 20
168.2242695836
 11
113.2208642742
 21
188.8817807369
  0
LINE
  5
2D6
100
AcDbEntity
  8
0
100
AcDbLine
 62
7
  6
CONTINUOUS
 10
113.2509957743
 20
193.3724773628
 11
113.2509957743
 21
192.0660734954
  0
LINE
  5
2D7
100
AcDbEntity
  8
0
100
AcDbLine
 62
7
  6
CONTINUOUS
 10
113.9581025555
 20
166.5095495389
 11
113.9581025555
 21
192.0660751951
  0
LINE
  5
2D8
100
AcDbEntity
  8
0
100
AcDbLine
 62
7
  6
CONTINUOUS
 10
99.6446425273
 20
123.6438843135
 11
100.3517463646
 21
124.0521284674
  0
LINE
  5
2D9
100
AcDbEntity
  8
0
100
AcDbLine
 62
7
  6
CONTINUOUS
 10
81.9706256414
 20
157.7551316221
 11
84.7245619707
 21
157.5091296924
  0
LINE
  5
2DA
100
AcDbEntity
  8
0
100
AcDbLine
 62
7
  6
CONTINUOUS
 10
67.0115640394
 20
171.1435350283
 11
33.3531411224
 21
190.5757949435
  0
LINE
  5
2DB
100
AcDbEntity
  8
0
100
AcDbLine
 62
7
  6
CONTINUOUS
 10
34.7673487968
 20
191.3922832512
 11
68.4257717138
 21
171.9600233361
  0
LINE
  5
2DC
100
AcDbEntity
  8
0
100
AcDbLine
 62
7
  6
CONTINUOUS
 10
28.4387167568
 20
195.4542892128
 11
32.6813751077
 21
193.0048446856
  0
LINE
  5
2DD
100
AcDbEntity
  8
0
100
AcDbLine
 62
7
  6
CONTINUOUS
 10
70.1581905404
 20
171.3680846961
 11
72.6330745785
 21
169.9392420552
  0
LINE
  5
2DE
100
AcDbEntity
  8
0
100
AcDbLine
 62
7
  6
CONTINUOUS
 10
26.4943818421
 20
199.0263333553
 11
28.4387167568
 21
197.9037964642
  0
LINE
  5
2DF
100
AcDbEntity
  8
0
100
AcDbLine
 62
7
  6
CONTINUOUS
 10
32.6813751077
 20
195.454351937
 11
70.1581905404
 21
173.8175919475
  0
LINE
  5
2E0
100
AcDbEntity
  8
0
100
AcDbLine
 62
7
  6
CONTINUOUS
 10
171.6829244537
 20
115.4927531461
 11
172.814300014
 21
114.8395679389
  0
LINE
  5
2E1
100
AcDbEntity
  8
0
100
AcDbLine
 62
7
  6
CONTINUOUS
 10
91.0707454918
 20
162.6007497471
 11
89.6565260415
 21
163.4172312562
  0
LINE
  5
2E2
100
AcDbEntity
  8
0
100
AcDbLine
 62
7
  6
CONTINUOUS
 10
79.5627216228
 20
169.4493590127
 11
78.1485021725
 21
170.2658405217
  0
LINE
  5
2E3
100
AcDbEntity
  8
0
100
AcDbLine
 62
7
  6
CONTINUOUS
 10
89.9688992015
 20
163.778510956
 11
91.2266883412
 21
163.0523424857
  0
LINE
  5
2E4
100
AcDbEntity
  8
0
100
AcDbLine
 62
7
  6
CONTINUOUS
 10
89.9065217998
 20
163.850246407
 11
86.7245280366
 21
165.6873298023
  0
LINE
  5
2E5
100
AcDbEntity
  8
0
100
AcDbLine
 62
7
  6
CONTINUOUS
 10
77.7543831461
 20
172.289649874
 11
79.3505786958
 21
171.3681067919
  0
LINE
  5
2E6
100
AcDbEntity
  8
0
100
AcDbLine
 62
7
  6
CONTINUOUS
 10
87.4728419462
 20
167.0759713045
 11
88.2600811568
 21
166.6214688166
  0
LINE
  5
2E7
100
AcDbEntity
  8
0
100
AcDbLine
 62
7
  6
CONTINUOUS
 10
96.8063734885
 20
160.8284327037
 11
95.4859003041
 21
161.2503644112
  0
LINE
  5
2E8
100
AcDbEntity
  8
0
100
AcDbLine
 62
7
  6
CONTINUOUS
 10
97.0131475745
 20
162.6869692407
 11
96.4973038663
 21
162.9847850069
  0
LINE
  5
2E9
100
AcDbEntity
  8
0
100
AcDbLine
 62
7
  6
CONTINUOUS
 10
76.8756946578
 20
175.2464566841
 11
79.3505786958
 21
173.8176140432
  0
LINE
  5
2EA
100
AcDbEntity
  8
0
100
AcDbLine
 62
7
  6
CONTINUOUS
 10
89.9477053765
 20
168.504825843
 11
91.2266883412
 21
167.766421389
  0
LINE
  5
2EB
100
AcDbEntity
  8
0
100
AcDbLine
 62
7
  6
CONTINUOUS
 10
41.6906868255
 20
196.4582005321
 11
47.8551264933
 21
192.8992401449
  0
LINE
  5
2EC
100
AcDbEntity
  8
0
100
AcDbLine
 62
7
  6
CONTINUOUS
 10
127.645954481
 20
147.6487760113
 11
165.6884576939
 21
125.6854234181
  0
LINE
  5
2ED
100
AcDbEntity
  8
0
100
AcDbLine
 62
7
  6
CONTINUOUS
 10
129.645920547
 20
147.8468875495
 11
166.8600044779
 21
126.3618122317
  0
LINE
  5
2EE
100
AcDbEntity
  8
0
100
AcDbLine
 62
7
  6
CONTINUOUS
 10
128.8410938454
 20
148.3387859263
 11
137.2625666671
 21
143.4765073084
  0
LINE
  5
2EF
100
AcDbEntity
  8
0
100
AcDbLine
 62
7
  6
CONTINUOUS
 10
47.8551264933
 20
195.3487473963
 11
41.6906868255
 21
198.9077077835
  0
LINE
  5
2F0
100
AcDbEntity
  8
0
100
AcDbLine
 62
7
  6
CONTINUOUS
 10
100.0130966734
 20
167.8831510508
 11
99.5398645281
 21
168.1563655763
  0
LINE
  5
2F1
100
AcDbEntity
  8
0
100
AcDbLine
 62
7
  6
CONTINUOUS
 10
63.0870167458
 20
190.5555593446
 11
65.7149029582
 21
189.0383828556
  0
LINE
  5
2F2
100
AcDbEntity
  8
0
100
AcDbLine
 62
7
  6
CONTINUOUS
 10
68.1376259439
 20
187.6396547311
 11
72.9865528979
 21
184.8401887813
  0
LINE
  5
2F3
100
AcDbEntity
  8
0
100
AcDbLine
 62
7
  6
CONTINUOUS
 10
101.5192277707
 20
168.9915204386
 11
99.2795329725
 21
171.0279573383
  0
LINE
  5
2F4
100
AcDbEntity
  8
0
100
AcDbLine
 62
7
  6
CONTINUOUS
 10
125.8077259095
 20
102.0070270942
 11
125.8077259095
 21
77.5119545803
  0
LINE
  5
2F5
100
AcDbEntity
  8
0
100
AcDbLine
 62
7
  6
CONTINUOUS
 10
130.6863312755
 20
154.5481573574
 11
128.8410938454
 21
148.3387859263
  0
LINE
  5
2F6
100
AcDbEntity
  8
0
100
AcDbLine
 62
7
  6
CONTINUOUS
 10
96.8162271785
 20
92.8697818382
 11
92.3613032985
 21
88.1668932092
  0
LINE
  5
2F7
100
AcDbEntity
  8
0
100
AcDbLine
 62
7
  6
CONTINUOUS
 10
88.2600811568
 20
166.6214688166
 11
86.8965777623
 21
166.7432670088
  0
LINE
  5
2F8
100
AcDbEntity
  8
0
100
AcDbLine
 62
7
  6
CONTINUOUS
 10
106.3522752909
 20
166.339728781
 11
105.0318021064
 21
166.7616604885
  0
LINE
  5
2F9
100
AcDbEntity
  8
0
100
AcDbLine
 62
7
  6
CONTINUOUS
 10
105.2913246693
 20
166.6787350649
 11
105.9376947509
 21
166.3055615667
  0
LINE
  5
2FA
100
AcDbEntity
  8
0
100
AcDbLine
 62
7
  6
CONTINUOUS
 10
171.769550694
 20
129.1963231414
 11
175.8707870998
 21
126.8285267652
  0
LINE
  5
2FB
100
AcDbEntity
  8
0
100
AcDbLine
 62
7
  6
CONTINUOUS
 10
97.0187437486
 20
172.5872673817
 11
98.2977267134
 21
171.8488629277
  0
LINE
  5
2FC
100
AcDbEntity
  8
0
100
AcDbLine
 62
7
  6
CONTINUOUS
 10
106.5590493769
 20
168.1982653179
 11
106.0432056687
 21
168.4960810842
  0
LINE
  5
2FD
100
AcDbEntity
  8
0
100
AcDbLine
 62
7
  6
CONTINUOUS
 10
132.8076427871
 20
153.3233825676
 11
112.5844463698
 21
164.9990490498
  0
LINE
  5
2FE
100
AcDbEntity
  8
0
100
AcDbLine
 62
7
  6
CONTINUOUS
 10
178.3707446822
 20
127.076166188
 11
174.2695082764
 21
129.4439625642
  0
LINE
  5
2FF
100
AcDbEntity
  8
0
100
AcDbLine
 62
7
  6
CONTINUOUS
 10
99.4936071788
 20
174.0161219203
 11
100.7725901436
 21
173.2777174662
  0
LINE
  5
300
100
AcDbEntity
  8
0
100
AcDbLine
 62
7
  6
CONTINUOUS
 10
63.0870167458
 20
198.7205835159
 11
72.9865528979
 21
193.0052129526
  0
LINE
  5
301
100
AcDbEntity
  8
0
100
AcDbLine
 62
7
  6
CONTINUOUS
 10
80.1182846007
 20
189.0277508537
 11
80.4718394632
 21
188.8236304765
  0
LINE
  5
302
100
AcDbEntity
  8
0
100
AcDbLine
 62
7
  6
CONTINUOUS
 10
132.5959227468
 20
113.7645941758
 11
132.5959227468
 21
112.9480917587
  0
LINE
  5
303
100
AcDbEntity
  8
0
100
AcDbLine
 62
7
  6
CONTINUOUS
 10
134.8587303914
 20
65.2645521352
 11
134.8587303914
 21
72.2864729225
  0
LINE
  5
304
100
AcDbEntity
  8
0
100
AcDbLine
 62
7
  6
CONTINUOUS
 10
134.8587303914
 20
96.7815454364
 11
134.8587303914
 21
103.8034662237
  0
LINE
  5
305
100
AcDbEntity
  8
0
100
AcDbLine
 62
7
  6
CONTINUOUS
 10
137.2625666671
 20
143.4495143436
 11
137.2625666671
 21
143.4765073084
  0
LINE
  5
306
100
AcDbEntity
  8
0
100
AcDbLine
 62
7
  6
CONTINUOUS
 10
138.9599667972
 20
101.4356698474
 11
138.9599667972
 21
62.8967557589
  0
LINE
  5
307
100
AcDbEntity
  8
0
100
AcDbLine
 62
7
  6
CONTINUOUS
 10
156.637453212
 20
130.910905076
 11
135.4243380956
 21
118.6635804598
  0
LINE
  5
308
100
AcDbEntity
  8
0
100
AcDbLine
 62
7
  6
CONTINUOUS
 10
42.7576828031
 20
170.2257812648
 11
44.8612454312
 21
170.4136955608
  0
LINE
  5
309
100
AcDbEntity
  8
0
100
AcDbLine
 62
7
  6
CONTINUOUS
 10
75.8149917985
 20
181.1659697204
 11
64.8574133535
 21
181.7231794322
  0
LINE
  5
30A
100
AcDbEntity
  8
0
100
AcDbLine
 62
7
  6
CONTINUOUS
 10
78.9540609086
 20
190.2772475136
 11
79.7338898101
 21
189.8270232728
  0
LINE
  5
30B
100
AcDbEntity
  8
0
100
AcDbLine
 62
7
  6
CONTINUOUS
 10
109.5589984758
 20
173.3944471281
 11
109.0857663305
 21
173.6676616536
  0
LINE
  5
30C
100
AcDbEntity
  8
0
100
AcDbLine
 62
7
  6
CONTINUOUS
 10
58.3919598027
 20
203.9621086347
 11
60.5829955631
 21
202.697142166
  0
LINE
  5
30D
100
AcDbEntity
  8
0
100
AcDbLine
 62
7
  6
CONTINUOUS
 10
80.4540354581
 20
192.8753384187
 11
81.2355316496
 21
192.4241515893
  0
LINE
  5
30E
100
AcDbEntity
  8
0
100
AcDbLine
 62
7
  6
CONTINUOUS
 10
106.6988544973
 20
178.0210796406
 11
107.8436285158
 21
177.3601590049
  0
LINE
  5
30F
100
AcDbEntity
  8
0
100
AcDbLine
 62
7
  6
CONTINUOUS
 10
82.1182506666
 20
192.4918720605
 11
82.4718055292
 21
192.2877516832
  0
LINE
  5
310
100
AcDbEntity
  8
0
100
AcDbLine
 62
7
  6
CONTINUOUS
 10
58.6611789186
 20
206.256060225
 11
64.8256185864
 21
202.6970998378
  0
LINE
  5
311
100
AcDbEntity
  8
0
100
AcDbLine
 62
7
  6
CONTINUOUS
 10
64.8256185864
 20
205.1466070892
 11
58.6611789186
 21
208.7055674764
  0
LINE
  5
312
100
AcDbEntity
  8
0
100
AcDbLine
 62
7
  6
CONTINUOUS
 10
111.0651295731
 20
174.5028165159
 11
108.8254347749
 21
176.5392534156
  0
LINE
  5
313
100
AcDbEntity
  8
0
100
AcDbLine
 62
7
  6
CONTINUOUS
 10
132.8076427871
 20
153.3233825676
 11
137.2625666671
 21
143.4765073084
  0
LINE
  5
314
100
AcDbEntity
  8
0
100
AcDbLine
 62
7
  6
CONTINUOUS
 10
129.3432450956
 20
107.3142575321
 11
128.6361412584
 21
106.9060133782
  0
LINE
  5
315
100
AcDbEntity
  8
0
100
AcDbLine
 62
7
  6
CONTINUOUS
 10
138.3942495775
 20
109.9271990787
 11
144.4753425775
 21
113.438098802
  0
LINE
  5
316
100
AcDbEntity
  8
0
100
AcDbLine
 62
7
  6
CONTINUOUS
 10
165.6884576939
 20
125.6854234181
 11
171.769550694
 21
129.1963231414
  0
LINE
  5
317
100
AcDbEntity
  8
0
100
AcDbLine
 62
7
  6
CONTINUOUS
 10
40.5632404621
 20
179.4579063589
 11
39.2221341773
 21
179.3381033923
  0
LINE
  5
318
100
AcDbEntity
  8
0
100
AcDbLine
 62
7
  6
CONTINUOUS
 10
75.1078732414
 20
184.8401938803
 11
72.9865528979
 21
184.8401887813
  0
LINE
  5
319
100
AcDbEntity
  8
0
100
AcDbLine
 62
7
  6
CONTINUOUS
 10
64.8574133535
 20
183.7644354751
 11
75.8149917985
 21
183.2072257632
  0
LINE
  5
31A
100
AcDbEntity
  8
0
100
AcDbLine
 62
7
  6
CONTINUOUS
 10
84.3002142933
 20
199.5371194145
 11
74.4006781413
 21
205.2524899778
  0
LINE
  5
31B
100
AcDbEntity
  8
0
100
AcDbLine
 62
7
  6
CONTINUOUS
 10
105.2377000002
 20
88.0075032204
 11
105.2612925806
 21
88.0211243217
  0
LINE
  5
31C
100
AcDbEntity
  8
0
100
AcDbLine
 62
7
  6
CONTINUOUS
 10
175.8707870998
 20
126.8285267652
 11
142.4954859833
 21
107.5594027025
  0
LINE
  5
31D
100
AcDbEntity
  8
0
100
AcDbLine
 62
7
  6
CONTINUOUS
 10
72.9865528979
 20
193.0052129526
 11
75.1078732414
 21
193.0052180516
  0
LINE
  5
31E
100
AcDbEntity
  8
0
100
AcDbLine
 62
7
  6
CONTINUOUS
 10
113.2208642742
 20
188.8817807369
 11
111.8066448239
 21
189.698262246
  0
LINE
  5
31F
100
AcDbEntity
  8
0
100
AcDbLine
 62
7
  6
CONTINUOUS
 10
110.6045683006
 20
191.8620056444
 11
108.1296842626
 21
193.2908482852
  0
LINE
  5
320
100
AcDbEntity
  8
0
100
AcDbLine
 62
7
  6
CONTINUOUS
 10
75.257412501
 20
213.8206114786
 11
77.5534876563
 21
212.4950018589
  0
LINE
  5
321
100
AcDbEntity
  8
0
100
AcDbLine
 62
7
  6
CONTINUOUS
 10
110.6045300291
 20
197.1691575489
 11
105.8703702276
 21
199.9023641513
  0
LINE
  5
322
100
AcDbEntity
  8
0
100
AcDbLine
 62
7
  6
CONTINUOUS
 10
104.0248486935
 20
200.9678524012
 11
74.8573332874
 21
217.8073443123
  0
LINE
  5
323
100
AcDbEntity
  8
0
100
AcDbLine
 62
7
  6
CONTINUOUS
 10
67.8851812362
 20
221.8326271119
 11
66.9407213308
 21
222.3778989568
  0
LINE
  5
324
100
AcDbEntity
  8
0
100
AcDbLine
 62
7
  6
CONTINUOUS
 10
57.6766171607
 20
193.9852450411
 11
49.2558804273
 21
192.6825494638
  0
LINE
  5
325
100
AcDbEntity
  8
0
100
AcDbLine
 62
7
  6
CONTINUOUS
 10
49.2558804273
 20
195.1320567152
 11
57.6766171607
 21
196.4347522925
  0
LINE
  5
326
100
AcDbEntity
  8
0
100
AcDbLine
 62
7
  6
CONTINUOUS
 10
67.9360686584
 20
202.7449006933
 11
66.2263725204
 21
202.4804091567
  0
LINE
  5
327
100
AcDbEntity
  8
0
100
AcDbLine
 62
7
  6
CONTINUOUS
 10
66.2263725204
 20
204.9299164081
 11
74.6471092538
 21
206.2326119854
  0
LINE
  5
328
100
AcDbEntity
  8
0
100
AcDbLine
 62
7
  6
CONTINUOUS
 10
74.4006781413
 20
205.2524899778
 11
72.2793577977
 21
205.2524848788
  0
LINE
  5
329
100
AcDbEntity
  8
0
100
AcDbLine
 62
7
  6
CONTINUOUS
 10
71.5754296008
 20
206.7609686011
 11
64.6392923473
 21
206.7609519286
  0
LINE
  5
32A
100
AcDbEntity
  8
0
100
AcDbLine
 62
7
  6
CONTINUOUS
 10
64.6392923473
 20
208.8022079715
 11
66.9497772838
 21
208.8022135252
  0
LINE
  5
32B
100
AcDbEntity
  8
0
100
AcDbLine
 62
7
  6
CONTINUOUS
 10
69.2649446643
 20
208.8022190902
 11
71.5754296008
 21
208.8022246439
  0
LINE
  5
32C
100
AcDbEntity
  8
0
100
AcDbLine
 62
7
  6
CONTINUOUS
 10
173.3253310445
 20
87.8409119189
 11
173.9857979506
 21
88.0833648668
  0
LINE
  5
32D
100
AcDbEntity
  8
0
100
AcDbLine
 62
7
  6
CONTINUOUS
 10
66.9497772838
 20
214.1094792365
 11
69.2649446643
 21
214.1094848015
  0
LINE
  5
32E
100
AcDbEntity
  8
0
100
AcDbLine
 62
7
  6
CONTINUOUS
 10
179.4063062859
 20
86.2483213604
 11
179.4063062859
 21
124.7872354489
  0
LINE
  5
32F
100
AcDbEntity
  8
0
100
AcDbLine
 62
7
  6
CONTINUOUS
 10
142.4954859833
 20
60.8554644426
 11
175.8707870998
 21
80.1245885054
  0
ARC
  5
330
100
AcDbEntity
  8
0
100
AcDbCircle
 62
7
  6
CONTINUOUS
 10
51.0387261755
 20
208.8431955745
 40
16.2586906508
100
AcDbArc
 50
258.708006814
 51
263.704575237
  0
ARC
  5
331
100
AcDbEntity
  8
0
100
AcDbCircle
 62
7
  6
CONTINUOUS
 10
68.0092182687
 20
218.6410552675
 40
16.2586906508
100
AcDbArc
 50
258.708006814
 51
263.704575237
  0
ARC
  5
332
100
AcDbEntity
  8
0
100
AcDbCircle
 62
7
  6
CONTINUOUS
 10
51.0074282205
 20
211.0903834029
 40
16.0541617764
100
AcDbArc
 50
258.6761582775
 51
263.7364237736
  0
ARC
  5
333
100
AcDbEntity
  8
0
100
AcDbCircle
 62
7
  6
CONTINUOUS
 10
67.9779203137
 20
220.8882430958
 40
16.0541617764
100
AcDbArc
 50
258.6761582775
 51
263.7364237736
  0
ARC
  5
334
100
AcDbEntity
  8
0
100
AcDbCircle
 62
7
  6
CONTINUOUS
 10
53.1997123972
 20
205.4106617633
 40
10.0304350399
100
AcDbArc
 50
296.5085953077
 51
299.9538958529
  0
ARC
  5
335
100
AcDbEntity
  8
0
100
AcDbCircle
 62
7
  6
CONTINUOUS
 10
70.1702044903
 20
215.2085214562
 40
10.0304350399
100
AcDbArc
 50
296.5085953077
 51
299.9538958529
  0
ARC
  5
336
100
AcDbEntity
  8
0
100
AcDbCircle
 62
7
  6
CONTINUOUS
 10
53.281860709
 20
202.808148971
 40
9.8568513241
100
AcDbArc
 50
296.4782492513
 51
299.9842419093
  0
ARC
  5
337
100
AcDbEntity
  8
0
100
AcDbCircle
 62
7
  6
CONTINUOUS
 10
65.931529373
 20
206.197714528
 40
9.795853366
100
AcDbArc
 50
117.8384397392
 51
119.9822164381
  0
ARC
  5
338
100
AcDbEntity
  8
0
100
AcDbCircle
 62
7
  6
CONTINUOUS
 10
48.9583962441
 20
196.4046054356
 40
9.7904186807
100
AcDbArc
 50
117.8696895449
 51
119.982722126
  0
ARC
  5
339
100
AcDbEntity
  8
0
100
AcDbCircle
 62
7
  6
CONTINUOUS
 10
48.5646251989
 20
197.087128611
 40
9.0024507112
100
AcDbArc
 50
119.9827745882
 51
123.6848389692
  0
ARC
  5
33A
100
AcDbEntity
  8
0
100
AcDbCircle
 62
7
  6
CONTINUOUS
 10
65.535117292
 20
206.8849883039
 40
9.0024507112
100
AcDbArc
 50
119.9827745882
 51
123.6848389692
  0
ARC
  5
33B
100
AcDbEntity
  8
0
100
AcDbCircle
 62
7
  6
CONTINUOUS
 10
53.7090571897
 20
204.5177213385
 40
9.0024507112
100
AcDbArc
 50
299.9827745882
 51
303.6848389692
  0
ARC
  5
33C
100
AcDbEntity
  8
0
100
AcDbCircle
 62
7
  6
CONTINUOUS
 10
70.6795492828
 20
214.3155810315
 40
9.0024507113
100
AcDbArc
 50
299.9827745882
 51
303.6848389692
  0
ARC
  5
33D
100
AcDbEntity
  8
0
100
AcDbCircle
 62
7
  6
CONTINUOUS
 10
53.7973942942
 20
201.9259284495
 40
8.8350624572
100
AcDbArc
 50
299.9476925529
 51
303.7199210046
  0
ARC
  5
33E
100
AcDbEntity
  8
0
100
AcDbCircle
 62
7
  6
CONTINUOUS
 10
124.7336095294
 20
113.7314829415
 40
7.9785220501
100
AcDbArc
 50
328.9517320484
 51
331.0489209581
  0
ARC
  5
33F
100
AcDbEntity
  8
0
100
AcDbCircle
 62
7
  6
CONTINUOUS
 10
124.8469941517
 20
113.6614939838
 40
7.8452843253
100
AcDbArc
 50
322.5615793381
 51
328.9625598262
  0
ARC
  5
340
100
AcDbEntity
  8
0
100
AcDbCircle
 62
7
  6
CONTINUOUS
 10
124.9026326963
 20
113.6433277605
 40
7.7879499186
100
AcDbArc
 50
331.0144970451
 51
337.4617376817
  0
ARC
  5
341
100
AcDbEntity
  8
0
100
AcDbCircle
 62
7
  6
CONTINUOUS
 10
47.6894904722
 20
176.1213630671
 40
7.0246973729
100
AcDbArc
 50
236.4866183773
 51
239.9505301938
  0
ARC
  5
342
100
AcDbEntity
  8
0
100
AcDbCircle
 62
7
  6
CONTINUOUS
 10
102.5562195835
 20
172.1602616067
 40
6.7610566383
100
AcDbArc
 50
300.0092656966
 51
301.5087322251
  0
ARC
  5
343
100
AcDbEntity
  8
0
100
AcDbCircle
 62
7
  6
CONTINUOUS
 10
74.7543861529
 20
172.1386463883
 40
5.1562245781
100
AcDbArc
 50
263.5258730156
 51
276.4737961813
  0
ARC
  5
344
100
AcDbEntity
  8
0
100
AcDbCircle
 62
7
  6
CONTINUOUS
 10
33.0306148765
 20
200.3397131403
 40
5.1068004138
100
AcDbArc
 50
266.0731906651
 51
266.2771437932
  0
ARC
  5
345
100
AcDbEntity
  8
0
100
AcDbCircle
 62
7
  6
CONTINUOUS
 10
110.2552911083
 20
196.7473539659
 40
5.1067892009
100
AcDbArc
 50
273.7231339532
 51
273.9272435419
  0
ARC
  5
346
100
AcDbEntity
  8
0
100
AcDbCircle
 62
7
  6
CONTINUOUS
 10
33.0301541121
 20
200.3330850002
 40
5.1001562803
100
AcDbArc
 50
265.6065755674
 51
266.0732555267
  0
ARC
  5
347
100
AcDbEntity
  8
0
100
AcDbCircle
 62
7
  6
CONTINUOUS
 10
110.2557521237
 20
196.7407229035
 40
5.1001421346
100
AcDbArc
 50
273.9271786807
 51
274.3938670823
  0
ARC
  5
348
100
AcDbEntity
  8
0
100
AcDbCircle
 62
7
  6
CONTINUOUS
 10
49.1267118058
 20
211.191333244
 40
3.6024865403
100
AcDbArc
 50
129.8108218451
 51
131.6285498659
  0
ARC
  5
349
100
AcDbEntity
  8
0
100
AcDbCircle
 62
7
  6
CONTINUOUS
 10
83.3898825851
 20
194.6547058358
 40
3.2685552597
100
AcDbArc
 50
54.1481884919
 51
56.1930200839
  0
ARC
  5
34A
100
AcDbEntity
  8
0
100
AcDbCircle
 62
7
  6
CONTINUOUS
 10
82.9231920082
 20
196.0084865963
 40
2.7543134928
100
AcDbArc
 50
58.7062448429
 51
60.0042197212
  0
ARC
  5
34B
100
AcDbEntity
  8
0
100
AcDbCircle
 62
7
  6
CONTINUOUS
 10
108.0077482713
 20
169.5053012047
 40
2.0660341192
100
AcDbArc
 50
189.5582097366
 51
191.6454332382
  0
ARC
  5
34C
100
AcDbEntity
  8
0
100
AcDbCircle
 62
7
  6
CONTINUOUS
 10
98.4618464688
 20
163.9940051275
 40
2.0660341192
100
AcDbArc
 50
189.5582097366
 51
191.6454332383
  0
ARC
  5
34D
100
AcDbEntity
  8
0
100
AcDbCircle
 62
7
  6
CONTINUOUS
 10
48.1140418717
 20
165.6877875713
 40
2.0642975998
100
AcDbArc
 50
348.2951726533
 51
350.4397728068
  0
ARC
  5
34E
100
AcDbEntity
  8
0
100
AcDbCircle
 62
7
  6
CONTINUOUS
 10
57.6600231612
 20
160.1765373853
 40
2.0642975998
100
AcDbArc
 50
348.2951726533
 51
350.4397728069
  0
ARC
  5
34F
100
AcDbEntity
  8
0
100
AcDbCircle
 62
7
  6
CONTINUOUS
 10
37.1958268207
 20
173.9588773314
 40
0.9686216442
100
AcDbArc
 50
119.9994246271
 51
121.1501284935
  0
ARC
  5
350
100
AcDbEntity
  8
0
100
AcDbCircle
 62
7
  6
CONTINUOUS
 10
90.2864735631
 20
161.2422775681
 40
0.968585977
100
AcDbArc
 50
58.8593659042
 51
60.0018216587
  0
ARC
  5
351
100
AcDbEntity
  8
0
100
AcDbCircle
 62
7
  6
CONTINUOUS
 10
80.9149408241
 20
189.5013710153
 40
0.8162385299
100
AcDbArc
 50
213.2929199833
 51
214.5333680431
  0
SPLINE
  5
352
100
AcDbEntity
  8
0
100
AcDbSpline
 62
7
  6
CONTINUOUS
 70
0
 71
3
 72
14
 73
10
 74
0
 42
0.0000001
 43
0.0000001
 44
0.0000000001
 40
0.0
 40
0.0
 40
0.0
 40
0.0
 40
0.2892788785
 40
0.4225377813
 40
0.5484922121
 40
0.6678919699
 40
0.7818652625
 40
0.8919497476
 40
1.0
 40
1.0
 40
1.0
 40
1.0
 10
160.3145121018
 20
96.8630712738
 30
0.0
 10
160.5120382333
 20
96.9771123582
 30
0.0
 10
160.8152889844
 20
97.1214440949
 30
0.0
 10
161.2311694245
 20
97.2427127332
 30
0.0
 10
161.5263609227
 20
97.29221466
 30
0.0
 10
161.8103971485
 20
97.3021154408
 30
0.0
 10
162.0805906958
 20
97.2719760676
 30
0.0
 10
162.3340435776
 20
97.2018827638
 30
0.0
 10
162.4906932984
 20
97.1285403413
 30
0.0
 10
162.5644728845
 20
97.0859449502
 30
0.0
  0
SPLINE
  5
353
100
AcDbEntity
  8
0
100
AcDbSpline
 62
7
  6
CONTINUOUS
 70
0
 71
3
 72
23
 73
19
 74
0
 42
0.0000001
 43
0.0000001
 44
0.0000000001
 40
0.0
 40
0.0
 40
0.0
 40
0.0
 40
0.0623916983
 40
0.1287423442
 40
0.1983450203
 40
0.2703325552
 40
0.3437219147
 40
0.4174665113
 40
0.4905033157
 40
0.5618018359
 40
0.6304104097
 40
0.6955086082
 40
0.75646609
 40
0.812912539
 40
0.8648215158
 40
0.912604092
 40
0.957185771
 40
1.0
 40
1.0
 40
1.0
 40
1.0
 10
173.3253310445
 20
82.0029196364
 30
0.0
 10
173.4870047352
 20
82.0962614281
 30
0.0
 10
173.8081861184
 20
82.3109019715
 30
0.0
 10
174.263023294
 20
82.6936701304
 30
0.0
 10
174.6977988333
 20
83.1400744497
 30
0.0
 10
175.103225331
 20
83.6405493621
 30
0.0
 10
175.4707120691
 20
84.1844865175
 30
0.0
 10
175.7924232798
 20
84.760272781
 30
0.0
 10
176.0614906473
 20
85.3556278012
 30
0.0
 10
176.2721799754
 20
85.9578618957
 30
0.0
 10
176.4200028669
 20
86.5541887958
 30
0.0
 10
176.5017932023
 20
87.1320260362
 30
0.0
 10
176.5157203172
 20
87.6792993654
 30
0.0
 10
176.4611983588
 20
88.1847177557
 30
0.0
 10
176.3387444994
 20
88.6378928766
 30
0.0
 10
176.1496278713
 20
89.029270917
 30
0.0
 10
175.8965423063
 20
89.3492964249
 30
0.0
 10
175.6862355976
 20
89.5102633599
 30
0.0
 10
175.5752918823
 20
89.5743151622
 30
0.0
  0
SPLINE
  5
354
100
AcDbEntity
  8
0
100
AcDbSpline
 62
7
  6
CONTINUOUS
 70
0
 71
3
 72
23
 73
19
 74
0
 42
0.0000001
 43
0.0000001
 44
0.0000000001
 40
0.0
 40
0.0
 40
0.0
 40
0.0
 40
0.0428149581
 40
0.0873974424
 40
0.1351808469
 40
0.1870905525
 40
0.243537527
 40
0.3044952463
 40
0.3695933208
 40
0.4382013601
 40
0.509498991
 40
0.5825347113
 40
0.656278212
 40
0.7296666734
 40
0.8016536994
 40
0.8712562238
 40
0.9376075212
 40
1.0
 40
1.0
 40
1.0
 40
1.0
 10
158.0645513191
 20
89.2916758432
 30
0.0
 10
157.9536055783
 20
89.3557284825
 30
0.0
 10
157.7432958473
 20
89.5166993994
 30
0.0
 10
157.4902079668
 20
89.8367321411
 30
0.0
 10
157.3010917237
 20
90.2281183086
 30
0.0
 10
157.1786402983
 20
90.6813005138
 30
0.0
 10
157.1241220317
 20
91.1867237519
 30
0.0
 10
157.1380530827
 20
91.7339988315
 30
0.0
 10
157.2198466325
 20
92.311834275
 30
0.0
 10
157.3676711303
 20
92.9081559277
 30
0.0
 10
157.5783599995
 20
93.5103821504
 30
0.0
 10
157.8474248731
 20
94.105728133
 30
0.0
 10
158.1691321567
 20
94.6815059462
 30
0.0
 10
158.5366146018
 20
95.2254368855
 30
0.0
 10
158.9420377649
 20
95.7259083865
 30
0.0
 10
159.3768121118
 20
96.1723137771
 30
0.0
 10
159.8316518994
 20
96.5550847296
 30
0.0
 10
160.1528363998
 20
96.7697283209
 30
0.0
 10
160.3145121018
 20
96.8630712738
 30
0.0
  0
SPLINE
  5
355
100
AcDbEntity
  8
0
100
AcDbSpline
 62
7
  6
CONTINUOUS
 70
0
 71
3
 72
14
 73
10
 74
0
 42
0.0000001
 43
0.0000001
 44
0.0000000001
 40
0.0
 40
0.0
 40
0.0
 40
0.0
 40
0.1080488667
 40
0.2181321678
 40
0.3321045072
 40
0.4515036959
 40
0.5774576959
 40
0.710717211
 40
1.0
 40
1.0
 40
1.0
 40
1.0
 10
171.0753702067
 20
81.7800458648
 30
0.0
 10
171.1491487506
 20
81.7374508544
 30
0.0
 10
171.3057965833
 20
81.6641091664
 30
0.0
 10
171.55924663
 20
81.5940162608
 30
0.0
 10
171.8294378791
 20
81.5638757655
 30
0.0
 10
172.1134726096
 20
81.5737754878
 30
0.0
 10
172.4086640098
 20
81.6232760263
 30
0.0
 10
172.8245480897
 20
81.7445438188
 30
0.0
 10
173.1278022441
 20
81.8888770111
 30
0.0
 10
173.3253310445
 20
82.0029196364
 30
0.0
  0
SPLINE
  5
356
100
AcDbEntity
  8
0
100
AcDbSpline
 62
7
  6
CONTINUOUS
 70
0
 71
3
 72
16
 73
12
 74
0
 42
0.0000001
 43
0.0000001
 44
0.0000000001
 40
0.0
 40
0.0
 40
0.0
 40
0.0
 40
0.0994019373
 40
0.1544800457
 40
0.2129740543
 40
0.3388344208
 40
0.4734917711
 40
0.6121085057
 40
0.7493638734
 40
0.8800999342
 40
1.0
 40
1.0
 40
1.0
 40
1.0
 10
171.5717816784
 20
83.9020720349
 30
0.0
 10
171.5149657846
 20
84.0434294097
 30
0.0
 10
171.4628738501
 20
84.2782910677
 30
0.0
 10
171.4470096852
 20
84.6044959459
 30
0.0
 10
171.4672458783
 20
84.9715806072
 30
0.0
 10
171.5630667747
 20
85.4536286473
 30
0.0
 10
171.7734691955
 20
86.0302243358
 30
0.0
 10
172.0704630685
 20
86.5871893018
 30
0.0
 10
172.4375499833
 20
87.0933882137
 30
0.0
 10
172.8540433717
 20
87.5205610108
 30
0.0
 10
173.1661860495
 20
87.7490300616
 30
0.0
 10
173.3253310445
 20
87.8409119189
 30
0.0
  0
SPLINE
  5
357
100
AcDbEntity
  8
0
100
AcDbSpline
 62
7
  6
CONTINUOUS
 70
0
 71
3
 72
13
 73
9
 74
0
 42
0.0000001
 43
0.0000001
 44
0.0000000001
 40
0.0
 40
0.0
 40
0.0
 40
0.0
 40
0.117525281
 40
0.241518056
 40
0.5005914968
 40
0.7593545421
 40
0.8829902158
 40
1.0
 40
1.0
 40
1.0
 40
1.0
 10
171.631460815
 20
85.526422628
 30
0.0
 10
171.6954746855
 20
85.5729019163
 30
0.0
 10
171.820883071
 20
85.677088459
 30
0.0
 10
172.0548508963
 20
85.920297457
 30
0.0
 10
172.3051355046
 20
86.2759524484
 30
0.0
 10
172.4854958837
 20
86.6714424975
 30
0.0
 10
172.5766591673
 20
86.9955528433
 30
0.0
 10
172.6028606725
 20
87.1558840873
 30
0.0
 10
172.6104203361
 20
87.2342816153
 30
0.0
  0
SPLINE
  5
358
100
AcDbEntity
  8
0
100
AcDbSpline
 62
7
  6
CONTINUOUS
 70
0
 71
3
 72
23
 73
19
 74
0
 42
0.0000001
 43
0.0000001
 44
0.0000000001
 40
0.0
 40
0.0
 40
0.0
 40
0.0
 40
0.0623916983
 40
0.1287423442
 40
0.1983450203
 40
0.2703325552
 40
0.3437219147
 40
0.4174665113
 40
0.4905033157
 40
0.5618018359
 40
0.6304104097
 40
0.6955086082
 40
0.75646609
 40
0.812912539
 40
0.8648215158
 40
0.912604092
 40
0.957185771
 40
1.0
 40
1.0
 40
1.0
 40
1.0
 10
173.3253310445
 20
89.3514413906
 30
0.0
 10
173.1636573538
 20
89.2580995989
 30
0.0
 10
172.8424759706
 20
89.0434590555
 30
0.0
 10
172.387638795
 20
88.6606908967
 30
0.0
 10
171.9528632557
 20
88.2142865773
 30
0.0
 10
171.547436758
 20
87.7138116649
 30
0.0
 10
171.17995002
 20
87.1698745095
 30
0.0
 10
170.8582388092
 20
86.594088246
 30
0.0
 10
170.5891714417
 20
85.9987332259
 30
0.0
 10
170.3784821136
 20
85.3964991313
 30
0.0
 10
170.2306592221
 20
84.8001722312
 30
0.0
 10
170.1488688867
 20
84.2223349908
 30
0.0
 10
170.1349417718
 20
83.6750616616
 30
0.0
 10
170.1894637302
 20
83.1696432713
 30
0.0
 10
170.3119175896
 20
82.7164681504
 30
0.0
 10
170.5010342177
 20
82.32509011
 30
0.0
 10
170.7541197827
 20
82.0050646021
 30
0.0
 10
170.9644264914
 20
81.8440976671
 30
0.0
 10
171.0753702067
 20
81.7800458648
 30
0.0
  0
SPLINE
  5
359
100
AcDbEntity
  8
0
100
AcDbSpline
 62
7
  6
CONTINUOUS
 70
0
 71
3
 72
16
 73
12
 74
0
 42
0.0000001
 43
0.0000001
 44
0.0000000001
 40
0.0
 40
0.0
 40
0.0
 40
0.0
 40
0.2001944611
 40
0.2603822214
 40
0.323982996
 40
0.3904859498
 40
0.4592602699
 40
0.6005884705
 40
0.7418302517
 40
0.8767330106
 40
1.0
 40
1.0
 40
1.0
 40
1.0
 10
173.0376347501
 20
87.6232158779
 30
0.0
 10
173.1476120255
 20
87.4618445626
 30
0.0
 10
173.1961158721
 20
87.1904645526
 30
0.0
 10
173.1757969443
 20
86.8767202806
 30
0.0
 10
173.1457946043
 20
86.6929097809
 30
0.0
 10
173.0974318913
 20
86.5048820335
 30
0.0
 10
173.0087982212
 20
86.2497364945
 30
0.0
 10
172.8585445184
 20
85.9401328447
 30
0.0
 10
172.6279003197
 20
85.6026617512
 30
0.0
 10
172.3601992866
 20
85.317444601
 30
0.0
 10
172.1566673801
 20
85.1657313464
 30
0.0
 10
172.0525335392
 20
85.1056100042
 30
0.0
  0
SPLINE
  5
35A
100
AcDbEntity
  8
0
100
AcDbSpline
 62
7
  6
CONTINUOUS
 70
0
 71
3
 72
15
 73
11
 74
0
 42
0.0000001
 43
0.0000001
 44
0.0000000001
 40
0.0
 40
0.0
 40
0.0
 40
0.0
 40
0.1514262642
 40
0.2905956316
 40
0.4182190328
 40
0.5364945931
 40
0.6490587531
 40
0.7606659999
 40
0.876265557
 40
1.0
 40
1.0
 40
1.0
 40
1.0
 10
173.3253310445
 20
83.5134491081
 30
0.0
 10
173.2345400347
 20
83.4610312071
 30
0.0
 10
173.0536841741
 20
83.3711567549
 30
0.0
 10
172.7765853915
 20
83.2828286734
 30
0.0
 10
172.5103702091
 20
83.2490147422
 30
0.0
 10
172.2609571316
 20
83.2716103691
 30
0.0
 10
172.0348971259
 20
83.3515327648
 30
0.0
 10
171.8393438608
 20
83.4872273193
 30
0.0
 10
171.6802329268
 20
83.673980011
 30
0.0
 10
171.6037289429
 20
83.8225875609
 30
0.0
 10
171.5717816784
 20
83.9020720349
 30
0.0
  0
SPLINE
  5
35B
100
AcDbEntity
  8
0
100
AcDbSpline
 62
7
  6
CONTINUOUS
 70
0
 71
3
 72
14
 73
10
 74
0
 42
0.0000001
 43
0.0000001
 44
0.0000000001
 40
0.0
 40
0.0
 40
0.0
 40
0.0
 40
0.1080488667
 40
0.2181321678
 40
0.3321045072
 40
0.4515036959
 40
0.5774576959
 40
0.710717211
 40
1.0
 40
1.0
 40
1.0
 40
1.0
 10
175.5752918823
 20
89.5743151622
 30
0.0
 10
175.5015133385
 20
89.6169101726
 30
0.0
 10
175.3448655057
 20
89.6902518606
 30
0.0
 10
175.091415459
 20
89.7603447662
 30
0.0
 10
174.8212242099
 20
89.7904852616
 30
0.0
 10
174.5371894794
 20
89.7805855392
 30
0.0
 10
174.2419980792
 20
89.7310850007
 30
0.0
 10
173.8261139993
 20
89.6098172082
 30
0.0
 10
173.5228598449
 20
89.465484016
 30
0.0
 10
173.3253310445
 20
89.3514413906
 30
0.0
  0
SPLINE
  5
35C
100
AcDbEntity
  8
0
100
AcDbSpline
 62
7
  6
CONTINUOUS
 70
0
 71
3
 72
11
 73
7
 74
0
 42
0.0000001
 43
0.0000001
 44
0.0000000001
 40
0.0
 40
0.0
 40
0.0
 40
0.0
 40
0.278937078
 40
0.5378689226
 40
0.7773049567
 40
1.0
 40
1.0
 40
1.0
 40
1.0
 10
172.0525335392
 20
85.1056100042
 30
0.0
 10
172.0033027045
 20
85.0771867382
 30
0.0
 10
171.9051484493
 20
85.0276540988
 30
0.0
 10
171.7549293075
 20
84.9756615861
 30
0.0
 10
171.6096018813
 20
84.9497869068
 30
0.0
 10
171.5146915202
 20
84.950558584
 30
0.0
 10
171.469612745
 20
84.9558199704
 30
0.0
  0
SPLINE
  5
35D
100
AcDbEntity
  8
0
100
AcDbSpline
 62
7
  6
CONTINUOUS
 70
0
 71
3
 72
26
 73
22
 74
0
 42
0.0000001
 43
0.0000001
 44
0.0000000001
 40
0.0
 40
0.0
 40
0.0
 40
0.0
 40
0.0491410268
 40
0.0723333276
 40
0.0949186622
 40
0.1172083179
 40
0.1395344345
 40
0.1622268154
 40
0.1855883424
 40
0.2352128988
 40
0.2899273466
 40
0.3502607309
 40
0.4160223453
 40
0.4864864596
 40
0.5605491091
 40
0.636855197
 40
0.7139057864
 40
0.7901553193
 40
0.8641109388
 40
0.9344239234
 40
1.0
 40
1.0
 40
1.0
 40
1.0
 10
173.9857986767
 20
88.0833675117
 30
0.0
 10
174.0826324951
 20
88.0971532853
 30
0.0
 10
174.2284926661
 20
88.1021780042
 30
0.0
 10
174.4151453376
 20
88.069884434
 30
0.0
 10
174.5444687409
 20
88.0278301613
 30
0.0
 10
174.664512395
 20
87.9676988965
 30
0.0
 10
174.7743069496
 20
87.8900521779
 30
0.0
 10
174.8728879377
 20
87.7955049875
 30
0.0
 10
174.9907262911
 20
87.6451975254
 30
0.0
 10
175.1053986391
 20
87.415225852
 30
0.0
 10
175.1847659154
 20
87.0951538123
 30
0.0
 10
175.2083407012
 20
86.7344548298
 30
0.0
 10
175.1759851279
 20
86.3433643068
 30
0.0
 10
175.0889383246
 20
85.9329529931
 30
0.0
 10
174.9497985633
 20
85.5151173171
 30
0.0
 10
174.7626735449
 20
85.1020974328
 30
0.0
 10
174.5330817051
 20
84.7060707816
 30
0.0
 10
174.2678116874
 20
84.3387373534
 30
0.0
 10
173.9746462966
 20
84.0109060413
 30
0.0
 10
173.6622762615
 20
83.7322784793
 30
0.0
 10
173.4383670092
 20
83.5787100632
 30
0.0
 10
173.3253310445
 20
83.5134491081
 30
0.0
  0
SPLINE
  5
35E
100
AcDbEntity
  8
0
100
AcDbSpline
 62
7
  6
CONTINUOUS
 70
0
 71
3
 72
18
 73
14
 74
0
 42
0.0000001
 43
0.0000001
 44
0.0000000001
 40
0.0
 40
0.0
 40
0.0
 40
0.0
 40
0.1260240661
 40
0.2643678792
 40
0.408692361
 40
0.5516500214
 40
0.6861091271
 40
0.7483794462
 40
0.8066152127
 40
0.8605996432
 40
0.9104288479
 40
0.9565870489
 40
1.0
 40
1.0
 40
1.0
 40
1.0
 10
53.8946992457
 20
163.2029163798
 30
0.0
 10
53.8946992457
 20
162.8195699931
 30
0.0
 10
53.9960597969
 20
162.0144768528
 30
0.0
 10
54.3783416054
 20
160.8258569557
 30
0.0
 10
54.9717586981
 20
159.6687239045
 30
0.0
 10
55.7324751886
 20
158.6292989287
 30
0.0
 10
56.4789075996
 20
157.9051464741
 30
0.0
 10
57.1135909879
 20
157.4569909184
 30
0.0
 10
57.5808382813
 20
157.2023014627
 30
0.0
 10
58.0427301618
 20
157.0253925405
 30
0.0
 10
58.491153418
 20
156.9301579727
 30
0.0
 10
58.9176768408
 20
156.9194165547
 30
0.0
 10
59.188000172
 20
156.9710964946
 30
0.0
 10
59.3137874353
 20
157.0112994277
 30
0.0
  0
SPLINE
  5
35F
100
AcDbEntity
  8
0
100
AcDbSpline
 62
7
  6
CONTINUOUS
 70
0
 71
3
 72
12
 73
8
 74
0
 42
0.0000001
 43
0.0000001
 44
0.0000000001
 40
0.0
 40
0.0
 40
0.0
 40
0.0
 40
0.2895700176
 40
0.5486410293
 40
0.7816368525
 40
0.8918393703
 40
1.0
 40
1.0
 40
1.0
 40
1.0
 10
59.7283544782
 20
159.834930155
 30
0.0
 10
59.7283544782
 20
159.6575363878
 30
0.0
 10
59.7014654611
 20
159.3202320612
 30
0.0
 10
59.5651021708
 20
158.8570536695
 30
0.0
 10
59.3690848753
 20
158.5374938413
 30
0.0
 10
59.1711698806
 20
158.3428208512
 30
0.0
 10
59.0608364197
 20
158.2658257717
 30
0.0
 10
59.0034565182
 20
158.2326899022
 30
0.0
  0
SPLINE
  5
360
100
AcDbEntity
  8
0
100
AcDbSpline
 62
7
  6
CONTINUOUS
 70
0
 71
3
 72
11
 73
7
 74
0
 42
0.0000001
 43
0.0000001
 44
0.0000000001
 40
0.0
 40
0.0
 40
0.0
 40
0.0
 40
0.2177689138
 40
0.4509403876
 40
0.7102101045
 40
1.0
 40
1.0
 40
1.0
 40
1.0
 10
56.1070350131
 20
164.0659646756
 30
0.0
 10
56.008086091
 20
164.0088237657
 30
0.0
 10
55.8228769894
 20
163.8532087478
 30
0.0
 10
55.6258499997
 20
163.5309060704
 30
0.0
 10
55.5086663722
 20
163.1337523131
 30
0.0
 10
55.4856931833
 20
162.8446690783
 30
0.0
 10
55.4856931833
 20
162.6926171363
 30
0.0
  0
SPLINE
  5
361
100
AcDbEntity
  8
0
100
AcDbSpline
 62
7
  6
CONTINUOUS
 70
0
 71
3
 72
12
 73
8
 74
0
 42
0.0000001
 43
0.0000001
 44
0.0000000001
 40
0.0
 40
0.0
 40
0.0
 40
0.0
 40
0.24598788
 40
0.4949046066
 40
0.7473667995
 40
0.8745375055
 40
1.0
 40
1.0
 40
1.0
 40
1.0
 10
64.6043211169
 20
159.101667893
 30
0.0
 10
64.2834520525
 20
158.9538957254
 30
0.0
 10
63.6367823799
 20
158.6589793013
 30
0.0
 10
62.6553817861
 20
158.2244472896
 30
0.0
 10
61.8236534757
 20
157.8733515577
 30
0.0
 10
61.147892967
 20
157.6096574318
 30
0.0
 10
60.8058961526
 20
157.4880613201
 30
0.0
 10
60.6342701805
 20
157.4332176986
 30
0.0
  0
SPLINE
  5
362
100
AcDbEntity
  8
0
100
AcDbSpline
 62
7
  6
CONTINUOUS
 70
0
 71
3
 72
9
 73
5
 74
0
 42
0.0000001
 43
0.0000001
 44
0.0000000001
 40
0.0
 40
0.0
 40
0.0
 40
0.0
 40
0.5164118446
 40
1.0
 40
1.0
 40
1.0
 40
1.0
 10
57.8223570967
 20
168.0316986901
 30
0.0
 10
57.6496399302
 20
167.8949194486
 30
0.0
 10
57.3175680147
 20
167.6270509333
 30
0.0
 10
56.9932424013
 20
167.349613754
 30
0.0
 10
56.840597429
 20
167.210815651
 30
0.0
  0
SPLINE
  5
363
100
AcDbEntity
  8
0
100
AcDbSpline
 62
7
  6
CONTINUOUS
 70
0
 71
3
 72
17
 73
13
 74
0
 42
0.0000001
 43
0.0000001
 44
0.0000000001
 40
0.0
 40
0.0
 40
0.0
 40
0.0
 40
0.0428585896
 40
0.0874886164
 40
0.1353233296
 40
0.1872868727
 40
0.3045519755
 40
0.4382202868
 40
0.5825647604
 40
0.7297203277
 40
0.8713075678
 40
1.0
 40
1.0
 40
1.0
 40
1.0
 10
36.7115244224
 20
174.7977331454
 30
0.0
 10
36.7830183659
 20
174.8390091598
 30
0.0
 10
36.9406132304
 20
174.9045247181
 30
0.0
 10
37.2007677477
 20
174.9426477187
 30
0.0
 10
37.4801469042
 20
174.9220847011
 30
0.0
 10
37.8860859702
 20
174.8141174953
 30
0.0
 10
38.40499926
 20
174.5303486204
 30
0.0
 10
38.9783313672
 20
174.022612666
 30
0.0
 10
39.4851180639
 20
173.3739370982
 30
0.0
 10
39.8839404116
 20
172.6367328628
 30
0.0
 10
40.1427789241
 20
171.8714638648
 30
0.0
 10
40.2121260641
 20
171.3502604302
 30
0.0
 10
40.2121260641
 20
171.1023749798
 30
0.0
  0
SPLINE
  5
364
100
AcDbEntity
  8
0
100
AcDbSpline
 62
7
  6
CONTINUOUS
 70
0
 71
3
 72
12
 73
8
 74
0
 42
0.0000001
 43
0.0000001
 44
0.0000000001
 40
0.0
 40
0.0
 40
0.0
 40
0.0
 40
0.1081597158
 40
0.2183621399
 40
0.4513573357
 40
0.7104307796
 40
1.0
 40
1.0
 40
1.0
 40
1.0
 10
36.411522666
 20
175.3173545323
 30
0.0
 10
36.3541432185
 20
175.2842190601
 30
0.0
 10
36.2438086152
 20
175.2072266089
 30
0.0
 10
36.0458976889
 20
175.0125509543
 30
0.0
 10
35.8498755593
 20
174.6929939005
 30
0.0
 10
35.7135140272
 20
174.2298137525
 30
0.0
 10
35.6866238232
 20
173.892509002
 30
0.0
 10
35.6866238232
 20
173.7151158087
 30
0.0
  0
SPLINE
  5
365
100
AcDbEntity
  8
0
100
AcDbSpline
 62
7
  6
CONTINUOUS
 70
0
 71
3
 72
12
 73
8
 74
0
 42
0.0000001
 43
0.0000001
 44
0.0000000001
 40
0.0
 40
0.0
 40
0.0
 40
0.0
 40
0.2895802184
 40
0.5486333627
 40
0.7816359182
 40
0.8918377609
 40
1.0
 40
1.0
 40
1.0
 40
1.0
 10
63.6174373587
 20
148.5263678944
 30
0.0
 10
63.8281296491
 20
148.4047273957
 30
0.0
 10
64.2471646055
 20
148.2053656864
 30
0.0
 10
64.8907680784
 20
148.0497671244
 30
0.0
 10
65.4047057001
 20
148.0633895384
 30
0.0
 10
65.7716073502
 20
148.165020495
 30
0.0
 10
65.9387263396
 20
148.2432234735
 30
0.0
 10
66.0174225169
 20
148.2886584519
 30
0.0
  0
SPLINE
  5
366
100
AcDbEntity
  8
0
100
AcDbSpline
 62
7
  6
CONTINUOUS
 70
0
 71
3
 72
15
 73
11
 74
0
 42
0.0000001
 43
0.0000001
 44
0.0000000001
 40
0.0
 40
0.0
 40
0.0
 40
0.0
 40
0.1141555516
 40
0.2373276756
 40
0.3669773296
 40
0.5000011
 40
0.6330247168
 40
0.7626739247
 40
0.885845342
 40
1.0
 40
1.0
 40
1.0
 40
1.0
 10
33.3531411224
 20
169.9182837901
 30
0.0
 10
33.3531411224
 20
169.6499826305
 30
0.0
 10
33.402284297
 20
169.0916675547
 30
0.0
 10
33.5981925758
 20
168.2493886384
 30
0.0
 10
33.9120263357
 20
167.3962276441
 30
0.0
 10
34.3320569834
 20
166.5642661567
 30
0.0
 10
34.8425445893
 20
165.7845315079
 30
0.0
 10
35.4244885449
 20
165.08616842
 30
0.0
 10
36.0559696136
 20
164.495374695
 30
0.0
 10
36.5149126879
 20
164.1736638197
 30
0.0
 10
36.7472678031
 20
164.0395165662
 30
0.0
  0
SPLINE
  5
367
100
AcDbEntity
  8
0
100
AcDbSpline
 62
7
  6
CONTINUOUS
 70
0
 71
3
 72
22
 73
18
 74
0
 42
0.0000001
 43
0.0000001
 44
0.0000000001
 40
0.0
 40
0.0
 40
0.0
 40
0.0
 40
0.0623970913
 40
0.1287620307
 40
0.1983717469
 40
0.2703698327
 40
0.4173880538
 40
0.4904348588
 40
0.5617428786
 40
0.6303603994
 40
0.6954670373
 40
0.7564325898
 40
0.8128867366
 40
0.8648028475
 40
0.9125919051
 40
0.9571796974
 40
1.0
 40
1.0
 40
1.0
 40
1.0
 10
59.7283338704
 20
168.4081442543
 30
0.0
 10
59.9798152724
 20
168.2629546837
 30
0.0
 10
60.4794374241
 20
167.9290528814
 30
0.0
 10
61.1869656477
 20
167.3336709076
 30
0.0
 10
61.8633457783
 20
166.6391878985
 30
0.0
 10
62.7096292914
 20
165.594386411
 30
0.0
 10
63.4255496394
 20
164.429661559
 30
0.0
 10
63.9846013083
 20
163.1929288245
 30
0.0
 10
64.3123571311
 20
162.256031886
 30
0.0
 10
64.5422976944
 20
161.3284375771
 30
0.0
 10
64.6695294341
 20
160.429577665
 30
0.0
 10
64.6911988024
 20
159.5782666946
 30
0.0
 10
64.6063943438
 20
158.7920585987
 30
0.0
 10
64.4159145998
 20
158.0871162788
 30
0.0
 10
64.1217268284
 20
157.4783070339
 30
0.0
 10
63.7280332629
 20
156.9804901656
 30
0.0
 10
63.4008858509
 20
156.7300994708
 30
0.0
 10
63.2283064455
 20
156.6304608565
 30
0.0
  0
SPLINE
  5
368
100
AcDbEntity
  8
0
100
AcDbSpline
 62
7
  6
CONTINUOUS
 70
0
 71
3
 72
10
 73
6
 74
0
 42
0.0000001
 43
0.0000001
 44
0.0000000001
 40
0.0
 40
0.0
 40
0.0
 40
0.0
 40
0.2352955031
 40
0.4771460935
 40
1.0
 40
1.0
 40
1.0
 40
1.0
 10
37.5757269278
 20
176.566864036
 30
0.0
 10
37.4955435067
 20
176.5205708166
 30
0.0
 10
37.3423786562
 20
176.4091668111
 30
0.0
 10
37.0761220488
 20
176.116620336
 30
0.0
 10
36.9419686798
 20
175.8387586875
 30
0.0
 10
36.8784511655
 20
175.6430688006
 30
0.0
  0
SPLINE
  5
369
100
AcDbEntity
  8
0
100
AcDbSpline
 62
7
  6
CONTINUOUS
 70
0
 71
3
 72
12
 73
8
 74
0
 42
0.0000001
 43
0.0000001
 44
0.0000000001
 40
0.0
 40
0.0
 40
0.0
 40
0.0
 40
0.289581202
 40
0.5486347013
 40
0.7816368512
 40
0.8918382666
 40
1.0
 40
1.0
 40
1.0
 40
1.0
 10
68.4257717138
 20
151.3025121827
 30
0.0
 10
68.4257717138
 20
151.0592197204
 30
0.0
 10
68.388909857
 20
150.5966300584
 30
0.0
 10
68.2018604105
 20
149.9614344431
 30
0.0
 10
67.9330893748
 20
149.5231496287
 30
0.0
 10
67.6616171405
 20
149.2562124693
 30
0.0
 10
67.5103281026
 20
149.1505827487
 30
0.0
 10
67.4316301913
 20
149.1051467596
 30
0.0
  0
SPLINE
  5
36A
100
AcDbEntity
  8
0
100
AcDbSpline
 62
7
  6
CONTINUOUS
 70
0
 71
3
 72
11
 73
7
 74
0
 42
0.0000001
 43
0.0000001
 44
0.0000000001
 40
0.0
 40
0.0
 40
0.0
 40
0.0
 40
0.2177689138
 40
0.4509403876
 40
0.7102101045
 40
1.0
 40
1.0
 40
1.0
 40
1.0
 10
46.5610537236
 20
169.5772148616
 30
0.0
 10
46.4621048015
 20
169.5200739517
 30
0.0
 10
46.2768956999
 20
169.3644589339
 30
0.0
 10
46.0798687102
 20
169.0421562564
 30
0.0
 10
45.9626850827
 20
168.6450024992
 30
0.0
 10
45.9397118938
 20
168.3559192643
 30
0.0
 10
45.9397118938
 20
168.2038673224
 30
0.0
  0
SPLINE
  5
36B
100
AcDbEntity
  8
0
100
AcDbSpline
 62
7
  6
CONTINUOUS
 70
0
 71
3
 72
18
 73
14
 74
0
 42
0.0000001
 43
0.0000001
 44
0.0000000001
 40
0.0
 40
0.0
 40
0.0
 40
0.0
 40
0.0428483717
 40
0.0874661025
 40
0.1352879326
 40
0.1872396155
 40
0.2437305431
 40
0.3047358314
 40
0.4383696647
 40
0.5826768886
 40
0.7297921552
 40
0.8713433041
 40
1.0
 40
1.0
 40
1.0
 40
1.0
 10
45.9575030726
 20
169.8061058755
 30
0.0
 10
46.0437857466
 20
169.8559325804
 30
0.0
 10
46.2340086023
 20
169.93495564
 30
0.0
 10
46.5479806235
 20
169.9810060849
 30
0.0
 10
46.8851553513
 20
169.9561818995
 30
0.0
 10
47.2380100864
 20
169.8624092667
 30
0.0
 10
47.5996726179
 20
169.7026032087
 30
0.0
 10
48.0989236904
 20
169.3970374818
 30
0.0
 10
48.6936501752
 20
168.8702874362
 30
0.0
 10
49.3048475969
 20
168.0878009009
 30
0.0
 10
49.7863359698
 20
167.1979705894
 30
0.0
 10
50.098665024
 20
166.2743908288
 30
0.0
 10
50.1823731887
 20
165.645348824
 30
0.0
 10
50.1823731887
 20
165.346180341
 30
0.0
  0
SPLINE
  5
36C
100
AcDbEntity
  8
0
100
AcDbSpline
 62
7
  6
CONTINUOUS
 70
0
 71
3
 72
11
 73
7
 74
0
 42
0.0000001
 43
0.0000001
 44
0.0000000001
 40
0.0
 40
0.0
 40
0.0
 40
0.0
 40
0.2190098651
 40
0.4554836677
 40
0.7151567722
 40
1.0
 40
1.0
 40
1.0
 40
1.0
 10
45.0549134468
 20
170.6855669243
 30
0.0
 10
44.9387258401
 20
170.5799365502
 30
0.0
 10
44.7281271668
 20
170.3244148237
 30
0.0
 10
44.5072562793
 20
169.8571389719
 30
0.0
 10
44.3752387748
 20
169.3096847383
 30
0.0
 10
44.3487179562
 20
168.9183945715
 30
0.0
 10
44.3487179562
 20
168.7141665658
 30
0.0
  0
SPLINE
  5
36D
100
AcDbEntity
  8
0
100
AcDbSpline
 62
7
  6
CONTINUOUS
 70
0
 71
3
 72
14
 73
10
 74
0
 42
0.0000001
 43
0.0000001
 44
0.0000000001
 40
0.0
 40
0.0
 40
0.0
 40
0.0
 40
0.1080468545
 40
0.2181297577
 40
0.332104429
 40
0.4515035364
 40
0.57745166
 40
0.7107185255
 40
1.0
 40
1.0
 40
1.0
 40
1.0
 10
37.1363987163
 20
179.7772941843
 30
0.0
 10
37.251163788
 20
179.8435537284
 30
0.0
 10
37.494817386
 20
179.957686953
 30
0.0
 10
37.8890910267
 20
180.0666848011
 30
0.0
 10
38.3093910846
 20
180.1135778527
 30
0.0
 10
38.7512251423
 20
180.098198398
 30
0.0
 10
39.2104181603
 20
180.0211944947
 30
0.0
 10
39.8573602812
 20
179.8325681991
 30
0.0
 10
40.3291010389
 20
179.608043176
 30
0.0
 10
40.6363712914
 20
179.4306446263
 30
0.0
  0
SPLINE
  5
36E
100
AcDbEntity
  8
0
100
AcDbSpline
 62
7
  6
CONTINUOUS
 70
0
 71
3
 72
11
 73
7
 74
0
 42
0.0000001
 43
0.0000001
 44
0.0000000001
 40
0.0
 40
0.0
 40
0.0
 40
0.0
 40
0.2190098651
 40
0.4554836677
 40
0.7151567722
 40
1.0
 40
1.0
 40
1.0
 40
1.0
 10
54.6008947363
 20
165.1743167383
 30
0.0
 10
54.4847071296
 20
165.0686863641
 30
0.0
 10
54.2741084563
 20
164.8131646377
 30
0.0
 10
54.0532375688
 20
164.3458887859
 30
0.0
 10
53.9212200643
 20
163.7984345522
 30
0.0
 10
53.8946992457
 20
163.4071443855
 30
0.0
 10
53.8946992457
 20
163.2029163798
 30
0.0
  0
SPLINE
  5
36F
100
AcDbEntity
  8
0
100
AcDbSpline
 62
7
  6
CONTINUOUS
 70
0
 71
3
 72
18
 73
14
 74
0
 42
0.0000001
 43
0.0000001
 44
0.0000000001
 40
0.0
 40
0.0
 40
0.0
 40
0.0
 40
0.0428483717
 40
0.0874661025
 40
0.1352879326
 40
0.1872396155
 40
0.2437305431
 40
0.3047358314
 40
0.4383696647
 40
0.5826768886
 40
0.7297921552
 40
0.8713433041
 40
1.0
 40
1.0
 40
1.0
 40
1.0
 10
55.5034843621
 20
164.2948556894
 30
0.0
 10
55.5897670361
 20
164.3446823944
 30
0.0
 10
55.7799898918
 20
164.4237054539
 30
0.0
 10
56.093961913
 20
164.4697558988
 30
0.0
 10
56.4311366407
 20
164.4449317135
 30
0.0
 10
56.7839913759
 20
164.3511590807
 30
0.0
 10
57.1456539073
 20
164.1913530227
 30
0.0
 10
57.6449049799
 20
163.8857872958
 30
0.0
 10
58.2396314647
 20
163.3590372502
 30
0.0
 10
58.8508288864
 20
162.5765507149
 30
0.0
 10
59.3323172593
 20
161.6867204033
 30
0.0
 10
59.6446463135
 20
160.7631406428
 30
0.0
 10
59.7283544782
 20
160.134098638
 30
0.0
 10
59.7283544782
 20
159.834930155
 30
0.0
  0
SPLINE
  5
370
100
AcDbEntity
  8
0
100
AcDbSpline
 62
7
  6
CONTINUOUS
 70
0
 71
3
 72
17
 73
13
 74
0
 42
0.0000001
 43
0.0000001
 44
0.0000000001
 40
0.0
 40
0.0
 40
0.0
 40
0.0
 40
0.1286894184
 40
0.2702754234
 40
0.4174277438
 40
0.5617747655
 40
0.6954471371
 40
0.8127114826
 40
0.8646769314
 40
0.9125112108
 40
0.9571404173
 40
1.0
 40
1.0
 40
1.0
 40
1.0
 10
55.4856931833
 20
162.6926171363
 30
0.0
 10
55.4856931833
 20
162.4361896506
 30
0.0
 10
55.5574356659
 20
161.8970236139
 30
0.0
 10
55.8251654833
 20
161.1053691166
 30
0.0
 10
56.2377599878
 20
160.3427549688
 30
0.0
 10
56.7620188405
 20
159.6717073465
 30
0.0
 10
57.3551056781
 20
159.1464128744
 30
0.0
 10
57.8919477281
 20
158.8529138845
 30
0.0
 10
58.3118710488
 20
158.7411703388
 30
0.0
 10
58.6008920356
 20
158.7199133439
 30
0.0
 10
58.8700060699
 20
158.7593800696
 30
0.0
 10
59.033053243
 20
158.8271167775
 30
0.0
 10
59.1070097045
 20
158.86982507
 30
0.0
  0
SPLINE
  5
371
100
AcDbEntity
  8
0
100
AcDbSpline
 62
7
  6
CONTINUOUS
 70
0
 71
3
 72
11
 73
7
 74
0
 42
0.0000001
 43
0.0000001
 44
0.0000000001
 40
0.0
 40
0.0
 40
0.0
 40
0.0
 40
0.2897733987
 40
0.5490669313
 40
0.782226121
 40
1.0
 40
1.0
 40
1.0
 40
1.0
 10
40.2121260641
 20
171.1023749798
 30
0.0
 10
40.2121260641
 20
170.9554005319
 30
0.0
 10
40.1899055247
 20
170.6759548356
 30
0.0
 10
40.0766537468
 20
170.2920317958
 30
0.0
 10
39.8861619582
 20
169.980490249
 30
0.0
 10
39.7071495559
 20
169.8300401281
 30
0.0
 10
39.6114912999
 20
169.7748131904
 30
0.0
  0
SPLINE
  5
372
100
AcDbEntity
  8
0
100
AcDbSpline
 62
7
  6
CONTINUOUS
 70
0
 71
3
 72
18
 73
14
 74
0
 42
0.0000001
 43
0.0000001
 44
0.0000000001
 40
0.0
 40
0.0
 40
0.0
 40
0.0
 40
0.1286548206
 40
0.2702040109
 40
0.4173189172
 40
0.5616285013
 40
0.6952644302
 40
0.7562701443
 40
0.8127610144
 40
0.8647123396
 40
0.9125338666
 40
0.9571514574
 40
1.0
 40
1.0
 40
1.0
 40
1.0
 10
35.6866238232
 20
173.7151158087
 30
0.0
 10
35.6866238232
 20
173.4159516909
 30
0.0
 10
35.7703298368
 20
172.7869187724
 30
0.0
 10
36.0826500831
 20
171.8633463201
 30
0.0
 10
36.5641371373
 20
170.9735152344
 30
0.0
 10
37.1753360319
 20
170.1910176238
 30
0.0
 10
37.7700713712
 20
169.6642600528
 30
0.0
 10
38.2693270318
 20
169.3586908772
 30
0.0
 10
38.6309901335
 20
169.1988857376
 30
0.0
 10
38.9838435804
 20
169.1051154115
 30
0.0
 10
39.3210161976
 20
169.0802894783
 30
0.0
 10
39.6349878405
 20
169.126340322
 30
0.0
 10
39.8252099515
 20
169.2053650529
 30
0.0
 10
39.9114930563
 20
169.2551918034
 30
0.0
  0
SPLINE
  5
373
100
AcDbEntity
  8
0
100
AcDbSpline
 62
7
  6
CONTINUOUS
 70
0
 71
3
 72
10
 73
6
 74
0
 42
0.0000001
 43
0.0000001
 44
0.0000000001
 40
0.0
 40
0.0
 40
0.0
 40
0.0
 40
0.5229464116
 40
0.7647587228
 40
1.0
 40
1.0
 40
1.0
 40
1.0
 10
40.4242604417
 20
169.49731423
 30
0.0
 10
40.6259522785
 20
169.454108678
 30
0.0
 10
40.934418306
 20
169.4309145215
 30
0.0
 10
41.3218789876
 20
169.515204131
 30
0.0
 10
41.4953479046
 20
169.5922659211
 30
0.0
 10
41.5757041434
 20
169.6386589153
 30
0.0
  0
SPLINE
  5
374
100
AcDbEntity
  8
0
100
AcDbSpline
 62
7
  6
CONTINUOUS
 70
0
 71
3
 72
17
 73
13
 74
0
 42
0.0000001
 43
0.0000001
 44
0.0000000001
 40
0.0
 40
0.0
 40
0.0
 40
0.0
 40
0.1286894184
 40
0.2702754234
 40
0.4174277438
 40
0.5617747655
 40
0.6954471371
 40
0.8127114826
 40
0.8646769314
 40
0.9125112108
 40
0.9571404173
 40
1.0
 40
1.0
 40
1.0
 40
1.0
 10
45.9397118938
 20
168.2038673224
 30
0.0
 10
45.9397118938
 20
167.9474398366
 30
0.0
 10
46.0114543764
 20
167.4082737999
 30
0.0
 10
46.2791841938
 20
166.6166193027
 30
0.0
 10
46.6917786983
 20
165.8540051548
 30
0.0
 10
47.216037551
 20
165.1829575325
 30
0.0
 10
47.8091243887
 20
164.6576630605
 30
0.0
 10
48.3459664386
 20
164.3641640705
 30
0.0
 10
48.7658897593
 20
164.2524205249
 30
0.0
 10
49.0549107461
 20
164.2311635299
 30
0.0
 10
49.3240247804
 20
164.2706302556
 30
0.0
 10
49.4870719535
 20
164.3383669635
 30
0.0
 10
49.561028415
 20
164.381075256
 30
0.0
  0
SPLINE
  5
375
100
AcDbEntity
  8
0
100
AcDbSpline
 62
7
  6
CONTINUOUS
 70
0
 71
3
 72
12
 73
8
 74
0
 42
0.0000001
 43
0.0000001
 44
0.0000000001
 40
0.0
 40
0.0
 40
0.0
 40
0.0
 40
0.2895700176
 40
0.5486410293
 40
0.7816368525
 40
0.8918393703
 40
1.0
 40
1.0
 40
1.0
 40
1.0
 10
50.1823731887
 20
165.346180341
 30
0.0
 10
50.1823731887
 20
165.1687865738
 30
0.0
 10
50.1554841716
 20
164.8314822473
 30
0.0
 10
50.0191208813
 20
164.3683038555
 30
0.0
 10
49.8231035858
 20
164.0487440273
 30
0.0
 10
49.6251885912
 20
163.8540710372
 30
0.0
 10
49.5148551303
 20
163.7770759577
 30
0.0
 10
49.4574752287
 20
163.7439400883
 30
0.0
  0
SPLINE
  5
376
100
AcDbEntity
  8
0
100
AcDbSpline
 62
7
  6
CONTINUOUS
 70
0
 71
3
 72
18
 73
14
 74
0
 42
0.0000001
 43
0.0000001
 44
0.0000000001
 40
0.0
 40
0.0
 40
0.0
 40
0.0
 40
0.1260240661
 40
0.2643678792
 40
0.408692361
 40
0.5516500214
 40
0.6861091271
 40
0.7483794462
 40
0.8066152127
 40
0.8605996432
 40
0.9104288479
 40
0.9565870489
 40
1.0
 40
1.0
 40
1.0
 40
1.0
 10
44.3487179562
 20
168.7141665658
 30
0.0
 10
44.3487179562
 20
168.3308201791
 30
0.0
 10
44.4500785074
 20
167.5257270388
 30
0.0
 10
44.8323603159
 20
166.3371071417
 30
0.0
 10
45.4257774087
 20
165.1799740905
 30
0.0
 10
46.1864938992
 20
164.1405491147
 30
0.0
 10
46.9329263102
 20
163.4163966602
 30
0.0
 10
47.5676096984
 20
162.9682411044
 30
0.0
 10
48.0348569918
 20
162.7135516487
 30
0.0
 10
48.4967488723
 20
162.5366427266
 30
0.0
 10
48.9451721285
 20
162.4414081587
 30
0.0
 10
49.3716955513
 20
162.4306667407
 30
0.0
 10
49.6420188825
 20
162.4823466806
 30
0.0
 10
49.7678061458
 20
162.5225496138
 30
0.0
  0
SPLINE
  5
377
100
AcDbEntity
  8
0
100
AcDbSpline
 62
7
  6
CONTINUOUS
 70
0
 71
3
 72
9
 73
5
 74
0
 42
0.0000001
 43
0.0000001
 44
0.0000000001
 40
0.0
 40
0.0
 40
0.0
 40
0.0
 40
0.5164118446
 40
1.0
 40
1.0
 40
1.0
 40
1.0
 10
48.2763758072
 20
173.5429488761
 30
0.0
 10
48.1036586407
 20
173.4061696346
 30
0.0
 10
47.7715867252
 20
173.1383011194
 30
0.0
 10
47.4472611118
 20
172.86086394
 30
0.0
 10
47.2946161395
 20
172.722065837
 30
0.0
  0
SPLINE
  5
378
100
AcDbEntity
  8
0
100
AcDbSpline
 62
7
  6
CONTINUOUS
 70
0
 71
3
 72
12
 73
8
 74
0
 42
0.0000001
 43
0.0000001
 44
0.0000000001
 40
0.0
 40
0.0
 40
0.0
 40
0.0
 40
0.2471893105
 40
0.4969673726
 40
0.7493019648
 40
0.875661122
 40
1.0
 40
1.0
 40
1.0
 40
1.0
 10
54.08163917
 20
164.1682659163
 30
0.0
 10
53.8384874574
 20
164.0590210032
 30
0.0
 10
53.3487209324
 20
163.8414080287
 30
0.0
 10
52.6064152942
 20
163.5221456686
 30
0.0
 10
51.9789315842
 20
163.265782457
 30
0.0
 10
51.4714961746
 20
163.0739382034
 30
0.0
 10
51.2160115701
 20
162.9852820701
 30
0.0
 10
51.088288891
 20
162.9444678847
 30
0.0
  0
SPLINE
  5
379
100
AcDbEntity
  8
0
100
AcDbSpline
 62
7
  6
CONTINUOUS
 70
0
 71
3
 72
27
 73
23
 74
0
 42
0.0000001
 43
0.0000001
 44
0.0000000001
 40
0.0
 40
0.0
 40
0.0
 40
0.0
 40
0.0562936243
 40
0.1126372675
 40
0.1690819598
 40
0.2257262083
 40
0.2827745349
 40
0.3406985563
 40
0.3703577429
 40
0.4008249716
 40
0.4325335493
 40
0.4658957001
 40
0.5008016191
 40
0.5363957127
 40
0.5718322032
 40
0.6067623299
 40
0.675016342
 40
0.741689936
 40
0.8072617081
 40
0.8720473339
 40
0.936248705
 40
1.0
 40
1.0
 40
1.0
 40
1.0
 10
60.8146171147
 20
167.5596765016
 30
0.0
 10
60.7402684229
 20
167.4451923007
 30
0.0
 10
60.594612734
 20
167.2140776839
 30
0.0
 10
60.3878789604
 20
166.8598873677
 30
0.0
 10
60.1963446892
 20
166.4962229763
 30
0.0
 10
60.0254148245
 20
166.1203525518
 30
0.0
 10
59.8842269139
 20
165.728334846
 30
0.0
 10
59.8057055794
 20
165.384805411
 30
0.0
 10
59.7838342707
 20
165.0987739384
 30
0.0
 10
59.7965298158
 20
164.8755829714
 30
0.0
 10
59.8504190856
 20
164.648666968
 30
0.0
 10
59.9586997919
 20
164.4290569616
 30
0.0
 10
60.1240999926
 20
164.2357661803
 30
0.0
 10
60.3317837142
 20
164.0816890753
 30
0.0
 10
60.5621502935
 20
163.9658280211
 30
0.0
 10
60.8796369805
 20
163.8535383569
 30
0.0
 10
61.2845409271
 20
163.7697316491
 30
0.0
 10
61.7688420161
 20
163.7222315032
 30
0.0
 10
62.2467443045
 20
163.7090599707
 30
0.0
 10
62.7185499038
 20
163.7195318233
 30
0.0
 10
63.1851824722
 20
163.7472930455
 30
0.0
 10
63.4942848521
 20
163.7746944186
 30
0.0
 10
63.6481025279
 20
163.7901479702
 30
0.0
  0
SPLINE
  5
37A
100
AcDbEntity
  8
0
100
AcDbSpline
 62
7
  6
CONTINUOUS
 70
0
 71
3
 72
12
 73
8
 74
0
 42
0.0000001
 43
0.0000001
 44
0.0000000001
 40
0.0
 40
0.0
 40
0.0
 40
0.0
 40
0.1081617394
 40
0.2183631591
 40
0.4513653165
 40
0.7104188067
 40
1.0
 40
1.0
 40
1.0
 40
1.0
 10
66.0174225169
 20
148.2886584519
 30
0.0
 10
66.0961204367
 20
148.3340944363
 30
0.0
 10
66.2474094756
 20
148.4397241727
 30
0.0
 10
66.5188817245
 20
148.7066613375
 30
0.0
 10
66.7876527451
 20
149.1449461667
 30
0.0
 10
66.9747021918
 20
149.780141771
 30
0.0
 10
67.0115640394
 20
150.2427314198
 30
0.0
 10
67.0115640394
 20
150.486023875
 30
0.0
  0
SPLINE
  5
37B
100
AcDbEntity
  8
0
100
AcDbSpline
 62
7
  6
CONTINUOUS
 70
0
 71
3
 72
12
 73
8
 74
0
 42
0.0000001
 43
0.0000001
 44
0.0000000001
 40
0.0
 40
0.0
 40
0.0
 40
0.0
 40
0.1081593386
 40
0.2183587446
 40
0.4513618558
 40
0.7104187393
 40
1.0
 40
1.0
 40
1.0
 40
1.0
 10
41.5757041434
 20
169.6386589153
 30
0.0
 10
41.6412844912
 20
169.6765211739
 30
0.0
 10
41.7673584074
 20
169.7645413685
 30
0.0
 10
41.9935809407
 20
169.9869905313
 30
0.0
 10
42.2175625397
 20
170.352226046
 30
0.0
 10
42.3734356647
 20
170.881560779
 30
0.0
 10
42.4041544362
 20
171.2670545218
 30
0.0
 10
42.4041544362
 20
171.4697984575
 30
0.0
  0
SPLINE
  5
37C
100
AcDbEntity
  8
0
100
AcDbSpline
 62
7
  6
CONTINUOUS
 70
0
 71
3
 72
33
 73
29
 74
0
 42
0.0000001
 43
0.0000001
 44
0.0000000001
 40
0.0
 40
0.0
 40
0.0
 40
0.0
 40
0.0436717847
 40
0.0844294618
 40
0.1211836099
 40
0.1375573078
 40
0.1522205019
 40
0.1648559062
 40
0.1703632426
 40
0.1753655915
 40
0.1800240383
 40
0.1846836724
 40
0.1961258111
 40
0.2041569841
 40
0.2142254745
 40
0.2408864904
 40
0.2750660235
 40
0.3140750363
 40
0.3556366652
 40
0.3984191641
 40
0.4417384292
 40
0.4852516178
 40
0.5722551245
 40
0.6588455631
 40
0.744895556
 40
0.8304089863
 40
0.9154274248
 40
1.0
 40
1.0
 40
1.0
 40
1.0
 10
56.840597429
 20
167.210815651
 30
0.0
 10
56.7823773905
 20
167.1578769215
 30
0.0
 10
56.6710410082
 20
167.0541598401
 30
0.0
 10
56.5168027302
 20
166.8995414111
 30
0.0
 10
56.4040762296
 20
166.7731249874
 30
0.0
 10
56.33058402
 20
166.6754200801
 30
0.0
 10
56.2886129362
 20
166.6087701673
 30
0.0
 10
56.2637175106
 20
166.554699129
 30
0.0
 10
56.2538063772
 20
166.5140319328
 30
0.0
 10
56.2522112887
 20
166.4865434743
 30
0.0
 10
56.257274345
 20
166.4608654731
 30
0.0
 10
56.276687073
 20
166.4278958129
 30
0.0
 10
56.3180837058
 20
166.4068640269
 30
0.0
 10
56.3701899505
 20
166.3970835937
 30
0.0
 10
56.4511223034
 20
166.3933394274
 30
0.0
 10
56.5785448317
 20
166.4077668037
 30
0.0
 10
56.754671486
 20
166.4449273201
 30
0.0
 10
56.9541596284
 20
166.4996561705
 30
0.0
 10
57.166191282
 20
166.566400398
 30
0.0
 10
57.3837813107
 20
166.6410818059
 30
0.0
 10
57.603252814
 20
166.7209583433
 30
0.0
 10
57.8960722565
 20
166.8321866124
 30
0.0
 10
58.2594921023
 20
166.9770200945
 30
0.0
 10
58.6915725453
 20
167.1564298742
 30
0.0
 10
59.1192878094
 20
167.339277748
 30
0.0
 10
59.5429429753
 20
167.5243725945
 30
0.0
 10
59.9629960953
 20
167.7110370593
 30
0.0
 10
60.2416064048
 20
167.8365527185
 30
0.0
 10
60.3804119647
 20
167.8994392194
 30
0.0
  0
SPLINE
  5
37D
100
AcDbEntity
  8
0
100
AcDbSpline
 62
7
  6
CONTINUOUS
 70
0
 71
3
 72
18
 73
14
 74
0
 42
0.0000001
 43
0.0000001
 44
0.0000000001
 40
0.0
 40
0.0
 40
0.0
 40
0.0
 40
0.1315297117
 40
0.2612484821
 40
0.3887004163
 40
0.5132551864
 40
0.6340649837
 40
0.6928425826
 40
0.7504988168
 40
0.8073998165
 40
0.864943384
 40
0.9269798101
 40
1.0
 40
1.0
 40
1.0
 40
1.0
 10
64.6011482327
 20
159.1878548631
 30
0.0
 10
64.4628938677
 20
159.1666429156
 30
0.0
 10
64.1877445114
 20
159.1279112016
 30
0.0
 10
63.7767020929
 20
159.0834818643
 30
0.0
 10
63.3714227877
 20
159.0572062109
 30
0.0
 10
62.9747140499
 20
159.0555325934
 30
0.0
 10
62.6515621004
 20
159.0835214853
 30
0.0
 10
62.4041753006
 20
159.1347194009
 30
0.0
 10
62.2283295339
 20
159.1916639186
 30
0.0
 10
62.064147491
 20
159.2747966082
 30
0.0
 10
61.918641837
 20
159.3972848854
 30
0.0
 10
61.8122150967
 20
159.577767109
 30
0.0
 10
61.79156535
 20
159.7237343517
 30
0.0
 10
61.79156535
 20
159.8013859352
 30
0.0
  0
SPLINE
  5
37E
100
AcDbEntity
  8
0
100
AcDbSpline
 62
7
  6
CONTINUOUS
 70
0
 71
3
 72
14
 73
10
 74
0
 42
0.0000001
 43
0.0000001
 44
0.0000000001
 40
0.0
 40
0.0
 40
0.0
 40
0.0
 40
0.1103473166
 40
0.2204132181
 40
0.3329880888
 40
0.4505624516
 40
0.5750610322
 40
0.7078342453
 40
1.0
 40
1.0
 40
1.0
 40
1.0
 10
59.3137874353
 20
157.0112994277
 30
0.0
 10
59.4132848439
 20
157.0430998467
 30
0.0
 10
59.6065695741
 20
157.1257766558
 30
0.0
 10
59.8676630858
 20
157.3058899696
 30
0.0
 10
60.0937493483
 20
157.5379613798
 30
0.0
 10
60.2816016356
 20
157.8181859446
 30
0.0
 10
60.4293769801
 20
158.1423499472
 30
0.0
 10
60.5754054159
 20
158.6429256032
 30
0.0
 10
60.6122416346
 20
159.0480625483
 30
0.0
 10
60.6122416346
 20
159.3246292119
 30
0.0
  0
SPLINE
  5
37F
100
AcDbEntity
  8
0
100
AcDbSpline
 62
7
  6
CONTINUOUS
 70
0
 71
3
 72
18
 73
14
 74
0
 42
0.0000001
 43
0.0000001
 44
0.0000000001
 40
0.0
 40
0.0
 40
0.0
 40
0.0
 40
0.0428483717
 40
0.0874661025
 40
0.1352879326
 40
0.1872396155
 40
0.2437305431
 40
0.3047358314
 40
0.4383696647
 40
0.5826768886
 40
0.7297921552
 40
0.8713433041
 40
1.0
 40
1.0
 40
1.0
 40
1.0
 10
59.0034565182
 20
158.2326899022
 30
0.0
 10
58.9171738442
 20
158.1828631973
 30
0.0
 10
58.7269509885
 20
158.1038401377
 30
0.0
 10
58.4129789673
 20
158.0577896928
 30
0.0
 10
58.0758042396
 20
158.0826138782
 30
0.0
 10
57.7229495044
 20
158.176386511
 30
0.0
 10
57.361286973
 20
158.336192569
 30
0.0
 10
56.8620359004
 20
158.6417582959
 30
0.0
 10
56.2673094156
 20
159.1685083415
 30
0.0
 10
55.6561119939
 20
159.9509948768
 30
0.0
 10
55.174623621
 20
160.8408251883
 30
0.0
 10
54.8622945668
 20
161.7644049489
 30
0.0
 10
54.7785864021
 20
162.3934469537
 30
0.0
 10
54.7785864021
 20
162.6926154367
 30
0.0
  0
SPLINE
  5
380
100
AcDbEntity
  8
0
100
AcDbSpline
 62
7
  6
CONTINUOUS
 70
0
 71
3
 72
9
 73
5
 74
0
 42
0.0000001
 43
0.0000001
 44
0.0000000001
 40
0.0
 40
0.0
 40
0.0
 40
0.0
 40
0.2565793853
 40
1.0
 40
1.0
 40
1.0
 40
1.0
 10
63.9090903616
 20
158.6946034973
 30
0.0
 10
63.9579904458
 20
158.6737909347
 30
0.0
 10
64.1497594313
 20
158.5955085108
 30
0.0
 10
64.3463694217
 20
158.5289135109
 30
0.0
 10
64.4946156235
 20
158.4872720185
 30
0.0
  0
SPLINE
  5
381
100
AcDbEntity
  8
0
100
AcDbSpline
 62
7
  6
CONTINUOUS
 70
0
 71
3
 72
11
 73
7
 74
0
 42
0.0000001
 43
0.0000001
 44
0.0000000001
 40
0.0
 40
0.0
 40
0.0
 40
0.0
 40
0.2833571739
 40
0.540436489
 40
0.7762631212
 40
1.0
 40
1.0
 40
1.0
 40
1.0
 10
57.3821348185
 20
164.0334284709
 30
0.0
 10
57.2684229031
 20
164.0850783949
 30
0.0
 10
57.0432106571
 20
164.1670532668
 30
0.0
 10
56.702308285
 20
164.2189541597
 30
0.0
 10
56.3842415581
 20
164.1903585617
 30
0.0
 10
56.1924326518
 20
164.1152800059
 30
0.0
 10
56.1070350131
 20
164.0659646756
 30
0.0
  0
SPLINE
  5
382
100
AcDbEntity
  8
0
100
AcDbSpline
 62
7
  6
CONTINUOUS
 70
0
 71
3
 72
11
 73
7
 74
0
 42
0.0000001
 43
0.0000001
 44
0.0000000001
 40
0.0
 40
0.0
 40
0.0
 40
0.0
 40
0.2296517625
 40
0.4683644036
 40
0.7234838883
 40
1.0
 40
1.0
 40
1.0
 40
1.0
 10
49.561028415
 20
164.381075256
 30
0.0
 10
49.6331563284
 20
164.4227276006
 30
0.0
 10
49.7700483833
 20
164.5267494617
 30
0.0
 10
49.9360092643
 20
164.7328443647
 30
0.0
 10
50.0616579132
 20
164.9844224711
 30
0.0
 10
50.1150485234
 20
165.1708058191
 30
0.0
 10
50.1354138927
 20
165.2690039359
 30
0.0
  0
SPLINE
  5
383
100
AcDbEntity
  8
0
100
AcDbSpline
 62
7
  6
CONTINUOUS
 70
0
 71
3
 72
9
 73
5
 74
0
 42
0.0000001
 43
0.0000001
 44
0.0000000001
 40
0.0
 40
0.0
 40
0.0
 40
0.0
 40
0.2453100136
 40
1.0
 40
1.0
 40
1.0
 40
1.0
 10
50.1496696079
 20
165.3449402295
 30
0.0
 10
50.1525292168
 20
165.3618981414
 30
0.0
 10
50.1633494669
 20
165.4311661952
 30
0.0
 10
50.1708921087
 20
165.5009377554
 30
0.0
 10
50.1749032362
 20
165.5536926299
 30
0.0
  0
SPLINE
  5
384
100
AcDbEntity
  8
0
100
AcDbSpline
 62
7
  6
CONTINUOUS
 70
0
 71
3
 72
14
 73
10
 74
0
 42
0.0000001
 43
0.0000001
 44
0.0000000001
 40
0.0
 40
0.0
 40
0.0
 40
0.0
 40
0.0946116218
 40
0.1941452176
 40
0.3023707623
 40
0.4214080764
 40
0.5518281297
 40
0.692970665
 40
1.0
 40
1.0
 40
1.0
 40
1.0
 10
39.6114912999
 20
169.7748131904
 30
0.0
 10
39.5306313244
 20
169.7281298301
 30
0.0
 10
39.3495596104
 20
169.6565613563
 30
0.0
 10
39.0494388856
 20
169.6269920403
 30
0.0
 10
38.7275487843
 20
169.6722396163
 30
0.0
 10
38.392571532
 20
169.7891889095
 30
0.0
 10
38.0525503748
 20
169.9738244262
 30
0.0
 10
37.591441576
 20
170.3126737204
 30
0.0
 10
37.2844584815
 20
170.6374824469
 30
0.0
 10
37.0977441907
 20
170.8761114885
 30
0.0
  0
SPLINE
  5
385
100
AcDbEntity
  8
0
100
AcDbSpline
 62
7
  6
CONTINUOUS
 70
0
 71
3
 72
11
 73
7
 74
0
 42
0.0000001
 43
0.0000001
 44
0.0000000001
 40
0.0
 40
0.0
 40
0.0
 40
0.0
 40
0.2618132365
 40
0.5229084363
 40
0.7721130537
 40
1.0
 40
1.0
 40
1.0
 40
1.0
 10
37.0977441907
 20
170.8761114885
 30
0.0
 10
36.9460965089
 20
171.0699238678
 30
0.0
 10
36.6726765929
 20
171.4809153338
 30
0.0
 10
36.3614830743
 20
172.1394073957
 30
0.0
 10
36.1627490523
 20
172.8070297082
 30
0.0
 10
36.1108896583
 20
173.255970251
 30
0.0
 10
36.1108896583
 20
173.470171356
 30
0.0
  0
SPLINE
  5
386
100
AcDbEntity
  8
0
100
AcDbSpline
 62
7
  6
CONTINUOUS
 70
0
 71
3
 72
18
 73
14
 74
0
 42
0.0000001
 43
0.0000001
 44
0.0000000001
 40
0.0
 40
0.0
 40
0.0
 40
0.0
 40
0.0428483717
 40
0.0874661025
 40
0.1352879326
 40
0.1872396155
 40
0.2437305431
 40
0.3047358314
 40
0.4383696647
 40
0.5826768886
 40
0.7297921552
 40
0.8713433041
 40
1.0
 40
1.0
 40
1.0
 40
1.0
 10
37.8257294576
 20
176.1338443692
 30
0.0
 10
37.9120121316
 20
176.1836710742
 30
0.0
 10
38.1022349873
 20
176.2626941337
 30
0.0
 10
38.4162070084
 20
176.3087445786
 30
0.0
 10
38.7533817362
 20
176.2839203933
 30
0.0
 10
39.1062364714
 20
176.1901477605
 30
0.0
 10
39.4678990028
 20
176.0303417025
 30
0.0
 10
39.9671500753
 20
175.7247759756
 30
0.0
 10
40.5618765601
 20
175.19802593
 30
0.0
 10
41.1730739819
 20
174.4155393947
 30
0.0
 10
41.6545623548
 20
173.5257090831
 30
0.0
 10
41.966891409
 20
172.6021293226
 30
0.0
 10
42.0505995736
 20
171.9730873178
 30
0.0
 10
42.0505995736
 20
171.6739188348
 30
0.0
  0
SPLINE
  5
387
100
AcDbEntity
  8
0
100
AcDbSpline
 62
7
  6
CONTINUOUS
 70
0
 71
3
 72
11
 73
7
 74
0
 42
0.0000001
 43
0.0000001
 44
0.0000000001
 40
0.0
 40
0.0
 40
0.0
 40
0.0
 40
0.2893797247
 40
0.5487755386
 40
0.7822455452
 40
1.0
 40
1.0
 40
1.0
 40
1.0
 10
36.1108896583
 20
173.470171356
 30
0.0
 10
36.1108896583
 20
173.6150907556
 30
0.0
 10
36.1325216451
 20
173.8908232197
 30
0.0
 10
36.2425033956
 20
174.2703023903
 30
0.0
 10
36.4273803805
 20
174.5798110452
 30
0.0
 10
36.6014494203
 20
174.731428526
 30
0.0
 10
36.6947760029
 20
174.7878381071
 30
0.0
  0
SPLINE
  5
388
100
AcDbEntity
  8
0
100
AcDbSpline
 62
7
  6
CONTINUOUS
 70
0
 71
3
 72
18
 73
14
 74
0
 42
0.0000001
 43
0.0000001
 44
0.0000000001
 40
0.0
 40
0.0
 40
0.0
 40
0.0
 40
0.1286548206
 40
0.2702040109
 40
0.4173189172
 40
0.5616285013
 40
0.6952644302
 40
0.7562701443
 40
0.8127610144
 40
0.8647123396
 40
0.9125338666
 40
0.9571514574
 40
1.0
 40
1.0
 40
1.0
 40
1.0
 10
40.6363918992
 20
170.8574305271
 30
0.0
 10
40.6363918992
 20
171.1565946449
 30
0.0
 10
40.5526858856
 20
171.7856275633
 30
0.0
 10
40.2403656392
 20
172.7092000156
 30
0.0
 10
39.758878585
 20
173.5990311014
 30
0.0
 10
39.1476796905
 20
174.381528712
 30
0.0
 10
38.5529443512
 20
174.908286283
 30
0.0
 10
38.0536886906
 20
175.2138554586
 30
0.0
 10
37.6920255889
 20
175.3736605982
 30
0.0
 10
37.339172142
 20
175.4674309243
 30
0.0
 10
37.0019995248
 20
175.4922568574
 30
0.0
 10
36.6880278818
 20
175.4462060138
 30
0.0
 10
36.4978057709
 20
175.3671812829
 30
0.0
 10
36.411522666
 20
175.3173545323
 30
0.0
  0
SPLINE
  5
389
100
AcDbEntity
  8
0
100
AcDbSpline
 62
7
  6
CONTINUOUS
 70
0
 71
3
 72
18
 73
14
 74
0
 42
0.0000001
 43
0.0000001
 44
0.0000000001
 40
0.0
 40
0.0
 40
0.0
 40
0.0
 40
0.0428483717
 40
0.0874661025
 40
0.1352879326
 40
0.1872396155
 40
0.2437305431
 40
0.3047358314
 40
0.4383696647
 40
0.5826768886
 40
0.7297921552
 40
0.8713433041
 40
1.0
 40
1.0
 40
1.0
 40
1.0
 10
49.4574752287
 20
163.7439400883
 30
0.0
 10
49.3711925547
 20
163.6941133833
 30
0.0
 10
49.180969699
 20
163.6150903238
 30
0.0
 10
48.8669976778
 20
163.5690398789
 30
0.0
 10
48.5298229501
 20
163.5938640642
 30
0.0
 10
48.1769682149
 20
163.687636697
 30
0.0
 10
47.8153056835
 20
163.847442755
 30
0.0
 10
47.3160546109
 20
164.1530084819
 30
0.0
 10
46.7213281262
 20
164.6797585275
 30
0.0
 10
46.1101307044
 20
165.4622450628
 30
0.0
 10
45.6286423315
 20
166.3520753744
 30
0.0
 10
45.3163132773
 20
167.2756551349
 30
0.0
 10
45.2326051126
 20
167.9046971397
 30
0.0
 10
45.2326051126
 20
168.2038656227
 30
0.0
  0
SPLINE
  5
38A
100
AcDbEntity
  8
0
100
AcDbSpline
 62
7
  6
CONTINUOUS
 70
0
 71
3
 72
12
 73
8
 74
0
 42
0.0000001
 43
0.0000001
 44
0.0000000001
 40
0.0
 40
0.0
 40
0.0
 40
0.0
 40
0.2895700176
 40
0.5486410293
 40
0.7816368525
 40
0.8918393703
 40
1.0
 40
1.0
 40
1.0
 40
1.0
 10
42.0505995736
 20
171.6739188348
 30
0.0
 10
42.0505995736
 20
171.4965250676
 30
0.0
 10
42.0237105566
 20
171.159220741
 30
0.0
 10
41.8873472663
 20
170.6960423493
 30
0.0
 10
41.6913299708
 20
170.3764825211
 30
0.0
 10
41.4934149761
 20
170.181809531
 30
0.0
 10
41.3830815152
 20
170.1048144515
 30
0.0
 10
41.3257016137
 20
170.071678582
 30
0.0
  0
SPLINE
  5
38B
100
AcDbEntity
  8
0
100
AcDbSpline
 62
7
  6
CONTINUOUS
 70
0
 71
3
 72
18
 73
14
 74
0
 42
0.0000001
 43
0.0000001
 44
0.0000000001
 40
0.0
 40
0.0
 40
0.0
 40
0.0
 40
0.128653193
 40
0.2702040856
 40
0.4173190292
 40
0.5616287656
 40
0.6952634159
 40
0.7562696782
 40
0.8127618161
 40
0.8647121797
 40
0.9125329512
 40
0.95715095
 40
1.0
 40
1.0
 40
1.0
 40
1.0
 10
42.4041544362
 20
171.4697984575
 30
0.0
 10
42.4041544362
 20
171.8116962926
 30
0.0
 10
42.3084865315
 20
172.5305900755
 30
0.0
 10
41.951568861
 20
173.5861115597
 30
0.0
 10
41.4012679415
 20
174.6030498982
 30
0.0
 10
40.7027891182
 20
175.4973597555
 30
0.0
 10
40.0230603974
 20
176.0993325837
 30
0.0
 10
39.4524934963
 20
176.4485715983
 30
0.0
 10
39.0391702313
 20
176.6312300495
 30
0.0
 10
38.6358998854
 20
176.738368386
 30
0.0
 10
38.2505672585
 20
176.7667241564
 30
0.0
 10
37.8917316605
 20
176.7141394818
 30
0.0
 10
37.6743433526
 20
176.6237993939
 30
0.0
 10
37.5757269278
 20
176.566864036
 30
0.0
  0
SPLINE
  5
38C
100
AcDbEntity
  8
0
100
AcDbSpline
 62
7
  6
CONTINUOUS
 70
0
 71
3
 72
14
 73
10
 74
0
 42
0.0000001
 43
0.0000001
 44
0.0000000001
 40
0.0
 40
0.0
 40
0.0
 40
0.0
 40
0.1103473166
 40
0.2204132181
 40
0.3329880888
 40
0.4505624516
 40
0.5750610322
 40
0.7078342453
 40
1.0
 40
1.0
 40
1.0
 40
1.0
 10
49.7678061458
 20
162.5225496138
 30
0.0
 10
49.8673035544
 20
162.5543500327
 30
0.0
 10
50.0605882846
 20
162.6370268418
 30
0.0
 10
50.3216817963
 20
162.8171401557
 30
0.0
 10
50.5477680588
 20
163.0492115659
 30
0.0
 10
50.7356203461
 20
163.3294361307
 30
0.0
 10
50.8833956906
 20
163.6536001332
 30
0.0
 10
51.0294241264
 20
164.1541757892
 30
0.0
 10
51.0662603451
 20
164.5593127343
 30
0.0
 10
51.0662603451
 20
164.8358793979
 30
0.0
  0
SPLINE
  5
38D
100
AcDbEntity
  8
0
100
AcDbSpline
 62
7
  6
CONTINUOUS
 70
0
 71
3
 72
34
 73
30
 74
0
 42
0.0000001
 43
0.0000001
 44
0.0000000001
 40
0.0
 40
0.0
 40
0.0
 40
0.0
 40
0.0433538602
 40
0.0837388426
 40
0.1200132983
 40
0.1360801004
 40
0.1503704549
 40
0.1625632966
 40
0.1678445091
 40
0.1726569473
 40
0.1772310964
 40
0.1820115382
 40
0.187607036
 40
0.1946221565
 40
0.2035280571
 40
0.2146029771
 40
0.2432469768
 40
0.2788198939
 40
0.3185175982
 40
0.3602922184
 40
0.4030227164
 40
0.4461487151
 40
0.4893933118
 40
0.5757535506
 40
0.6616482786
 40
0.7469902362
 40
0.8317977414
 40
0.9161174354
 40
1.0
 40
1.0
 40
1.0
 40
1.0
 10
47.2946161395
 20
172.722065837
 30
0.0
 10
47.2353023679
 20
172.6681325902
 30
0.0
 10
47.1219974575
 20
172.5625382542
 30
0.0
 10
46.9654256423
 20
172.405203999
 30
0.0
 10
46.851562547
 20
172.2766931306
 30
0.0
 10
46.7782374277
 20
172.1775095905
 30
0.0
 10
46.7372697853
 20
172.1102455211
 30
0.0
 10
46.714025042
 20
172.0557259607
 30
0.0
 10
46.7065112864
 20
172.0150011052
 30
0.0
 10
46.7072560006
 20
171.9876128515
 30
0.0
 10
46.7156529167
 20
171.9622825956
 30
0.0
 10
46.7334968699
 20
171.9403804053
 30
0.0
 10
46.7614037547
 20
171.9234449591
 30
0.0
 10
46.7997977557
 20
171.9119612308
 30
0.0
 10
46.849566983
 20
171.90625233
 30
0.0
 10
46.9396319437
 20
171.9070955032
 30
0.0
 10
47.0778861037
 20
171.9271050296
 30
0.0
 10
47.2651136702
 20
171.9705517732
 30
0.0
 10
47.4731614077
 20
172.0305390619
 30
0.0
 10
47.6916045505
 20
172.1015331999
 30
0.0
 10
47.9143131806
 20
172.179698041
 30
0.0
 10
48.1382053332
 20
172.2625664255
 30
0.0
 10
48.436295052
 20
172.377314988
 30
0.0
 10
48.8059925121
 20
172.526099571
 30
0.0
 10
49.2454415896
 20
172.7099196794
 30
0.0
 10
49.6804045446
 20
172.8969566646
 30
0.0
 10
50.1112669185
 20
173.0861158233
 30
0.0
 10
50.5385165401
 20
173.2767667498
 30
0.0
 10
50.821927975
 20
173.4049063997
 30
0.0
 10
50.9631333737
 20
173.4690995468
 30
0.0
  0
SPLINE
  5
38E
100
AcDbEntity
  8
0
100
AcDbSpline
 62
7
  6
CONTINUOUS
 70
0
 71
3
 72
21
 73
17
 74
0
 42
0.0000001
 43
0.0000001
 44
0.0000000001
 40
0.0
 40
0.0
 40
0.0
 40
0.0
 40
0.0635292721
 40
0.1312791838
 40
0.2024014655
 40
0.2759214259
 40
0.4254160286
 40
0.5704960896
 40
0.638721061
 40
0.7028372428
 40
0.7622715638
 40
0.8168116764
 40
0.8667176838
 40
0.9128317805
 40
0.9566159115
 40
1.0
 40
1.0
 40
1.0
 40
1.0
 10
60.6122416346
 20
159.3246292119
 30
0.0
 10
60.6122416346
 20
159.5324708722
 30
0.0
 10
60.5824869962
 20
159.9622680614
 30
0.0
 10
60.4608135295
 20
160.6143781069
 30
0.0
 10
60.2633051404
 20
161.2818219142
 30
0.0
 10
59.9033602273
 20
162.1755366301
 30
0.0
 10
59.3037292871
 20
163.2274628273
 30
0.0
 10
58.5391433556
 20
164.1453484827
 30
0.0
 10
57.8569147862
 20
164.7463478651
 30
0.0
 10
57.3408111964
 20
165.1058533298
 30
0.0
 10
56.8218062477
 20
165.3748089952
 30
0.0
 10
56.3112809324
 20
165.5466029129
 30
0.0
 10
55.8203154875
 20
165.6161884342
 30
0.0
 10
55.3600064267
 20
165.5795869187
 30
0.0
 10
54.9433533733
 20
165.4350069951
 30
0.0
 10
54.7059156837
 20
165.2697950968
 30
0.0
 10
54.6008947363
 20
165.1743167383
 30
0.0
  0
SPLINE
  5
38F
100
AcDbEntity
  8
0
100
AcDbSpline
 62
7
  6
CONTINUOUS
 70
0
 71
3
 72
12
 73
8
 74
0
 42
0.0000001
 43
0.0000001
 44
0.0000000001
 40
0.0
 40
0.0
 40
0.0
 40
0.0
 40
0.2895810392
 40
0.5486360765
 40
0.7816397385
 40
0.8918396265
 40
1.0
 40
1.0
 40
1.0
 40
1.0
 10
45.5861217037
 20
173.30689715
 30
0.0
 10
45.5861217037
 20
173.1041533189
 30
0.0
 10
45.5554038566
 20
172.7186607131
 30
0.0
 10
45.3995301907
 20
172.1893275019
 30
0.0
 10
45.1755513103
 20
171.8240905694
 30
0.0
 10
44.9493272242
 20
171.6016410526
 30
0.0
 10
44.8232533854
 20
171.5136185389
 30
0.0
 10
44.7576717415
 20
171.4757570383
 30
0.0
  0
SPLINE
  5
390
100
AcDbEntity
  8
0
100
AcDbSpline
 62
7
  6
CONTINUOUS
 70
0
 71
3
 72
12
 73
8
 74
0
 42
0.0000001
 43
0.0000001
 44
0.0000000001
 40
0.0
 40
0.0
 40
0.0
 40
0.0
 40
0.1081597158
 40
0.2183621399
 40
0.4513573357
 40
0.7104307796
 40
1.0
 40
1.0
 40
1.0
 40
1.0
 10
39.9114930563
 20
169.2551918034
 30
0.0
 10
39.9688725039
 20
169.2883272756
 30
0.0
 10
40.0792071072
 20
169.3653197269
 30
0.0
 10
40.2771180335
 20
169.5599953815
 30
0.0
 10
40.4731401631
 20
169.8795524353
 30
0.0
 10
40.6095016951
 20
170.3427325833
 30
0.0
 10
40.6363918992
 20
170.6800373338
 30
0.0
 10
40.6363918992
 20
170.8574305271
 30
0.0
  0
SPLINE
  5
391
100
AcDbEntity
  8
0
100
AcDbSpline
 62
7
  6
CONTINUOUS
 70
0
 71
3
 72
9
 73
5
 74
0
 42
0.0000001
 43
0.0000001
 44
0.0000000001
 40
0.0
 40
0.0
 40
0.0
 40
0.0
 40
0.2444735579
 40
1.0
 40
1.0
 40
1.0
 40
1.0
 10
39.3727044221
 20
179.9260749815
 30
0.0
 10
39.3620791026
 20
179.8836122017
 30
0.0
 10
39.3212085762
 20
179.7092786732
 30
0.0
 10
39.2905240089
 20
179.5325950283
 30
0.0
 10
39.27253787
 20
179.3985222414
 30
0.0
  0
SPLINE
  5
392
100
AcDbEntity
  8
0
100
AcDbSpline
 62
7
  6
CONTINUOUS
 70
0
 71
3
 72
11
 73
7
 74
0
 42
0.0000001
 43
0.0000001
 44
0.0000000001
 40
0.0
 40
0.0
 40
0.0
 40
0.0
 40
0.2296517625
 40
0.4683644036
 40
0.7234838883
 40
1.0
 40
1.0
 40
1.0
 40
1.0
 10
59.1070097045
 20
158.86982507
 30
0.0
 10
59.1791376178
 20
158.9114774146
 30
0.0
 10
59.3160296728
 20
159.0154992757
 30
0.0
 10
59.4819905538
 20
159.2215941787
 30
0.0
 10
59.6076392027
 20
159.4731722851
 30
0.0
 10
59.6610298129
 20
159.6595556331
 30
0.0
 10
59.6813951821
 20
159.7577537499
 30
0.0
  0
SPLINE
  5
393
100
AcDbEntity
  8
0
100
AcDbSpline
 62
7
  6
CONTINUOUS
 70
0
 71
3
 72
9
 73
5
 74
0
 42
0.0000001
 43
0.0000001
 44
0.0000000001
 40
0.0
 40
0.0
 40
0.0
 40
0.0
 40
0.2453100136
 40
1.0
 40
1.0
 40
1.0
 40
1.0
 10
59.6956508974
 20
159.8336900434
 30
0.0
 10
59.6985105063
 20
159.8506479554
 30
0.0
 10
59.7093307564
 20
159.9199160092
 30
0.0
 10
59.7168733982
 20
159.9896875694
 30
0.0
 10
59.7208845257
 20
160.0424424438
 30
0.0
  0
SPLINE
  5
394
100
AcDbEntity
  8
0
100
AcDbSpline
 62
7
  6
CONTINUOUS
 70
0
 71
3
 72
14
 73
10
 74
0
 42
0.0000001
 43
0.0000001
 44
0.0000000001
 40
0.0
 40
0.0
 40
0.0
 40
0.0
 40
0.1080468545
 40
0.2181297577
 40
0.332104429
 40
0.4515035364
 40
0.57745166
 40
0.7107185255
 40
1.0
 40
1.0
 40
1.0
 40
1.0
 10
63.2283064455
 20
156.6304608565
 30
0.0
 10
63.1135413739
 20
156.5642013124
 30
0.0
 10
62.8698877758
 20
156.4500680878
 30
0.0
 10
62.4756141352
 20
156.3410702397
 30
0.0
 10
62.0553140772
 20
156.2941771882
 30
0.0
 10
61.6134800195
 20
156.3095566428
 30
0.0
 10
61.1542870015
 20
156.3865605461
 30
0.0
 10
60.5073448806
 20
156.5751868417
 30
0.0
 10
60.0356041229
 20
156.7997118648
 30
0.0
 10
59.7283338704
 20
156.9771104145
 30
0.0
  0
SPLINE
  5
395
100
AcDbEntity
  8
0
100
AcDbSpline
 62
7
  6
CONTINUOUS
 70
0
 71
3
 72
11
 73
7
 74
0
 42
0.0000001
 43
0.0000001
 44
0.0000000001
 40
0.0
 40
0.0
 40
0.0
 40
0.0
 40
0.2833571739
 40
0.540436489
 40
0.7762631212
 40
1.0
 40
1.0
 40
1.0
 40
1.0
 10
47.836153529
 20
169.5446786569
 30
0.0
 10
47.7224416136
 20
169.5963285809
 30
0.0
 10
47.4972293676
 20
169.6783034529
 30
0.0
 10
47.1563269955
 20
169.7302043457
 30
0.0
 10
46.8382602686
 20
169.7016087477
 30
0.0
 10
46.6464513623
 20
169.6265301919
 30
0.0
 10
46.5610537236
 20
169.5772148616
 30
0.0
  0
SPLINE
  5
396
100
AcDbEntity
  8
0
100
AcDbSpline
 62
7
  6
CONTINUOUS
 70
0
 71
3
 72
12
 73
8
 74
0
 42
0.0000001
 43
0.0000001
 44
0.0000000001
 40
0.0
 40
0.0
 40
0.0
 40
0.0
 40
0.2895700176
 40
0.5486410293
 40
0.7816368525
 40
0.8918393703
 40
1.0
 40
1.0
 40
1.0
 40
1.0
 10
45.2326051126
 20
168.2038656227
 30
0.0
 10
45.2326051126
 20
168.3812593899
 30
0.0
 10
45.2594941297
 20
168.7185637165
 30
0.0
 10
45.39585742
 20
169.1817421082
 30
0.0
 10
45.5918747155
 20
169.5013019364
 30
0.0
 10
45.7897897102
 20
169.6959749265
 30
0.0
 10
45.9001231711
 20
169.772970006
 30
0.0
 10
45.9575030726
 20
169.8061058755
 30
0.0
  0
SPLINE
  5
397
100
AcDbEntity
  8
0
100
AcDbSpline
 62
7
  6
CONTINUOUS
 70
0
 71
3
 72
21
 73
17
 74
0
 42
0.0000001
 43
0.0000001
 44
0.0000000001
 40
0.0
 40
0.0
 40
0.0
 40
0.0
 40
0.0635292721
 40
0.1312791838
 40
0.2024014655
 40
0.2759214259
 40
0.4254160286
 40
0.5704960896
 40
0.638721061
 40
0.7028372428
 40
0.7622715638
 40
0.8168116764
 40
0.8667176838
 40
0.9128317805
 40
0.9566159115
 40
1.0
 40
1.0
 40
1.0
 40
1.0
 10
51.0662603451
 20
164.8358793979
 30
0.0
 10
51.0662603451
 20
165.0437210582
 30
0.0
 10
51.0365057067
 20
165.4735182474
 30
0.0
 10
50.91483224
 20
166.1256282929
 30
0.0
 10
50.7173238509
 20
166.7930721002
 30
0.0
 10
50.3573789379
 20
167.6867868162
 30
0.0
 10
49.7577479976
 20
168.7387130133
 30
0.0
 10
48.9931620661
 20
169.6565986688
 30
0.0
 10
48.3109334968
 20
170.2575980511
 30
0.0
 10
47.794829907
 20
170.6171035158
 30
0.0
 10
47.2758249583
 20
170.8860591812
 30
0.0
 10
46.7652996429
 20
171.0578530989
 30
0.0
 10
46.274334198
 20
171.1274386202
 30
0.0
 10
45.8140251373
 20
171.0908371047
 30
0.0
 10
45.3973720838
 20
170.9462571811
 30
0.0
 10
45.1599343942
 20
170.7810452829
 30
0.0
 10
45.0549134468
 20
170.6855669243
 30
0.0
  0
SPLINE
  5
398
100
AcDbEntity
  8
0
100
AcDbSpline
 62
7
  6
CONTINUOUS
 70
0
 71
3
 72
12
 73
8
 74
0
 42
0.0000001
 43
0.0000001
 44
0.0000000001
 40
0.0
 40
0.0
 40
0.0
 40
0.0
 40
0.2895700176
 40
0.5486410293
 40
0.7816368525
 40
0.8918393703
 40
1.0
 40
1.0
 40
1.0
 40
1.0
 10
54.7785864021
 20
162.6926154367
 30
0.0
 10
54.7785864021
 20
162.8700092039
 30
0.0
 10
54.8054754192
 20
163.2073135304
 30
0.0
 10
54.9418387095
 20
163.6704919222
 30
0.0
 10
55.137856005
 20
163.9900517504
 30
0.0
 10
55.3357709997
 20
164.1847247405
 30
0.0
 10
55.4461044606
 20
164.26171982
 30
0.0
 10
55.5034843621
 20
164.2948556894
 30
0.0
  0
SPLINE
  5
399
100
AcDbEntity
  8
0
100
AcDbSpline
 62
7
  6
CONTINUOUS
 70
0
 71
3
 72
26
 73
22
 74
0
 42
0.0000001
 43
0.0000001
 44
0.0000000001
 40
0.0
 40
0.0
 40
0.0
 40
0.0
 40
0.0563453067
 40
0.1127398616
 40
0.1692508358
 40
0.2260257317
 40
0.2834276262
 40
0.3126750778
 40
0.3426163419
 40
0.3737469798
 40
0.4067034736
 40
0.4415486564
 40
0.4771632905
 40
0.5124591281
 40
0.5471123249
 40
0.6146849059
 40
0.6806923036
 40
0.7456671326
 40
0.8099248018
 40
0.8736576633
 40
1.0
 40
1.0
 40
1.0
 40
1.0
 10
51.3744333062
 20
173.2316281537
 30
0.0
 10
51.2835329314
 20
173.09536275
 30
0.0
 10
51.1056865431
 20
172.8199785945
 30
0.0
 10
50.8546907982
 20
172.3966182583
 30
0.0
 10
50.6249932966
 20
171.9597114119
 30
0.0
 10
50.4261706983
 20
171.5045729006
 30
0.0
 10
50.301301688
 20
171.1049883129
 30
0.0
 10
50.2459821716
 20
170.769932568
 30
0.0
 10
50.2370378879
 20
170.5065214073
 30
0.0
 10
50.2776014995
 20
170.2340885922
 30
0.0
 10
50.3911801195
 20
169.965577605
 30
0.0
 10
50.5879575967
 20
169.7324081342
 30
0.0
 10
50.8433488831
 20
169.5564607991
 30
0.0
 10
51.1254791068
 20
169.4326694855
 30
0.0
 10
51.5100562776
 20
169.3207409954
 30
0.0
 10
51.9954464544
 20
169.2477848419
 30
0.0
 10
52.5723771477
 20
169.2193228069
 30
0.0
 10
53.1401980523
 20
169.2281567271
 30
0.0
 10
53.7002592627
 20
169.2622900762
 30
0.0
 10
54.4364235327
 20
169.3321413272
 30
0.0
 10
54.9843109972
 20
169.4056208689
 30
0.0
 10
55.3474730587
 20
169.4605413309
 30
0.0
  0
SPLINE
  5
39A
100
AcDbEntity
  8
0
100
AcDbSpline
 62
7
  6
CONTINUOUS
 70
0
 71
3
 72
18
 73
14
 74
0
 42
0.0000001
 43
0.0000001
 44
0.0000000001
 40
0.0
 40
0.0
 40
0.0
 40
0.0
 40
0.1295176707
 40
0.2569642371
 40
0.3819103821
 40
0.5038527579
 40
0.622371763
 40
0.680503277
 40
0.7382528051
 40
0.7965300197
 40
0.8572842788
 40
0.9238776936
 40
1.0
 40
1.0
 40
1.0
 40
1.0
 10
54.1905618246
 20
164.5942939814
 30
0.0
 10
54.0907073348
 20
164.5860972838
 30
0.0
 10
53.8923033905
 20
164.5730561162
 30
0.0
 10
53.5968471183
 20
164.5661746517
 30
0.0
 10
53.3072020101
 20
164.5757967514
 30
0.0
 10
53.0260004484
 20
164.6075562435
 30
0.0
 10
52.8000872385
 20
164.6605586089
 30
0.0
 10
52.6311822765
 20
164.727516962
 30
0.0
 10
52.5130326162
 20
164.7932887299
 30
0.0
 10
52.4061508629
 20
164.880023566
 30
0.0
 10
52.3171148875
 20
164.994683559
 30
0.0
 10
52.2574028384
 20
165.1425438926
 30
0.0
 10
52.2455840605
 20
165.2537505653
 30
0.0
 10
52.2455840605
 20
165.3126361212
 30
0.0
  0
SPLINE
  5
39B
100
AcDbEntity
  8
0
100
AcDbSpline
 62
7
  6
CONTINUOUS
 70
0
 71
3
 72
16
 73
12
 74
0
 42
0.0000001
 43
0.0000001
 44
0.0000000001
 40
0.0
 40
0.0
 40
0.0
 40
0.0
 40
0.2450111448
 40
0.3689264915
 40
0.4940953359
 40
0.6208473344
 40
0.7494895757
 40
0.814455243
 40
0.8793300264
 40
0.9425037136
 40
1.0
 40
1.0
 40
1.0
 40
1.0
 10
55.3474730587
 20
169.4605413309
 30
0.0
 10
55.0417188177
 20
169.1595075843
 30
0.0
 10
54.5866396872
 20
168.7006941714
 30
0.0
 10
53.9950898385
 20
168.069119586
 30
0.0
 10
53.5576288113
 20
167.577194947
 30
0.0
 10
53.1331363905
 20
167.0632236861
 30
0.0
 10
52.799976228
 20
166.6110227567
 30
0.0
 10
52.5593461593
 20
166.2273362255
 30
0.0
 10
52.4013096027
 20
165.9279153549
 30
0.0
 10
52.2832091051
 20
165.6244199307
 30
0.0
 10
52.2455840605
 20
165.4133267549
 30
0.0
 10
52.2455840605
 20
165.3126361212
 30
0.0
  0
SPLINE
  5
39C
100
AcDbEntity
  8
0
100
AcDbSpline
 62
7
  6
CONTINUOUS
 70
0
 71
3
 72
15
 73
11
 74
0
 42
0.0000001
 43
0.0000001
 44
0.0000000001
 40
0.0
 40
0.0
 40
0.0
 40
0.0
 40
0.2466740477
 40
0.4975549114
 40
0.6250758178
 40
0.7539347521
 40
0.8184923497
 40
0.8823100621
 40
0.9437468532
 40
1.0
 40
1.0
 40
1.0
 40
1.0
 10
64.0186134644
 20
163.0640271802
 30
0.0
 10
63.7906170869
 20
162.8258815943
 30
0.0
 10
63.337677094
 20
162.3388660104
 30
0.0
 10
62.7957005098
 20
161.7022240054
 30
0.0
 10
62.3888736282
 20
161.1596168872
 30
0.0
 10
62.1535104225
 20
160.8002808312
 30
0.0
 10
61.9893175657
 20
160.4979661902
 30
0.0
 10
61.8859100041
 20
160.2658687939
 30
0.0
 10
61.812714288
 20
160.0339352888
 30
0.0
 10
61.79156535
 20
159.8765706368
 30
0.0
 10
61.79156535
 20
159.8013859352
 30
0.0
  0
SPLINE
  5
39D
100
AcDbEntity
  8
0
100
AcDbSpline
 62
7
  6
CONTINUOUS
 70
0
 71
3
 72
9
 73
5
 74
0
 42
0.0000001
 43
0.0000001
 44
0.0000000001
 40
0.0
 40
0.0
 40
0.0
 40
0.0
 40
0.4842934529
 40
1.0
 40
1.0
 40
1.0
 40
1.0
 10
40.6363712914
 20
167.9996107865
 30
0.0
 10
40.3782442403
 20
168.1486371376
 30
0.0
 10
39.865659688
 20
168.4924473219
 30
0.0
 10
39.3954583965
 20
168.8914812457
 30
0.0
 10
39.1638669868
 20
169.1085121334
 30
0.0
  0
SPLINE
  5
39E
100
AcDbEntity
  8
0
100
AcDbSpline
 62
7
  6
CONTINUOUS
 70
0
 71
3
 72
14
 73
10
 74
0
 42
0.0000001
 43
0.0000001
 44
0.0000000001
 40
0.0
 40
0.0
 40
0.0
 40
0.0
 40
0.3024185634
 40
0.440270599
 40
0.5682941054
 40
0.6867221483
 40
0.7966369766
 40
0.9000799381
 40
1.0
 40
1.0
 40
1.0
 40
1.0
 10
35.906832263
 20
174.7598256986
 30
0.0
 10
35.7816271247
 20
175.3005233416
 30
0.0
 10
35.6655123178
 20
176.107783319
 30
0.0
 10
35.6974827993
 20
177.1523771805
 30
0.0
 10
35.811052707
 20
177.8508838073
 30
0.0
 10
36.0136173511
 20
178.4758053212
 30
0.0
 10
36.3031180188
 20
179.0158181026
 30
0.0
 10
36.6755971682
 20
179.4594978272
 30
0.0
 10
36.9775909482
 20
179.6856066164
 30
0.0
 10
37.1363987163
 20
179.7772941843
 30
0.0
  0
SPLINE
  5
39F
100
AcDbEntity
  8
0
100
AcDbSpline
 62
7
  6
CONTINUOUS
 70
0
 71
3
 72
11
 73
7
 74
0
 42
0.0000001
 43
0.0000001
 44
0.0000000001
 40
0.0
 40
0.0
 40
0.0
 40
0.0
 40
0.2848443418
 40
0.5445152259
 40
0.7809897299
 40
1.0
 40
1.0
 40
1.0
 40
1.0
 10
111.7713220157
 20
172.5313955766
 30
0.0
 10
111.7713220157
 20
172.7356253999
 30
0.0
 10
111.7448025714
 20
173.1269169583
 30
0.0
 10
111.6127829278
 20
173.6743730516
 30
0.0
 10
111.3919129112
 20
174.1416516638
 30
0.0
 10
111.1813095291
 20
174.3971728237
 30
0.0
 10
111.0651207495
 20
174.5028035037
 30
0.0
  0
SPLINE
  5
3A0
100
AcDbEntity
  8
0
100
AcDbSpline
 62
7
  6
CONTINUOUS
 70
0
 71
3
 72
18
 73
14
 74
0
 42
0.0000001
 43
0.0000001
 44
0.0000000001
 40
0.0
 40
0.0
 40
0.0
 40
0.0
 40
0.1286550902
 40
0.2702045902
 40
0.4173197676
 40
0.561629525
 40
0.6952654826
 40
0.7562711427
 40
0.8127619086
 40
0.8647130767
 40
0.9125343952
 40
0.9571517344
 40
1.0
 40
1.0
 40
1.0
 40
1.0
 10
105.9377153587
 20
169.1633813072
 30
0.0
 10
105.9377153587
 20
169.4625450022
 30
0.0
 10
106.0214203974
 20
170.0915770409
 30
0.0
 10
106.3337368797
 20
171.0151491401
 30
0.0
 10
106.8152182577
 20
171.9049811508
 30
0.0
 10
107.4264101495
 20
172.6874810989
 30
0.0
 10
108.0211390871
 20
173.2142420867
 30
0.0
 10
108.5203898092
 20
173.5198147929
 30
0.0
 10
108.8820493468
 20
173.6796227226
 30
0.0
 10
109.2348995145
 20
173.773396114
 30
0.0
 10
109.5720692602
 20
173.7982253315
 30
0.0
 10
109.8860385569
 20
173.7521779058
 30
0.0
 10
110.0762595235
 20
173.673155462
 30
0.0
 10
110.1625421268
 20
173.6233298303
 30
0.0
  0
SPLINE
  5
3A1
100
AcDbEntity
  8
0
100
AcDbSpline
 62
7
  6
CONTINUOUS
 70
0
 71
3
 72
17
 73
13
 74
0
 42
0.0000001
 43
0.0000001
 44
0.0000000001
 40
0.0
 40
0.0
 40
0.0
 40
0.0
 40
0.0428588778
 40
0.0874877443
 40
0.1353219067
 40
0.1872874161
 40
0.3045509819
 40
0.4382211777
 40
0.582566321
 40
0.7297199338
 40
0.8713085832
 40
1.0
 40
1.0
 40
1.0
 40
1.0
 10
106.5590544275
 20
168.1982740611
 30
0.0
 10
106.6330096535
 20
168.1555670296
 30
0.0
 10
106.7960555053
 20
168.0878338716
 30
0.0
 10
107.0651664251
 20
168.0483706608
 30
0.0
 10
107.3541857047
 20
168.0696273699
 30
0.0
 10
107.7741045004
 20
168.1813762727
 30
0.0
 10
108.3109372609
 20
168.4748747305
 30
0.0
 10
108.9040108613
 20
169.0001652762
 30
0.0
 10
109.4282646328
 20
169.6712058816
 30
0.0
 10
109.8408570063
 20
170.433822454
 30
0.0
 10
110.1085919436
 20
171.225484557
 30
0.0
 10
110.180335438
 20
171.7646581054
 30
0.0
 10
110.180335438
 20
172.0210886846
 30
0.0
  0
SPLINE
  5
3A2
100
AcDbEntity
  8
0
100
AcDbSpline
 62
7
  6
CONTINUOUS
 70
0
 71
3
 72
11
 73
7
 74
0
 42
0.0000001
 43
0.0000001
 44
0.0000000001
 40
0.0
 40
0.0
 40
0.0
 40
0.0
 40
0.2177727241
 40
0.4509313669
 40
0.7102281898
 40
1.0
 40
1.0
 40
1.0
 40
1.0
 10
87.8708104863
 20
157.0581743554
 30
0.0
 10
87.7751515013
 20
157.1133989526
 30
0.0
 10
87.5961412487
 20
157.2638510251
 30
0.0
 10
87.4056456203
 20
157.5753906797
 30
0.0
 10
87.2923955174
 20
157.9593155952
 30
0.0
 10
87.2701740562
 20
158.2387619403
 30
0.0
 10
87.2701740562
 20
158.385735645
 30
0.0
  0
SPLINE
  5
3A3
100
AcDbEntity
  8
0
100
AcDbSpline
 62
7
  6
CONTINUOUS
 70
0
 71
3
 72
18
 73
14
 74
0
 42
0.0000001
 43
0.0000001
 44
0.0000000001
 40
0.0
 40
0.0
 40
0.0
 40
0.0
 40
0.0428480947
 40
0.0874655739
 40
0.1352871954
 40
0.1872387214
 40
0.2437295447
 40
0.304734779
 40
0.438368641
 40
0.5826760382
 40
0.7297915758
 40
0.8713430344
 40
1.0
 40
1.0
 40
1.0
 40
1.0
 10
87.5708109634
 20
156.5385481775
 30
0.0
 10
87.6570931359
 20
156.4887225915
 30
0.0
 10
87.8473148472
 20
156.4097018187
 30
0.0
 10
88.1612845223
 20
156.3636547921
 30
0.0
 10
88.4984563785
 20
156.3884822618
 30
0.0
 10
88.8513078344
 20
156.4822579598
 30
0.0
 10
89.2129668016
 20
156.6420668079
 30
0.0
 10
89.7122129357
 20
156.9476360654
 30
0.0
 10
90.3069330189
 20
157.4743895277
 30
0.0
 10
90.918123438
 20
158.2568784005
 30
0.0
 10
91.3996061346
 20
159.1467096371
 30
0.0
 10
91.7119314246
 20
160.0702890446
 30
0.0
 10
91.7956386144
 20
160.6993301697
 30
0.0
 10
91.7956386144
 20
160.9984982298
 30
0.0
  0
SPLINE
  5
3A4
100
AcDbEntity
  8
0
100
AcDbSpline
 62
7
  6
CONTINUOUS
 70
0
 71
3
 72
15
 73
11
 74
0
 42
0.0000001
 43
0.0000001
 44
0.0000000001
 40
0.0
 40
0.0
 40
0.0
 40
0.0
 40
0.1141543519
 40
0.237325601
 40
0.366974755
 40
0.4999984147
 40
0.6330222943
 40
0.7626720931
 40
0.8858443543
 40
1.0
 40
1.0
 40
1.0
 40
1.0
 10
109.8267658556
 20
162.3454860428
 30
0.0
 10
110.0591192415
 20
162.4796345319
 30
0.0
 10
110.5180587796
 20
162.8013479034
 30
0.0
 10
111.1495345248
 20
163.3921447062
 30
0.0
 10
111.7314735495
 20
164.0905106105
 30
0.0
 10
112.2419568108
 20
164.8702476758
 30
0.0
 10
112.661983865
 20
165.702211097
 30
0.0
 10
112.9758149115
 20
166.5553734474
 30
0.0
 10
113.1717215
 20
167.397653089
 30
0.0
 10
113.2208642742
 20
167.9559683634
 30
0.0
 10
113.2208642742
 20
168.2242695836
 30
0.0
  0
SPLINE
  5
3A5
100
AcDbEntity
  8
0
100
AcDbSpline
 62
7
  6
CONTINUOUS
 70
0
 71
3
 72
14
 73
10
 74
0
 42
0.0000001
 43
0.0000001
 44
0.0000000001
 40
0.0
 40
0.0
 40
0.0
 40
0.0
 40
0.2892791457
 40
0.4225450404
 40
0.5484933843
 40
0.6678929979
 40
0.7818680973
 40
0.8919518968
 40
1.0
 40
1.0
 40
1.0
 40
1.0
 10
105.9376947509
 20
177.7365954065
 30
0.0
 10
106.2449576915
 20
177.913992689
 30
0.0
 10
106.7166873081
 20
178.1385169956
 30
0.0
 10
107.3636160692
 20
178.3271480179
 30
0.0
 10
107.8228026446
 20
178.4041549961
 30
0.0
 10
108.2646328202
 20
178.4195428106
 30
0.0
 10
108.6849304915
 20
178.3726522143
 30
0.0
 10
109.0792043861
 20
178.2636610976
 30
0.0
 10
109.3228579332
 20
178.1495286498
 30
0.0
 10
109.4376236269
 20
178.0832701899
 30
0.0
  0
SPLINE
  5
3A6
100
AcDbEntity
  8
0
100
AcDbSpline
 62
7
  6
CONTINUOUS
 70
0
 71
3
 72
10
 73
6
 74
0
 42
0.0000001
 43
0.0000001
 44
0.0000000001
 40
0.0
 40
0.0
 40
0.0
 40
0.0
 40
0.235261379
 40
0.4770848103
 40
1.0
 40
1.0
 40
1.0
 40
1.0
 10
85.9065917758
 20
156.9220076486
 30
0.0
 10
85.9868779707
 20
156.875657712
 30
0.0
 10
86.1601792164
 20
156.7986492235
 30
0.0
 10
86.5472398268
 20
156.7143469136
 30
0.0
 10
86.8553995451
 20
156.7373748392
 30
0.0
 10
87.0569048682
 20
156.7804358893
 30
0.0
  0
SPLINE
  5
3A7
100
AcDbEntity
  8
0
100
AcDbSpline
 62
7
  6
CONTINUOUS
 70
0
 71
3
 72
17
 73
13
 74
0
 42
0.0000001
 43
0.0000001
 44
0.0000000001
 40
0.0
 40
0.0
 40
0.0
 40
0.0
 40
0.0428588778
 40
0.0874877443
 40
0.1353219067
 40
0.1872874161
 40
0.3045509819
 40
0.4382211777
 40
0.582566321
 40
0.7297199338
 40
0.8713085832
 40
1.0
 40
1.0
 40
1.0
 40
1.0
 10
97.0131526252
 20
162.6869779838
 30
0.0
 10
97.0871078511
 20
162.6442709523
 30
0.0
 10
97.2501537029
 20
162.5765377943
 30
0.0
 10
97.5192646227
 20
162.5370745835
 30
0.0
 10
97.8082839023
 20
162.5583312926
 30
0.0
 10
98.2282026981
 20
162.6700801954
 30
0.0
 10
98.7650354585
 20
162.9635786533
 30
0.0
 10
99.3581090589
 20
163.4888691989
 30
0.0
 10
99.8823628304
 20
164.1599098043
 30
0.0
 10
100.2949552039
 20
164.9225263768
 30
0.0
 10
100.5626901412
 20
165.7141884798
 30
0.0
 10
100.6344336356
 20
166.2533620282
 30
0.0
 10
100.6344336356
 20
166.5097926074
 30
0.0
  0
SPLINE
  5
3A8
100
AcDbEntity
  8
0
100
AcDbSpline
 62
7
  6
CONTINUOUS
 70
0
 71
3
 72
12
 73
8
 74
0
 42
0.0000001
 43
0.0000001
 44
0.0000000001
 40
0.0
 40
0.0
 40
0.0
 40
0.0
 40
0.1081592661
 40
0.2183613031
 40
0.4513561008
 40
0.7104298246
 40
1.0
 40
1.0
 40
1.0
 40
1.0
 10
97.1167136486
 20
162.049845784
 30
0.0
 10
97.0593341313
 20
162.0829807451
 30
0.0
 10
96.9489993383
 20
162.159972344
 30
0.0
 10
96.7510879482
 20
162.3546469678
 30
0.0
 10
96.5550653892
 20
162.6742040454
 30
0.0
 10
96.4187037366
 20
163.1373853176
 30
0.0
 10
96.3918135563
 20
163.4746912365
 30
0.0
 10
96.3918135563
 20
163.6520852299
 30
0.0
  0
SPLINE
  5
3A9
100
AcDbEntity
  8
0
100
AcDbSpline
 62
7
  6
CONTINUOUS
 70
0
 71
3
 72
12
 73
8
 74
0
 42
0.0000001
 43
0.0000001
 44
0.0000000001
 40
0.0
 40
0.0
 40
0.0
 40
0.0
 40
0.1257677768
 40
0.2531262668
 40
0.5055784715
 40
0.7542790428
 40
1.0
 40
1.0
 40
1.0
 40
1.0
 10
95.4859007227
 20
161.2503637743
 30
0.0
 10
95.301138407
 20
161.3094039537
 30
0.0
 10
94.933408209
 20
161.4410457844
 30
0.0
 10
94.2077845702
 20
161.7264967559
 30
0.0
 10
93.3157004294
 20
162.106068193
 30
0.0
 10
92.2636327586
 20
162.5750819978
 30
0.0
 10
91.5705596812
 20
162.8930732043
 30
0.0
 10
91.2266883412
 20
163.0523424857
 30
0.0
  0
SPLINE
  5
3AA
100
AcDbEntity
  8
0
100
AcDbSpline
 62
7
  6
CONTINUOUS
 70
0
 71
3
 72
18
 73
14
 74
0
 42
0.0000001
 43
0.0000001
 44
0.0000000001
 40
0.0
 40
0.0
 40
0.0
 40
0.0
 40
0.0434131409
 40
0.0895716779
 40
0.139401263
 40
0.1933859083
 40
0.2516216051
 40
0.3138915027
 40
0.4483486123
 40
0.5913041241
 40
0.7356284894
 40
0.8739737944
 40
1.0
 40
1.0
 40
1.0
 40
1.0
 10
96.8063837152
 20
160.8284535967
 30
0.0
 10
96.9321712127
 20
160.7882507445
 30
0.0
 10
97.2024964966
 20
160.7365755685
 30
0.0
 10
97.6290211601
 20
160.7473203975
 30
0.0
 10
98.0774447174
 20
160.842561946
 30
0.0
 10
98.5393342247
 20
161.0194773348
 30
0.0
 10
99.0065761297
 20
161.274171711
 30
0.0
 10
99.6412462501
 20
161.7223289971
 30
0.0
 10
100.3876598214
 20
162.4464759662
 30
0.0
 10
101.1483625631
 20
163.4858901194
 30
0.0
 10
101.7417724927
 20
164.6430197849
 30
0.0
 10
102.1240583359
 20
165.8316457008
 30
0.0
 10
102.2254202133
 20
166.6367477039
 30
0.0
 10
102.2254202133
 20
167.0200994994
 30
0.0
  0
SPLINE
  5
3AB
100
AcDbEntity
  8
0
100
AcDbSpline
 62
7
  6
CONTINUOUS
 70
0
 71
3
 72
9
 73
5
 74
0
 42
0.0000001
 43
0.0000001
 44
0.0000000001
 40
0.0
 40
0.0
 40
0.0
 40
0.0
 40
0.4835873803
 40
1.0
 40
1.0
 40
1.0
 40
1.0
 10
99.2795335384
 20
171.0279571906
 30
0.0
 10
99.1268820051
 20
171.1667597476
 30
0.0
 10
98.8025401727
 20
171.4442040697
 30
0.0
 10
98.4704524342
 20
171.7120798827
 30
0.0
 10
98.2977267134
 20
171.8488629277
 30
0.0
  0
SPLINE
  5
3AC
100
AcDbEntity
  8
0
100
AcDbSpline
 62
7
  6
CONTINUOUS
 70
0
 71
3
 72
22
 73
18
 74
0
 42
0.0000001
 43
0.0000001
 44
0.0000000001
 40
0.0
 40
0.0
 40
0.0
 40
0.0
 40
0.0428205542
 40
0.0874087894
 40
0.1351984219
 40
0.187115105
 40
0.2435696389
 40
0.3045352976
 40
0.3696416885
 40
0.4382585781
 40
0.5095656596
 40
0.5826114386
 40
0.7296283936
 40
0.8016264903
 40
0.8712364059
 40
0.9376023302
 40
1.0
 40
1.0
 40
1.0
 40
1.0
 10
83.3459622701
 20
154.9362946287
 30
0.0
 10
83.1733809368
 20
155.0359321858
 30
0.0
 10
82.8462304279
 20
155.2863246078
 30
0.0
 10
82.4525331291
 20
155.7841460546
 30
0.0
 10
82.1583448873
 20
156.3929635038
 30
0.0
 10
81.9678681218
 20
157.0979139231
 30
0.0
 10
81.8830670731
 20
157.8841271859
 30
0.0
 10
81.9047390875
 20
158.7354390475
 30
0.0
 10
82.0319713702
 20
159.6342950509
 30
0.0
 10
82.2619095226
 20
160.561881041
 30
0.0
 10
82.5896594331
 20
161.4987670063
 30
0.0
 10
83.1486992499
 20
162.7354882515
 30
0.0
 10
83.8646052146
 20
163.9002089531
 30
0.0
 10
84.7108771611
 20
164.9450131401
 30
0.0
 10
85.3872538455
 20
165.6395071106
 30
0.0
 10
86.0947837802
 20
166.2348995931
 30
0.0
 10
86.5944084976
 20
166.5688105438
 30
0.0
 10
86.8458911461
 20
166.7140032519
 30
0.0
  0
SPLINE
  5
3AD
100
AcDbEntity
  8
0
100
AcDbSpline
 62
7
  6
CONTINUOUS
 70
0
 71
3
 72
12
 73
8
 74
0
 42
0.0000001
 43
0.0000001
 44
0.0000000001
 40
0.0
 40
0.0
 40
0.0
 40
0.0
 40
0.1081620389
 40
0.2183637051
 40
0.4513660653
 40
0.7104193096
 40
1.0
 40
1.0
 40
1.0
 40
1.0
 10
80.5568648595
 20
146.5944814465
 30
0.0
 10
80.6355602964
 20
146.549047645
 30
0.0
 10
80.8026776403
 20
146.4708469708
 30
0.0
 10
81.1695753555
 20
146.3692202444
 30
0.0
 10
81.683506876
 20
146.3556023886
 30
0.0
 10
82.3271018102
 20
146.5112045919
 30
0.0
 10
82.7461307461
 20
146.7105674004
 30
0.0
 10
82.9568200414
 20
146.8322081956
 30
0.0
  0
SPLINE
  5
3AE
100
AcDbEntity
  8
0
100
AcDbSpline
 62
7
  6
CONTINUOUS
 70
0
 71
3
 72
12
 73
8
 74
0
 42
0.0000001
 43
0.0000001
 44
0.0000000001
 40
0.0
 40
0.0
 40
0.0
 40
0.0
 40
0.1081612896
 40
0.2183623225
 40
0.4513640816
 40
0.710417852
 40
1.0
 40
1.0
 40
1.0
 40
1.0
 10
79.1426454092
 20
147.4109629556
 30
0.0
 10
79.0639473926
 20
147.456398237
 30
0.0
 10
78.9126580927
 20
147.5620268045
 30
0.0
 10
78.6411852116
 20
147.8289625588
 30
0.0
 10
78.3724135989
 20
148.2672474186
 30
0.0
 10
78.1853639882
 20
148.9024445651
 30
0.0
 10
78.1485021725
 20
149.3650358161
 30
0.0
 10
78.1485021725
 20
149.6083293683
 30
0.0
  0
SPLINE
  5
3AF
100
AcDbEntity
  8
0
100
AcDbSpline
 62
7
  6
CONTINUOUS
 70
0
 71
3
 72
9
 73
5
 74
0
 42
0.0000001
 43
0.0000001
 44
0.0000000001
 40
0.0
 40
0.0
 40
0.0
 40
0.0
 40
0.4835873803
 40
1.0
 40
1.0
 40
1.0
 40
1.0
 10
108.8254353408
 20
176.5392532678
 30
0.0
 10
108.6727838075
 20
176.6780558248
 30
0.0
 10
108.3484419751
 20
176.9555001469
 30
0.0
 10
108.0163542366
 20
177.22337596
 30
0.0
 10
107.8436285158
 20
177.3601590049
 30
0.0
  0
SPLINE
  5
3B0
100
AcDbEntity
  8
0
100
AcDbSpline
 62
7
  6
CONTINUOUS
 70
0
 71
3
 72
12
 73
8
 74
0
 42
0.0000001
 43
0.0000001
 44
0.0000000001
 40
0.0
 40
0.0
 40
0.0
 40
0.0
 40
0.1243363243
 40
0.2506944523
 40
0.5030288512
 40
0.7528084875
 40
1.0
 40
1.0
 40
1.0
 40
1.0
 10
105.0318025251
 20
166.7616598516
 30
0.0
 10
104.9041345464
 20
166.8024557268
 30
0.0
 10
104.6487567707
 20
166.8910698723
 30
0.0
 10
104.1415293124
 20
167.0828243008
 30
0.0
 10
103.5142964363
 20
167.3390682641
 30
0.0
 10
102.7722846365
 20
167.6581858691
 30
0.0
 10
102.2827106153
 20
167.8757014533
 30
0.0
 10
102.0396542183
 20
167.9848978677
 30
0.0
  0
SPLINE
  5
3B1
100
AcDbEntity
  8
0
100
AcDbSpline
 62
7
  6
CONTINUOUS
 70
0
 71
3
 72
18
 73
14
 74
0
 42
0.0000001
 43
0.0000001
 44
0.0000000001
 40
0.0
 40
0.0
 40
0.0
 40
0.0
 40
0.0434131409
 40
0.0895716779
 40
0.139401263
 40
0.1933859083
 40
0.2516216051
 40
0.3138915027
 40
0.4483486123
 40
0.5913041241
 40
0.7356284894
 40
0.8739737944
 40
1.0
 40
1.0
 40
1.0
 40
1.0
 10
106.3522855175
 20
166.339749674
 30
0.0
 10
106.4780730151
 20
166.2995468218
 30
0.0
 10
106.748398299
 20
166.2478716458
 30
0.0
 10
107.1749229625
 20
166.2586164747
 30
0.0
 10
107.6233465198
 20
166.3538580233
 30
0.0
 10
108.0852360271
 20
166.5307734121
 30
0.0
 10
108.5524779321
 20
166.7854677883
 30
0.0
 10
109.1871480525
 20
167.2336250744
 30
0.0
 10
109.9335616238
 20
167.9577720435
 30
0.0
 10
110.6942643655
 20
168.9971861966
 30
0.0
 10
111.2876742951
 20
170.1543158622
 30
0.0
 10
111.6699601383
 20
171.342941778
 30
0.0
 10
111.7713220157
 20
172.1480437812
 30
0.0
 10
111.7713220157
 20
172.5313955766
 30
0.0
  0
SPLINE
  5
3B2
100
AcDbEntity
  8
0
100
AcDbSpline
 62
7
  6
CONTINUOUS
 70
0
 71
3
 72
12
 73
8
 74
0
 42
0.0000001
 43
0.0000001
 44
0.0000000001
 40
0.0
 40
0.0
 40
0.0
 40
0.0
 40
0.1081592661
 40
0.2183613031
 40
0.4513561008
 40
0.7104298246
 40
1.0
 40
1.0
 40
1.0
 40
1.0
 10
106.662615451
 20
167.5611418612
 30
0.0
 10
106.6052359337
 20
167.5942768223
 30
0.0
 10
106.4949011407
 20
167.6712684212
 30
0.0
 10
106.2969897506
 20
167.8659430451
 30
0.0
 10
106.1009671915
 20
168.1855001227
 30
0.0
 10
105.964605539
 20
168.6486813948
 30
0.0
 10
105.9377153587
 20
168.9859873138
 30
0.0
 10
105.9377153587
 20
169.1633813072
 30
0.0
  0
SPLINE
  5
3B3
100
AcDbEntity
  8
0
100
AcDbSpline
 62
7
  6
CONTINUOUS
 70
0
 71
3
 72
11
 73
7
 74
0
 42
0.0000001
 43
0.0000001
 44
0.0000000001
 40
0.0
 40
0.0
 40
0.0
 40
0.0
 40
0.2897925309
 40
0.5490601265
 40
0.782231448
 40
1.0
 40
1.0
 40
1.0
 40
1.0
 10
110.180335438
 20
172.0210886846
 30
0.0
 10
110.180335438
 20
172.1731422958
 30
0.0
 10
110.1573630038
 20
172.4622265713
 30
0.0
 10
110.0401778713
 20
172.8593806056
 30
0.0
 10
109.8431534105
 20
173.181684224
 30
0.0
 10
109.6579426865
 20
173.3372980116
 30
0.0
 10
109.5589934251
 20
173.3944383849
 30
0.0
  0
SPLINE
  5
3B4
100
AcDbEntity
  8
0
100
AcDbSpline
 62
7
  6
CONTINUOUS
 70
0
 71
3
 72
17
 73
13
 74
0
 42
0.0000001
 43
0.0000001
 44
0.0000000001
 40
0.0
 40
0.0
 40
0.0
 40
0.0
 40
0.1286908751
 40
0.27027556
 40
0.4174299496
 40
0.5617767589
 40
0.6954477755
 40
0.8127135225
 40
0.8646767793
 40
0.9125110269
 40
0.9571410396
 40
1.0
 40
1.0
 40
1.0
 40
1.0
 10
87.2701740562
 20
158.385735645
 30
0.0
 10
87.2701740562
 20
158.6336172267
 30
0.0
 10
87.3395183286
 20
159.1548108146
 30
0.0
 10
87.5983449346
 20
159.9200697856
 30
0.0
 10
87.997156449
 20
160.6572735423
 30
0.0
 10
88.5039390331
 20
161.3059579276
 30
0.0
 10
89.0772699589
 20
161.813708023
 30
0.0
 10
89.596183105
 20
162.0974846503
 30
0.0
 10
90.0021194623
 20
162.2054573757
 30
0.0
 10
90.2814956225
 20
162.2260195977
 30
0.0
 10
90.5416508443
 20
162.1879062942
 30
0.0
 10
90.6992446773
 20
162.1223877059
 30
0.0
 10
90.770739882
 20
162.0811130271
 30
0.0
  0
SPLINE
  5
3B5
100
AcDbEntity
  8
0
100
AcDbSpline
 62
7
  6
CONTINUOUS
 70
0
 71
3
 72
12
 73
8
 74
0
 42
0.0000001
 43
0.0000001
 44
0.0000000001
 40
0.0
 40
0.0
 40
0.0
 40
0.0
 40
0.2895709725
 40
0.5486422641
 40
0.7816376893
 40
0.89183982
 40
1.0
 40
1.0
 40
1.0
 40
1.0
 10
91.7956386144
 20
160.9984982298
 30
0.0
 10
91.7956386144
 20
161.1758927971
 30
0.0
 10
91.768749621
 20
161.5131982921
 30
0.0
 10
91.6323862103
 20
161.976377808
 30
0.0
 10
91.4363684853
 20
162.29593766
 30
0.0
 10
91.2384530268
 20
162.4906096194
 30
0.0
 10
91.1281193763
 20
162.5676038466
 30
0.0
 10
91.0707394049
 20
162.6007392049
 30
0.0
  0
SPLINE
  5
3B6
100
AcDbEntity
  8
0
100
AcDbSpline
 62
7
  6
CONTINUOUS
 70
0
 71
3
 72
10
 73
6
 74
0
 42
0.0000001
 43
0.0000001
 44
0.0000000001
 40
0.0
 40
0.0
 40
0.0
 40
0.0
 40
0.5228926002
 40
0.7647292793
 40
1.0
 40
1.0
 40
1.0
 40
1.0
 10
90.6042158442
 20
162.9251567223
 30
0.0
 10
90.5407386098
 20
163.1211228469
 30
0.0
 10
90.4065796866
 20
163.3993967752
 30
0.0
 10
90.1401041324
 20
163.6923605269
 30
0.0
 10
89.9867874183
 20
163.8039034774
 30
0.0
 10
89.9065196919
 20
163.8502427519
 30
0.0
  0
SPLINE
  5
3B7
100
AcDbEntity
  8
0
100
AcDbSpline
 62
7
  6
CONTINUOUS
 70
0
 71
3
 72
11
 73
7
 74
0
 42
0.0000001
 43
0.0000001
 44
0.0000000001
 40
0.0
 40
0.0
 40
0.0
 40
0.0
 40
0.2897925309
 40
0.5490601265
 40
0.782231448
 40
1.0
 40
1.0
 40
1.0
 40
1.0
 10
100.6344336356
 20
166.5097926074
 30
0.0
 10
100.6344336356
 20
166.6618462186
 30
0.0
 10
100.6114612014
 20
166.9509304941
 30
0.0
 10
100.4942760689
 20
167.3480845283
 30
0.0
 10
100.2972516081
 20
167.6703881468
 30
0.0
 10
100.1120408841
 20
167.8260019343
 30
0.0
 10
100.0130916228
 20
167.8831423076
 30
0.0
  0
SPLINE
  5
3B8
100
AcDbEntity
  8
0
100
AcDbSpline
 62
7
  6
CONTINUOUS
 70
0
 71
3
 72
18
 73
14
 74
0
 42
0.0000001
 43
0.0000001
 44
0.0000000001
 40
0.0
 40
0.0
 40
0.0
 40
0.0
 40
0.1286550902
 40
0.2702045902
 40
0.4173197676
 40
0.561629525
 40
0.6952654826
 40
0.7562711427
 40
0.8127619086
 40
0.8647130767
 40
0.9125343952
 40
0.9571517344
 40
1.0
 40
1.0
 40
1.0
 40
1.0
 10
96.3918135563
 20
163.6520852299
 30
0.0
 10
96.3918135563
 20
163.9512489249
 30
0.0
 10
96.475518595
 20
164.5802809637
 30
0.0
 10
96.7878350773
 20
165.5038530629
 30
0.0
 10
97.2693164553
 20
166.3936850736
 30
0.0
 10
97.8805083471
 20
167.1761850216
 30
0.0
 10
98.4752372847
 20
167.7029460095
 30
0.0
 10
98.9744880069
 20
168.0085187156
 30
0.0
 10
99.3361475444
 20
168.1683266454
 30
0.0
 10
99.6889977121
 20
168.2621000368
 30
0.0
 10
100.0261674578
 20
168.2869292542
 30
0.0
 10
100.3401367545
 20
168.2408818285
 30
0.0
 10
100.5303577211
 20
168.1618593847
 30
0.0
 10
100.6166403244
 20
168.112033753
 30
0.0
  0
SPLINE
  5
3B9
100
AcDbEntity
  8
0
100
AcDbSpline
 62
7
  6
CONTINUOUS
 70
0
 71
3
 72
11
 73
7
 74
0
 42
0.0000001
 43
0.0000001
 44
0.0000000001
 40
0.0
 40
0.0
 40
0.0
 40
0.0
 40
0.2848443418
 40
0.5445152259
 40
0.7809897299
 40
1.0
 40
1.0
 40
1.0
 40
1.0
 10
102.2254202133
 20
167.0200994994
 30
0.0
 10
102.2254202133
 20
167.2243293226
 30
0.0
 10
102.198900769
 20
167.6156208811
 30
0.0
 10
102.0668811254
 20
168.1630769743
 30
0.0
 10
101.8460111088
 20
168.6303555866
 30
0.0
 10
101.6354077267
 20
168.8858767464
 30
0.0
 10
101.5192189471
 20
168.9915074264
 30
0.0
  0
SPLINE
  5
3BA
100
AcDbEntity
  8
0
100
AcDbSpline
 62
7
  6
CONTINUOUS
 70
0
 71
3
 72
14
 73
10
 74
0
 42
0.0000001
 43
0.0000001
 44
0.0000000001
 40
0.0
 40
0.0
 40
0.0
 40
0.0
 40
0.2892791457
 40
0.4225450404
 40
0.5484933843
 40
0.6678929979
 40
0.7818680973
 40
0.8919518968
 40
1.0
 40
1.0
 40
1.0
 40
1.0
 10
86.8458911461
 20
155.2829694121
 30
0.0
 10
86.5386282056
 20
155.1055721296
 30
0.0
 10
86.0668985889
 20
154.881047823
 30
0.0
 10
85.4199698278
 20
154.6924168006
 30
0.0
 10
84.9607832524
 20
154.6154098225
 30
0.0
 10
84.5189530768
 20
154.600022008
 30
0.0
 10
84.0986554055
 20
154.6469126043
 30
0.0
 10
83.7043815109
 20
154.755903721
 30
0.0
 10
83.4607279638
 20
154.8700361688
 30
0.0
 10
83.3459622701
 20
154.9362946287
 30
0.0
  0
SPLINE
  5
3BB
100
AcDbEntity
  8
0
100
AcDbSpline
 62
7
  6
CONTINUOUS
 70
0
 71
3
 72
18
 73
14
 74
0
 42
0.0000001
 43
0.0000001
 44
0.0000000001
 40
0.0
 40
0.0
 40
0.0
 40
0.0
 40
0.1286550902
 40
0.2702045902
 40
0.4173197676
 40
0.561629525
 40
0.6952654826
 40
0.7562711427
 40
0.8127619086
 40
0.8647130767
 40
0.9125343952
 40
0.9571517344
 40
1.0
 40
1.0
 40
1.0
 40
1.0
 10
110.8874422192
 20
172.0210903843
 30
0.0
 10
110.8874422192
 20
171.7219266893
 30
0.0
 10
110.8037371804
 20
171.0928946505
 30
0.0
 10
110.4914206982
 20
170.1693225513
 30
0.0
 10
110.0099393202
 20
169.2794905407
 30
0.0
 10
109.3987474283
 20
168.4969905926
 30
0.0
 10
108.8040184908
 20
167.9702296048
 30
0.0
 10
108.3047677686
 20
167.6646568986
 30
0.0
 10
107.9431082311
 20
167.5048489689
 30
0.0
 10
107.5902580633
 20
167.4110755775
 30
0.0
 10
107.2530883177
 20
167.38624636
 30
0.0
 10
106.939119021
 20
167.4322937857
 30
0.0
 10
106.7488980543
 20
167.5113162295
 30
0.0
 10
106.662615451
 20
167.5611418612
 30
0.0
  0
SPLINE
  5
3BC
100
AcDbEntity
  8
0
100
AcDbSpline
 62
7
  6
CONTINUOUS
 70
0
 71
3
 72
10
 73
6
 74
0
 42
0.0000001
 43
0.0000001
 44
0.0000000001
 40
0.0
 40
0.0
 40
0.0
 40
0.0
 40
0.2372719105
 40
0.4801594835
 40
1.0
 40
1.0
 40
1.0
 40
1.0
 10
82.7245983432
 20
158.7590916131
 30
0.0
 10
82.6509023202
 20
158.8016386775
 30
0.0
 10
82.5097322088
 20
158.902474143
 30
0.0
 10
82.260780941
 20
159.1628493625
 30
0.0
 10
82.12817415
 20
159.4091746942
 30
0.0
 10
82.0621876336
 20
159.5835444156
 30
0.0
  0
SPLINE
  5
3BD
100
AcDbEntity
  8
0
100
AcDbSpline
 62
7
  6
CONTINUOUS
 70
0
 71
3
 72
11
 73
7
 74
0
 42
0.0000001
 43
0.0000001
 44
0.0000000001
 40
0.0
 40
0.0
 40
0.0
 40
0.0
 40
0.2177534441
 40
0.4512207062
 40
0.7106191132
 40
1.0
 40
1.0
 40
1.0
 40
1.0
 10
90.7873685632
 20
162.0712908332
 30
0.0
 10
90.8807127108
 20
162.0148917405
 30
0.0
 10
91.0548150295
 20
161.8632801188
 30
0.0
 10
91.2397357189
 20
161.5537581006
 30
0.0
 10
91.3497391869
 20
161.1742450105
 30
0.0
 10
91.3713763121
 20
160.8984851607
 30
0.0
 10
91.3713763121
 20
160.7535517374
 30
0.0
  0
SPLINE
  5
3BE
100
AcDbEntity
  8
0
100
AcDbSpline
 62
7
  6
CONTINUOUS
 70
0
 71
3
 72
21
 73
17
 74
0
 42
0.0000001
 43
0.0000001
 44
0.0000000001
 40
0.0
 40
0.0
 40
0.0
 40
0.0
 40
0.0433837374
 40
0.0871678979
 40
0.133282354
 40
0.183188847
 40
0.2377293062
 40
0.2971636761
 40
0.3612794994
 40
0.4295036082
 40
0.5745812982
 40
0.7240750644
 40
0.797595566
 40
0.8687185818
 40
0.9364700133
 40
1.0
 40
1.0
 40
1.0
 40
1.0
 10
111.0651207495
 20
174.5028035037
 30
0.0
 10
110.9601007429
 20
174.5982803195
 30
0.0
 10
110.7226623218
 20
174.7634872914
 30
0.0
 10
110.306010113
 20
174.9080642506
 30
0.0
 10
109.8456990579
 20
174.9446580087
 30
0.0
 10
109.3547330802
 20
174.87506373
 30
0.0
 10
108.8442098691
 20
174.7032614595
 30
0.0
 10
108.3252110729
 20
174.4342989655
 30
0.0
 10
107.8091176368
 20
174.0747903256
 30
0.0
 10
107.1269068598
 20
173.4737942922
 30
0.0
 10
106.3623404793
 20
172.5559167812
 30
0.0
 10
105.7627185198
 20
171.5040016133
 30
0.0
 10
105.4027758732
 20
170.6102887422
 30
0.0
 10
105.2052652939
 20
169.9428390018
 30
0.0
 10
105.0835918253
 20
169.2907218759
 30
0.0
 10
105.0538355621
 20
168.8609192561
 30
0.0
 10
105.0538355621
 20
168.6530761149
 30
0.0
  0
SPLINE
  5
3BF
100
AcDbEntity
  8
0
100
AcDbSpline
 62
7
  6
CONTINUOUS
 70
0
 71
3
 72
11
 73
7
 74
0
 42
0.0000001
 43
0.0000001
 44
0.0000000001
 40
0.0
 40
0.0
 40
0.0
 40
0.0
 40
0.2238748563
 40
0.4597670349
 40
0.7167994583
 40
1.0
 40
1.0
 40
1.0
 40
1.0
 10
100.0130916228
 20
167.8831423076
 30
0.0
 10
99.9280099801
 20
167.9322745271
 30
0.0
 10
99.7370091654
 20
168.0071603668
 30
0.0
 10
99.4203094462
 20
168.0361152603
 30
0.0
 10
99.0808429597
 20
167.9851486016
 30
0.0
 10
98.8565003754
 20
167.9040831943
 30
0.0
 10
98.7432196753
 20
167.8529548585
 30
0.0
  0
SPLINE
  5
3C0
100
AcDbEntity
  8
0
100
AcDbSpline
 62
7
  6
CONTINUOUS
 70
0
 71
3
 72
34
 73
30
 74
0
 42
0.0000001
 43
0.0000001
 44
0.0000000001
 40
0.0
 40
0.0
 40
0.0
 40
0.0
 40
0.0838824857
 40
0.1682020794
 40
0.2530094578
 40
0.338351252
 40
0.424245734
 40
0.5106056672
 40
0.5538500429
 40
0.5969759144
 40
0.6397062925
 40
0.6814812003
 40
0.7211795121
 40
0.7567530885
 40
0.7853979971
 40
0.796473185
 40
0.8053795226
 40
0.8123950779
 40
0.8179907196
 40
0.8227711863
 40
0.8273452804
 40
0.83215739
 40
0.8374385347
 40
0.8496309951
 40
0.863920982
 40
0.8799873531
 40
0.9162616
 40
0.9566462567
 40
1.0
 40
1.0
 40
1.0
 40
1.0
 10
105.1569253202
 20
177.2862871011
 30
0.0
 10
105.2981294319
 20
177.222095553
 30
0.0
 10
105.5815381765
 20
177.0939589707
 30
0.0
 10
106.0087837005
 20
176.9033127394
 30
0.0
 10
106.4396417557
 20
176.7141582745
 30
0.0
 10
106.8746000305
 20
176.5271259535
 30
0.0
 10
107.3140440768
 20
176.3433106724
 30
0.0
 10
107.6837369033
 20
176.1945300177
 30
0.0
 10
107.9818227462
 20
176.0797844287
 30
0.0
 10
108.2057118756
 20
175.996917854
 30
0.0
 10
108.4284183407
 20
175.9187543788
 30
0.0
 10
108.6468605416
 20
175.8477607852
 30
0.0
 10
108.854908738
 20
175.7877732781
 30
0.0
 10
109.042137947
 20
175.7443250447
 30
0.0
 10
109.1803936607
 20
175.7243137344
 30
0.0
 10
109.2704606569
 20
175.723468809
 30
0.0
 10
109.320231446
 20
175.7291760482
 30
0.0
 10
109.3586279877
 20
175.7406570934
 30
0.0
 10
109.3865358219
 20
175.7575917323
 30
0.0
 10
109.40438368
 20
175.7794908539
 30
0.0
 10
109.4127802864
 20
175.8048202748
 30
0.0
 10
109.4135294478
 20
175.8322071363
 30
0.0
 10
109.4060149435
 20
175.8729303058
 30
0.0
 10
109.3827732903
 20
175.9274483717
 30
0.0
 10
109.3418070123
 20
175.9947100091
 30
0.0
 10
109.2684849779
 20
176.0938917141
 30
0.0
 10
109.1546223366
 20
176.2223983159
 30
0.0
 10
108.9980529187
 20
176.3797297313
 30
0.0
 10
108.8847485995
 20
176.4853210747
 30
0.0
 10
108.8254353408
 20
176.5392532678
 30
0.0
  0
SPLINE
  5
3C1
100
AcDbEntity
  8
0
100
AcDbSpline
 62
7
  6
CONTINUOUS
 70
0
 71
3
 72
26
 73
22
 74
0
 42
0.0000001
 43
0.0000001
 44
0.0000000001
 40
0.0
 40
0.0
 40
0.0
 40
0.0
 40
0.1263424991
 40
0.1900754286
 40
0.2543331486
 40
0.3193079975
 40
0.3853153705
 40
0.4528878535
 40
0.4875412094
 40
0.5228371935
 40
0.5584520379
 40
0.5932971172
 40
0.6262531979
 40
0.6573835621
 40
0.6873245809
 40
0.716572025
 40
0.7739739936
 40
0.8307489773
 40
0.8872599967
 40
0.943654623
 40
1.0
 40
1.0
 40
1.0
 40
1.0
 10
100.7725901436
 20
173.2777174662
 30
0.0
 10
101.1357538603
 20
173.2227987431
 30
0.0
 10
101.6836437481
 20
173.1493219788
 30
0.0
 10
102.4198109671
 20
173.0794740584
 30
0.0
 10
102.9798741361
 20
173.0453429579
 30
0.0
 10
103.5476965842
 20
173.0365132765
 30
0.0
 10
104.1246284319
 20
173.0649766689
 30
0.0
 10
104.6100191085
 20
173.1379371694
 30
0.0
 10
104.9945980672
 20
173.2498653618
 30
0.0
 10
105.2767293572
 20
173.3736599176
 30
0.0
 10
105.532121227
 20
173.549609296
 30
0.0
 10
105.728895418
 20
173.7827813243
 30
0.0
 10
105.8424714852
 20
174.0512917635
 30
0.0
 10
105.883029459
 20
174.3237232378
 30
0.0
 10
105.8740861958
 20
174.5871334232
 30
0.0
 10
105.818762351
 20
174.9221889427
 30
0.0
 10
105.6938898061
 20
175.3217738957
 30
0.0
 10
105.4950597599
 20
175.7769111867
 30
0.0
 10
105.2653589506
 20
176.2138182756
 30
0.0
 10
105.0143574184
 20
176.6371772654
 30
0.0
 10
104.8365080955
 20
176.9125609614
 30
0.0
 10
104.745605944
 20
177.0488259105
 30
0.0
  0
SPLINE
  5
3C2
100
AcDbEntity
  8
0
100
AcDbSpline
 62
7
  6
CONTINUOUS
 70
0
 71
3
 72
12
 73
8
 74
0
 42
0.0000001
 43
0.0000001
 44
0.0000000001
 40
0.0
 40
0.0
 40
0.0
 40
0.0
 40
0.1081592661
 40
0.2183613031
 40
0.4513561008
 40
0.7104298246
 40
1.0
 40
1.0
 40
1.0
 40
1.0
 10
100.6166403244
 20
168.112033753
 30
0.0
 10
100.6740198418
 20
168.0788987919
 30
0.0
 10
100.7843546347
 20
168.001907193
 30
0.0
 10
100.9822660248
 20
167.8072325691
 30
0.0
 10
101.1782885839
 20
167.4876754915
 30
0.0
 10
101.3146502364
 20
167.0244942194
 30
0.0
 10
101.3415404168
 20
166.6871883004
 30
0.0
 10
101.3415404168
 20
166.509794307
 30
0.0
  0
SPLINE
  5
3C3
100
AcDbEntity
  8
0
100
AcDbSpline
 62
7
  6
CONTINUOUS
 70
0
 71
3
 72
12
 73
8
 74
0
 42
0.0000001
 43
0.0000001
 44
0.0000000001
 40
0.0
 40
0.0
 40
0.0
 40
0.0
 40
0.1081592661
 40
0.2183613031
 40
0.4513561008
 40
0.7104298246
 40
1.0
 40
1.0
 40
1.0
 40
1.0
 10
110.1625421268
 20
173.6233298303
 30
0.0
 10
110.2199216442
 20
173.5901948692
 30
0.0
 10
110.3302564371
 20
173.5132032702
 30
0.0
 10
110.5281678272
 20
173.3185286464
 30
0.0
 10
110.7241903863
 20
172.9989715688
 30
0.0
 10
110.8605520388
 20
172.5357902966
 30
0.0
 10
110.8874422192
 20
172.1984843777
 30
0.0
 10
110.8874422192
 20
172.0210903843
 30
0.0
  0
SPLINE
  5
3C4
100
AcDbEntity
  8
0
100
AcDbSpline
 62
7
  6
CONTINUOUS
 70
0
 71
3
 72
11
 73
7
 74
0
 42
0.0000001
 43
0.0000001
 44
0.0000000001
 40
0.0
 40
0.0
 40
0.0
 40
0.0
 40
0.2238748563
 40
0.4597670349
 40
0.7167994583
 40
1.0
 40
1.0
 40
1.0
 40
1.0
 10
109.5589934251
 20
173.3944383849
 30
0.0
 10
109.4739117825
 20
173.4435706044
 30
0.0
 10
109.2829109678
 20
173.5184564441
 30
0.0
 10
108.9662112485
 20
173.5474113376
 30
0.0
 10
108.626744762
 20
173.4964446788
 30
0.0
 10
108.4024021778
 20
173.4153792715
 30
0.0
 10
108.2891214777
 20
173.3642509358
 30
0.0
  0
SPLINE
  5
3C5
100
AcDbEntity
  8
0
100
AcDbSpline
 62
7
  6
CONTINUOUS
 70
0
 71
3
 72
9
 73
5
 74
0
 42
0.0000001
 43
0.0000001
 44
0.0000000001
 40
0.0
 40
0.0
 40
0.0
 40
0.0
 40
0.2547243066
 40
1.0
 40
1.0
 40
1.0
 40
1.0
 10
105.9451790709
 20
169.3708935101
 30
0.0
 10
105.9465322282
 20
169.353095929
 30
0.0
 10
105.9525958542
 20
169.2832862145
 30
0.0
 10
105.9617147041
 20
169.2137332385
 30
0.0
 10
105.9703960521
 20
169.1622371919
 30
0.0
  0
SPLINE
  5
3C6
100
AcDbEntity
  8
0
100
AcDbSpline
 62
7
  6
CONTINUOUS
 70
0
 71
3
 72
11
 73
7
 74
0
 42
0.0000001
 43
0.0000001
 44
0.0000000001
 40
0.0
 40
0.0
 40
0.0
 40
0.0
 40
0.2765802428
 40
0.5317166743
 40
0.7704016399
 40
1.0
 40
1.0
 40
1.0
 40
1.0
 10
105.9842424417
 20
169.0882626697
 30
0.0
 10
106.0045486769
 20
168.9898313335
 30
0.0
 10
106.0578607641
 20
168.8030050635
 30
0.0
 10
106.1835441507
 20
168.5508130465
 30
0.0
 10
106.3496900077
 20
168.3442353335
 30
0.0
 10
106.4868042057
 20
168.2399965014
 30
0.0
 10
106.5590544275
 20
168.1982740611
 30
0.0
  0
SPLINE
  5
3C7
100
AcDbEntity
  8
0
100
AcDbSpline
 62
7
  6
CONTINUOUS
 70
0
 71
3
 72
9
 73
5
 74
0
 42
0.0000001
 43
0.0000001
 44
0.0000000001
 40
0.0
 40
0.0
 40
0.0
 40
0.0
 40
0.2556422403
 40
1.0
 40
1.0
 40
1.0
 40
1.0
 10
107.301226419
 20
177.7062005652
 30
0.0
 10
107.2951395227
 20
177.7514606822
 30
0.0
 10
107.2690229014
 20
177.9281829382
 30
0.0
 10
107.2334596647
 20
178.1035455846
 30
0.0
 10
107.2011666517
 20
178.2325357674
 30
0.0
  0
SPLINE
  5
3C8
100
AcDbEntity
  8
0
100
AcDbSpline
 62
7
  6
CONTINUOUS
 70
0
 71
3
 72
17
 73
13
 74
0
 42
0.0000001
 43
0.0000001
 44
0.0000000001
 40
0.0
 40
0.0
 40
0.0
 40
0.0
 40
0.1286908751
 40
0.27027556
 40
0.4174299496
 40
0.5617767589
 40
0.6954477755
 40
0.8127135225
 40
0.8646767793
 40
0.9125110269
 40
0.9571410396
 40
1.0
 40
1.0
 40
1.0
 40
1.0
 10
91.3713763121
 20
160.7535517374
 30
0.0
 10
91.3713763121
 20
160.5056701557
 30
0.0
 10
91.3020320397
 20
159.9844765678
 30
0.0
 10
91.0432054337
 20
159.2192175968
 30
0.0
 10
90.6443939193
 20
158.4820138402
 30
0.0
 10
90.1376113351
 20
157.8333294549
 30
0.0
 10
89.5642804093
 20
157.3255793594
 30
0.0
 10
89.0453672633
 20
157.0418027321
 30
0.0
 10
88.6394309059
 20
156.9338300067
 30
0.0
 10
88.3600547458
 20
156.9132677847
 30
0.0
 10
88.099899524
 20
156.9513810883
 30
0.0
 10
87.942305691
 20
157.0168996765
 30
0.0
 10
87.8708104863
 20
157.0581743554
 30
0.0
  0
SPLINE
  5
3C9
100
AcDbEntity
  8
0
100
AcDbSpline
 62
7
  6
CONTINUOUS
 70
0
 71
3
 72
18
 73
14
 74
0
 42
0.0000001
 43
0.0000001
 44
0.0000000001
 40
0.0
 40
0.0
 40
0.0
 40
0.0
 40
0.0428480947
 40
0.0874655739
 40
0.1352871954
 40
0.1872387214
 40
0.2437295447
 40
0.304734779
 40
0.438368641
 40
0.5826760382
 40
0.7297915758
 40
0.8713430344
 40
1.0
 40
1.0
 40
1.0
 40
1.0
 10
91.0707394049
 20
162.6007392049
 30
0.0
 10
90.9844572324
 20
162.650564791
 30
0.0
 10
90.7942355211
 20
162.7295855638
 30
0.0
 10
90.480265846
 20
162.7756325903
 30
0.0
 10
90.1430939898
 20
162.7508051207
 30
0.0
 10
89.7902425339
 20
162.6570294226
 30
0.0
 10
89.4285835667
 20
162.4972205745
 30
0.0
 10
88.9293374326
 20
162.191651317
 30
0.0
 10
88.3346173494
 20
161.6648978547
 30
0.0
 10
87.7234269303
 20
160.8824089819
 30
0.0
 10
87.2419442337
 20
159.9925777454
 30
0.0
 10
86.9296189437
 20
159.0689983379
 30
0.0
 10
86.8459117539
 20
158.4399572128
 30
0.0
 10
86.8459117539
 20
158.1407891527
 30
0.0
  0
SPLINE
  5
3CA
100
AcDbEntity
  8
0
100
AcDbSpline
 62
7
  6
CONTINUOUS
 70
0
 71
3
 72
12
 73
8
 74
0
 42
0.0000001
 43
0.0000001
 44
0.0000000001
 40
0.0
 40
0.0
 40
0.0
 40
0.0
 40
0.2895709725
 40
0.5486422641
 40
0.7816376893
 40
0.89183982
 40
1.0
 40
1.0
 40
1.0
 40
1.0
 10
86.8459117539
 20
158.1407891527
 30
0.0
 10
86.8459117539
 20
157.9633945853
 30
0.0
 10
86.8728007472
 20
157.6260890903
 30
0.0
 10
87.009164158
 20
157.1629095744
 30
0.0
 10
87.205181883
 20
156.8433497224
 30
0.0
 10
87.4030973414
 20
156.6486777631
 30
0.0
 10
87.5134309919
 20
156.5716835358
 30
0.0
 10
87.5708109634
 20
156.5385481775
 30
0.0
  0
SPLINE
  5
3CB
100
AcDbEntity
  8
0
100
AcDbSpline
 62
7
  6
CONTINUOUS
 70
0
 71
3
 72
18
 73
14
 74
0
 42
0.0000001
 43
0.0000001
 44
0.0000000001
 40
0.0
 40
0.0
 40
0.0
 40
0.0
 40
0.1286550902
 40
0.2702045902
 40
0.4173197676
 40
0.561629525
 40
0.6952654826
 40
0.7562711427
 40
0.8127619086
 40
0.8647130767
 40
0.9125343952
 40
0.9571517344
 40
1.0
 40
1.0
 40
1.0
 40
1.0
 10
85.4316923036
 20
158.9572706617
 30
0.0
 10
85.4316923036
 20
159.2564343567
 30
0.0
 10
85.5153973424
 20
159.8854663955
 30
0.0
 10
85.8277138246
 20
160.8090384947
 30
0.0
 10
86.3091952026
 20
161.6988705053
 30
0.0
 10
86.9203870945
 20
162.4813704534
 30
0.0
 10
87.515116032
 20
163.0081314412
 30
0.0
 10
88.0143667542
 20
163.3137041474
 30
0.0
 10
88.3760262917
 20
163.4735120771
 30
0.0
 10
88.7288764594
 20
163.5672854685
 30
0.0
 10
89.0660462051
 20
163.592114686
 30
0.0
 10
89.3800155018
 20
163.5460672603
 30
0.0
 10
89.5702364684
 20
163.4670448165
 30
0.0
 10
89.6565190717
 20
163.4172191848
 30
0.0
  0
SPLINE
  5
3CC
100
AcDbEntity
  8
0
100
AcDbSpline
 62
7
  6
CONTINUOUS
 70
0
 71
3
 72
21
 73
17
 74
0
 42
0.0000001
 43
0.0000001
 44
0.0000000001
 40
0.0
 40
0.0
 40
0.0
 40
0.0
 40
0.0433837374
 40
0.0871678979
 40
0.133282354
 40
0.183188847
 40
0.2377293062
 40
0.2971636761
 40
0.3612794994
 40
0.4295036082
 40
0.5745812982
 40
0.7240750644
 40
0.797595566
 40
0.8687185818
 40
0.9364700133
 40
1.0
 40
1.0
 40
1.0
 40
1.0
 10
101.5192189471
 20
168.9915074264
 30
0.0
 10
101.4141989405
 20
169.0869842422
 30
0.0
 10
101.1767605194
 20
169.2521912141
 30
0.0
 10
100.7601083106
 20
169.3967681734
 30
0.0
 10
100.2997972555
 20
169.4333619315
 30
0.0
 10
99.8088312778
 20
169.3637676528
 30
0.0
 10
99.2983080667
 20
169.1919653822
 30
0.0
 10
98.7793092705
 20
168.9230028882
 30
0.0
 10
98.2632158344
 20
168.5634942484
 30
0.0
 10
97.5810050574
 20
167.962498215
 30
0.0
 10
96.8164386769
 20
167.0446207039
 30
0.0
 10
96.2168167174
 20
165.992705536
 30
0.0
 10
95.8568740708
 20
165.098992665
 30
0.0
 10
95.6593634915
 20
164.4315429245
 30
0.0
 10
95.5376900229
 20
163.7794257987
 30
0.0
 10
95.5079337598
 20
163.3496231788
 30
0.0
 10
95.5079337598
 20
163.1417800376
 30
0.0
  0
SPLINE
  5
3CD
100
AcDbEntity
  8
0
100
AcDbSpline
 62
7
  6
CONTINUOUS
 70
0
 71
3
 72
12
 73
8
 74
0
 42
0.0000001
 43
0.0000001
 44
0.0000000001
 40
0.0
 40
0.0
 40
0.0
 40
0.0
 40
0.2895819939
 40
0.5486373114
 40
0.7816405751
 40
0.8918400761
 40
1.0
 40
1.0
 40
1.0
 40
1.0
 10
85.078140385
 20
158.7531485848
 30
0.0
 10
85.078140385
 20
158.5504038395
 30
0.0
 10
85.1088582054
 20
158.1649098985
 30
0.0
 10
85.2647320081
 20
157.6355754022
 30
0.0
 10
85.4887113816
 20
157.2703384441
 30
0.0
 10
85.7149359947
 20
157.0478901028
 30
0.0
 10
85.8410100512
 20
156.9598685632
 30
0.0
 10
85.9065917758
 20
156.9220076486
 30
0.0
  0
SPLINE
  5
3CE
100
AcDbEntity
  8
0
100
AcDbSpline
 62
7
  6
CONTINUOUS
 70
0
 71
3
 72
9
 73
5
 74
0
 42
0.0000001
 43
0.0000001
 44
0.0000000001
 40
0.0
 40
0.0
 40
0.0
 40
0.0
 40
0.2372766727
 40
1.0
 40
1.0
 40
1.0
 40
1.0
 10
82.0804711539
 20
156.7933556782
 30
0.0
 10
82.1826172507
 20
156.8220716165
 30
0.0
 10
82.6086740393
 20
156.9587913921
 30
0.0
 10
83.0149617727
 20
157.1536360485
 30
0.0
 10
83.3103425204
 20
157.3241731847
 30
0.0
  0
SPLINE
  5
3CF
100
AcDbEntity
  8
0
100
AcDbSpline
 62
7
  6
CONTINUOUS
 70
0
 71
3
 72
12
 73
8
 74
0
 42
0.0000001
 43
0.0000001
 44
0.0000000001
 40
0.0
 40
0.0
 40
0.0
 40
0.0
 40
0.1081592661
 40
0.2183613031
 40
0.4513561008
 40
0.7104298246
 40
1.0
 40
1.0
 40
1.0
 40
1.0
 10
86.156592396
 20
157.3550312157
 30
0.0
 10
86.0992128786
 20
157.3881661768
 30
0.0
 10
85.9888780857
 20
157.4651577758
 30
0.0
 10
85.7909666956
 20
157.6598323996
 30
0.0
 10
85.5949441365
 20
157.9793894772
 30
0.0
 10
85.4585824839
 20
158.4425707493
 30
0.0
 10
85.4316923036
 20
158.7798766683
 30
0.0
 10
85.4316923036
 20
158.9572706617
 30
0.0
  0
SPLINE
  5
3D0
100
AcDbEntity
  8
0
100
AcDbSpline
 62
7
  6
CONTINUOUS
 70
0
 71
3
 72
10
 73
6
 74
0
 42
0.0000001
 43
0.0000001
 44
0.0000000001
 40
0.0
 40
0.0
 40
0.0
 40
0.0
 40
0.5183517103
 40
0.7617532443
 40
1.0
 40
1.0
 40
1.0
 40
1.0
 10
85.7312713651
 20
165.8565507495
 30
0.0
 10
85.9065049164
 20
165.8806671718
 30
0.0
 10
86.1719755391
 20
165.882538852
 30
0.0
 10
86.5037878005
 20
165.7971396607
 30
0.0
 10
86.654116591
 20
165.7279749433
 30
0.0
 10
86.7245255982
 20
165.6873255781
 30
0.0
  0
SPLINE
  5
3D1
100
AcDbEntity
  8
0
100
AcDbSpline
 62
7
  6
CONTINUOUS
 70
0
 71
3
 72
14
 73
10
 74
0
 42
0.0000001
 43
0.0000001
 44
0.0000000001
 40
0.0
 40
0.0
 40
0.0
 40
0.0
 40
0.1075120476
 40
0.2171452506
 40
0.3308173445
 40
0.4501043346
 40
0.5761604565
 40
0.7097137379
 40
1.0
 40
1.0
 40
1.0
 40
1.0
 10
109.4376236269
 20
178.0832701899
 30
0.0
 10
109.555078525
 20
178.0154591532
 30
0.0
 10
109.7807582223
 20
177.8573397419
 30
0.0
 10
110.0777682512
 20
177.5615447495
 30
0.0
 10
110.3319051635
 20
177.2098115031
 30
0.0
 10
110.5406710438
 20
176.8062442006
 30
0.0
 10
110.7024126127
 20
176.3550902763
 30
0.0
 10
110.8578954478
 20
175.6778205949
 30
0.0
 10
110.8923453004
 20
175.1398758788
 30
0.0
 10
110.8865855342
 20
174.7737304704
 30
0.0
  0
SPLINE
  5
3D2
100
AcDbEntity
  8
0
100
AcDbSpline
 62
7
  6
CONTINUOUS
 70
0
 71
3
 72
16
 73
12
 74
0
 42
0.0000001
 43
0.0000001
 44
0.0000000001
 40
0.0
 40
0.0
 40
0.0
 40
0.0
 40
0.2450113438
 40
0.3689267636
 40
0.4940956562
 40
0.6208476679
 40
0.7494898734
 40
0.8144554983
 40
0.8793302285
 40
0.9425038301
 40
1.0
 40
1.0
 40
1.0
 40
1.0
 10
100.7725901436
 20
173.2777174662
 30
0.0
 10
101.0783468949
 20
172.9766852247
 30
0.0
 10
101.5334297762
 20
172.5178740435
 30
0.0
 10
102.1249845824
 20
171.8863022703
 30
0.0
 10
102.5624492367
 20
171.3943797506
 30
0.0
 10
102.9869451739
 20
170.8804105599
 30
0.0
 10
103.3201081475
 20
170.4282112059
 30
0.0
 10
103.560740266
 20
170.0445257491
 30
0.0
 10
103.7187781719
 20
169.7451055964
 30
0.0
 10
103.8368796367
 20
169.4416106972
 30
0.0
 10
103.8745049707
 20
169.2305176886
 30
0.0
 10
103.8745049707
 20
169.1298271687
 30
0.0
  0
SPLINE
  5
3D3
100
AcDbEntity
  8
0
100
AcDbSpline
 62
7
  6
CONTINUOUS
 70
0
 71
3
 72
18
 73
14
 74
0
 42
0.0000001
 43
0.0000001
 44
0.0000000001
 40
0.0
 40
0.0
 40
0.0
 40
0.0
 40
0.1295224177
 40
0.2569741219
 40
0.3819256571
 40
0.5038732451
 40
0.6223962036
 40
0.680528313
 40
0.7382767078
 40
0.7965501743
 40
0.8572976469
 40
0.9238829062
 40
1.0
 40
1.0
 40
1.0
 40
1.0
 10
101.9282154927
 20
168.4115821068
 30
0.0
 10
102.0281290956
 20
168.4033668046
 30
0.0
 10
102.2266511369
 20
168.3902889423
 30
0.0
 10
102.5222853719
 20
168.3833543133
 30
0.0
 10
102.8121084234
 20
168.3929261034
 30
0.0
 10
103.0934874674
 20
168.4246399877
 30
0.0
 10
103.319550409
 20
168.4776093057
 30
0.0
 10
103.4885757754
 20
168.5445498241
 30
0.0
 10
103.6068134845
 20
168.6103136717
 30
0.0
 10
103.7137820312
 20
168.6970508511
 30
0.0
 10
103.8029001841
 20
168.8117338315
 30
0.0
 10
103.8626744282
 20
168.9596518888
 30
0.0
 10
103.8745049707
 20
169.0709122852
 30
0.0
 10
103.8745049707
 20
169.1298271687
 30
0.0
  0
SPLINE
  5
3D4
100
AcDbEntity
  8
0
100
AcDbSpline
 62
7
  6
CONTINUOUS
 70
0
 71
3
 72
18
 73
14
 74
0
 42
0.0000001
 43
0.0000001
 44
0.0000000001
 40
0.0
 40
0.0
 40
0.0
 40
0.0
 40
0.0428487902
 40
0.0874668805
 40
0.1352879169
 40
0.1872385004
 40
0.2437306642
 40
0.3047366468
 40
0.4383695117
 40
0.5826771303
 40
0.7297921214
 40
0.8713447434
 40
1.0
 40
1.0
 40
1.0
 40
1.0
 10
89.9065196919
 20
163.8502427519
 30
0.0
 10
89.8079028163
 20
163.907175154
 30
0.0
 10
89.5905167928
 20
163.997516742
 30
0.0
 10
89.2316804709
 20
164.0500942714
 30
0.0
 10
88.8463483578
 20
164.0217337944
 30
0.0
 10
88.4430793123
 20
163.9145904368
 30
0.0
 10
88.0297600049
 20
163.7319272213
 30
0.0
 10
87.459204066
 20
163.3826852315
 30
0.0
 10
86.7794916083
 20
162.7807162314
 30
0.0
 10
86.0810258648
 20
161.886414509
 30
0.0
 10
85.5307297462
 20
160.869479374
 30
0.0
 10
85.1738097234
 20
159.8139520769
 30
0.0
 10
85.078140385
 20
159.0950507116
 30
0.0
 10
85.078140385
 20
158.7531485848
 30
0.0
  0
SPLINE
  5
3D5
100
AcDbEntity
  8
0
100
AcDbSpline
 62
7
  6
CONTINUOUS
 70
0
 71
3
 72
9
 73
5
 74
0
 42
0.0000001
 43
0.0000001
 44
0.0000000001
 40
0.0
 40
0.0
 40
0.0
 40
0.0
 40
0.2547243066
 40
1.0
 40
1.0
 40
1.0
 40
1.0
 10
96.3992772685
 20
163.8595974328
 30
0.0
 10
96.4006304258
 20
163.8417998518
 30
0.0
 10
96.4066940519
 20
163.7719901372
 30
0.0
 10
96.4158129017
 20
163.7024371612
 30
0.0
 10
96.4244942497
 20
163.6509411146
 30
0.0
  0
SPLINE
  5
3D6
100
AcDbEntity
  8
0
100
AcDbSpline
 62
7
  6
CONTINUOUS
 70
0
 71
3
 72
11
 73
7
 74
0
 42
0.0000001
 43
0.0000001
 44
0.0000000001
 40
0.0
 40
0.0
 40
0.0
 40
0.0
 40
0.2765802428
 40
0.5317166743
 40
0.7704016399
 40
1.0
 40
1.0
 40
1.0
 40
1.0
 10
96.4383406393
 20
163.5769665924
 30
0.0
 10
96.4586468745
 20
163.4785352562
 30
0.0
 10
96.5119589617
 20
163.2917089862
 30
0.0
 10
96.6376423483
 20
163.0395169692
 30
0.0
 10
96.8037882053
 20
162.8329392562
 30
0.0
 10
96.9409024033
 20
162.7287004242
 30
0.0
 10
97.0131526252
 20
162.6869779838
 30
0.0
  0
SPLINE
  5
3D7
100
AcDbEntity
  8
0
100
AcDbSpline
 62
7
  6
CONTINUOUS
 70
0
 71
3
 72
14
 73
10
 74
0
 42
0.0000001
 43
0.0000001
 44
0.0000000001
 40
0.0
 40
0.0
 40
0.0
 40
0.0
 40
0.2921644645
 40
0.4249366609
 40
0.5494353046
 40
0.6670097899
 40
0.7795847644
 40
0.8896513228
 40
1.0
 40
1.0
 40
1.0
 40
1.0
 10
105.0538355621
 20
168.6530761149
 30
0.0
 10
105.0538355621
 20
168.3765110199
 30
0.0
 10
105.0906713595
 20
167.9713770311
 30
0.0
 10
105.2366959045
 20
167.470803051
 30
0.0
 10
105.384470218
 20
167.1466400915
 30
0.0
 10
105.5723186237
 20
166.8664130374
 30
0.0
 10
105.7984057371
 20
166.6343416063
 30
0.0
 10
106.0595003991
 20
166.4542271588
 30
0.0
 10
106.2527869713
 20
166.3715503332
 30
0.0
 10
106.3522855175
 20
166.339749674
 30
0.0
  0
SPLINE
  5
3D8
100
AcDbEntity
  8
0
100
AcDbSpline
 62
7
  6
CONTINUOUS
 70
0
 71
3
 72
18
 73
14
 74
0
 42
0.0000001
 43
0.0000001
 44
0.0000000001
 40
0.0
 40
0.0
 40
0.0
 40
0.0
 40
0.1286550902
 40
0.2702045902
 40
0.4173197676
 40
0.561629525
 40
0.6952654826
 40
0.7562711427
 40
0.8127619086
 40
0.8647130767
 40
0.9125343952
 40
0.9571517344
 40
1.0
 40
1.0
 40
1.0
 40
1.0
 10
101.3415404168
 20
166.509794307
 30
0.0
 10
101.3415404168
 20
166.210630612
 30
0.0
 10
101.257835378
 20
165.5815985733
 30
0.0
 10
100.9455188958
 20
164.6580264741
 30
0.0
 10
100.4640375178
 20
163.7681944634
 30
0.0
 10
99.8528456259
 20
162.9856945154
 30
0.0
 10
99.2581166884
 20
162.4589335275
 30
0.0
 10
98.7588659662
 20
162.1533608213
 30
0.0
 10
98.3972064287
 20
161.9935528916
 30
0.0
 10
98.0443562609
 20
161.8997795002
 30
0.0
 10
97.7071865153
 20
161.8749502827
 30
0.0
 10
97.3932172186
 20
161.9209977084
 30
0.0
 10
97.2029962519
 20
162.0000201522
 30
0.0
 10
97.1167136486
 20
162.049845784
 30
0.0
  0
SPLINE
  5
3D9
100
AcDbEntity
  8
0
100
AcDbSpline
 62
7
  6
CONTINUOUS
 70
0
 71
3
 72
12
 73
8
 74
0
 42
0.0000001
 43
0.0000001
 44
0.0000000001
 40
0.0
 40
0.0
 40
0.0
 40
0.0
 40
0.2895821567
 40
0.5486359363
 40
0.7816376878
 40
0.8918387163
 40
1.0
 40
1.0
 40
1.0
 40
1.0
 10
79.5627216228
 20
148.7918478593
 30
0.0
 10
79.5627216228
 20
148.5485542999
 30
0.0
 10
79.5995834477
 20
148.0859630357
 30
0.0
 10
79.7866330582
 20
147.4507658782
 30
0.0
 10
80.055404686
 20
147.0124810332
 30
0.0
 10
80.3268775525
 20
146.7455452843
 30
0.0
 10
80.4781668514
 20
146.6399167325
 30
0.0
 10
80.5568648595
 20
146.5944814465
 30
0.0
  0
SPLINE
  5
3DA
100
AcDbEntity
  8
0
100
AcDbSpline
 62
7
  6
CONTINUOUS
 70
0
 71
3
 72
14
 73
10
 74
0
 42
0.0000001
 43
0.0000001
 44
0.0000000001
 40
0.0
 40
0.0
 40
0.0
 40
0.0
 40
0.2921644645
 40
0.4249366609
 40
0.5494353046
 40
0.6670097899
 40
0.7795847644
 40
0.8896513228
 40
1.0
 40
1.0
 40
1.0
 40
1.0
 10
95.5079337598
 20
163.1417800376
 30
0.0
 10
95.5079337598
 20
162.8652149427
 30
0.0
 10
95.5447695571
 20
162.4600809539
 30
0.0
 10
95.6907941021
 20
161.9595069737
 30
0.0
 10
95.8385684156
 20
161.6353440142
 30
0.0
 10
96.0264168213
 20
161.3551169601
 30
0.0
 10
96.2525039347
 20
161.123045529
 30
0.0
 10
96.5135985967
 20
160.9429310816
 30
0.0
 10
96.7068851689
 20
160.8602542559
 30
0.0
 10
96.8063837152
 20
160.8284535967
 30
0.0
  0
SPLINE
  5
3DB
100
AcDbEntity
  8
0
100
AcDbSpline
 62
7
  6
CONTINUOUS
 70
0
 71
3
 72
34
 73
30
 74
0
 42
0.0000001
 43
0.0000001
 44
0.0000000001
 40
0.0
 40
0.0
 40
0.0
 40
0.0
 40
0.0838824857
 40
0.1682020794
 40
0.2530094578
 40
0.338351252
 40
0.424245734
 40
0.5106056672
 40
0.5538500429
 40
0.5969759144
 40
0.6397062925
 40
0.6814812003
 40
0.7211795121
 40
0.7567530885
 40
0.7853979971
 40
0.796473185
 40
0.8053795226
 40
0.8123950779
 40
0.8179907196
 40
0.8227711863
 40
0.8273452804
 40
0.83215739
 40
0.8374385347
 40
0.8496309951
 40
0.863920982
 40
0.8799873531
 40
0.9162616
 40
0.9566462567
 40
1.0
 40
1.0
 40
1.0
 40
1.0
 10
95.6110235178
 20
171.7749910238
 30
0.0
 10
95.7522276295
 20
171.7107994757
 30
0.0
 10
96.0356363741
 20
171.5826628934
 30
0.0
 10
96.4628818981
 20
171.3920166621
 30
0.0
 10
96.8937399533
 20
171.2028621972
 30
0.0
 10
97.3286982281
 20
171.0158298762
 30
0.0
 10
97.7681422744
 20
170.8320145951
 30
0.0
 10
98.1378351009
 20
170.6832339404
 30
0.0
 10
98.4359209439
 20
170.5684883514
 30
0.0
 10
98.6598100732
 20
170.4856217767
 30
0.0
 10
98.8825165383
 20
170.4074583016
 30
0.0
 10
99.1009587392
 20
170.336464708
 30
0.0
 10
99.3090069356
 20
170.2764772008
 30
0.0
 10
99.4962361446
 20
170.2330289674
 30
0.0
 10
99.6344918584
 20
170.2130176572
 30
0.0
 10
99.7245588546
 20
170.2121727318
 30
0.0
 10
99.7743296436
 20
170.2178799709
 30
0.0
 10
99.8127261853
 20
170.2293610161
 30
0.0
 10
99.8406340195
 20
170.2462956551
 30
0.0
 10
99.8584818776
 20
170.2681947766
 30
0.0
 10
99.866878484
 20
170.2935241976
 30
0.0
 10
99.8676276454
 20
170.3209110591
 30
0.0
 10
99.8601131412
 20
170.3616342286
 30
0.0
 10
99.8368714879
 20
170.4161522944
 30
0.0
 10
99.7959052099
 20
170.4834139318
 30
0.0
 10
99.7225831755
 20
170.5825956368
 30
0.0
 10
99.6087205342
 20
170.7111022386
 30
0.0
 10
99.4521511163
 20
170.868433654
 30
0.0
 10
99.3388467971
 20
170.9740249975
 30
0.0
 10
99.2795335384
 20
171.0279571906
 30
0.0
  0
SPLINE
  5
3DC
100
AcDbEntity
  8
0
100
AcDbSpline
 62
7
  6
CONTINUOUS
 70
0
 71
3
 72
16
 73
12
 74
0
 42
0.0000001
 43
0.0000001
 44
0.0000000001
 40
0.0
 40
0.0
 40
0.0
 40
0.0
 40
0.2450113438
 40
0.3689267636
 40
0.4940956562
 40
0.6208476679
 40
0.7494898734
 40
0.8144554983
 40
0.8793302285
 40
0.9425038301
 40
1.0
 40
1.0
 40
1.0
 40
1.0
 10
91.2266883412
 20
167.766421389
 30
0.0
 10
91.5324450925
 20
167.4653891475
 30
0.0
 10
91.9875279738
 20
167.0065779662
 30
0.0
 10
92.57908278
 20
166.375006193
 30
0.0
 10
93.0165474343
 20
165.8830836733
 30
0.0
 10
93.4410433716
 20
165.3691144827
 30
0.0
 10
93.7742063451
 20
164.9169151286
 30
0.0
 10
94.0148384636
 20
164.5332296718
 30
0.0
 10
94.1728763695
 20
164.2338095191
 30
0.0
 10
94.2909778343
 20
163.93031462
 30
0.0
 10
94.3286031683
 20
163.7192216113
 30
0.0
 10
94.3286031683
 20
163.6185310914
 30
0.0
  0
SPLINE
  5
3DD
100
AcDbEntity
  8
0
100
AcDbSpline
 62
7
  6
CONTINUOUS
 70
0
 71
3
 72
26
 73
22
 74
0
 42
0.0000001
 43
0.0000001
 44
0.0000000001
 40
0.0
 40
0.0
 40
0.0
 40
0.0
 40
0.1263424991
 40
0.1900754286
 40
0.2543331486
 40
0.3193079975
 40
0.3853153705
 40
0.4528878535
 40
0.4875412094
 40
0.5228371935
 40
0.5584520379
 40
0.5932971172
 40
0.6262531979
 40
0.6573835621
 40
0.6873245809
 40
0.716572025
 40
0.7739739936
 40
0.8307489773
 40
0.8872599967
 40
0.943654623
 40
1.0
 40
1.0
 40
1.0
 40
1.0
 10
91.2266883412
 20
167.766421389
 30
0.0
 10
91.5898520579
 20
167.7115026658
 30
0.0
 10
92.1377419457
 20
167.6380259015
 30
0.0
 10
92.8739091647
 20
167.5681779812
 30
0.0
 10
93.4339723337
 20
167.5340468807
 30
0.0
 10
94.0017947818
 20
167.5252171992
 30
0.0
 10
94.5787266295
 20
167.5536805917
 30
0.0
 10
95.0641173061
 20
167.6266410922
 30
0.0
 10
95.4486962648
 20
167.7385692845
 30
0.0
 10
95.7308275548
 20
167.8623638403
 30
0.0
 10
95.9862194246
 20
168.0383132188
 30
0.0
 10
96.1829936156
 20
168.271485247
 30
0.0
 10
96.2965696829
 20
168.5399956863
 30
0.0
 10
96.3371276567
 20
168.8124271605
 30
0.0
 10
96.3281843934
 20
169.075837346
 30
0.0
 10
96.2728605486
 20
169.4108928655
 30
0.0
 10
96.1479880037
 20
169.8104778184
 30
0.0
 10
95.9491579575
 20
170.2656151094
 30
0.0
 10
95.7194571482
 20
170.7025221983
 30
0.0
 10
95.468455616
 20
171.1258811881
 30
0.0
 10
95.2906062931
 20
171.4012648841
 30
0.0
 10
95.1997041417
 20
171.5375298333
 30
0.0
  0
SPLINE
  5
3DE
100
AcDbEntity
  8
0
100
AcDbSpline
 62
7
  6
CONTINUOUS
 70
0
 71
3
 72
19
 73
15
 74
0
 42
0.0000001
 43
0.0000001
 44
0.0000000001
 40
0.0
 40
0.0
 40
0.0
 40
0.0
 40
0.1318501306
 40
0.2619737461
 40
0.3899207637
 40
0.5150519871
 40
0.6364689662
 40
0.6954942172
 40
0.7532749965
 40
0.8100292134
 40
0.8669192804
 40
0.8965479413
 40
0.9279892261
 40
1.0
 40
1.0
 40
1.0
 40
1.0
 10
91.2266883412
 20
163.0523424857
 30
0.0
 10
91.377762076
 20
163.0266408742
 30
0.0
 10
91.6785400978
 20
162.979027519
 30
0.0
 10
92.1281467239
 20
162.9215378327
 30
0.0
 10
92.5720098112
 20
162.8826387913
 30
0.0
 10
93.0072914634
 20
162.8690375546
 30
0.0
 10
93.3628380798
 20
162.8877990176
 30
0.0
 10
93.6363857213
 20
162.9326368163
 30
0.0
 10
93.8315489377
 20
162.9856373595
 30
0.0
 10
94.0149344971
 20
163.0659088619
 30
0.0
 10
94.1504525382
 20
163.166890841
 30
0.0
 10
94.2369260182
 20
163.2742619148
 30
0.0
 10
94.3093551972
 20
163.4119967939
 30
0.0
 10
94.3286031683
 20
163.5348357033
 30
0.0
 10
94.3286031683
 20
163.6185310914
 30
0.0
  0
SPLINE
  5
3DF
100
AcDbEntity
  8
0
100
AcDbSpline
 62
7
  6
CONTINUOUS
 70
0
 71
3
 72
11
 73
7
 74
0
 42
0.0000001
 43
0.0000001
 44
0.0000000001
 40
0.0
 40
0.0
 40
0.0
 40
0.0
 40
0.22364517
 40
0.4615142525
 40
0.719615073
 40
1.0
 40
1.0
 40
1.0
 40
1.0
 10
25.8680305005
 20
125.5410824138
 30
0.0
 10
25.7538910298
 20
125.6069800711
 30
0.0
 10
25.5384824257
 20
125.7803624262
 30
0.0
 10
25.2903818094
 20
126.1295818394
 30
0.0
 10
25.1170033354
 20
126.5566663174
 30
0.0
 10
25.0569745993
 20
126.8703099862
 30
0.0
 10
25.0390008202
 20
127.0345633633
 30
0.0
  0
SPLINE
  5
3E0
100
AcDbEntity
  8
0
100
AcDbSpline
 62
7
  6
CONTINUOUS
 70
0
 71
3
 72
11
 73
7
 74
0
 42
0.0000001
 43
0.0000001
 44
0.0000000001
 40
0.0
 40
0.0
 40
0.0
 40
0.0
 40
0.2368169205
 40
0.4825917025
 40
0.7371052518
 40
1.0
 40
1.0
 40
1.0
 40
1.0
 10
25.3360318724
 20
194.7960773901
 30
0.0
 10
24.6158148694
 20
189.4832765357
 30
0.0
 10
23.5347677789
 20
178.6013469263
 30
0.0
 10
22.9661459551
 20
161.9130932721
 30
0.0
 10
23.4216802077
 20
144.6314742716
 30
0.0
 10
24.3915788934
 20
132.9510285419
 30
0.0
 10
25.0390008202
 20
127.0345633633
 30
0.0
  0
SPLINE
  5
3E1
100
AcDbEntity
  8
0
100
AcDbSpline
 62
7
  6
CONTINUOUS
 70
0
 71
3
 72
9
 73
5
 74
0
 42
0.0000001
 43
0.0000001
 44
0.0000000001
 40
0.0
 40
0.0
 40
0.0
 40
0.0
 40
0.2603782916
 40
1.0
 40
1.0
 40
1.0
 40
1.0
 10
28.6111425675
 20
124.2039880658
 30
0.0
 10
28.6267758851
 20
124.1710168599
 30
0.0
 10
28.6915479868
 20
124.04674452
 30
0.0
 10
28.7767520499
 20
123.9326757627
 30
0.0
 10
28.8502080773
 20
123.8595467845
 30
0.0
  0
SPLINE
  5
3E2
100
AcDbEntity
  8
0
100
AcDbSpline
 62
7
  6
CONTINUOUS
 70
0
 71
3
 72
9
 73
5
 74
0
 42
0.0000001
 43
0.0000001
 44
0.0000000001
 40
0.0
 40
0.0
 40
0.0
 40
0.0
 40
0.2527452273
 40
1.0
 40
1.0
 40
1.0
 40
1.0
 10
28.8502080773
 20
123.8595467845
 30
0.0
 10
28.8660290596
 20
123.8437962421
 30
0.0
 10
28.9305494528
 20
123.7834441601
 30
0.0
 10
29.0029036616
 20
123.731442734
 30
0.0
 10
29.060064745
 20
123.6984415107
 30
0.0
  0
SPLINE
  5
3E3
100
AcDbEntity
  8
0
100
AcDbSpline
 62
7
  6
CONTINUOUS
 70
0
 71
3
 72
11
 73
7
 74
0
 42
0.0000001
 43
0.0000001
 44
0.0000000001
 40
0.0
 40
0.0
 40
0.0
 40
0.0
 40
0.2177798312
 40
0.4509239181
 40
0.7102597115
 40
1.0
 40
1.0
 40
1.0
 40
1.0
 10
141.2167288756
 20
62.7230535038
 30
0.0
 10
141.1309556701
 20
62.7725534613
 30
0.0
 10
140.9704984057
 20
62.9074800704
 30
0.0
 10
140.7996704406
 20
63.1867742425
 30
0.0
 10
140.6981730094
 20
63.5309946757
 30
0.0
 10
140.6782291217
 20
63.781529549
 30
0.0
 10
140.6782291217
 20
63.9132841254
 30
0.0
  0
SPLINE
  5
3E4
100
AcDbEntity
  8
0
100
AcDbSpline
 62
7
  6
CONTINUOUS
 70
0
 71
3
 72
11
 73
7
 74
0
 42
0.0000001
 43
0.0000001
 44
0.0000000001
 40
0.0
 40
0.0
 40
0.0
 40
0.0
 40
0.2177798312
 40
0.4509239181
 40
0.7102597115
 40
1.0
 40
1.0
 40
1.0
 40
1.0
 10
174.5496037618
 20
120.4576068608
 30
0.0
 10
174.4638305563
 20
120.5071068183
 30
0.0
 10
174.303373292
 20
120.6420334274
 30
0.0
 10
174.1325453269
 20
120.9213275995
 30
0.0
 10
174.0310478957
 20
121.2655480327
 30
0.0
 10
174.0111040079
 20
121.516082906
 30
0.0
 10
174.0111040079
 20
121.6478374823
 30
0.0
  0
SPLINE
  5
3E5
100
AcDbEntity
  8
0
100
AcDbSpline
 62
7
  6
CONTINUOUS
 70
0
 71
3
 72
11
 73
7
 74
0
 42
0.0000001
 43
0.0000001
 44
0.0000000001
 40
0.0
 40
0.0
 40
0.0
 40
0.0
 40
0.2177798312
 40
0.4509239181
 40
0.7102597115
 40
1.0
 40
1.0
 40
1.0
 40
1.0
 10
141.2167288756
 20
101.2129774473
 30
0.0
 10
141.1309556701
 20
101.2624774048
 30
0.0
 10
140.9704984057
 20
101.3974040139
 30
0.0
 10
140.7996704406
 20
101.676698186
 30
0.0
 10
140.6981730094
 20
102.0209186192
 30
0.0
 10
140.6782291217
 20
102.2714534925
 30
0.0
 10
140.6782291217
 20
102.4032080688
 30
0.0
  0
SPLINE
  5
3E6
100
AcDbEntity
  8
0
100
AcDbSpline
 62
7
  6
CONTINUOUS
 70
0
 71
3
 72
15
 73
11
 74
0
 42
0.0000001
 43
0.0000001
 44
0.0000000001
 40
0.0
 40
0.0
 40
0.0
 40
0.0
 40
0.1080128151
 40
0.2180620975
 40
0.3319994177
 40
0.4513585055
 40
0.577277768
 40
0.710492627
 40
0.8514154749
 40
1.0
 40
1.0
 40
1.0
 40
1.0
 10
147.8147415991
 20
71.5380830018
 30
0.0
 10
148.2246166215
 20
71.3014455326
 30
0.0
 10
149.0948475208
 20
70.8939184267
 30
0.0
 10
150.5029337721
 20
70.5045519793
 30
0.0
 10
152.0039905263
 20
70.3371577807
 30
0.0
 10
153.5820292955
 20
70.392056596
 30
0.0
 10
155.2218262095
 20
70.6671367911
 30
0.0
 10
156.9081775202
 20
71.1587446249
 30
0.0
 10
158.6250861224
 20
71.8614901488
 30
0.0
 10
159.750681597
 20
72.4507242178
 30
0.0
 10
160.3145121018
 20
72.7762499684
 30
0.0
  0
SPLINE
  5
3E7
100
AcDbEntity
  8
0
100
AcDbSpline
 62
7
  6
CONTINUOUS
 70
0
 71
3
 72
11
 73
7
 74
0
 42
0.0000001
 43
0.0000001
 44
0.0000000001
 40
0.0
 40
0.0
 40
0.0
 40
0.0
 40
0.2177709505
 40
0.4509489942
 40
0.7101987597
 40
1.0
 40
1.0
 40
1.0
 40
1.0
 10
135.894296263
 20
62.9756287885
 30
0.0
 10
135.7293690996
 20
63.0708473518
 30
0.0
 10
135.4206833404
 20
63.330227614
 30
0.0
 10
135.0923401685
 20
63.8674048499
 30
0.0
 10
134.897004126
 20
64.5293183233
 30
0.0
 10
134.8587303914
 20
65.0111213516
 30
0.0
 10
134.8587303914
 20
65.2645521352
 30
0.0
  0
SPLINE
  5
3E8
100
AcDbEntity
  8
0
100
AcDbSpline
 62
7
  6
CONTINUOUS
 70
0
 71
3
 72
11
 73
7
 74
0
 42
0.0000001
 43
0.0000001
 44
0.0000000001
 40
0.0
 40
0.0
 40
0.0
 40
0.0
 40
0.2177723674
 40
0.4509510027
 40
0.7102002307
 40
1.0
 40
1.0
 40
1.0
 40
1.0
 10
139.9955326688
 20
60.6078324123
 30
0.0
 10
140.1604543632
 20
60.5126169865
 30
0.0
 10
140.5394151349
 20
60.3749875368
 30
0.0
 10
141.1687719059
 20
60.3592258818
 30
0.0
 10
141.8396459118
 20
60.5210097493
 30
0.0
 10
142.2760179674
 20
60.7287552809
 30
0.0
 10
142.4954859833
 20
60.8554644426
 30
0.0
  0
SPLINE
  5
3E9
100
AcDbEntity
  8
0
100
AcDbSpline
 62
7
  6
CONTINUOUS
 70
0
 71
3
 72
10
 73
6
 74
0
 42
0.0000001
 43
0.0000001
 44
0.0000000001
 40
0.0
 40
0.0
 40
0.0
 40
0.0
 40
0.2350062664
 40
0.4767115809
 40
1.0
 40
1.0
 40
1.0
 40
1.0
 10
174.5496037618
 20
81.9676829173
 30
0.0
 10
174.4968460307
 20
81.998129552
 30
0.0
 10
174.3961364313
 20
82.0716130943
 30
0.0
 10
174.2214263458
 20
82.2649656226
 30
0.0
 10
174.134176033
 20
82.4487056131
 30
0.0
 10
174.0931993805
 20
82.5780024431
 30
0.0
  0
SPLINE
  5
3EA
100
AcDbEntity
  8
0
100
AcDbSpline
 62
7
  6
CONTINUOUS
 70
0
 71
3
 72
15
 73
11
 74
0
 42
0.0000001
 43
0.0000001
 44
0.0000000001
 40
0.0
 40
0.0
 40
0.0
 40
0.0
 40
0.1141543519
 40
0.237325601
 40
0.366974755
 40
0.4999984147
 40
0.6330222943
 40
0.7626720931
 40
0.8858443543
 40
1.0
 40
1.0
 40
1.0
 40
1.0
 10
129.3432450956
 20
107.3142575321
 30
0.0
 10
129.5659170904
 20
107.4428165008
 30
0.0
 10
130.0057341478
 20
107.7511251486
 30
0.0
 10
130.6108984036
 20
108.3173054179
 30
0.0
 10
131.1685899689
 20
108.9865727429
 30
0.0
 10
131.6578030944
 20
109.7338207637
 30
0.0
 10
132.0603290213
 20
110.5311190424
 30
0.0
 10
132.3610837742
 20
111.3487329615
 30
0.0
 10
132.5488275882
 20
112.1559176181
 30
0.0
 10
132.5959227468
 20
112.690969756
 30
0.0
 10
132.5959227468
 20
112.9480917587
 30
0.0
  0
SPLINE
  5
3EB
100
AcDbEntity
  8
0
100
AcDbSpline
 62
7
  6
CONTINUOUS
 70
0
 71
3
 72
15
 73
11
 74
0
 42
0.0000001
 43
0.0000001
 44
0.0000000001
 40
0.0
 40
0.0
 40
0.0
 40
0.0
 40
0.114155658
 40
0.2373279333
 40
0.3669777387
 40
0.5000016213
 40
0.633025278
 40
0.7626744253
 40
0.8858456604
 40
1.0
 40
1.0
 40
1.0
 40
1.0
 10
134.8587303914
 20
103.8034662237
 30
0.0
 10
134.8587303914
 20
104.0829466915
 30
0.0
 10
134.909920798
 20
104.6645251663
 30
0.0
 10
135.1139901907
 20
105.5418998695
 30
0.0
 10
135.4408975806
 20
106.4306106952
 30
0.0
 10
135.8784257914
 20
107.2972392619
 30
0.0
 10
136.4101792007
 20
108.1094653447
 30
0.0
 10
137.0163656715
 20
108.8369297631
 30
0.0
 10
137.6741528547
 20
109.4523430354
 30
0.0
 10
138.1522148266
 20
109.7874610842
 30
0.0
 10
138.3942495775
 20
109.9271990787
 30
0.0
  0
SPLINE
  5
3EC
100
AcDbEntity
  8
0
100
AcDbSpline
 62
7
  6
CONTINUOUS
 70
0
 71
3
 72
11
 73
7
 74
0
 42
0.0000001
 43
0.0000001
 44
0.0000000001
 40
0.0
 40
0.0
 40
0.0
 40
0.0
 40
0.2305508528
 40
0.4760044413
 40
0.7336255892
 40
1.0
 40
1.0
 40
1.0
 40
1.0
 10
160.3145121018
 20
72.7762499684
 30
0.0
 10
161.2357459157
 20
73.308121384
 30
0.0
 10
163.0651440979
 20
74.5350319806
 30
0.0
 10
165.6507229402
 20
76.7287747796
 30
0.0
 10
168.1163977262
 20
79.2905967342
 30
0.0
 10
169.6260561231
 20
81.1839680866
 30
0.0
 10
170.3494218585
 20
82.1775826004
 30
0.0
  0
SPLINE
  5
3ED
100
AcDbEntity
  8
0
100
AcDbSpline
 62
7
  6
CONTINUOUS
 70
0
 71
3
 72
18
 73
14
 74
0
 42
0.0000001
 43
0.0000001
 44
0.0000000001
 40
0.0
 40
0.0
 40
0.0
 40
0.0
 40
0.156861925
 40
0.3074024484
 40
0.44907166
 40
0.5799832602
 40
0.6992101801
 40
0.7545790853
 40
0.8073123282
 40
0.8577280829
 40
0.9062661171
 40
0.953477232
 40
1.0
 40
1.0
 40
1.0
 40
1.0
 10
174.8783402818
 20
90.0274597408
 30
0.0
 10
175.4495870603
 20
91.3160122974
 30
0.0
 10
176.443005139
 20
93.89974948
 30
0.0
 10
177.4788975248
 20
97.8081504236
 30
0.0
 10
178.0097002155
 20
101.5836070968
 30
0.0
 10
178.0187788038
 20
105.1163339563
 30
0.0
 10
177.5765767272
 20
107.8429901661
 30
0.0
 10
176.944064662
 20
109.7889901805
 30
0.0
 10
176.3551793425
 20
111.0895264717
 30
0.0
 10
175.6439680218
 20
112.2565611131
 30
0.0
 10
174.8151484358
 20
113.2808378405
 30
0.0
 10
173.8749806838
 20
114.1534618169
 30
0.0
 10
173.1763134557
 20
114.6305227022
 30
0.0
 10
172.8142826045
 20
114.8395377916
 30
0.0
  0
SPLINE
  5
3EE
100
AcDbEntity
  8
0
100
AcDbSpline
 62
7
  6
CONTINUOUS
 70
0
 71
3
 72
11
 73
7
 74
0
 42
0.0000001
 43
0.0000001
 44
0.0000000001
 40
0.0
 40
0.0
 40
0.0
 40
0.0
 40
0.289799778
 40
0.5490490151
 40
0.7822276429
 40
1.0
 40
1.0
 40
1.0
 40
1.0
 10
171.769550694
 20
129.1963231414
 30
0.0
 10
171.9890187163
 20
129.3230323068
 30
0.0
 10
172.4253907893
 20
129.5307778382
 30
0.0
 10
173.0962648025
 20
129.6925617071
 30
0.0
 10
173.72562157
 20
129.6768000413
 30
0.0
 10
174.1045823134
 20
129.539170578
 30
0.0
 10
174.2695040084
 20
129.4439551717
 30
0.0
  0
SPLINE
  5
3EF
100
AcDbEntity
  8
0
100
AcDbSpline
 62
7
  6
CONTINUOUS
 70
0
 71
3
 72
10
 73
6
 74
0
 42
0.0000001
 43
0.0000001
 44
0.0000000001
 40
0.0
 40
0.0
 40
0.0
 40
0.0
 40
0.5232856774
 40
0.7649792103
 40
1.0
 40
1.0
 40
1.0
 40
1.0
 10
176.3936651273
 20
86.5612672435
 30
0.0
 10
176.5259876607
 20
86.5903416589
 30
0.0
 10
176.7285030389
 20
86.6065086693
 30
0.0
 10
176.9830075335
 20
86.5518958646
 30
0.0
 10
177.0968434623
 20
86.5014275085
 30
0.0
 10
177.1495442076
 20
86.4710137606
 30
0.0
  0
SPLINE
  5
3F0
100
AcDbEntity
  8
0
100
AcDbSpline
 62
7
  6
CONTINUOUS
 70
0
 71
3
 72
17
 73
13
 74
0
 42
0.0000001
 43
0.0000001
 44
0.0000000001
 40
0.0
 40
0.0
 40
0.0
 40
0.0
 40
0.1286938287
 40
0.2702786484
 40
0.4174347437
 40
0.5617788623
 40
0.6954492664
 40
0.8127116048
 40
0.8646776308
 40
0.9125100673
 40
0.9571398924
 40
1.0
 40
1.0
 40
1.0
 40
1.0
 10
140.6782291217
 20
63.9132841254
 30
0.0
 10
140.6782291217
 20
64.1355276406
 30
0.0
 10
140.7403960655
 20
64.6028107799
 30
0.0
 10
140.972467744
 20
65.2889064113
 30
0.0
 10
141.3300255921
 20
65.9498438383
 30
0.0
 10
141.7843721075
 20
66.5314199369
 30
0.0
 10
142.2983736269
 20
66.9866658059
 30
0.0
 10
142.7636269906
 20
67.2410119883
 30
0.0
 10
143.1275495132
 20
67.3378930801
 30
0.0
 10
143.3780296668
 20
67.3562610277
 30
0.0
 10
143.6112752968
 20
67.3221353737
 30
0.0
 10
143.7525628612
 20
67.2633803651
 30
0.0
 10
143.8166693213
 20
67.2263843471
 30
0.0
  0
SPLINE
  5
3F1
100
AcDbEntity
  8
0
100
AcDbSpline
 62
7
  6
CONTINUOUS
 70
0
 71
3
 72
17
 73
13
 74
0
 42
0.0000001
 43
0.0000001
 44
0.0000000001
 40
0.0
 40
0.0
 40
0.0
 40
0.0
 40
0.1286938287
 40
0.2702786484
 40
0.4174347437
 40
0.5617788623
 40
0.6954492664
 40
0.8127116048
 40
0.8646776308
 40
0.9125100673
 40
0.9571398924
 40
1.0
 40
1.0
 40
1.0
 40
1.0
 10
174.0111040079
 20
121.6478374823
 30
0.0
 10
174.0111040079
 20
121.8700809976
 30
0.0
 10
174.0732709518
 20
122.3373641369
 30
0.0
 10
174.3053426303
 20
123.0234597683
 30
0.0
 10
174.6629004784
 20
123.6843971953
 30
0.0
 10
175.1172469938
 20
124.2659732939
 30
0.0
 10
175.6312485132
 20
124.7212191629
 30
0.0
 10
176.0965018769
 20
124.9755653452
 30
0.0
 10
176.4604243994
 20
125.0724464371
 30
0.0
 10
176.7109045531
 20
125.0908143847
 30
0.0
 10
176.9441501831
 20
125.0566887307
 30
0.0
 10
177.0854377474
 20
124.9979337221
 30
0.0
 10
177.1495442076
 20
124.9609377041
 30
0.0
  0
SPLINE
  5
3F2
100
AcDbEntity
  8
0
100
AcDbSpline
 62
7
  6
CONTINUOUS
 70
0
 71
3
 72
17
 73
13
 74
0
 42
0.0000001
 43
0.0000001
 44
0.0000000001
 40
0.0
 40
0.0
 40
0.0
 40
0.0
 40
0.1286938287
 40
0.2702786484
 40
0.4174347437
 40
0.5617788623
 40
0.6954492664
 40
0.8127116048
 40
0.8646776308
 40
0.9125100673
 40
0.9571398924
 40
1.0
 40
1.0
 40
1.0
 40
1.0
 10
140.6782291217
 20
102.4032080688
 30
0.0
 10
140.6782291217
 20
102.6254515841
 30
0.0
 10
140.7403960655
 20
103.0927347234
 30
0.0
 10
140.972467744
 20
103.7788303548
 30
0.0
 10
141.3300255921
 20
104.4397677818
 30
0.0
 10
141.7843721075
 20
105.0213438804
 30
0.0
 10
142.2983736269
 20
105.4765897494
 30
0.0
 10
142.7636269906
 20
105.7309359317
 30
0.0
 10
143.1275495132
 20
105.8278170236
 30
0.0
 10
143.3780296668
 20
105.8461849712
 30
0.0
 10
143.6112752968
 20
105.8120593172
 30
0.0
 10
143.7525628612
 20
105.7533043086
 30
0.0
 10
143.8166693213
 20
105.7163082905
 30
0.0
  0
SPLINE
  5
3F3
100
AcDbEntity
  8
0
100
AcDbSpline
 62
7
  6
CONTINUOUS
 70
0
 71
3
 72
11
 73
7
 74
0
 42
0.0000001
 43
0.0000001
 44
0.0000000001
 40
0.0
 40
0.0
 40
0.0
 40
0.0
 40
0.2898012489
 40
0.5490510236
 40
0.7822290598
 40
1.0
 40
1.0
 40
1.0
 40
1.0
 10
179.4063062859
 20
124.7872354489
 30
0.0
 10
179.4063062859
 20
125.0406662399
 30
0.0
 10
179.3680325424
 20
125.522469283
 30
0.0
 10
179.1726964974
 20
126.1843827635
 30
0.0
 10
178.8443533179
 20
126.721559991
 30
0.0
 10
178.5356675611
 20
126.9809402218
 30
0.0
 10
178.3707404143
 20
127.0761587955
 30
0.0
  0
SPLINE
  5
3F4
100
AcDbEntity
  8
0
100
AcDbSpline
 62
7
  6
CONTINUOUS
 70
0
 71
3
 72
15
 73
11
 74
0
 42
0.0000001
 43
0.0000001
 44
0.0000000001
 40
0.0
 40
0.0
 40
0.0
 40
0.0
 40
0.1141543519
 40
0.237325601
 40
0.366974755
 40
0.4999984147
 40
0.6330222943
 40
0.7626720931
 40
0.8858443543
 40
1.0
 40
1.0
 40
1.0
 40
1.0
 10
175.8707870998
 20
80.1245885054
 30
0.0
 10
176.1128218768
 20
80.2643265149
 30
0.0
 10
176.5908838957
 20
80.5994446102
 30
0.0
 10
177.2486711303
 20
81.2148579465
 30
0.0
 10
177.8548576143
 20
81.9423224301
 30
0.0
 10
178.3866110115
 20
82.7545485397
 30
0.0
 10
178.824139193
 20
83.6211771035
 30
0.0
 10
179.1510465331
 20
84.5098878852
 30
0.0
 10
179.3551158961
 20
85.3872625119
 30
0.0
 10
179.4063062859
 20
85.9688409227
 30
0.0
 10
179.4063062859
 20
86.2483213604
 30
0.0
  0
SPLINE
  5
3F5
100
AcDbEntity
  8
0
100
AcDbSpline
 62
7
  6
CONTINUOUS
 70
0
 71
3
 72
25
 73
21
 74
0
 42
0.0000001
 43
0.0000001
 44
0.0000000001
 40
0.0
 40
0.0
 40
0.0
 40
0.0
 40
0.0213320791
 40
0.0428926617
 40
0.0648979477
 40
0.0875428516
 40
0.1353180106
 40
0.1872190276
 40
0.2436567825
 40
0.304604725
 40
0.3696925383
 40
0.4382898856
 40
0.5095763441
 40
0.5826005951
 40
0.656332067
 40
0.7297091863
 40
0.8016853277
 40
0.8712781831
 40
0.9376162149
 40
1.0
 40
1.0
 40
1.0
 40
1.0
 10
146.6833659087
 20
72.1912679856
 30
0.0
 10
146.3762201443
 20
72.3685952123
 30
0.0
 10
145.780782692
 20
72.7651610603
 30
0.0
 10
144.9636556002
 20
73.4738407156
 30
0.0
 10
144.2246301027
 20
74.2933483453
 30
0.0
 10
143.3336590786
 20
75.5489747061
 30
0.0
 10
142.441645542
 20
77.3939612238
 30
0.0
 10
141.7617281692
 20
79.9111882481
 30
0.0
 10
141.4587126609
 20
82.719215841
 30
0.0
 10
141.536125812
 20
85.7595961131
 30
0.0
 10
141.9905121378
 20
88.9698162673
 30
0.0
 10
142.8117571091
 20
92.2827268952
 30
0.0
 10
143.9822467034
 20
95.6284467338
 30
0.0
 10
145.477054829
 20
98.9359298768
 30
0.0
 10
147.2643104299
 20
102.1347112567
 30
0.0
 10
149.3059042284
 20
105.1565518908
 30
0.0
 10
151.5582575007
 20
107.9370062902
 30
0.0
 10
153.973703702
 20
110.4169946302
 30
0.0
 10
156.5005641573
 20
112.5435381815
 30
0.0
 10
158.28491887
 20
113.7359729132
 30
0.0
 10
159.1831365416
 20
114.2545560322
 30
0.0
  0
SPLINE
  5
3F6
100
AcDbEntity
  8
0
100
AcDbSpline
 62
7
  6
CONTINUOUS
 70
0
 71
3
 72
25
 73
21
 74
0
 42
0.0000001
 43
0.0000001
 44
0.0000000001
 40
0.0
 40
0.0
 40
0.0
 40
0.0
 40
0.0623836167
 40
0.1287213509
 40
0.1983140001
 40
0.2702900758
 40
0.3436673578
 40
0.4173990717
 40
0.4904234985
 40
0.5617100966
 40
0.6303076041
 40
0.6953955537
 40
0.7563435331
 40
0.8127812253
 40
0.8646821605
 40
0.9124572692
 40
0.9351021548
 40
0.9571074167
 40
0.9786679641
 40
1.0
 40
1.0
 40
1.0
 40
1.0
 10
160.3145121018
 20
113.6013708249
 30
0.0
 10
159.4162968576
 20
113.0827891074
 30
0.0
 10
157.6319482128
 20
111.8903593179
 30
0.0
 10
155.1050956807
 20
109.7638238241
 30
0.0
 10
152.6896537276
 20
107.2838446462
 30
0.0
 10
150.4372995066
 20
104.5033933462
 30
0.0
 10
148.3957001595
 20
101.4815496558
 30
0.0
 10
146.6084382127
 20
98.2827607266
 30
0.0
 10
145.113625283
 20
94.9752695668
 30
0.0
 10
143.9431327419
 20
91.6295423645
 30
0.0
 10
143.1218862923
 20
88.3166246074
 30
0.0
 10
142.6675002336
 20
85.1063987876
 30
0.0
 10
142.5900886971
 20
82.0660166094
 30
0.0
 10
142.893106078
 20
79.2579910361
 30
0.0
 10
143.5730244132
 20
76.740767631
 30
0.0
 10
144.4650382752
 20
74.8957841384
 30
0.0
 10
145.3560088176
 20
73.6401593231
 30
0.0
 10
146.0950340612
 20
72.820653226
 30
0.0
 10
146.912160038
 20
72.1119748662
 30
0.0
 10
147.507596664
 20
71.7154102264
 30
0.0
 10
147.8147415991
 20
71.5380830018
 30
0.0
  0
SPLINE
  5
3F7
100
AcDbEntity
  8
0
100
AcDbSpline
 62
7
  6
CONTINUOUS
 70
0
 71
3
 72
11
 73
7
 74
0
 42
0.0000001
 43
0.0000001
 44
0.0000000001
 40
0.0
 40
0.0
 40
0.0
 40
0.0
 40
0.2177798312
 40
0.4509239181
 40
0.7102597115
 40
1.0
 40
1.0
 40
1.0
 40
1.0
 10
143.8166693213
 20
105.7163082905
 30
0.0
 10
143.9024425268
 20
105.666808333
 30
0.0
 10
144.0628997911
 20
105.531881724
 30
0.0
 10
144.2337277562
 20
105.2525875518
 30
0.0
 10
144.3352251874
 20
104.9083671186
 30
0.0
 10
144.3551690752
 20
104.6578322453
 30
0.0
 10
144.3551690752
 20
104.526077669
 30
0.0
  0
SPLINE
  5
3F8
100
AcDbEntity
  8
0
100
AcDbSpline
 62
7
  6
CONTINUOUS
 70
0
 71
3
 72
11
 73
7
 74
0
 42
0.0000001
 43
0.0000001
 44
0.0000000001
 40
0.0
 40
0.0
 40
0.0
 40
0.0
 40
0.2177798312
 40
0.4509239181
 40
0.7102597115
 40
1.0
 40
1.0
 40
1.0
 40
1.0
 10
177.1495442076
 20
124.9609377041
 30
0.0
 10
177.2353174131
 20
124.9114377465
 30
0.0
 10
177.3957746774
 20
124.7765111375
 30
0.0
 10
177.5666026425
 20
124.4972169653
 30
0.0
 10
177.6681000737
 20
124.1529965321
 30
0.0
 10
177.6880439615
 20
123.9024616588
 30
0.0
 10
177.6880439615
 20
123.7707070825
 30
0.0
  0
SPLINE
  5
3F9
100
AcDbEntity
  8
0
100
AcDbSpline
 62
7
  6
CONTINUOUS
 70
0
 71
3
 72
17
 73
13
 74
0
 42
0.0000001
 43
0.0000001
 44
0.0000000001
 40
0.0
 40
0.0
 40
0.0
 40
0.0
 40
0.1286938287
 40
0.2702786484
 40
0.4174347437
 40
0.5617788623
 40
0.6954492664
 40
0.8127116048
 40
0.8646776308
 40
0.9125100673
 40
0.9571398924
 40
1.0
 40
1.0
 40
1.0
 40
1.0
 10
177.6880439615
 20
85.280783139
 30
0.0
 10
177.6880439615
 20
85.0585396238
 30
0.0
 10
177.6258770176
 20
84.5912564845
 30
0.0
 10
177.3938053391
 20
83.905160853
 30
0.0
 10
177.036247491
 20
83.2442234261
 30
0.0
 10
176.5819009756
 20
82.6626473274
 30
0.0
 10
176.0678994562
 20
82.2074014584
 30
0.0
 10
175.6026460925
 20
81.9530552761
 30
0.0
 10
175.23872357
 20
81.8561741842
 30
0.0
 10
174.9882434163
 20
81.8378062366
 30
0.0
 10
174.7549977863
 20
81.8719318907
 30
0.0
 10
174.613710222
 20
81.9306868993
 30
0.0
 10
174.5496037618
 20
81.9676829173
 30
0.0
  0
SPLINE
  5
3FA
100
AcDbEntity
  8
0
100
AcDbSpline
 62
7
  6
CONTINUOUS
 70
0
 71
3
 72
11
 73
7
 74
0
 42
0.0000001
 43
0.0000001
 44
0.0000000001
 40
0.0
 40
0.0
 40
0.0
 40
0.0
 40
0.2177798312
 40
0.4509239181
 40
0.7102597115
 40
1.0
 40
1.0
 40
1.0
 40
1.0
 10
143.8166693213
 20
67.2263843471
 30
0.0
 10
143.9024425268
 20
67.1768843895
 30
0.0
 10
144.0628997911
 20
67.0419577805
 30
0.0
 10
144.2337277562
 20
66.7626636083
 30
0.0
 10
144.3352251874
 20
66.4184431751
 30
0.0
 10
144.3551690752
 20
66.1679083018
 30
0.0
 10
144.3551690752
 20
66.0361537255
 30
0.0
  0
SPLINE
  5
3FB
100
AcDbEntity
  8
0
100
AcDbSpline
 62
7
  6
CONTINUOUS
 70
0
 71
3
 72
15
 73
11
 74
0
 42
0.0000001
 43
0.0000001
 44
0.0000000001
 40
0.0
 40
0.0
 40
0.0
 40
0.0
 40
0.1080128151
 40
0.2180620975
 40
0.3319994177
 40
0.4513585055
 40
0.577277768
 40
0.710492627
 40
0.8514154749
 40
1.0
 40
1.0
 40
1.0
 40
1.0
 10
172.8142826045
 20
114.8395377916
 30
0.0
 10
172.4044075821
 20
115.0761752608
 30
0.0
 10
171.5341766828
 20
115.4837023666
 30
0.0
 10
170.1260904315
 20
115.8730688141
 30
0.0
 10
168.6250336773
 20
116.0404630126
 30
0.0
 10
167.0469949081
 20
115.9855641974
 30
0.0
 10
165.4071979941
 20
115.7104840022
 30
0.0
 10
163.7208466834
 20
115.2188761685
 30
0.0
 10
162.0039380812
 20
114.5161306446
 30
0.0
 10
160.8783426066
 20
113.9268965755
 30
0.0
 10
160.3145121018
 20
113.6013708249
 30
0.0
  0
SPLINE
  5
3FC
100
AcDbEntity
  8
0
100
AcDbSpline
 62
7
  6
CONTINUOUS
 70
0
 71
3
 72
17
 73
13
 74
0
 42
0.0000001
 43
0.0000001
 44
0.0000000001
 40
0.0
 40
0.0
 40
0.0
 40
0.0
 40
0.1286938287
 40
0.2702786484
 40
0.4174347437
 40
0.5617788623
 40
0.6954492664
 40
0.8127116048
 40
0.8646776308
 40
0.9125100673
 40
0.9571398924
 40
1.0
 40
1.0
 40
1.0
 40
1.0
 10
144.3551690752
 20
66.0361537255
 30
0.0
 10
144.3551690752
 20
65.8139102103
 30
0.0
 10
144.2930021314
 20
65.346627071
 30
0.0
 10
144.0609304529
 20
64.6605314395
 30
0.0
 10
143.7033726047
 20
63.9995940126
 30
0.0
 10
143.2490260894
 20
63.4180179139
 30
0.0
 10
142.7350245699
 20
62.9627720449
 30
0.0
 10
142.2697712062
 20
62.7084258626
 30
0.0
 10
141.9058486837
 20
62.6115447707
 30
0.0
 10
141.65536853
 20
62.5931768231
 30
0.0
 10
141.4221229001
 20
62.6273024772
 30
0.0
 10
141.2808353357
 20
62.6860574858
 30
0.0
 10
141.2167288756
 20
62.7230535038
 30
0.0
  0
SPLINE
  5
3FD
100
AcDbEntity
  8
0
100
AcDbSpline
 62
7
  6
CONTINUOUS
 70
0
 71
3
 72
17
 73
13
 74
0
 42
0.0000001
 43
0.0000001
 44
0.0000000001
 40
0.0
 40
0.0
 40
0.0
 40
0.0
 40
0.1286938287
 40
0.2702786484
 40
0.4174347437
 40
0.5617788623
 40
0.6954492664
 40
0.8127116048
 40
0.8646776308
 40
0.9125100673
 40
0.9571398924
 40
1.0
 40
1.0
 40
1.0
 40
1.0
 10
177.6880439615
 20
123.7707070825
 30
0.0
 10
177.6880439615
 20
123.5484635673
 30
0.0
 10
177.6258770176
 20
123.081180428
 30
0.0
 10
177.3938053391
 20
122.3950847965
 30
0.0
 10
177.036247491
 20
121.7341473696
 30
0.0
 10
176.5819009756
 20
121.1525712709
 30
0.0
 10
176.0678994562
 20
120.6973254019
 30
0.0
 10
175.6026460925
 20
120.4429792196
 30
0.0
 10
175.23872357
 20
120.3460981277
 30
0.0
 10
174.9882434163
 20
120.3277301801
 30
0.0
 10
174.7549977863
 20
120.3618558342
 30
0.0
 10
174.613710222
 20
120.4206108428
 30
0.0
 10
174.5496037618
 20
120.4576068608
 30
0.0
  0
SPLINE
  5
3FE
100
AcDbEntity
  8
0
100
AcDbSpline
 62
7
  6
CONTINUOUS
 70
0
 71
3
 72
11
 73
7
 74
0
 42
0.0000001
 43
0.0000001
 44
0.0000000001
 40
0.0
 40
0.0
 40
0.0
 40
0.0
 40
0.2177723674
 40
0.4509510027
 40
0.7102002307
 40
1.0
 40
1.0
 40
1.0
 40
1.0
 10
178.3707404143
 20
127.0761587955
 30
0.0
 10
178.20581872
 20
127.1713742213
 30
0.0
 10
177.8268579483
 20
127.3090036711
 30
0.0
 10
177.1975011772
 20
127.3247653261
 30
0.0
 10
176.5266271714
 20
127.1629814586
 30
0.0
 10
176.0902551158
 20
126.9552359269
 30
0.0
 10
175.8707870998
 20
126.8285267652
 30
0.0
  0
SPLINE
  5
3FF
100
AcDbEntity
  8
0
100
AcDbSpline
 62
7
  6
CONTINUOUS
 70
0
 71
3
 72
15
 73
11
 74
0
 42
0.0000001
 43
0.0000001
 44
0.0000000001
 40
0.0
 40
0.0
 40
0.0
 40
0.0
 40
0.1141543519
 40
0.237325601
 40
0.366974755
 40
0.4999984147
 40
0.6330222943
 40
0.7626720931
 40
0.8858443543
 40
1.0
 40
1.0
 40
1.0
 40
1.0
 10
142.4954859833
 20
107.5594027025
 30
0.0
 10
142.2534512064
 20
107.4196646929
 30
0.0
 10
141.7753891875
 20
107.0845465976
 30
0.0
 10
141.1176019529
 20
106.4691332613
 30
0.0
 10
140.5114154688
 20
105.7416687777
 30
0.0
 10
139.9796620716
 20
104.9294426681
 30
0.0
 10
139.5421338901
 20
104.0628141043
 30
0.0
 10
139.21522655
 20
103.1741033227
 30
0.0
 10
139.011157187
 20
102.2967286959
 30
0.0
 10
138.9599667972
 20
101.7151502852
 30
0.0
 10
138.9599667972
 20
101.4356698474
 30
0.0
  0
SPLINE
  5
400
100
AcDbEntity
  8
0
100
AcDbSpline
 62
7
  6
CONTINUOUS
 70
0
 71
3
 72
11
 73
7
 74
0
 42
0.0000001
 43
0.0000001
 44
0.0000000001
 40
0.0
 40
0.0
 40
0.0
 40
0.0
 40
0.2177798312
 40
0.4509239181
 40
0.7102597115
 40
1.0
 40
1.0
 40
1.0
 40
1.0
 10
177.1495442076
 20
86.4710137606
 30
0.0
 10
177.2353174131
 20
86.421513803
 30
0.0
 10
177.3957746774
 20
86.286587194
 30
0.0
 10
177.5666026425
 20
86.0072930218
 30
0.0
 10
177.6681000737
 20
85.6630725886
 30
0.0
 10
177.6880439615
 20
85.4125377153
 30
0.0
 10
177.6880439615
 20
85.280783139
 30
0.0
  0
SPLINE
  5
401
100
AcDbEntity
  8
0
100
AcDbSpline
 62
7
  6
CONTINUOUS
 70
0
 71
3
 72
11
 73
7
 74
0
 42
0.0000001
 43
0.0000001
 44
0.0000000001
 40
0.0
 40
0.0
 40
0.0
 40
0.0
 40
0.2898012489
 40
0.5490510236
 40
0.7822290598
 40
1.0
 40
1.0
 40
1.0
 40
1.0
 10
138.9599667972
 20
62.8967557589
 30
0.0
 10
138.9599667972
 20
62.643324968
 30
0.0
 10
138.9982405407
 20
62.1615219248
 30
0.0
 10
139.1935765858
 20
61.4996084443
 30
0.0
 10
139.5219197652
 20
60.9624312168
 30
0.0
 10
139.8306055221
 20
60.703050986
 30
0.0
 10
139.9955326688
 20
60.6078324123
 30
0.0
  0
SPLINE
  5
402
100
AcDbEntity
  8
0
100
AcDbSpline
 62
7
  6
CONTINUOUS
 70
0
 71
3
 72
17
 73
13
 74
0
 42
0.0000001
 43
0.0000001
 44
0.0000000001
 40
0.0
 40
0.0
 40
0.0
 40
0.0
 40
0.1286938287
 40
0.2702786484
 40
0.4174347437
 40
0.5617788623
 40
0.6954492664
 40
0.8127116048
 40
0.8646776308
 40
0.9125100673
 40
0.9571398924
 40
1.0
 40
1.0
 40
1.0
 40
1.0
 10
144.3551690752
 20
104.526077669
 30
0.0
 10
144.3551690752
 20
104.3038341537
 30
0.0
 10
144.2930021314
 20
103.8365510145
 30
0.0
 10
144.0609304529
 20
103.150455383
 30
0.0
 10
143.7033726047
 20
102.4895179561
 30
0.0
 10
143.2490260894
 20
101.9079418574
 30
0.0
 10
142.7350245699
 20
101.4526959884
 30
0.0
 10
142.2697712062
 20
101.1983498061
 30
0.0
 10
141.9058486837
 20
101.1014687142
 30
0.0
 10
141.65536853
 20
101.0831007666
 30
0.0
 10
141.4221229001
 20
101.1172264207
 30
0.0
 10
141.2808353357
 20
101.1759814292
 30
0.0
 10
141.2167288756
 20
101.2129774473
 30
0.0
  0
SPLINE
  5
403
100
AcDbEntity
  8
0
100
AcDbSpline
 62
7
  6
CONTINUOUS
 70
0
 71
3
 72
15
 73
11
 74
0
 42
0.0000001
 43
0.0000001
 44
0.0000000001
 40
0.0
 40
0.0
 40
0.0
 40
0.0
 40
0.1485845154
 40
0.2895068088
 40
0.4227213715
 40
0.5486405566
 40
0.6679995612
 40
0.781937036
 40
0.8919867099
 40
1.0
 40
1.0
 40
1.0
 40
1.0
 10
159.1831365416
 20
114.2545560322
 30
0.0
 10
159.7469670298
 20
114.5800817732
 30
0.0
 10
160.8725600033
 20
115.1693153772
 30
0.0
 10
162.589465321
 20
115.8720592687
 30
0.0
 10
164.2758125909
 20
116.3636661299
 30
0.0
 10
165.9156069293
 20
116.6387498946
 30
0.0
 10
167.493645875
 20
116.6936490892
 30
0.0
 10
168.9947045352
 20
116.5262554828
 30
0.0
 10
170.4027965728
 20
116.1368920496
 30
0.0
 10
171.2730300592
 20
115.7293612636
 30
0.0
 10
171.6829071744
 20
115.4927232222
 30
0.0
  0
SPLINE
  5
404
100
AcDbEntity
  8
0
100
AcDbSpline
 62
7
  6
CONTINUOUS
 70
0
 71
3
 72
13
 73
9
 74
0
 42
0.0000001
 43
0.0000001
 44
0.0000000001
 40
0.0
 40
0.0
 40
0.0
 40
0.0
 40
0.1142466307
 40
0.237544229
 40
0.5000005226
 40
0.7624565301
 40
0.8857537943
 40
1.0
 40
1.0
 40
1.0
 40
1.0
 10
112.3723072859
 20
194.5972098244
 30
0.0
 10
112.2270983244
 20
194.6810443609
 30
0.0
 10
111.9095178216
 20
194.8289380023
 30
0.0
 10
111.205686729
 20
195.0426995091
 30
0.0
 10
110.2509836191
 20
195.1465409917
 30
0.0
 10
109.2962814274
 20
195.0426950949
 30
0.0
 10
108.5924529723
 20
194.8289301259
 30
0.0
 10
108.2748744156
 20
194.681034898
 30
0.0
 10
108.1296665988
 20
194.5971996264
 30
0.0
  0
SPLINE
  5
405
100
AcDbEntity
  8
0
100
AcDbSpline
 62
7
  6
CONTINUOUS
 70
0
 71
3
 72
14
 73
10
 74
0
 42
0.0000001
 43
0.0000001
 44
0.0000000001
 40
0.0
 40
0.0
 40
0.0
 40
0.0
 40
0.0957392945
 40
0.1960578689
 40
0.30454131
 40
0.4233191735
 40
0.553123256
 40
0.6935421622
 40
1.0
 40
1.0
 40
1.0
 40
1.0
 10
72.1073058294
 20
219.5818112559
 30
0.0
 10
72.1073048871
 20
219.704897725
 30
0.0
 10
72.0714895765
 20
219.9581829434
 30
0.0
 10
71.9148113764
 20
220.3212308254
 30
0.0
 10
71.6619240581
 20
220.6619750803
 30
0.0
 10
71.3211172526
 20
220.9729523686
 30
0.0
 10
70.9012096659
 20
221.2479848723
 30
0.0
 10
70.2304689866
 20
221.5675860261
 30
0.0
 10
69.6705762582
 20
221.720402358
 30
0.0
 10
69.2826391853
 20
221.7892279979
 30
0.0
  0
SPLINE
  5
406
100
AcDbEntity
  8
0
100
AcDbSpline
 62
7
  6
CONTINUOUS
 70
0
 71
3
 72
11
 73
7
 74
0
 42
0.0000001
 43
0.0000001
 44
0.0000000001
 40
0.0
 40
0.0
 40
0.0
 40
0.0
 40
0.260153143
 40
0.5216020698
 40
0.7717920974
 40
1.0
 40
1.0
 40
1.0
 40
1.0
 10
69.2826391853
 20
221.7892279979
 30
0.0
 10
68.9311973936
 20
221.8515788478
 30
0.0
 10
68.2150940387
 20
221.9178984673
 30
0.0
 10
67.1540630746
 20
221.8528535114
 30
0.0
 10
66.1592664547
 20
221.6303361707
 30
0.0
 10
65.5500482686
 20
221.3713241063
 30
0.0
 10
65.2788943868
 20
221.2147742742
 30
0.0
  0
SPLINE
  5
407
100
AcDbEntity
  8
0
100
AcDbSpline
 62
7
  6
CONTINUOUS
 70
0
 71
3
 72
13
 73
9
 74
0
 42
0.0000001
 43
0.0000001
 44
0.0000000001
 40
0.0
 40
0.0
 40
0.0
 40
0.0
 40
0.1142483233
 40
0.2375469957
 40
0.4999994774
 40
0.7624522452
 40
0.8857512516
 40
1.0
 40
1.0
 40
1.0
 40
1.0
 10
76.8757152655
 20
167.4897450019
 30
0.0
 10
76.7305048406
 20
167.4059082244
 30
0.0
 10
76.4129204104
 20
167.258013526
 30
0.0
 10
75.7090916271
 20
167.0442514234
 30
0.0
 10
74.7543982452
 20
166.9404104821
 30
0.0
 10
73.7997039453
 20
167.0442470093
 30
0.0
 10
73.0958725244
 20
167.2580056496
 30
0.0
 10
72.7782861482
 20
167.4058987616
 30
0.0
 10
72.6330745785
 20
167.4897348039
 30
0.0
  0
SPLINE
  5
408
100
AcDbEntity
  8
0
100
AcDbSpline
 62
7
  6
CONTINUOUS
 70
0
 71
3
 72
11
 73
7
 74
0
 42
0.0000001
 43
0.0000001
 44
0.0000000001
 40
0.0
 40
0.0
 40
0.0
 40
0.0
 40
0.2897781767
 40
0.5490726313
 40
0.7822276909
 40
1.0
 40
1.0
 40
1.0
 40
1.0
 10
108.1296842626
 20
193.2908482852
 30
0.0
 10
107.9980119017
 20
193.3668676384
 30
0.0
 10
107.7591563849
 20
193.5313127383
 30
0.0
 10
107.4737850268
 20
193.8313443171
 30
0.0
 10
107.2932155129
 20
194.16313551
 30
0.0
 10
107.2510178281
 20
194.4013196166
 30
0.0
 10
107.2510178266
 20
194.5155807468
 30
0.0
  0
SPLINE
  5
409
100
AcDbEntity
  8
0
100
AcDbSpline
 62
7
  6
CONTINUOUS
 70
0
 71
3
 72
15
 73
11
 74
0
 42
0.0000001
 43
0.0000001
 44
0.0000000001
 40
0.0
 40
0.0
 40
0.0
 40
0.0
 40
0.0933564697
 40
0.192039241
 40
0.3000218815
 40
0.4193885318
 40
0.5505041666
 40
0.6923753351
 40
0.8430958291
 40
1.0
 40
1.0
 40
1.0
 40
1.0
 10
74.8573218183
 20
217.9488064249
 30
0.0
 10
74.8573287876
 20
218.1773157533
 30
0.0
 10
74.7834234873
 20
218.6500403723
 30
0.0
 10
74.4628317417
 20
219.3200995734
 30
0.0
 10
73.9497559266
 20
219.9399381004
 30
0.0
 10
73.2635352891
 20
220.4942121444
 30
0.0
 10
72.4250973986
 20
220.9697692453
 30
0.0
 10
71.4588118262
 20
221.354173083
 30
0.0
 10
70.3930720224
 20
221.636466136
 30
0.0
 10
69.6470199572
 20
221.7497306111
 30
0.0
 10
69.2648892911
 20
221.7881336071
 30
0.0
  0
SPLINE
  5
40A
100
AcDbEntity
  8
0
100
AcDbSpline
 62
7
  6
CONTINUOUS
 70
0
 71
3
 72
10
 73
6
 74
0
 42
0.0000001
 43
0.0000001
 44
0.0000000001
 40
0.0
 40
0.0
 40
0.0
 40
0.0
 40
0.2380982603
 40
0.4814216677
 40
1.0
 40
1.0
 40
1.0
 40
1.0
 10
75.6073130311
 20
212.6415406935
 30
0.0
 10
75.6072984311
 20
212.7950759103
 30
0.0
 10
75.5783268022
 20
213.1063077665
 30
0.0
 10
75.4032657228
 20
213.7296887051
 30
0.0
 10
75.1477749453
 20
214.1616372129
 30
0.0
 10
74.9416366218
 20
214.4249436734
 30
0.0
  0
SPLINE
  5
40B
100
AcDbEntity
  8
0
100
AcDbSpline
 62
7
  6
CONTINUOUS
 70
0
 71
3
 72
18
 73
14
 74
0
 42
0.0000001
 43
0.0000001
 44
0.0000000001
 40
0.0
 40
0.0
 40
0.0
 40
0.0
 40
0.0428473854
 40
0.0874642904
 40
0.1352855905
 40
0.1872370585
 40
0.2437280374
 40
0.3047335978
 40
0.4383684003
 40
0.5826764803
 40
0.7297923549
 40
0.8713437444
 40
1.0
 40
1.0
 40
1.0
 40
1.0
 10
56.3868231403
 20
212.233458816
 30
0.0
 10
56.3868382845
 20
212.382909834
 30
0.0
 10
56.3468257824
 20
212.6892776355
 30
0.0
 10
56.1711671279
 20
213.131667861
 30
0.0
 10
55.8860374101
 20
213.5510449743
 30
0.0
 10
55.4995785596
 20
213.9390800982
 30
0.0
 10
55.0207327641
 20
214.2890326781
 30
0.0
 10
54.2493443167
 20
214.7083974532
 30
0.0
 10
53.1190210247
 20
215.085898245
 30
0.0
 10
51.6441344009
 20
215.2929949464
 30
0.0
 10
50.1270895677
 20
215.2510908266
 30
0.0
 10
48.6930764011
 20
214.9641353634
 30
0.0
 10
47.8131455123
 20
214.6010972881
 30
0.0
 10
47.4245151373
 20
214.3767227758
 30
0.0
  0
SPLINE
  5
40C
100
AcDbEntity
  8
0
100
AcDbSpline
 62
7
  6
CONTINUOUS
 70
0
 71
3
 72
11
 73
7
 74
0
 42
0.0000001
 43
0.0000001
 44
0.0000000001
 40
0.0
 40
0.0
 40
0.0
 40
0.0
 40
0.2208679447
 40
0.4553888858
 40
0.7134828703
 40
1.0
 40
1.0
 40
1.0
 40
1.0
 10
57.1368199812
 20
211.4169563975
 30
0.0
 10
57.1368415094
 20
211.6291101864
 30
0.0
 10
57.0647790881
 20
212.0691805615
 30
0.0
 10
56.7536780764
 20
212.689284421
 30
0.0
 10
56.2581061636
 20
213.2584278202
 30
0.0
 10
55.8394354387
 20
213.5776205674
 30
0.0
 10
55.6081727618
 20
213.7268173609
 30
0.0
  0
SPLINE
  5
40D
100
AcDbEntity
  8
0
100
AcDbSpline
 62
7
  6
CONTINUOUS
 70
0
 71
3
 72
11
 73
7
 74
0
 42
0.0000001
 43
0.0000001
 44
0.0000000001
 40
0.0
 40
0.0
 40
0.0
 40
0.0
 40
0.2272379022
 40
0.4647383973
 40
0.7206518845
 40
1.0
 40
1.0
 40
1.0
 40
1.0
 10
58.6368333326
 20
203.2519322209
 30
0.0
 10
58.6368281867
 20
203.4758534785
 30
0.0
 10
58.5737761689
 20
203.9359187887
 30
0.0
 10
58.2973385479
 20
204.5973495199
 30
0.0
 10
57.8504549603
 20
205.2205725993
 30
0.0
 10
57.465339745
 20
205.5854348872
 30
0.0
 10
57.2517379055
 20
205.7590676068
 30
0.0
  0
SPLINE
  5
40E
100
AcDbEntity
  8
0
100
AcDbSpline
 62
7
  6
CONTINUOUS
 70
0
 71
3
 72
11
 73
7
 74
0
 42
0.0000001
 43
0.0000001
 44
0.0000000001
 40
0.0
 40
0.0
 40
0.0
 40
0.0
 40
0.2897733512
 40
0.5490657165
 40
0.7822241652
 40
1.0
 40
1.0
 40
1.0
 40
1.0
 10
72.6330539707
 20
174.103343102
 30
0.0
 10
72.501385612
 20
174.0273247935
 30
0.0
 10
72.2625349967
 20
173.8628840244
 30
0.0
 10
71.9771678835
 20
173.5628567838
 30
0.0
 10
71.796595303
 20
173.231068434
 30
0.0
 10
71.7543971597
 20
172.9928827239
 30
0.0
 10
71.7543971612
 20
172.8786208385
 30
0.0
  0
SPLINE
  5
40F
100
AcDbEntity
  8
0
100
AcDbSpline
 62
7
  6
CONTINUOUS
 70
0
 71
3
 72
11
 73
7
 74
0
 42
0.0000001
 43
0.0000001
 44
0.0000000001
 40
0.0
 40
0.0
 40
0.0
 40
0.0
 40
0.2897733512
 40
0.5490657165
 40
0.7822241652
 40
1.0
 40
1.0
 40
1.0
 40
1.0
 10
30.913580187
 20
198.1895476187
 30
0.0
 10
30.7819118283
 20
198.1135293102
 30
0.0
 10
30.543061213
 20
197.9490885411
 30
0.0
 10
30.2576940998
 20
197.6490613005
 30
0.0
 10
30.0771215193
 20
197.3172729507
 30
0.0
 10
30.0349233761
 20
197.0790872406
 30
0.0
 10
30.0349233775
 20
196.9648253552
 30
0.0
  0
SPLINE
  5
410
100
AcDbEntity
  8
0
100
AcDbSpline
 62
7
  6
CONTINUOUS
 70
0
 71
3
 72
11
 73
7
 74
0
 42
0.0000001
 43
0.0000001
 44
0.0000000001
 40
0.0
 40
0.0
 40
0.0
 40
0.0
 40
0.2177753738
 40
0.4509336309
 40
0.7102261693
 40
1.0
 40
1.0
 40
1.0
 40
1.0
 10
106.3313699512
 20
198.9246414963
 30
0.0
 10
106.3313699492
 20
199.076992317
 30
0.0
 10
106.2751044736
 20
199.3945769281
 30
0.0
 10
106.0343358244
 20
199.8369656779
 30
0.0
 10
105.6538386124
 20
200.2370049638
 30
0.0
 10
105.3353650814
 20
200.4562601596
 30
0.0
 10
105.1598039868
 20
200.5576181118
 30
0.0
  0
SPLINE
  5
411
100
AcDbEntity
  8
0
100
AcDbSpline
 62
7
  6
CONTINUOUS
 70
0
 71
3
 72
11
 73
7
 74
0
 42
0.0000001
 43
0.0000001
 44
0.0000000001
 40
0.0
 40
0.0
 40
0.0
 40
0.0
 40
0.2242718271
 40
0.4624182716
 40
0.7198934372
 40
1.0
 40
1.0
 40
1.0
 40
1.0
 10
86.1634326237
 20
196.0653980092
 30
0.0
 10
86.1460105171
 20
196.1795862892
 30
0.0
 10
86.0794042502
 20
196.4111345711
 30
0.0
 10
85.896820887
 20
196.7369376573
 30
0.0
 10
85.6350504126
 20
197.0416766392
 30
0.0
 10
85.4211638533
 20
197.2194659541
 30
0.0
 10
85.3042455445
 20
197.3039827078
 30
0.0
  0
SPLINE
  5
412
100
AcDbEntity
  8
0
100
AcDbSpline
 62
7
  6
CONTINUOUS
 70
0
 71
3
 72
11
 73
7
 74
0
 42
0.0000001
 43
0.0000001
 44
0.0000000001
 40
0.0
 40
0.0
 40
0.0
 40
0.0
 40
0.2177845113
 40
0.450917848
 40
0.7103083905
 40
1.0
 40
1.0
 40
1.0
 40
1.0
 10
80.4718440419
 20
188.8236384528
 30
0.0
 10
80.5378206185
 20
188.7855597455
 30
0.0
 10
80.6893935565
 20
188.7305366106
 30
0.0
 10
80.941171048
 20
188.7241694385
 30
0.0
 10
81.2094955699
 20
188.7889719478
 30
0.0
 10
81.3840693648
 20
188.872022254
 30
0.0
 10
81.4718224962
 20
188.9226862456
 30
0.0
  0
SPLINE
  5
413
100
AcDbEntity
  8
0
100
AcDbSpline
 62
7
  6
CONTINUOUS
 70
0
 71
3
 72
17
 73
13
 74
0
 42
0.0000001
 43
0.0000001
 44
0.0000000001
 40
0.0
 40
0.0
 40
0.0
 40
0.0
 40
0.0428590382
 40
0.0874850278
 40
0.1353193459
 40
0.1872814037
 40
0.3045420728
 40
0.4382079173
 40
0.5825499624
 40
0.7297142529
 40
0.8713069433
 40
1.0
 40
1.0
 40
1.0
 40
1.0
 10
80.1182880067
 20
189.027756761
 30
0.0
 10
80.0689790548
 20
189.0562196712
 30
0.0
 10
79.9755388476
 20
189.1277880623
 30
0.0
 10
79.8630328883
 20
189.2699867814
 30
0.0
 10
79.7789903133
 20
189.4439425759
 30
0.0
 10
79.703497238
 20
189.7236127828
 30
0.0
 10
79.6940299496
 20
190.1313806451
 30
0.0
 10
79.7995797421
 20
190.6488785533
 30
0.0
 10
80.0122386089
 20
191.1752545326
 30
0.0
 10
80.3150109188
 20
191.6676865317
 30
0.0
 10
80.6828237459
 20
192.0861922449
 30
0.0
 10
80.9702144818
 20
192.3073382745
 30
0.0
 10
81.1182676336
 20
192.3928162914
 30
0.0
  0
SPLINE
  5
414
100
AcDbEntity
  8
0
100
AcDbSpline
 62
7
  6
CONTINUOUS
 70
0
 71
3
 72
17
 73
13
 74
0
 42
0.0000001
 43
0.0000001
 44
0.0000000001
 40
0.0
 40
0.0
 40
0.0
 40
0.0
 40
0.12868996
 40
0.2702722062
 40
0.4174312903
 40
0.5617781732
 40
0.6954492761
 40
0.8127130379
 40
0.8646790319
 40
0.9125109796
 40
0.9571404657
 40
1.0
 40
1.0
 40
1.0
 40
1.0
 10
67.3296809847
 20
188.5960337765
 30
0.0
 10
67.1076068366
 20
188.7242454451
 30
0.0
 10
66.6048137753
 20
188.9317028287
 30
0.0
 10
65.7853436127
 20
189.0956280261
 30
0.0
 10
64.9186033678
 20
189.1196412156
 30
0.0
 10
64.0753197318
 20
189.0011556336
 30
0.0
 10
63.3238603669
 20
188.7501739036
 30
0.0
 10
62.8012797536
 20
188.4320031076
 30
0.0
 10
62.4945151563
 20
188.1242384896
 30
0.0
 10
62.3316537653
 20
187.8845420162
 30
0.0
 10
62.2311875357
 20
187.6317831467
 30
0.0
 10
62.2083960796
 20
187.4567032454
 30
0.0
 10
62.2083810181
 20
187.3713013142
 30
0.0
  0
SPLINE
  5
415
100
AcDbEntity
  8
0
100
AcDbSpline
 62
7
  6
CONTINUOUS
 70
0
 71
3
 72
11
 73
7
 74
0
 42
0.0000001
 43
0.0000001
 44
0.0000000001
 40
0.0
 40
0.0
 40
0.0
 40
0.0
 40
0.217780861
 40
0.4509234132
 40
0.7102539949
 40
1.0
 40
1.0
 40
1.0
 40
1.0
 10
68.2083579279
 20
187.3713013155
 30
0.0
 10
68.2083780798
 20
187.4855668369
 30
0.0
 10
68.1661242479
 20
187.7237430118
 30
0.0
 10
67.9855847534
 20
188.0555600266
 30
0.0
 10
67.700180774
 20
188.3555623846
 30
0.0
 10
67.4613386188
 20
188.5200229255
 30
0.0
 10
67.3296809847
 20
188.5960337765
 30
0.0
  0
SPLINE
  5
416
100
AcDbEntity
  8
0
100
AcDbSpline
 62
7
  6
CONTINUOUS
 70
0
 71
3
 72
11
 73
7
 74
0
 42
0.0000001
 43
0.0000001
 44
0.0000000001
 40
0.0
 40
0.0
 40
0.0
 40
0.0
 40
0.2897011399
 40
0.5490888176
 40
0.7822183492
 40
1.0
 40
1.0
 40
1.0
 40
1.0
 10
81.1182676336
 20
192.3928162914
 30
0.0
 10
81.2060237271
 20
192.4434819931
 30
0.0
 10
81.3805996733
 20
192.5265330473
 30
0.0
 10
81.6489264589
 20
192.5913361329
 30
0.0
 10
81.9006986578
 20
192.5849618861
 30
0.0
 10
82.0522738141
 20
192.5299484124
 30
0.0
 10
82.1182472606
 20
192.4918661532
 30
0.0
  0
SPLINE
  5
417
100
AcDbEntity
  8
0
100
AcDbSpline
 62
7
  6
CONTINUOUS
 70
0
 71
3
 72
17
 73
13
 74
0
 42
0.0000001
 43
0.0000001
 44
0.0000000001
 40
0.0
 40
0.0
 40
0.0
 40
0.0
 40
0.1286920618
 40
0.2702783064
 40
0.4174365418
 40
0.5617781925
 40
0.6954479477
 40
0.8127116203
 40
0.8646743896
 40
0.9125102982
 40
0.9571382578
 40
1.0
 40
1.0
 40
1.0
 40
1.0
 10
81.4718224962
 20
188.9226862456
 30
0.0
 10
81.6198744877
 20
189.0081635925
 30
0.0
 10
81.9072578124
 20
189.2293027891
 30
0.0
 10
82.2750605357
 20
189.6477930357
 30
0.0
 10
82.5778302259
 20
190.140205933
 30
0.0
 10
82.7904966063
 20
190.6665755836
 30
0.0
 10
82.8960560462
 20
191.1840790424
 30
0.0
 10
82.8866027867
 20
191.5918594393
 30
0.0
 10
82.8111036992
 20
191.8715342892
 30
0.0
 10
82.7270709714
 20
192.0455018388
 30
0.0
 10
82.6145551313
 20
192.1877028964
 30
0.0
 10
82.5211147421
 20
192.2592820083
 30
0.0
 10
82.4718009505
 20
192.2877437069
 30
0.0
  0
SPLINE
  5
418
100
AcDbEntity
  8
0
100
AcDbSpline
 62
7
  6
CONTINUOUS
 70
0
 71
3
 72
11
 73
7
 74
0
 42
0.0000001
 43
0.0000001
 44
0.0000000001
 40
0.0
 40
0.0
 40
0.0
 40
0.0
 40
0.2897733512
 40
0.5490657165
 40
0.7822241652
 40
1.0
 40
1.0
 40
1.0
 40
1.0
 10
99.5029497374
 20
200.5576045144
 30
0.0
 10
99.3273919258
 20
200.4562467697
 30
0.0
 10
99.0089244387
 20
200.2369924109
 30
0.0
 10
98.6284349545
 20
199.8369560902
 30
0.0
 10
98.3876715138
 20
199.3945716237
 30
0.0
 10
98.3314073228
 20
199.0769906769
 30
0.0
 10
98.3314073247
 20
198.9246414963
 30
0.0
  0
SPLINE
  5
419
100
AcDbEntity
  8
0
100
AcDbSpline
 62
7
  6
CONTINUOUS
 70
0
 71
3
 72
15
 73
11
 74
0
 42
0.0000001
 43
0.0000001
 44
0.0000000001
 40
0.0
 40
0.0
 40
0.0
 40
0.0
 40
0.1141447985
 40
0.2373324971
 40
0.3669747555
 40
0.5000005214
 40
0.6330262147
 40
0.7626682613
 40
0.8858556261
 40
1.0
 40
1.0
 40
1.0
 40
1.0
 10
105.1598039868
 20
200.5576181118
 30
0.0
 10
104.9661920381
 20
200.6693974937
 30
0.0
 10
104.5427699719
 20
200.8665423038
 30
0.0
 10
103.853296714
 20
201.0761437071
 30
0.0
 10
103.1067899702
 20
201.2050868942
 30
0.0
 10
102.3313720921
 20
201.2486418544
 30
0.0
 10
101.555954834
 20
201.2050832139
 30
0.0
 10
100.8094499215
 20
201.0761364823
 30
0.0
 10
100.1199796319
 20
200.8665318014
 30
0.0
 10
99.6965601597
 20
200.6693848766
 30
0.0
 10
99.5029497374
 20
200.5576045144
 30
0.0
  0
SPLINE
  5
41A
100
AcDbEntity
  8
0
100
AcDbSpline
 62
7
  6
CONTINUOUS
 70
0
 71
3
 72
11
 73
7
 74
0
 42
0.0000001
 43
0.0000001
 44
0.0000000001
 40
0.0
 40
0.0
 40
0.0
 40
0.0
 40
0.2191895662
 40
0.4529220188
 40
0.7116628037
 40
1.0
 40
1.0
 40
1.0
 40
1.0
 10
85.178850021
 20
197.1691610085
 30
0.0
 10
85.178869504
 20
197.2796333888
 30
0.0
 10
85.1395471619
 20
197.5093658561
 30
0.0
 10
84.9708479393
 20
197.8311829175
 30
0.0
 10
84.7031061624
 20
198.1242485754
 30
0.0
 10
84.4780299087
 20
198.2865974391
 30
0.0
 10
84.3538539898
 20
198.3620900273
 30
0.0
  0
SPLINE
  5
41B
100
AcDbEntity
  8
0
100
AcDbSpline
 62
7
  6
CONTINUOUS
 70
0
 71
3
 72
11
 73
7
 74
0
 42
0.0000001
 43
0.0000001
 44
0.0000000001
 40
0.0
 40
0.0
 40
0.0
 40
0.0
 40
0.2177796629
 40
0.4509238111
 40
0.7102593659
 40
1.0
 40
1.0
 40
1.0
 40
1.0
 10
36.0348914915
 20
198.1079287432
 30
0.0
 10
36.0349116589
 20
197.9936656606
 30
0.0
 10
35.9926560805
 20
197.7554940542
 30
0.0
 10
35.8121268123
 20
197.4236754661
 30
0.0
 10
35.5267265566
 20
197.1236768241
 30
0.0
 10
35.2878910976
 20
196.9592156627
 30
0.0
 10
35.1562385379
 20
196.8832064756
 30
0.0
  0
SPLINE
  5
41C
100
AcDbEntity
  8
0
100
AcDbSpline
 62
7
  6
CONTINUOUS
 70
0
 71
3
 72
9
 73
5
 74
0
 42
0.0000001
 43
0.0000001
 44
0.0000000001
 40
0.0
 40
0.0
 40
0.0
 40
0.0
 40
0.2444296014
 40
1.0
 40
1.0
 40
1.0
 40
1.0
 10
60.9583318617
 20
201.8884298709
 30
0.0
 10
60.9354330802
 20
201.9574577176
 30
0.0
 10
60.8334344123
 20
202.2370709111
 30
0.0
 10
60.6989085889
 20
202.504518691
 30
0.0
 10
60.5829955631
 20
202.697142166
 30
0.0
  0
SPLINE
  5
41D
100
AcDbEntity
  8
0
100
AcDbSpline
 62
7
  6
CONTINUOUS
 70
0
 71
3
 72
11
 73
7
 74
0
 42
0.0000001
 43
0.0000001
 44
0.0000000001
 40
0.0
 40
0.0
 40
0.0
 40
0.0
 40
0.2793877914
 40
0.5352676595
 40
0.7727688331
 40
1.0
 40
1.0
 40
1.0
 40
1.0
 10
45.0216741239
 20
205.7588430584
 30
0.0
 10
44.8080637055
 20
205.5852095429
 30
0.0
 10
44.4229875658
 20
205.2203751343
 30
0.0
 10
43.976266598
 20
204.5971419754
 30
0.0
 10
43.6998705338
 20
203.9358324177
 30
0.0
 10
43.6368439108
 20
203.4758208763
 30
0.0
 10
43.636849056
 20
203.2519322313
 30
0.0
  0
SPLINE
  5
41E
100
AcDbEntity
  8
0
100
AcDbSpline
 62
7
  6
CONTINUOUS
 70
0
 71
3
 72
11
 73
7
 74
0
 42
0.0000001
 43
0.0000001
 44
0.0000000001
 40
0.0
 40
0.0
 40
0.0
 40
0.0
 40
0.2846861367
 40
0.5420911666
 40
0.7773862295
 40
1.0
 40
1.0
 40
1.0
 40
1.0
 10
46.5421949375
 20
213.6446646574
 30
0.0
 10
46.3283911482
 20
213.4976527225
 30
0.0
 10
45.9417335425
 20
213.1851310286
 30
0.0
 10
45.4867476596
 20
212.6345647349
 30
0.0
 10
45.2023520787
 20
212.0395674296
 30
0.0
 10
45.1368829962
 20
211.6198519353
 30
0.0
 10
45.1368624075
 20
211.4169563973
 30
0.0
  0
SPLINE
  5
41F
100
AcDbEntity
  8
0
100
AcDbSpline
 62
7
  6
CONTINUOUS
 70
0
 71
3
 72
9
 73
5
 74
0
 42
0.0000001
 43
0.0000001
 44
0.0000000001
 40
0.0
 40
0.0
 40
0.0
 40
0.0
 40
0.2588906838
 40
1.0
 40
1.0
 40
1.0
 40
1.0
 10
47.4245151373
 20
214.3767227758
 30
0.0
 10
47.3695595056
 20
214.3449943164
 30
0.0
 10
47.1597032136
 20
214.2183489561
 30
0.0
 10
46.9597260999
 20
214.0749541851
 30
0.0
 10
46.8202025099
 20
213.9586287001
 30
0.0
  0
SPLINE
  5
420
100
AcDbEntity
  8
0
100
AcDbSpline
 62
7
  6
CONTINUOUS
 70
0
 71
3
 72
11
 73
7
 74
0
 42
0.0000001
 43
0.0000001
 44
0.0000000001
 40
0.0
 40
0.0
 40
0.0
 40
0.0
 40
0.2766006214
 40
0.5317424179
 40
0.7704184616
 40
1.0
 40
1.0
 40
1.0
 40
1.0
 10
46.7335845005
 20
213.8840736649
 30
0.0
 10
46.6020492181
 20
213.7671394354
 30
0.0
 10
46.3653228463
 20
213.5227936665
 30
0.0
 10
46.0928039565
 20
213.1114748521
 30
0.0
 10
45.9249217413
 20
212.6787089061
 30
0.0
 10
45.8868740508
 20
212.3795387185
 30
0.0
 10
45.8868592483
 20
212.2334588131
 30
0.0
  0
SPLINE
  5
421
100
AcDbEntity
  8
0
100
AcDbSpline
 62
7
  6
CONTINUOUS
 70
0
 71
3
 72
11
 73
7
 74
0
 42
0.0000001
 43
0.0000001
 44
0.0000000001
 40
0.0
 40
0.0
 40
0.0
 40
0.0
 40
0.2228964003
 40
0.4583021121
 40
0.7156030448
 40
1.0
 40
1.0
 40
1.0
 40
1.0
 10
113.9580805031
 20
192.0660751951
 30
0.0
 10
113.9580805018
 20
192.1667801478
 30
0.0
 10
113.925815936
 20
192.3749973271
 30
0.0
 10
113.7857609198
 20
192.6704764856
 30
0.0
 10
113.5614458606
 20
192.9442233282
 30
0.0
 10
113.3706411019
 20
193.0999122113
 30
0.0
 10
113.2651165016
 20
193.1732231686
 30
0.0
  0
SPLINE
  5
422
100
AcDbEntity
  8
0
100
AcDbSpline
 62
7
  6
CONTINUOUS
 70
0
 71
3
 72
11
 73
7
 74
0
 42
0.0000001
 43
0.0000001
 44
0.0000000001
 40
0.0
 40
0.0
 40
0.0
 40
0.0
 40
0.2219807049
 40
0.4569660397
 40
0.714599061
 40
1.0
 40
1.0
 40
1.0
 40
1.0
 10
113.9580805031
 20
189.6165679437
 30
0.0
 10
113.9580805044
 20
189.5134790156
 30
0.0
 10
113.9241788776
 20
189.300033579
 30
0.0
 10
113.7773611607
 20
188.9980559378
 30
0.0
 10
113.5427358473
 20
188.7193998745
 30
0.0
 10
113.3437291781
 20
188.5619248575
 30
0.0
 10
113.2337359121
 20
188.4879738192
 30
0.0
  0
SPLINE
  5
423
100
AcDbEntity
  8
0
100
AcDbSpline
 62
7
  6
CONTINUOUS
 70
0
 71
3
 72
9
 73
5
 74
0
 42
0.0000001
 43
0.0000001
 44
0.0000000001
 40
0.0
 40
0.0
 40
0.0
 40
0.0
 40
0.2444296014
 40
1.0
 40
1.0
 40
1.0
 40
1.0
 10
77.9288239549
 20
211.6862895639
 30
0.0
 10
77.9059251734
 20
211.7553174106
 30
0.0
 10
77.8039265054
 20
212.034930604
 30
0.0
 10
77.669400682
 20
212.3023783839
 30
0.0
 10
77.5534876563
 20
212.4950018589
 30
0.0
  0
SPLINE
  5
424
100
AcDbEntity
  8
0
100
AcDbSpline
 62
7
  6
CONTINUOUS
 70
0
 71
3
 72
11
 73
7
 74
0
 42
0.0000001
 43
0.0000001
 44
0.0000000001
 40
0.0
 40
0.0
 40
0.0
 40
0.0
 40
0.2177753738
 40
0.4509336309
 40
0.7102261693
 40
1.0
 40
1.0
 40
1.0
 40
1.0
 10
77.7543691311
 20
172.8786208385
 30
0.0
 10
77.7543691296
 20
172.9928839539
 30
0.0
 10
77.7121700229
 20
173.2310724123
 30
0.0
 10
77.531593536
 20
173.5628639747
 30
0.0
 10
77.246220627
 20
173.8628934391
 30
0.0
 10
77.0073654787
 20
174.0273348359
 30
0.0
 10
76.8756946578
 20
174.1033533001
 30
0.0
  0
SPLINE
  5
425
100
AcDbEntity
  8
0
100
AcDbSpline
 62
7
  6
CONTINUOUS
 70
0
 71
3
 72
10
 73
6
 74
0
 42
0.0000001
 43
0.0000001
 44
0.0000000001
 40
0.0
 40
0.0
 40
0.0
 40
0.0
 40
0.5197482181
 40
0.7626662032
 40
1.0
 40
1.0
 40
1.0
 40
1.0
 10
61.3211835755
 20
214.4852555871
 30
0.0
 10
61.1010382494
 20
214.2151703856
 30
0.0
 10
60.8268628529
 20
213.769980733
 30
0.0
 10
60.638560481
 20
213.1234817214
 30
0.0
 10
60.6073384138
 20
212.8006493703
 30
0.0
 10
60.6073535437
 20
212.6415407275
 30
0.0
  0
SPLINE
  5
426
100
AcDbEntity
  8
0
100
AcDbSpline
 62
7
  6
CONTINUOUS
 70
0
 71
3
 72
11
 73
7
 74
0
 42
0.0000001
 43
0.0000001
 44
0.0000000001
 40
0.0
 40
0.0
 40
0.0
 40
0.0
 40
0.2177753738
 40
0.4509336309
 40
0.7102261693
 40
1.0
 40
1.0
 40
1.0
 40
1.0
 10
113.2509817592
 20
193.3724773628
 30
0.0
 10
113.2509817577
 20
193.4867404783
 30
0.0
 10
113.208782651
 20
193.7249289367
 30
0.0
 10
113.0282061641
 20
194.056720499
 30
0.0
 10
112.7428332551
 20
194.3567499634
 30
0.0
 10
112.5039781068
 20
194.5211913603
 30
0.0
 10
112.3723072859
 20
194.5972098244
 30
0.0
  0
SPLINE
  5
427
100
AcDbEntity
  8
0
100
AcDbSpline
 62
7
  6
CONTINUOUS
 70
0
 71
3
 72
12
 73
8
 74
0
 42
0.0000001
 43
0.0000001
 44
0.0000000001
 40
0.0
 40
0.0
 40
0.0
 40
0.0
 40
0.2895810204
 40
0.548637375
 40
0.7816378622
 40
0.8918387092
 40
1.0
 40
1.0
 40
1.0
 40
1.0
 10
63.3343426427
 20
220.7044315148
 30
0.0
 10
63.0380596443
 20
220.5333734671
 30
0.0
 10
62.5006313085
 20
220.1632351496
 30
0.0
 10
61.8585890475
 20
219.4888475798
 30
0.0
 10
61.5138206954
 20
218.8533772816
 30
0.0
 10
61.3796050544
 20
218.3350986296
 30
0.0
 10
61.3573486538
 20
218.0765906365
 30
0.0
 10
61.3573447565
 20
217.9488064188
 30
0.0
  0
SPLINE
  5
428
100
AcDbEntity
  8
0
100
AcDbSpline
 62
7
  6
CONTINUOUS
 70
0
 71
3
 72
9
 73
5
 74
0
 42
0.0000001
 43
0.0000001
 44
0.0000000001
 40
0.0
 40
0.0
 40
0.0
 40
0.0
 40
0.2546609695
 40
1.0
 40
1.0
 40
1.0
 40
1.0
 10
66.798329636
 20
221.7718770599
 30
0.0
 10
66.6605949812
 20
221.7561471057
 30
0.0
 10
66.1209602752
 20
221.6843566157
 30
0.0
 10
65.5864244562
 20
221.5725487177
 30
0.0
 10
65.1953148218
 20
221.4645729053
 30
0.0
  0
SPLINE
  5
429
100
AcDbEntity
  8
0
100
AcDbSpline
 62
7
  6
CONTINUOUS
 70
0
 71
3
 72
9
 73
5
 74
0
 42
0.0000001
 43
0.0000001
 44
0.0000000001
 40
0.0
 40
0.0
 40
0.0
 40
0.0
 40
0.5171518061
 40
1.0
 40
1.0
 40
1.0
 40
1.0
 10
65.1953148218
 20
221.4645729053
 30
0.0
 10
64.8606139283
 20
221.3721701678
 30
0.0
 10
64.2224482292
 20
221.15830139
 30
0.0
 10
63.615099767
 20
220.8665257486
 30
0.0
 10
63.3343426427
 20
220.7044315148
 30
0.0
  0
SPLINE
  5
42A
100
AcDbEntity
  8
0
100
AcDbSpline
 62
7
  6
CONTINUOUS
 70
0
 71
3
 72
11
 73
7
 74
0
 42
0.0000001
 43
0.0000001
 44
0.0000000001
 40
0.0
 40
0.0
 40
0.0
 40
0.0
 40
0.2897756264
 40
0.5490692242
 40
0.7822277401
 40
1.0
 40
1.0
 40
1.0
 40
1.0
 10
65.2788943868
 20
221.2147742742
 30
0.0
 10
65.1033354881
 20
221.1134159017
 30
0.0
 10
64.7848667517
 20
220.8941598083
 30
0.0
 10
64.4043784595
 20
220.4941203518
 30
0.0
 10
64.1636177953
 20
220.0517365274
 30
0.0
 10
64.1073595791
 20
219.7341576832
 30
0.0
 10
64.1073607454
 20
219.5818112563
 30
0.0
  0
SPLINE
  5
42B
100
AcDbEntity
  8
0
100
AcDbSpline
 62
7
  6
CONTINUOUS
 70
0
 71
3
 72
11
 73
7
 74
0
 42
0.0000001
 43
0.0000001
 44
0.0000000001
 40
0.0
 40
0.0
 40
0.0
 40
0.0
 40
0.217772663
 40
0.4509314042
 40
0.7102278685
 40
1.0
 40
1.0
 40
1.0
 40
1.0
 10
106.3313591234
 20
196.0668830332
 30
0.0
 10
106.3313627521
 20
195.9145364518
 30
0.0
 10
106.2750984892
 20
195.5969580328
 30
0.0
 10
106.0343419282
 20
195.1545707788
 30
0.0
 10
105.653851327
 20
194.7545334373
 30
0.0
 10
105.3353841732
 20
194.5352770836
 30
0.0
 10
105.1598275386
 20
194.4339200183
 30
0.0
  0
SPLINE
  5
42C
100
AcDbEntity
  8
0
100
AcDbSpline
 62
7
  6
CONTINUOUS
 70
0
 71
3
 72
9
 73
5
 74
0
 42
0.0000001
 43
0.0000001
 44
0.0000000001
 40
0.0
 40
0.0
 40
0.0
 40
0.0
 40
0.4752390475
 40
1.0
 40
1.0
 40
1.0
 40
1.0
 10
30.9135978508
 20
195.7400928935
 30
0.0
 10
31.161282876
 20
195.5970951126
 30
0.0
 10
31.7273372617
 20
195.3729546416
 30
0.0
 10
32.3245838225
 20
195.2721076564
 30
0.0
 10
32.6394586775
 20
195.2479152724
 30
0.0
  0
SPLINE
  5
42D
100
AcDbEntity
  8
0
100
AcDbSpline
 62
7
  6
CONTINUOUS
 70
0
 71
3
 72
17
 73
13
 74
0
 42
0.0000001
 43
0.0000001
 44
0.0000000001
 40
0.0
 40
0.0
 40
0.0
 40
0.0
 40
0.1286926234
 40
0.2702773362
 40
0.4174341499
 40
0.5617794299
 40
0.6954504977
 40
0.8127129602
 40
0.8646788349
 40
0.9125109856
 40
0.9571404061
 40
1.0
 40
1.0
 40
1.0
 40
1.0
 10
76.8757123216
 20
170.3474947075
 30
0.0
 10
76.6536342952
 20
170.2192786646
 30
0.0
 10
76.1508312296
 20
170.0118157971
 30
0.0
 10
75.3313537342
 20
169.8478942667
 30
0.0
 10
74.4646156553
 20
169.823880302
 30
0.0
 10
73.6213394391
 20
169.9423681897
 30
0.0
 10
72.8698849168
 20
170.1933488605
 30
0.0
 10
72.3473077297
 20
170.5115195589
 30
0.0
 10
72.0405413224
 20
170.8192792638
 30
0.0
 10
71.8776789886
 20
171.0589761339
 30
0.0
 10
71.7772150235
 20
171.3117356867
 30
0.0
 10
71.7544160905
 20
171.4868148375
 30
0.0
 10
71.7544010171
 20
171.572216967
 30
0.0
  0
SPLINE
  5
42E
100
AcDbEntity
  8
0
100
AcDbSpline
 62
7
  6
CONTINUOUS
 70
0
 71
3
 72
11
 73
7
 74
0
 42
0.0000001
 43
0.0000001
 44
0.0000000001
 40
0.0
 40
0.0
 40
0.0
 40
0.0
 40
0.2177845113
 40
0.450917848
 40
0.7103083905
 40
1.0
 40
1.0
 40
1.0
 40
1.0
 10
82.4718009505
 20
192.2877437069
 30
0.0
 10
82.4058243739
 20
192.3258224141
 30
0.0
 10
82.2542514359
 20
192.380845549
 30
0.0
 10
82.0024739444
 20
192.3872127211
 30
0.0
 10
81.7341494225
 20
192.3224102118
 30
0.0
 10
81.5595756276
 20
192.2393599057
 30
0.0
 10
81.4718224962
 20
192.1886959141
 30
0.0
  0
SPLINE
  5
42F
100
AcDbEntity
  8
0
100
AcDbSpline
 62
7
  6
CONTINUOUS
 70
0
 71
3
 72
13
 73
9
 74
0
 42
0.0000001
 43
0.0000001
 44
0.0000000001
 40
0.0
 40
0.0
 40
0.0
 40
0.0
 40
0.1142483233
 40
0.2375469957
 40
0.4999994774
 40
0.7624522452
 40
0.8857512516
 40
1.0
 40
1.0
 40
1.0
 40
1.0
 10
72.6330539707
 20
175.246446486
 30
0.0
 10
72.7782643956
 20
175.3302832635
 30
0.0
 10
73.0958488258
 20
175.4781779619
 30
0.0
 10
73.7996776092
 20
175.6919400645
 30
0.0
 10
74.754370991
 20
175.7957810058
 30
0.0
 10
75.7090652909
 20
175.6919444786
 30
0.0
 10
76.4128967118
 20
175.4781858383
 30
0.0
 10
76.7304830881
 20
175.3302927263
 30
0.0
 10
76.8756946578
 20
175.2464566841
 30
0.0
  0
SPLINE
  5
430
100
AcDbEntity
  8
0
100
AcDbSpline
 62
7
  6
CONTINUOUS
 70
0
 71
3
 72
14
 73
10
 74
0
 42
0.0000001
 43
0.0000001
 44
0.0000000001
 40
0.0
 40
0.0
 40
0.0
 40
0.0
 40
0.0923833624
 40
0.1921031356
 40
0.3019908467
 40
0.4232511131
 40
0.5555346935
 40
0.6973643847
 40
1.0
 40
1.0
 40
1.0
 40
1.0
 10
61.2237984155
 20
185.8622565786
 30
0.0
 10
61.2446195481
 20
185.7257903418
 30
0.0
 10
61.3323540724
 20
185.4475733542
 30
0.0
 10
61.5799239951
 20
185.0652365995
 30
0.0
 10
61.9355745375
 20
184.7170218745
 30
0.0
 10
62.3872962062
 20
184.4113558663
 30
0.0
 10
62.9221319994
 20
184.1558549607
 30
0.0
 10
63.7421840828
 20
183.8856947045
 30
0.0
 10
64.4057782842
 20
183.7874018127
 30
0.0
 10
64.8574133535
 20
183.7644354751
 30
0.0
  0
SPLINE
  5
431
100
AcDbEntity
  8
0
100
AcDbSpline
 62
7
  6
CONTINUOUS
 70
0
 71
3
 72
17
 73
13
 74
0
 42
0.0000001
 43
0.0000001
 44
0.0000000001
 40
0.0
 40
0.0
 40
0.0
 40
0.0
 40
0.1286926234
 40
0.2702773362
 40
0.4174341499
 40
0.5617794299
 40
0.6954504977
 40
0.8127129602
 40
0.8646788349
 40
0.9125109856
 40
0.9571404061
 40
1.0
 40
1.0
 40
1.0
 40
1.0
 10
30.913580187
 20
199.3326510027
 30
0.0
 10
31.1356582134
 20
199.4608670456
 30
0.0
 10
31.638461279
 20
199.6683299131
 30
0.0
 10
32.4579387744
 20
199.8322514435
 30
0.0
 10
33.3246768533
 20
199.8562654082
 30
0.0
 10
34.1679530695
 20
199.7377775205
 30
0.0
 10
34.9194075918
 20
199.4867968498
 30
0.0
 10
35.4419847789
 20
199.1686261513
 30
0.0
 10
35.7487511862
 20
198.8608664464
 30
0.0
 10
35.91161352
 20
198.6211695763
 30
0.0
 10
36.0120774851
 20
198.3684100235
 30
0.0
 10
36.0348764181
 20
198.1933308727
 30
0.0
 10
36.0348914915
 20
198.1079287432
 30
0.0
  0
SPLINE
  5
432
100
AcDbEntity
  8
0
100
AcDbSpline
 62
7
  6
CONTINUOUS
 70
0
 71
3
 72
11
 73
7
 74
0
 42
0.0000001
 43
0.0000001
 44
0.0000000001
 40
0.0
 40
0.0
 40
0.0
 40
0.0
 40
0.2897479759
 40
0.5490808555
 40
0.7822230711
 40
1.0
 40
1.0
 40
1.0
 40
1.0
 10
63.0870579614
 20
184.8401649858
 30
0.0
 10
62.955399724
 20
184.916176185
 30
0.0
 10
62.7165573971
 20
185.0806391131
 30
0.0
 10
62.4311522745
 20
185.3806424828
 30
0.0
 10
62.250619767
 20
185.712461406
 30
0.0
 10
62.2083674087
 20
185.9506342438
 30
0.0
 10
62.2083868371
 20
186.0648974486
 30
0.0
  0
SPLINE
  5
433
100
AcDbEntity
  8
0
100
AcDbSpline
 62
7
  6
CONTINUOUS
 70
0
 71
3
 72
16
 73
12
 74
0
 42
0.0000001
 43
0.0000001
 44
0.0000000001
 40
0.0
 40
0.0
 40
0.0
 40
0.0
 40
0.0428763199
 40
0.0875230218
 40
0.1869281048
 40
0.3042402151
 40
0.4379662944
 40
0.5823718203
 40
0.7295947109
 40
0.8712550786
 40
1.0
 40
1.0
 40
1.0
 40
1.0
 10
78.954074284
 20
190.2772707771
 30
0.0
 10
78.9170867855
 20
190.2986052302
 30
0.0
 10
78.8469960176
 20
190.3522725565
 30
0.0
 10
78.7305028607
 20
190.4995461408
 30
0.0
 10
78.6437096573
 20
190.7523119715
 30
0.0
 10
78.6359873003
 20
191.1046393974
 30
0.0
 10
78.7149890653
 20
191.4932086005
 30
0.0
 10
78.8745371368
 20
191.8878516731
 30
0.0
 10
79.1015972019
 20
192.257218517
 30
0.0
 10
79.3774716984
 20
192.5710738252
 30
0.0
 10
79.5930118578
 20
192.736940122
 30
0.0
 10
79.7040481833
 20
192.8010465918
 30
0.0
  0
SPLINE
  5
434
100
AcDbEntity
  8
0
100
AcDbSpline
 62
7
  6
CONTINUOUS
 70
0
 71
3
 72
11
 73
7
 74
0
 42
0.0000001
 43
0.0000001
 44
0.0000000001
 40
0.0
 40
0.0
 40
0.0
 40
0.0
 40
0.289375018
 40
0.5484713338
 40
0.78182333
 40
1.0
 40
1.0
 40
1.0
 40
1.0
 10
84.3157264217
 20
195.953496637
 30
0.0
 10
84.4452390109
 20
196.029376381
 30
0.0
 10
84.6801079123
 20
196.1932311061
 30
0.0
 10
84.9603414328
 20
196.4913038809
 30
0.0
 10
85.1375543451
 20
196.8202083223
 30
0.0
 10
85.178830062
 20
197.0559887783
 30
0.0
 10
85.178850021
 20
197.1691610085
 30
0.0
  0
SPLINE
  5
435
100
AcDbEntity
  8
0
100
AcDbSpline
 62
7
  6
CONTINUOUS
 70
0
 71
3
 72
17
 73
13
 74
0
 42
0.0000001
 43
0.0000001
 44
0.0000000001
 40
0.0
 40
0.0
 40
0.0
 40
0.0
 40
0.12868996
 40
0.2702722062
 40
0.4174312903
 40
0.5617781732
 40
0.6954492761
 40
0.8127130379
 40
0.8646790319
 40
0.9125109796
 40
0.9571404657
 40
1.0
 40
1.0
 40
1.0
 40
1.0
 10
63.0870579614
 20
186.1465688532
 30
0.0
 10
63.3091321094
 20
186.0183571846
 30
0.0
 10
63.8119251707
 20
185.810899801
 30
0.0
 10
64.6313953334
 20
185.6469746036
 30
0.0
 10
65.4981355782
 20
185.6229614141
 30
0.0
 10
66.3414192143
 20
185.7414469962
 30
0.0
 10
67.0928785792
 20
185.9924287262
 30
0.0
 10
67.6154591924
 20
186.3105995221
 30
0.0
 10
67.9222237898
 20
186.6183641401
 30
0.0
 10
68.0850851807
 20
186.8580606135
 30
0.0
 10
68.1855514103
 20
187.110819483
 30
0.0
 10
68.2083428664
 20
187.2858993843
 30
0.0
 10
68.2083579279
 20
187.3713013155
 30
0.0
  0
SPLINE
  5
436
100
AcDbEntity
  8
0
100
AcDbSpline
 62
7
  6
CONTINUOUS
 70
0
 71
3
 72
12
 73
8
 74
0
 42
0.0000001
 43
0.0000001
 44
0.0000000001
 40
0.0
 40
0.0
 40
0.0
 40
0.0
 40
0.1081612941
 40
0.2183621432
 40
0.4513626358
 40
0.7104189831
 40
1.0
 40
1.0
 40
1.0
 40
1.0
 10
74.8573218246
 20
212.6415407135
 30
0.0
 10
74.8573179363
 20
212.5137564918
 30
0.0
 10
74.8350615166
 20
212.2552484926
 30
0.0
 10
74.7008458879
 20
211.736969825
 30
0.0
 10
74.3560775081
 20
211.1014995367
 30
0.0
 10
73.7140352599
 20
210.427111967
 30
0.0
 10
73.1766069274
 20
210.0569736634
 30
0.0
 10
72.8803239322
 20
209.8859156175
 30
0.0
  0
SPLINE
  5
437
100
AcDbEntity
  8
0
100
AcDbSpline
 62
7
  6
CONTINUOUS
 70
0
 71
3
 72
11
 73
7
 74
0
 42
0.0000001
 43
0.0000001
 44
0.0000000001
 40
0.0
 40
0.0
 40
0.0
 40
0.0
 40
0.2896408744
 40
0.5491100035
 40
0.7822350384
 40
1.0
 40
1.0
 40
1.0
 40
1.0
 10
79.7040481833
 20
192.8010465918
 30
0.0
 10
79.7698512886
 20
192.8390378056
 30
0.0
 10
79.9007990407
 20
192.9013041045
 30
0.0
 10
80.1020326016
 20
192.9499366923
 30
0.0
 10
80.2908933906
 20
192.9451887758
 30
0.0
 10
80.4045366895
 20
192.9038584155
 30
0.0
 10
80.4540220827
 20
192.8753151552
 30
0.0
  0
SPLINE
  5
438
100
AcDbEntity
  8
0
100
AcDbSpline
 62
7
  6
CONTINUOUS
 70
0
 71
3
 72
14
 73
10
 74
0
 42
0.0000001
 43
0.0000001
 44
0.0000000001
 40
0.0
 40
0.0
 40
0.0
 40
0.0
 40
0.3026355409
 40
0.4444652228
 40
0.576748806
 40
0.6980090839
 40
0.8078968117
 40
0.907616619
 40
1.0
 40
1.0
 40
1.0
 40
1.0
 10
64.8574133535
 20
181.7231794322
 30
0.0
 10
64.4057783959
 20
181.7461457642
 30
0.0
 10
63.7421843204
 20
181.8444386171
 30
0.0
 10
62.9221323386
 20
182.1145987886
 30
0.0
 10
62.3872965156
 20
182.3700996472
 30
0.0
 10
61.9355747785
 20
182.6757656326
 30
0.0
 10
61.5799241221
 20
183.0239803801
 30
0.0
 10
61.3323541482
 20
183.4063172227
 30
0.0
 10
61.2446195523
 20
183.6845342715
 30
0.0
 10
61.2237984155
 20
183.8210005358
 30
0.0
  0
SPLINE
  5
439
100
AcDbEntity
  8
0
100
AcDbSpline
 62
7
  6
CONTINUOUS
 70
0
 71
3
 72
17
 73
13
 74
0
 42
0.0000001
 43
0.0000001
 44
0.0000000001
 40
0.0
 40
0.0
 40
0.0
 40
0.0
 40
0.1286903759
 40
0.2702749122
 40
0.4174292505
 40
0.5617762177
 40
0.6954483458
 40
0.8127147475
 40
0.8646780754
 40
0.9125121143
 40
0.957141621
 40
1.0
 40
1.0
 40
1.0
 40
1.0
 10
105.1598275386
 20
194.4339200183
 30
0.0
 10
104.8637283494
 20
194.2629680922
 30
0.0
 10
104.1933277693
 20
193.9863599776
 30
0.0
 10
103.1007084429
 20
193.7677740441
 30
0.0
 10
101.9450595321
 20
193.735748377
 30
0.0
 10
100.8206828564
 20
193.8937429527
 30
0.0
 10
99.8187570873
 20
194.2284246156
 30
0.0
 10
99.1219012458
 20
194.6525681939
 30
0.0
 10
98.7129662304
 20
195.0630034676
 30
0.0
 10
98.4957304572
 20
195.3825414271
 30
0.0
 10
98.3618410863
 20
195.7195845783
 30
0.0
 10
98.3314208647
 20
195.9530166345
 30
0.0
 10
98.3314181525
 20
196.0668830395
 30
0.0
  0
SPLINE
  5
43A
100
AcDbEntity
  8
0
100
AcDbSpline
 62
7
  6
CONTINUOUS
 70
0
 71
3
 72
12
 73
8
 74
0
 42
0.0000001
 43
0.0000001
 44
0.0000000001
 40
0.0
 40
0.0
 40
0.0
 40
0.0
 40
0.1081603208
 40
0.2183607076
 40
0.4513642752
 40
0.7104112952
 40
1.0
 40
1.0
 40
1.0
 40
1.0
 10
75.6073130311
 20
210.6002846506
 30
0.0
 10
75.6073265324
 20
210.4583034723
 30
0.0
 10
75.5825993626
 20
210.1710714606
 30
0.0
 10
75.4334521279
 20
209.5952096119
 30
0.0
 10
75.0503786727
 20
208.8891436914
 30
0.0
 10
74.3370155783
 20
208.139805093
 30
0.0
 10
73.7398682659
 20
207.728548534
 30
0.0
 10
73.410656226
 20
207.5384790088
 30
0.0
  0
SPLINE
  5
43B
100
AcDbEntity
  8
0
100
AcDbSpline
 62
7
  6
CONTINUOUS
 70
0
 71
3
 72
9
 73
5
 74
0
 42
0.0000001
 43
0.0000001
 44
0.0000000001
 40
0.0
 40
0.0
 40
0.0
 40
0.0
 40
0.2563875355
 40
1.0
 40
1.0
 40
1.0
 40
1.0
 10
41.6906868255
 20
196.4582005321
 30
0.0
 10
41.6513555286
 20
196.5235610128
 30
0.0
 10
41.5044963696
 20
196.7823365996
 30
0.0
 10
41.3850114597
 20
197.0569215579
 30
0.0
 10
41.3153505269
 20
197.2669128272
 30
0.0
  0
SPLINE
  5
43C
100
AcDbEntity
  8
0
100
AcDbSpline
 62
7
  6
CONTINUOUS
 70
0
 71
3
 72
17
 73
13
 74
0
 42
0.0000001
 43
0.0000001
 44
0.0000000001
 40
0.0
 40
0.0
 40
0.0
 40
0.0
 40
0.0428575604
 40
0.0874859108
 40
0.1353172062
 40
0.1872823133
 40
0.3045426425
 40
0.438210377
 40
0.5825547796
 40
0.7297159944
 40
0.8713057371
 40
1.0
 40
1.0
 40
1.0
 40
1.0
 10
68.208352109
 20
186.0648974463
 30
0.0
 10
68.2083375887
 20
185.979499649
 30
0.0
 10
68.1855456502
 20
185.8044264531
 30
0.0
 10
68.0850832136
 20
185.5516752487
 30
0.0
 10
67.9222282655
 20
185.3119818415
 30
0.0
 10
67.6154764343
 20
185.0042200021
 30
0.0
 10
67.0929143897
 20
184.6860508844
 30
0.0
 10
66.3414775566
 20
184.4350671981
 30
0.0
 10
65.4982056765
 20
184.3165663842
 30
0.0
 10
64.6314527734
 20
184.3405685327
 30
0.0
 10
63.8119543536
 20
184.5044857226
 30
0.0
 10
63.309139012
 20
184.7119493321
 30
0.0
 10
63.0870579614
 20
184.8401649858
 30
0.0
  0
SPLINE
  5
43D
100
AcDbEntity
  8
0
100
AcDbSpline
 62
7
  6
CONTINUOUS
 70
0
 71
3
 72
11
 73
7
 74
0
 42
0.0000001
 43
0.0000001
 44
0.0000000001
 40
0.0
 40
0.0
 40
0.0
 40
0.0
 40
0.2897733512
 40
0.5490657165
 40
0.7822241652
 40
1.0
 40
1.0
 40
1.0
 40
1.0
 10
112.3723249497
 20
192.1477550993
 30
0.0
 10
112.5039933084
 20
192.2237734078
 30
0.0
 10
112.7428439237
 20
192.3882141769
 30
0.0
 10
113.0282110369
 20
192.6882414174
 30
0.0
 10
113.2087836174
 20
193.0200297673
 30
0.0
 10
113.2509817607
 20
193.2582154774
 30
0.0
 10
113.2509817592
 20
193.3724773628
 30
0.0
  0
SPLINE
  5
43E
100
AcDbEntity
  8
0
100
AcDbSpline
 62
7
  6
CONTINUOUS
 70
0
 71
3
 72
12
 73
8
 74
0
 42
0.0000001
 43
0.0000001
 44
0.0000000001
 40
0.0
 40
0.0
 40
0.0
 40
0.0
 40
0.1081589869
 40
0.2183608554
 40
0.4513554797
 40
0.7104291209
 40
1.0
 40
1.0
 40
1.0
 40
1.0
 10
56.3868203264
 20
211.4169563981
 30
0.0
 10
56.3868104267
 20
211.3175709457
 30
0.0
 10
56.3695453168
 20
211.1165061902
 30
0.0
 10
56.2650894912
 20
210.7134222745
 30
0.0
 10
55.996996333
 20
210.2191343688
 30
0.0
 10
55.4975926293
 20
209.6946316596
 30
0.0
 10
55.0796011538
 20
209.4067327177
 30
0.0
 10
54.8491672513
 20
209.2736924362
 30
0.0
  0
SPLINE
  5
43F
100
AcDbEntity
  8
0
100
AcDbSpline
 62
7
  6
CONTINUOUS
 70
0
 71
3
 72
11
 73
7
 74
0
 42
0.0000001
 43
0.0000001
 44
0.0000000001
 40
0.0
 40
0.0
 40
0.0
 40
0.0
 40
0.2897776971
 40
0.5490719787
 40
0.7822272299
 40
1.0
 40
1.0
 40
1.0
 40
1.0
 10
113.0794317309
 20
190.8413529315
 30
0.0
 10
113.2111016295
 20
190.9173721292
 30
0.0
 10
113.4499526133
 20
191.0818166013
 30
0.0
 10
113.7353181757
 20
191.3818459561
 30
0.0
 10
113.9158837833
 20
191.7136339365
 30
0.0
 10
113.9580805046
 20
191.951815295
 30
0.0
 10
113.9580805031
 20
192.0660751951
 30
0.0
  0
SPLINE
  5
440
100
AcDbEntity
  8
0
100
AcDbSpline
 62
7
  6
CONTINUOUS
 70
0
 71
3
 72
18
 73
14
 74
0
 42
0.0000001
 43
0.0000001
 44
0.0000000001
 40
0.0
 40
0.0
 40
0.0
 40
0.0
 40
0.0428473854
 40
0.0874642904
 40
0.1352855905
 40
0.1872370585
 40
0.2437280374
 40
0.3047335978
 40
0.4383684003
 40
0.5826764803
 40
0.7297923549
 40
0.8713437444
 40
1.0
 40
1.0
 40
1.0
 40
1.0
 10
45.8868592483
 20
212.2334588131
 30
0.0
 10
45.8868441041
 20
212.0840077952
 30
0.0
 10
45.9268566062
 20
211.7776399937
 30
0.0
 10
46.1025152607
 20
211.3352497681
 30
0.0
 10
46.3876449785
 20
210.9158726548
 30
0.0
 10
46.774103829
 20
210.5278375309
 30
0.0
 10
47.2529496245
 20
210.177884951
 30
0.0
 10
48.0243380719
 20
209.7585201759
 30
0.0
 10
49.1546613639
 20
209.3810193842
 30
0.0
 10
50.6295479877
 20
209.1739226827
 30
0.0
 10
52.1465928209
 20
209.2158268025
 30
0.0
 10
53.5806059875
 20
209.5027822657
 30
0.0
 10
54.4605368763
 20
209.865820341
 30
0.0
 10
54.8491672513
 20
210.0901948533
 30
0.0
  0
SPLINE
  5
441
100
AcDbEntity
  8
0
100
AcDbSpline
 62
7
  6
CONTINUOUS
 70
0
 71
3
 72
11
 73
7
 74
0
 42
0.0000001
 43
0.0000001
 44
0.0000000001
 40
0.0
 40
0.0
 40
0.0
 40
0.0
 40
0.217780861
 40
0.4509234132
 40
0.7102539949
 40
1.0
 40
1.0
 40
1.0
 40
1.0
 10
62.2083810181
 20
187.3713013142
 30
0.0
 10
62.2083608662
 20
187.2570357928
 30
0.0
 10
62.2506146981
 20
187.0188596179
 30
0.0
 10
62.4311541926
 20
186.6870426031
 30
0.0
 10
62.716558172
 20
186.3870402451
 30
0.0
 10
62.9554003272
 20
186.2225797042
 30
0.0
 10
63.0870579614
 20
186.1465688532
 30
0.0
  0
SPLINE
  5
442
100
AcDbEntity
  8
0
100
AcDbSpline
 62
7
  6
CONTINUOUS
 70
0
 71
3
 72
15
 73
11
 74
0
 42
0.0000001
 43
0.0000001
 44
0.0000000001
 40
0.0
 40
0.0
 40
0.0
 40
0.0
 40
0.1230330444
 40
0.257662499
 40
0.3986377425
 40
0.5397984923
 40
0.6749650276
 40
0.738641253
 40
0.7989583448
 40
1.0
 40
1.0
 40
1.0
 40
1.0
 10
81.4718224962
 20
192.1886959141
 30
0.0
 10
81.3424000647
 20
192.1139742845
 30
0.0
 10
81.0893581359
 20
191.9256007787
 30
0.0
 10
80.7561818839
 20
191.5716254456
 30
0.0
 10
80.4685951051
 20
191.1526559632
 30
0.0
 10
80.2452781262
 20
190.6955748129
 30
0.0
 10
80.1218943884
 20
190.299540856
 30
0.0
 10
80.0693764043
 20
189.9882188281
 30
0.0
 10
80.0414789246
 20
189.5963439516
 30
0.0
 10
80.0986142792
 20
189.2574358771
 30
0.0
 10
80.2326672817
 20
189.0533217423
 30
0.0
  0
SPLINE
  5
443
100
AcDbEntity
  8
0
100
AcDbSpline
 62
7
  6
CONTINUOUS
 70
0
 71
3
 72
9
 73
5
 74
0
 42
0.0000001
 43
0.0000001
 44
0.0000000001
 40
0.0
 40
0.0
 40
0.0
 40
0.0
 40
0.2581102902
 40
1.0
 40
1.0
 40
1.0
 40
1.0
 10
80.242526638
 20
189.0386567406
 30
0.0
 10
80.2579304768
 20
189.0162738198
 30
0.0
 10
80.3218511859
 20
188.9325920182
 30
0.0
 10
80.4042030453
 20
188.8626777883
 30
0.0
 10
80.4718440419
 20
188.8236384528
 30
0.0
  0
SPLINE
  5
444
100
AcDbEntity
  8
0
100
AcDbSpline
 62
7
  6
CONTINUOUS
 70
0
 71
3
 72
9
 73
5
 74
0
 42
0.0000001
 43
0.0000001
 44
0.0000000001
 40
0.0
 40
0.0
 40
0.0
 40
0.0
 40
0.4750938762
 40
1.0
 40
1.0
 40
1.0
 40
1.0
 10
112.3723249497
 20
190.8413512318
 30
0.0
 10
112.1190574432
 20
190.6951280416
 30
0.0
 10
111.5391056947
 20
190.4675702595
 30
0.0
 10
110.927439362
 20
190.3682917405
 30
0.0
 10
110.6050882405
 20
190.3461596865
 30
0.0
  0
SPLINE
  5
445
100
AcDbEntity
  8
0
100
AcDbSpline
 62
7
  6
CONTINUOUS
 70
0
 71
3
 72
9
 73
5
 74
0
 42
0.0000001
 43
0.0000001
 44
0.0000000001
 40
0.0
 40
0.0
 40
0.0
 40
0.0
 40
0.2563875355
 40
1.0
 40
1.0
 40
1.0
 40
1.0
 10
58.6611789186
 20
206.256060225
 30
0.0
 10
58.6218476217
 20
206.3214207057
 30
0.0
 10
58.4749884627
 20
206.5801962925
 30
0.0
 10
58.3555035528
 20
206.8547812508
 30
0.0
 10
58.28584262
 20
207.0647725201
 30
0.0
  0
SPLINE
  5
446
100
AcDbEntity
  8
0
100
AcDbSpline
 62
7
  6
CONTINUOUS
 70
0
 71
3
 72
11
 73
7
 74
0
 42
0.0000001
 43
0.0000001
 44
0.0000000001
 40
0.0
 40
0.0
 40
0.0
 40
0.0
 40
0.2897733512
 40
0.5490657165
 40
0.7822241652
 40
1.0
 40
1.0
 40
1.0
 40
1.0
 10
105.1598275386
 20
197.2916784782
 30
0.0
 10
105.3353853502
 20
197.393036223
 30
0.0
 10
105.6538528373
 20
197.6122905818
 30
0.0
 10
106.0343423215
 20
198.0123269025
 30
0.0
 10
106.2751057622
 20
198.4547113689
 30
0.0
 10
106.3313699532
 20
198.7722923158
 30
0.0
 10
106.3313699512
 20
198.9246414963
 30
0.0
  0
SPLINE
  5
447
100
AcDbEntity
  8
0
100
AcDbSpline
 62
7
  6
CONTINUOUS
 70
0
 71
3
 72
15
 73
11
 74
0
 42
0.0000001
 43
0.0000001
 44
0.0000000001
 40
0.0
 40
0.0
 40
0.0
 40
0.0
 40
0.1141447985
 40
0.2373324971
 40
0.3669747555
 40
0.5000005214
 40
0.6330262147
 40
0.7626682613
 40
0.8858556261
 40
1.0
 40
1.0
 40
1.0
 40
1.0
 10
99.5029732891
 20
197.2916648808
 30
0.0
 10
99.6965852378
 20
197.1798854989
 30
0.0
 10
100.120007304
 20
196.9827406889
 30
0.0
 10
100.809480562
 20
196.7731392856
 30
0.0
 10
101.5559873058
 20
196.6441960985
 30
0.0
 10
102.3314051838
 20
196.6006411383
 30
0.0
 10
103.106822442
 20
196.6441997788
 30
0.0
 10
103.8533273544
 20
196.7731465104
 30
0.0
 10
104.5427976441
 20
196.9827511912
 30
0.0
 10
104.9662171163
 20
197.179898116
 30
0.0
 10
105.1598275386
 20
197.2916784782
 30
0.0
  0
SPLINE
  5
448
100
AcDbEntity
  8
0
100
AcDbSpline
 62
7
  6
CONTINUOUS
 70
0
 71
3
 72
11
 73
7
 74
0
 42
0.0000001
 43
0.0000001
 44
0.0000000001
 40
0.0
 40
0.0
 40
0.0
 40
0.0
 40
0.2181692082
 40
0.4515211485
 40
0.7106215484
 40
1.0
 40
1.0
 40
1.0
 40
1.0
 10
85.1788442021
 20
195.8627571392
 30
0.0
 10
85.1788249586
 20
195.7495807221
 30
0.0
 10
85.137538969
 20
195.5137881524
 30
0.0
 10
84.9603085082
 20
195.1848654571
 30
0.0
 10
84.6800405178
 20
194.886778463
 30
0.0
 10
84.4451441729
 20
194.7229210357
 30
0.0
 10
84.315618213
 20
194.6470394486
 30
0.0
  0
SPLINE
  5
449
100
AcDbEntity
  8
0
100
AcDbSpline
 62
7
  6
CONTINUOUS
 70
0
 71
3
 72
12
 73
8
 74
0
 42
0.0000001
 43
0.0000001
 44
0.0000000001
 40
0.0
 40
0.0
 40
0.0
 40
0.0
 40
0.1081590056
 40
0.2183607065
 40
0.4513548963
 40
0.7104290909
 40
1.0
 40
1.0
 40
1.0
 40
1.0
 10
57.1368172374
 20
203.2519322269
 30
0.0
 10
57.1368059215
 20
203.1383488358
 30
0.0
 10
57.1170744453
 20
202.9085607032
 30
0.0
 10
56.9976965863
 20
202.4478939514
 30
0.0
 10
56.6913045297
 20
201.882993546
 30
0.0
 10
56.1205576567
 20
201.2835614447
 30
0.0
 10
55.6428525975
 20
200.9545337471
 30
0.0
 10
55.3794995452
 20
200.802487699
 30
0.0
  0
SPLINE
  5
44A
100
AcDbEntity
  8
0
100
AcDbSpline
 62
7
  6
CONTINUOUS
 70
0
 71
3
 72
18
 73
14
 74
0
 42
0.0000001
 43
0.0000001
 44
0.0000000001
 40
0.0
 40
0.0
 40
0.0
 40
0.0
 40
0.042847705
 40
0.0874648314
 40
0.1352861158
 40
0.1872374048
 40
0.2437281457
 40
0.304733431
 40
0.4383675776
 40
0.5826756861
 40
0.7297918144
 40
0.8713433873
 40
1.0
 40
1.0
 40
1.0
 40
1.0
 10
45.1368624075
 20
211.4169563973
 30
0.0
 10
45.1368450754
 20
211.246153964
 30
0.0
 10
45.1825747443
 20
210.896017312
 30
0.0
 10
45.3833278375
 20
210.390426282
 30
0.0
 10
45.7091929641
 20
209.9111397201
 30
0.0
 10
46.1508588179
 20
209.4676723393
 30
0.0
 10
46.6981090154
 20
209.0677281968
 30
0.0
 10
47.5796919303
 20
208.5884569533
 30
0.0
 10
48.8714858546
 20
208.1570270831
 30
0.0
 10
50.5570689637
 20
207.9203442296
 30
0.0
 10
52.2908363638
 20
207.9682331377
 30
0.0
 10
53.9297117505
 20
208.2961822516
 30
0.0
 10
54.9353493233
 20
208.7110831508
 30
0.0
 10
55.3794995452
 20
208.9675118703
 30
0.0
  0
SPLINE
  5
44B
100
AcDbEntity
  8
0
100
AcDbSpline
 62
7
  6
CONTINUOUS
 70
0
 71
3
 72
11
 73
7
 74
0
 42
0.0000001
 43
0.0000001
 44
0.0000000001
 40
0.0
 40
0.0
 40
0.0
 40
0.0
 40
0.217772663
 40
0.4509314042
 40
0.7102278685
 40
1.0
 40
1.0
 40
1.0
 40
1.0
 10
72.1073037729
 20
217.9488064187
 30
0.0
 10
72.1073074016
 20
217.7964598372
 30
0.0
 10
72.0510431387
 20
217.4788814182
 30
0.0
 10
71.8102865776
 20
217.0364941643
 30
0.0
 10
71.4297959765
 20
216.6364568228
 30
0.0
 10
71.1113288227
 20
216.417200469
 30
0.0
 10
70.935772188
 20
216.3158434037
 30
0.0
  0
SPLINE
  5
44C
100
AcDbEntity
  8
0
100
AcDbSpline
 62
7
  6
CONTINUOUS
 70
0
 71
3
 72
15
 73
11
 74
0
 42
0.0000001
 43
0.0000001
 44
0.0000000001
 40
0.0
 40
0.0
 40
0.0
 40
0.0
 40
0.0933564697
 40
0.192039241
 40
0.3000218815
 40
0.4193885318
 40
0.5505041666
 40
0.6923753351
 40
0.8430958291
 40
1.0
 40
1.0
 40
1.0
 40
1.0
 10
61.3573447565
 20
217.9488064188
 30
0.0
 10
61.3573377873
 20
217.7202970904
 30
0.0
 10
61.4312430876
 20
217.2475724714
 30
0.0
 10
61.7518348332
 20
216.5775132703
 30
0.0
 10
62.2649106483
 20
215.9576747433
 30
0.0
 10
62.9511312858
 20
215.4034006993
 30
0.0
 10
63.7895691763
 20
214.9278435983
 30
0.0
 10
64.7558547486
 20
214.5434397606
 30
0.0
 10
65.8215945525
 20
214.2611467076
 30
0.0
 10
66.5676466177
 20
214.1478822325
 30
0.0
 10
66.9497772838
 20
214.1094792365
 30
0.0
  0
SPLINE
  5
44D
100
AcDbEntity
  8
0
100
AcDbSpline
 62
7
  6
CONTINUOUS
 70
0
 71
3
 72
9
 73
5
 74
0
 42
0.0000001
 43
0.0000001
 44
0.0000000001
 40
0.0
 40
0.0
 40
0.0
 40
0.0
 40
0.2444296014
 40
1.0
 40
1.0
 40
1.0
 40
1.0
 10
41.3153505269
 20
199.7164200786
 30
0.0
 10
41.3382493084
 20
199.6473922319
 30
0.0
 10
41.4402479763
 20
199.3677790384
 30
0.0
 10
41.5747737998
 20
199.1003312585
 30
0.0
 10
41.6906868255
 20
198.9077077835
 30
0.0
  0
SPLINE
  5
44E
100
AcDbEntity
  8
0
100
AcDbSpline
 62
7
  6
CONTINUOUS
 70
0
 71
3
 72
20
 73
16
 74
0
 42
0.0000001
 43
0.0000001
 44
0.0000000001
 40
0.0
 40
0.0
 40
0.0
 40
0.0
 40
0.0624097078
 40
0.1288035082
 40
0.2703008312
 40
0.4173614531
 40
0.5616178588
 40
0.6302556938
 40
0.695381067
 40
0.756364374
 40
0.8128350427
 40
0.8647653907
 40
0.9125674562
 40
0.9571678664
 40
1.0
 40
1.0
 40
1.0
 40
1.0
 10
56.4401641329
 20
197.7406193158
 30
0.0
 10
56.1707473075
 20
197.5850723677
 30
0.0
 10
55.5932229196
 20
197.3003464776
 30
0.0
 10
54.324515273
 20
196.8407479996
 30
0.0
 10
52.5785346839
 20
196.491352761
 30
0.0
 10
50.4129181023
 20
196.4317035943
 30
0.0
 10
48.6256915873
 20
196.6823031711
 30
0.0
 10
47.2921500744
 20
197.0665008904
 30
0.0
 10
46.389926929
 20
197.4300113022
 30
0.0
 10
45.5884095021
 20
197.8659359052
 30
0.0
 10
44.9043207286
 20
198.3657817668
 30
0.0
 10
44.3522787256
 20
198.9201707803
 30
0.0
 10
43.9449820584
 20
199.5192734391
 30
0.0
 10
43.6939581907
 20
200.1512372422
 30
0.0
 10
43.636851869
 20
200.5889185282
 30
0.0
 10
43.6368500203
 20
200.8024249755
 30
0.0
  0
SPLINE
  5
44F
100
AcDbEntity
  8
0
100
AcDbSpline
 62
7
  6
CONTINUOUS
 70
0
 71
3
 72
9
 73
5
 74
0
 42
0.0000001
 43
0.0000001
 44
0.0000000001
 40
0.0
 40
0.0
 40
0.0
 40
0.0
 40
0.2270454721
 40
1.0
 40
1.0
 40
1.0
 40
1.0
 10
35.8766725426
 20
197.5199049168
 30
0.0
 10
35.8387968072
 20
197.5845596859
 30
0.0
 10
35.6475519952
 20
197.8551416907
 30
0.0
 10
35.377144285
 20
198.0620105116
 30
0.0
 10
35.1562208741
 20
198.1895578168
 30
0.0
  0
SPLINE
  5
450
100
AcDbEntity
  8
0
100
AcDbSpline
 62
7
  6
CONTINUOUS
 70
0
 71
3
 72
12
 73
8
 74
0
 42
0.0000001
 43
0.0000001
 44
0.0000000001
 40
0.0
 40
0.0
 40
0.0
 40
0.0
 40
0.1081590514
 40
0.2183578759
 40
0.4513599045
 40
0.7104171385
 40
1.0
 40
1.0
 40
1.0
 40
1.0
 10
58.6368323683
 20
200.802424974
 30
0.0
 10
58.6368335976
 20
200.6604453625
 30
0.0
 10
58.6120999251
 20
200.3732194031
 30
0.0
 10
58.4629746641
 20
199.7973575341
 30
0.0
 10
58.0798977978
 20
199.0912782
 30
0.0
 10
57.36651724
 20
198.341950581
 30
0.0
 10
56.7693697592
 20
197.9306851383
 30
0.0
 10
56.4401641329
 20
197.7406193158
 30
0.0
  0
SPLINE
  5
451
100
AcDbEntity
  8
0
100
AcDbSpline
 62
7
  6
CONTINUOUS
 70
0
 71
3
 72
12
 73
8
 74
0
 42
0.0000001
 43
0.0000001
 44
0.0000000001
 40
0.0
 40
0.0
 40
0.0
 40
0.0
 40
0.2895817993
 40
0.5486371749
 40
0.7816400895
 40
0.8918396553
 40
1.0
 40
1.0
 40
1.0
 40
1.0
 10
56.4401641329
 20
200.1901265672
 30
0.0
 10
56.7693686225
 20
200.3801917334
 30
0.0
 10
57.3665142228
 20
200.7914537926
 30
0.0
 10
58.0798919535
 20
201.5407797595
 30
0.0
 10
58.4629743439
 20
202.2468564629
 30
0.0
 10
58.6120994302
 20
202.8227222141
 30
0.0
 10
58.6368365955
 20
203.1099508812
 30
0.0
 10
58.6368333326
 20
203.2519322209
 30
0.0
  0
SPLINE
  5
452
100
AcDbEntity
  8
0
100
AcDbSpline
 62
7
  6
CONTINUOUS
 70
0
 71
3
 72
18
 73
14
 74
0
 42
0.0000001
 43
0.0000001
 44
0.0000000001
 40
0.0
 40
0.0
 40
0.0
 40
0.0
 40
0.1286546677
 40
0.2702044719
 40
0.4173205656
 40
0.5616311766
 40
0.695267366
 40
0.7562730035
 40
0.8127636272
 40
0.86471449
 40
0.9125353694
 40
0.9571522475
 40
1.0
 40
1.0
 40
1.0
 40
1.0
 10
55.3794995452
 20
200.802487699
 30
0.0
 10
54.9353560419
 20
200.5460628585
 30
0.0
 10
53.9297333729
 20
200.1311663108
 30
0.0
 10
52.2908745741
 20
199.8032102799
 30
0.0
 10
50.5571044368
 20
199.7553189346
 30
0.0
 10
48.8715022092
 20
199.9919962678
 30
0.0
 10
47.5796895625
 20
200.4234333606
 30
0.0
 10
46.6980989835
 20
200.9027094834
 30
0.0
 10
46.150850567
 20
201.3026550686
 30
0.0
 10
45.7091901378
 20
201.7461222147
 30
0.0
 10
45.3833260641
 20
202.2254040064
 30
0.0
 10
45.1825743969
 20
202.7309935221
 30
0.0
 10
45.1368481348
 20
203.0811296041
 30
0.0
 10
45.1368651512
 20
203.2519322253
 30
0.0
  0
SPLINE
  5
453
100
AcDbEntity
  8
0
100
AcDbSpline
 62
7
  6
CONTINUOUS
 70
0
 71
3
 72
11
 73
7
 74
0
 42
0.0000001
 43
0.0000001
 44
0.0000000001
 40
0.0
 40
0.0
 40
0.0
 40
0.0
 40
0.2177753738
 40
0.4509336309
 40
0.7102261693
 40
1.0
 40
1.0
 40
1.0
 40
1.0
 10
30.0349233775
 20
196.9648253552
 30
0.0
 10
30.034923379
 20
196.8505622397
 30
0.0
 10
30.0771224857
 20
196.6123737813
 30
0.0
 10
30.2576989726
 20
196.280582219
 30
0.0
 10
30.5430718816
 20
195.9805527546
 30
0.0
 10
30.7819270299
 20
195.8161113577
 30
0.0
 10
30.9135978508
 20
195.7400928935
 30
0.0
  0
SPLINE
  5
454
100
AcDbEntity
  8
0
100
AcDbSpline
 62
7
  6
CONTINUOUS
 70
0
 71
3
 72
12
 73
8
 74
0
 42
0.0000001
 43
0.0000001
 44
0.0000000001
 40
0.0
 40
0.0
 40
0.0
 40
0.0
 40
0.2895712537
 40
0.548642979
 40
0.7816379705
 40
0.8918399225
 40
1.0
 40
1.0
 40
1.0
 40
1.0
 10
55.3794995452
 20
208.9675118703
 30
0.0
 10
55.6428530321
 20
209.1195581693
 30
0.0
 10
56.1205580704
 20
209.4485833384
 30
0.0
 10
56.6913009248
 20
210.0480160409
 30
0.0
 10
56.9977012906
 20
210.6129118928
 30
0.0
 10
57.1170723806
 20
211.0735827761
 30
0.0
 10
57.1368084552
 20
211.3033718286
 30
0.0
 10
57.1368199812
 20
211.4169563975
 30
0.0
  0
SPLINE
  5
455
100
AcDbEntity
  8
0
100
AcDbSpline
 62
7
  6
CONTINUOUS
 70
0
 71
3
 72
18
 73
14
 74
0
 42
0.0000001
 43
0.0000001
 44
0.0000000001
 40
0.0
 40
0.0
 40
0.0
 40
0.0
 40
0.1286544267
 40
0.2702037274
 40
0.417319017
 40
0.5616293562
 40
0.6952662917
 40
0.7562723291
 40
0.8127632913
 40
0.8647144483
 40
0.9125355162
 40
0.9571523575
 40
1.0
 40
1.0
 40
1.0
 40
1.0
 10
54.8491672513
 20
209.2736924362
 30
0.0
 10
54.460542408
 20
209.0493211176
 30
0.0
 10
53.580625199
 20
208.6862872091
 30
0.0
 10
52.1466292287
 20
208.3993258478
 30
0.0
 10
50.6295860286
 20
208.3574193199
 30
0.0
 10
49.1546847705
 20
208.5645085363
 30
0.0
 10
48.0243450467
 20
208.9420148742
 30
0.0
 10
47.2529478303
 20
209.3613823945
 30
0.0
 10
46.7741022577
 20
209.7113365243
 30
0.0
 10
46.3876468251
 20
210.0993718788
 30
0.0
 10
46.1025152959
 20
210.5187450225
 30
0.0
 10
45.9268571404
 20
210.9611358494
 30
0.0
 10
45.8868471755
 20
211.2675044845
 30
0.0
 10
45.8868620622
 20
211.4169563967
 30
0.0
  0
SPLINE
  5
456
100
AcDbEntity
  8
0
100
AcDbSpline
 62
7
  6
CONTINUOUS
 70
0
 71
3
 72
12
 73
8
 74
0
 42
0.0000001
 43
0.0000001
 44
0.0000000001
 40
0.0
 40
0.0
 40
0.0
 40
0.0
 40
0.2895719878
 40
0.5486432193
 40
0.7816383539
 40
0.8918402078
 40
1.0
 40
1.0
 40
1.0
 40
1.0
 10
54.8491672513
 20
210.0901948533
 30
0.0
 10
55.0796021509
 20
210.2232357105
 30
0.0
 10
55.4975942149
 20
210.5111330277
 30
0.0
 10
55.9969942578
 20
211.0356370114
 30
0.0
 10
56.2650946167
 20
211.5299205699
 30
0.0
 10
56.3695435267
 20
211.9330075495
 30
0.0
 10
56.3868130694
 20
212.1340725741
 30
0.0
 10
56.3868231403
 20
212.233458816
 30
0.0
  0
SPLINE
  5
457
100
AcDbEntity
  8
0
100
AcDbSpline
 62
7
  6
CONTINUOUS
 70
0
 71
3
 72
14
 73
10
 74
0
 42
0.0000001
 43
0.0000001
 44
0.0000000001
 40
0.0
 40
0.0
 40
0.0
 40
0.0
 40
0.0997899908
 40
0.2031325883
 40
0.3129918694
 40
0.4314183908
 40
0.5594905363
 40
0.6974048883
 40
1.0
 40
1.0
 40
1.0
 40
1.0
 10
60.6073535437
 20
212.6415407275
 30
0.0
 10
60.6073723176
 20
212.444112172
 30
0.0
 10
60.6558462531
 20
212.040732154
 30
0.0
 10
60.8701483205
 20
211.4547010479
 30
0.0
 10
61.2194420187
 20
210.8944228124
 30
0.0
 10
61.695176058
 20
210.3698071442
 30
0.0
 10
62.2877893357
 20
209.8889967811
 30
0.0
 10
63.2482178263
 20
209.2989259175
 30
0.0
 10
64.0660460102
 20
208.974806099
 30
0.0
 10
64.6392923473
 20
208.8022079715
 30
0.0
  0
SPLINE
  5
458
100
AcDbEntity
  8
0
100
AcDbSpline
 62
7
  6
CONTINUOUS
 70
0
 71
3
 72
20
 73
16
 74
0
 42
0.0000001
 43
0.0000001
 44
0.0000000001
 40
0.0
 40
0.0
 40
0.0
 40
0.0
 40
0.0428323723
 40
0.0874333005
 40
0.1352359845
 40
0.1871668621
 40
0.2436377941
 40
0.3046209687
 40
0.36974574
 40
0.4383824902
 40
0.5826363879
 40
0.7296962259
 40
0.8711945988
 40
0.9375897601
 40
1.0
 40
1.0
 40
1.0
 40
1.0
 10
43.636849056
 20
203.2519322313
 30
0.0
 10
43.6368539626
 20
203.0384245937
 30
0.0
 10
43.6939550123
 20
202.600739163
 30
0.0
 10
43.9449882382
 20
201.9687705735
 30
0.0
 10
44.352291246
 20
201.3696627545
 30
0.0
 10
44.9043410822
 20
200.8152712111
 30
0.0
 10
45.5884352187
 20
200.3154272234
 30
0.0
 10
46.3899522146
 20
199.8795068435
 30
0.0
 10
47.2921679556
 20
199.5160024484
 30
0.0
 10
48.6256898153
 20
199.1318124853
 30
0.0
 10
50.4128940012
 20
198.8812133939
 30
0.0
 10
52.5784991559
 20
198.9408578853
 30
0.0
 10
54.3244897224
 20
199.2902465783
 30
0.0
 10
55.5932110566
 20
199.7498504125
 30
0.0
 10
56.1707450096
 20
200.0345782924
 30
0.0
 10
56.4401641329
 20
200.1901265672
 30
0.0
  0
SPLINE
  5
459
100
AcDbEntity
  8
0
100
AcDbSpline
 62
7
  6
CONTINUOUS
 70
0
 71
3
 72
9
 73
5
 74
0
 42
0.0000001
 43
0.0000001
 44
0.0000000001
 40
0.0
 40
0.0
 40
0.0
 40
0.0
 40
0.5247613351
 40
1.0
 40
1.0
 40
1.0
 40
1.0
 10
110.646485761
 20
191.6555702984
 30
0.0
 10
110.9613573495
 20
191.6797648785
 30
0.0
 10
111.5585968847
 20
191.7806150609
 30
0.0
 10
112.1246437581
 20
192.0047571502
 30
0.0
 10
112.3723249497
 20
192.1477550993
 30
0.0
  0
SPLINE
  5
45A
100
AcDbEntity
  8
0
100
AcDbSpline
 62
7
  6
CONTINUOUS
 70
0
 71
3
 72
9
 73
5
 74
0
 42
0.0000001
 43
0.0000001
 44
0.0000000001
 40
0.0
 40
0.0
 40
0.0
 40
0.0
 40
0.2444296014
 40
1.0
 40
1.0
 40
1.0
 40
1.0
 10
58.28584262
 20
209.5142797715
 30
0.0
 10
58.3087414015
 20
209.4452519248
 30
0.0
 10
58.4107400694
 20
209.1656387313
 30
0.0
 10
58.5452658929
 20
208.8981909514
 30
0.0
 10
58.6611789186
 20
208.7055674764
 30
0.0
  0
SPLINE
  5
45B
100
AcDbEntity
  8
0
100
AcDbSpline
 62
7
  6
CONTINUOUS
 70
0
 71
3
 72
9
 73
5
 74
0
 42
0.0000001
 43
0.0000001
 44
0.0000000001
 40
0.0
 40
0.0
 40
0.0
 40
0.0
 40
0.2744293402
 40
1.0
 40
1.0
 40
1.0
 40
1.0
 10
108.1296665988
 20
194.5971996264
 30
0.0
 10
108.0541038266
 20
194.5535736999
 30
0.0
 10
107.7867933792
 20
194.3824356625
 30
0.0
 10
107.5498616567
 20
194.1543201011
 30
0.0
 10
107.4279236933
 20
193.9584929444
 30
0.0
  0
SPLINE
  5
45C
100
AcDbEntity
  8
0
100
AcDbSpline
 62
7
  6
CONTINUOUS
 70
0
 71
3
 72
13
 73
9
 74
0
 42
0.0000001
 43
0.0000001
 44
0.0000000001
 40
0.0
 40
0.0
 40
0.0
 40
0.0
 40
0.1142466307
 40
0.237544229
 40
0.5000005226
 40
0.7624565301
 40
0.8857537943
 40
1.0
 40
1.0
 40
1.0
 40
1.0
 10
76.8756946578
 20
174.1033533001
 30
0.0
 10
76.7304856962
 20
174.1871878365
 30
0.0
 10
76.4129051935
 20
174.335081478
 30
0.0
 10
75.7090741008
 20
174.5488429847
 30
0.0
 10
74.754370991
 20
174.6526844673
 30
0.0
 10
73.7996687992
 20
174.5488385705
 30
0.0
 10
73.0958403441
 20
174.3350736015
 30
0.0
 10
72.7782617874
 20
174.1871783737
 30
0.0
 10
72.6330539707
 20
174.103343102
 30
0.0
  0
SPLINE
  5
45D
100
AcDbEntity
  8
0
100
AcDbSpline
 62
7
  6
CONTINUOUS
 70
0
 71
3
 72
9
 73
5
 74
0
 42
0.0000001
 43
0.0000001
 44
0.0000000001
 40
0.0
 40
0.0
 40
0.0
 40
0.0
 40
0.238069298
 40
1.0
 40
1.0
 40
1.0
 40
1.0
 10
73.410656226
 20
207.5384790088
 30
0.0
 10
73.2735033382
 20
207.4592942247
 30
0.0
 10
72.686252813
 20
207.1460798238
 30
0.0
 10
72.0607643857
 20
206.907100501
 30
0.0
 10
71.5754296008
 20
206.7609686011
 30
0.0
  0
SPLINE
  5
45E
100
AcDbEntity
  8
0
100
AcDbSpline
 62
7
  6
CONTINUOUS
 70
0
 71
3
 72
11
 73
7
 74
0
 42
0.0000001
 43
0.0000001
 44
0.0000000001
 40
0.0
 40
0.0
 40
0.0
 40
0.0
 40
0.2897733512
 40
0.5490657165
 40
0.7822241652
 40
1.0
 40
1.0
 40
1.0
 40
1.0
 10
76.8757123216
 20
171.6538985749
 30
0.0
 10
77.0073806803
 20
171.7299168835
 30
0.0
 10
77.2462312956
 20
171.8943576526
 30
0.0
 10
77.5315984088
 20
172.1943848931
 30
0.0
 10
77.7121709893
 20
172.5261732429
 30
0.0
 10
77.7543691325
 20
172.7643589531
 30
0.0
 10
77.7543691311
 20
172.8786208385
 30
0.0
  0
SPLINE
  5
45F
100
AcDbEntity
  8
0
100
AcDbSpline
 62
7
  6
CONTINUOUS
 70
0
 71
3
 72
11
 73
7
 74
0
 42
0.0000001
 43
0.0000001
 44
0.0000000001
 40
0.0
 40
0.0
 40
0.0
 40
0.0
 40
0.2177753738
 40
0.4509336309
 40
0.7102261693
 40
1.0
 40
1.0
 40
1.0
 40
1.0
 10
71.7543971612
 20
172.8786208385
 30
0.0
 10
71.7543971627
 20
172.764357723
 30
0.0
 10
71.7965962694
 20
172.5261692646
 30
0.0
 10
71.9771727563
 20
172.1943777023
 30
0.0
 10
72.2625456653
 20
171.8943482379
 30
0.0
 10
72.5014008136
 20
171.729906841
 30
0.0
 10
72.6330716345
 20
171.6538883769
 30
0.0
  0
SPLINE
  5
460
100
AcDbEntity
  8
0
100
AcDbSpline
 62
7
  6
CONTINUOUS
 70
0
 71
3
 72
13
 73
9
 74
0
 42
0.0000001
 43
0.0000001
 44
0.0000000001
 40
0.0
 40
0.0
 40
0.0
 40
0.0
 40
0.1142466307
 40
0.237544229
 40
0.5000005226
 40
0.7624565301
 40
0.8857537943
 40
1.0
 40
1.0
 40
1.0
 40
1.0
 10
72.6330716345
 20
171.6538883769
 30
0.0
 10
72.778280596
 20
171.5700538404
 30
0.0
 10
73.0958610988
 20
171.422160199
 30
0.0
 10
73.7996921914
 20
171.2083986922
 30
0.0
 10
74.7543953013
 20
171.1045572096
 30
0.0
 10
75.709097493
 20
171.2084031064
 30
0.0
 10
76.4129259481
 20
171.4221680754
 30
0.0
 10
76.7305045048
 20
171.5700633033
 30
0.0
 10
76.8757123216
 20
171.6538985749
 30
0.0
  0
SPLINE
  5
461
100
AcDbEntity
  8
0
100
AcDbSpline
 62
7
  6
CONTINUOUS
 70
0
 71
3
 72
14
 73
10
 74
0
 42
0.0000001
 43
0.0000001
 44
0.0000000001
 40
0.0
 40
0.0
 40
0.0
 40
0.0
 40
0.3025951117
 40
0.4405094637
 40
0.5685816092
 40
0.6870081306
 40
0.7968674117
 40
0.9002100092
 40
1.0
 40
1.0
 40
1.0
 40
1.0
 10
64.6392923473
 20
206.7609519286
 30
0.0
 10
64.0660460102
 20
206.9335500561
 30
0.0
 10
63.2482178263
 20
207.2576698747
 30
0.0
 10
62.2877893357
 20
207.8477407382
 30
0.0
 10
61.695176058
 20
208.3285511014
 30
0.0
 10
61.2194420187
 20
208.8531667696
 30
0.0
 10
60.8701483205
 20
209.4134450051
 30
0.0
 10
60.6558462531
 20
209.9994761112
 30
0.0
 10
60.6073723176
 20
210.4028561292
 30
0.0
 10
60.6073535437
 20
210.6002846847
 30
0.0
  0
SPLINE
  5
462
100
AcDbEntity
  8
0
100
AcDbSpline
 62
7
  6
CONTINUOUS
 70
0
 71
3
 72
11
 73
7
 74
0
 42
0.0000001
 43
0.0000001
 44
0.0000000001
 40
0.0
 40
0.0
 40
0.0
 40
0.0
 40
0.2177727701
 40
0.4509280213
 40
0.7102223029
 40
1.0
 40
1.0
 40
1.0
 40
1.0
 10
77.7543610938
 20
171.5722169711
 30
0.0
 10
77.7543610952
 20
171.4579570709
 30
0.0
 10
77.712164374
 20
171.2197757124
 30
0.0
 10
77.5315987663
 20
170.887987732
 30
0.0
 10
77.246233204
 20
170.5879583772
 30
0.0
 10
77.0073822202
 20
170.4235139051
 30
0.0
 10
76.8757123216
 20
170.3474947075
 30
0.0
  0
SPLINE
  5
463
100
AcDbEntity
  8
0
100
AcDbSpline
 62
7
  6
CONTINUOUS
 70
0
 71
3
 72
11
 73
7
 74
0
 42
0.0000001
 43
0.0000001
 44
0.0000000001
 40
0.0
 40
0.0
 40
0.0
 40
0.0
 40
0.2177753738
 40
0.4509336309
 40
0.7102261693
 40
1.0
 40
1.0
 40
1.0
 40
1.0
 10
98.3314073247
 20
198.9246414963
 30
0.0
 10
98.3314073267
 20
198.7722906757
 30
0.0
 10
98.3876728023
 20
198.4547060645
 30
0.0
 10
98.6284414515
 20
198.0123173147
 30
0.0
 10
99.0089386636
 20
197.6122780289
 30
0.0
 10
99.3274121945
 20
197.393022833
 30
0.0
 10
99.5029732891
 20
197.2916648808
 30
0.0
  0
SPLINE
  5
464
100
AcDbEntity
  8
0
100
AcDbSpline
 62
7
  6
CONTINUOUS
 70
0
 71
3
 72
12
 73
8
 74
0
 42
0.0000001
 43
0.0000001
 44
0.0000000001
 40
0.0
 40
0.0
 40
0.0
 40
0.0
 40
0.2895887048
 40
0.5486357248
 40
0.7816392924
 40
0.8918396792
 40
1.0
 40
1.0
 40
1.0
 40
1.0
 10
73.410656226
 20
209.5797350516
 30
0.0
 10
73.7398682659
 20
209.7698045769
 30
0.0
 10
74.3370155783
 20
210.1810611358
 30
0.0
 10
75.0503786727
 20
210.9303997342
 30
0.0
 10
75.4334521279
 20
211.6364656548
 30
0.0
 10
75.5825993626
 20
212.2123275035
 30
0.0
 10
75.6073265324
 20
212.4995595151
 30
0.0
 10
75.6073130311
 20
212.6415406935
 30
0.0
  0
SPLINE
  5
465
100
AcDbEntity
  8
0
100
AcDbSpline
 62
7
  6
CONTINUOUS
 70
0
 71
3
 72
9
 73
5
 74
0
 42
0.0000001
 43
0.0000001
 44
0.0000000001
 40
0.0
 40
0.0
 40
0.0
 40
0.0
 40
0.2616987796
 40
1.0
 40
1.0
 40
1.0
 40
1.0
 10
71.5754296008
 20
208.8022246439
 30
0.0
 10
71.7421134718
 20
208.8524123319
 30
0.0
 10
72.3739170066
 20
209.0602529253
 30
0.0
 10
72.9853506405
 20
209.334186223
 30
0.0
 10
73.410656226
 20
209.5797350516
 30
0.0
  0
SPLINE
  5
466
100
AcDbEntity
  8
0
100
AcDbSpline
 62
7
  6
CONTINUOUS
 70
0
 71
3
 72
10
 73
6
 74
0
 42
0.0000001
 43
0.0000001
 44
0.0000000001
 40
0.0
 40
0.0
 40
0.0
 40
0.0
 40
0.2304925296
 40
0.4761463899
 40
1.0
 40
1.0
 40
1.0
 40
1.0
 10
72.8803239322
 20
209.8859156175
 30
0.0
 10
72.6276358267
 20
209.7400269426
 30
0.0
 10
72.0845605124
 20
209.4741676506
 30
0.0
 10
70.8899705682
 20
209.050121041
 30
0.0
 10
69.9247628507
 20
208.8685321246
 30
0.0
 10
69.2649446643
 20
208.8022190902
 30
0.0
  0
SPLINE
  5
467
100
AcDbEntity
  8
0
100
AcDbSpline
 62
7
  6
CONTINUOUS
 70
0
 71
3
 72
14
 73
10
 74
0
 42
0.0000001
 43
0.0000001
 44
0.0000000001
 40
0.0
 40
0.0
 40
0.0
 40
0.0
 40
0.3072077455
 40
0.4497476581
 40
0.5815295956
 40
0.7013156741
 40
0.80928384
 40
0.9074709327
 40
1.0
 40
1.0
 40
1.0
 40
1.0
 10
32.6768111986
 20
193.9387904902
 30
0.0
 10
32.327589453
 20
193.9630123252
 30
0.0
 10
31.8167289195
 20
194.0502080878
 30
0.0
 10
31.1933703283
 20
194.2792251943
 30
0.0
 10
30.7957254386
 20
194.4916671425
 30
0.0
 10
30.46915467
 20
194.7427012847
 30
0.0
 10
30.2241499057
 20
195.0260489793
 30
0.0
 10
30.0704491217
 20
195.3343537632
 30
0.0
 10
30.0349458428
 20
195.5529853606
 30
0.0
 10
30.0349272334
 20
195.6584214837
 30
0.0
  0
SPLINE
  5
468
100
AcDbEntity
  8
0
100
AcDbSpline
 62
7
  6
CONTINUOUS
 70
0
 71
3
 72
11
 73
7
 74
0
 42
0.0000001
 43
0.0000001
 44
0.0000000001
 40
0.0
 40
0.0
 40
0.0
 40
0.0
 40
0.2177727701
 40
0.4509280213
 40
0.7102223029
 40
1.0
 40
1.0
 40
1.0
 40
1.0
 10
107.2510178266
 20
194.5155807468
 30
0.0
 10
107.2510178252
 20
194.6298406469
 30
0.0
 10
107.2932145464
 20
194.8680220054
 30
0.0
 10
107.4737801541
 20
195.1998099858
 30
0.0
 10
107.7591457164
 20
195.4998393406
 30
0.0
 10
107.9979967002
 20
195.6642838127
 30
0.0
 10
108.1296665988
 20
195.7403030104
 30
0.0
  0
SPLINE
  5
469
100
AcDbEntity
  8
0
100
AcDbSpline
 62
7
  6
CONTINUOUS
 70
0
 71
3
 72
11
 73
7
 74
0
 42
0.0000001
 43
0.0000001
 44
0.0000000001
 40
0.0
 40
0.0
 40
0.0
 40
0.0
 40
0.2177796629
 40
0.4509238111
 40
0.7102593659
 40
1.0
 40
1.0
 40
1.0
 40
1.0
 10
113.2509779033
 20
192.0660734994
 30
0.0
 10
113.2509980707
 20
191.9518104169
 30
0.0
 10
113.2087424923
 20
191.7136388105
 30
0.0
 10
113.0282132241
 20
191.3818202224
 30
0.0
 10
112.7428129684
 20
191.0818215804
 30
0.0
 10
112.5039775094
 20
190.9173604189
 30
0.0
 10
112.3723249497
 20
190.8413512318
 30
0.0
  0
SPLINE
  5
46A
100
AcDbEntity
  8
0
100
AcDbSpline
 62
7
  6
CONTINUOUS
 70
0
 71
3
 72
15
 73
11
 74
0
 42
0.0000001
 43
0.0000001
 44
0.0000000001
 40
0.0
 40
0.0
 40
0.0
 40
0.0
 40
0.1569041761
 40
0.3076246809
 40
0.4494958491
 40
0.5806114842
 40
0.6999781321
 40
0.8079607691
 40
0.9066435358
 40
1.0
 40
1.0
 40
1.0
 40
1.0
 10
66.9497772838
 20
208.8022135252
 30
0.0
 10
66.5676466049
 20
208.8406165225
 30
0.0
 10
65.8215945026
 20
208.9538810139
 30
0.0
 10
64.75585466
 20
209.2361740748
 30
0.0
 10
63.7895690731
 20
209.6205779489
 30
0.0
 10
62.9511311926
 20
210.0961350552
 30
0.0
 10
62.2649105755
 20
210.6504091049
 30
0.0
 10
61.7518347914
 20
211.2702476212
 30
0.0
 10
61.4312430594
 20
211.9403067973
 30
0.0
 10
61.3573377969
 20
212.4130313925
 30
0.0
 10
61.3573447502
 20
212.6415407075
 30
0.0
  0
SPLINE
  5
46B
100
AcDbEntity
  8
0
100
AcDbSpline
 62
7
  6
CONTINUOUS
 70
0
 71
3
 72
17
 73
13
 74
0
 42
0.0000001
 43
0.0000001
 44
0.0000000001
 40
0.0
 40
0.0
 40
0.0
 40
0.0
 40
0.0428574423
 40
0.0874864255
 40
0.135320533
 40
0.1872838238
 40
0.3045491376
 40
0.4382184498
 40
0.5825636743
 40
0.7297201978
 40
0.8713079774
 40
1.0
 40
1.0
 40
1.0
 40
1.0
 10
64.1073607454
 20
219.5818112563
 30
0.0
 10
64.1073616172
 20
219.4679473388
 30
0.0
 10
64.1377883199
 20
219.2345202729
 30
0.0
 10
64.2716647156
 20
218.8974766855
 30
0.0
 10
64.4889041292
 20
218.5779416511
 30
0.0
 10
64.8978339563
 20
218.1675062782
 30
0.0
 10
65.5946793204
 20
217.7433651026
 30
0.0
 10
66.5965876253
 20
217.4086796931
 30
0.0
 10
67.7209575413
 20
217.2506809808
 30
0.0
 10
68.8766163137
 20
217.2826994081
 30
0.0
 10
69.9692558628
 20
217.5012819109
 30
0.0
 10
70.6396692077
 20
217.7778941231
 30
0.0
 10
70.935772188
 20
217.948848238
 30
0.0
  0
SPLINE
  5
46C
100
AcDbEntity
  8
0
100
AcDbSpline
 62
7
  6
CONTINUOUS
 70
0
 71
3
 72
12
 73
8
 74
0
 42
0.0000001
 43
0.0000001
 44
0.0000000001
 40
0.0
 40
0.0
 40
0.0
 40
0.0
 40
0.2895810204
 40
0.548637375
 40
0.7816378622
 40
0.8918387092
 40
1.0
 40
1.0
 40
1.0
 40
1.0
 10
72.8803239322
 20
215.1931813288
 30
0.0
 10
73.1766069305
 20
215.3642393766
 30
0.0
 10
73.7140352664
 20
215.734377694
 30
0.0
 10
74.3560775274
 20
216.4087652638
 30
0.0
 10
74.7008458795
 20
217.044235562
 30
0.0
 10
74.8350615204
 20
217.562514214
 30
0.0
 10
74.8573179211
 20
217.8210222072
 30
0.0
 10
74.8573218183
 20
217.9488064249
 30
0.0
  0
SPLINE
  5
46D
100
AcDbEntity
  8
0
100
AcDbSpline
 62
7
  6
CONTINUOUS
 70
0
 71
3
 72
10
 73
6
 74
0
 42
0.0000001
 43
0.0000001
 44
0.0000000001
 40
0.0
 40
0.0
 40
0.0
 40
0.0
 40
0.5238536101
 40
0.7695074704
 40
1.0
 40
1.0
 40
1.0
 40
1.0
 10
69.2649446643
 20
214.1094848015
 30
0.0
 10
69.9247628507
 20
214.175797836
 30
0.0
 10
70.8899705682
 20
214.3573867523
 30
0.0
 10
72.0845605124
 20
214.781433362
 30
0.0
 10
72.6276358267
 20
215.0472926539
 30
0.0
 10
72.8803239322
 20
215.1931813288
 30
0.0
  0
SPLINE
  5
46E
100
AcDbEntity
  8
0
100
AcDbSpline
 62
7
  6
CONTINUOUS
 70
0
 71
3
 72
13
 73
9
 74
0
 42
0.0000001
 43
0.0000001
 44
0.0000000001
 40
0.0
 40
0.0
 40
0.0
 40
0.0
 40
0.1142487484
 40
0.2375477548
 40
0.5000005226
 40
0.7624530043
 40
0.8857516767
 40
1.0
 40
1.0
 40
1.0
 40
1.0
 10
72.6330745785
 20
169.9392420552
 30
0.0
 10
72.7782861482
 20
169.855406013
 30
0.0
 10
73.0958725244
 20
169.707512901
 30
0.0
 10
73.7997039453
 20
169.4937542607
 30
0.0
 10
74.7543982452
 20
169.3899177335
 30
0.0
 10
75.7090916271
 20
169.4937586748
 30
0.0
 10
76.4129204104
 20
169.7075207774
 30
0.0
 10
76.7305048406
 20
169.8554154758
 30
0.0
 10
76.8757152655
 20
169.9392522533
 30
0.0
  0
SPLINE
  5
46F
100
AcDbEntity
  8
0
100
AcDbSpline
 62
7
  6
CONTINUOUS
 70
0
 71
3
 72
17
 73
13
 74
0
 42
0.0000001
 43
0.0000001
 44
0.0000000001
 40
0.0
 40
0.0
 40
0.0
 40
0.0
 40
0.1286903759
 40
0.2702749122
 40
0.4174292505
 40
0.5617762177
 40
0.6954483458
 40
0.8127147475
 40
0.8646780754
 40
0.9125121143
 40
0.957141621
 40
1.0
 40
1.0
 40
1.0
 40
1.0
 10
70.935772188
 20
216.3158434037
 30
0.0
 10
70.6396729988
 20
216.1448914776
 30
0.0
 10
69.9692724188
 20
215.8682833631
 30
0.0
 10
68.8766530924
 20
215.6496974296
 30
0.0
 10
67.7210041815
 20
215.6176717625
 30
0.0
 10
66.5966275059
 20
215.7756663381
 30
0.0
 10
65.5947017368
 20
216.1103480011
 30
0.0
 10
64.8978458953
 20
216.5344915793
 30
0.0
 10
64.4889108799
 20
216.944926853
 30
0.0
 10
64.2716751067
 20
217.2644648125
 30
0.0
 10
64.1377857358
 20
217.6015079638
 30
0.0
 10
64.1073655141
 20
217.83494002
 30
0.0
 10
64.107362802
 20
217.948806425
 30
0.0
  0
SPLINE
  5
470
100
AcDbEntity
  8
0
100
AcDbSpline
 62
7
  6
CONTINUOUS
 70
0
 71
3
 72
13
 73
9
 74
0
 42
0.0000001
 43
0.0000001
 44
0.0000000001
 40
0.0
 40
0.0
 40
0.0
 40
0.0
 40
0.1142466307
 40
0.237544229
 40
0.5000005226
 40
0.7624565301
 40
0.8857537943
 40
1.0
 40
1.0
 40
1.0
 40
1.0
 10
35.1562208741
 20
198.1895578168
 30
0.0
 10
35.0110119126
 20
198.2733923532
 30
0.0
 10
34.6934314098
 20
198.4212859947
 30
0.0
 10
33.9896003172
 20
198.6350475014
 30
0.0
 10
33.0348972073
 20
198.738888984
 30
0.0
 10
32.0801950156
 20
198.6350430872
 30
0.0
 10
31.3763665605
 20
198.4212781182
 30
0.0
 10
31.0587880038
 20
198.2733828904
 30
0.0
 10
30.913580187
 20
198.1895476187
 30
0.0
  0
SPLINE
  5
471
100
AcDbEntity
  8
0
100
AcDbSpline
 62
7
  6
CONTINUOUS
 70
0
 71
3
 72
11
 73
7
 74
0
 42
0.0000001
 43
0.0000001
 44
0.0000000001
 40
0.0
 40
0.0
 40
0.0
 40
0.0
 40
0.2897756264
 40
0.5490692242
 40
0.7822277401
 40
1.0
 40
1.0
 40
1.0
 40
1.0
 10
70.935772188
 20
217.948848238
 30
0.0
 10
71.1113310868
 20
218.0502066104
 30
0.0
 10
71.4297998231
 20
218.2694627039
 30
0.0
 10
71.8102881154
 20
218.6695021604
 30
0.0
 10
72.0510487795
 20
219.1118859847
 30
0.0
 10
72.1073069958
 20
219.429464829
 30
0.0
 10
72.1073058294
 20
219.5818112559
 30
0.0
  0
SPLINE
  5
472
100
AcDbEntity
  8
0
100
AcDbSpline
 62
7
  6
CONTINUOUS
 70
0
 71
3
 72
11
 73
7
 74
0
 42
0.0000001
 43
0.0000001
 44
0.0000000001
 40
0.0
 40
0.0
 40
0.0
 40
0.0
 40
0.2177731171
 40
0.4509285976
 40
0.710222822
 40
1.0
 40
1.0
 40
1.0
 40
1.0
 10
97.6446911627
 20
92.4187063884
 30
0.0
 10
97.5127493418
 20
92.4948813179
 30
0.0
 10
97.2658409158
 20
92.7023992172
 30
0.0
 10
97.0030890148
 20
93.1321047806
 30
0.0
 10
96.8468798546
 20
93.6616547199
 30
0.0
 10
96.8162271785
 20
94.047099583
 30
0.0
 10
96.8162271785
 20
94.2498255157
 30
0.0
  0
SPLINE
  5
473
100
AcDbEntity
  8
0
100
AcDbSpline
 62
7
  6
CONTINUOUS
 70
0
 71
3
 72
11
 73
7
 74
0
 42
0.0000001
 43
0.0000001
 44
0.0000000001
 40
0.0
 40
0.0
 40
0.0
 40
0.0
 40
0.2897757032
 40
0.5490693955
 40
0.7822254653
 40
1.0
 40
1.0
 40
1.0
 40
1.0
 10
127.645954481
 20
147.6487760113
 30
0.0
 10
127.8215127021
 20
147.7501339925
 30
0.0
 10
128.1706293049
 20
147.9163024582
 30
0.0
 10
128.7073152683
 20
148.0457908204
 30
0.0
 10
129.2108079852
 20
148.0330963607
 30
0.0
 10
129.5139683926
 20
147.9230344932
 30
0.0
 10
129.6459058456
 20
147.8468620855
 30
0.0
  0
SPLINE
  5
474
100
AcDbEntity
  8
0
100
AcDbSpline
 62
7
  6
CONTINUOUS
 70
0
 71
3
 72
15
 73
11
 74
0
 42
0.0000001
 43
0.0000001
 44
0.0000000001
 40
0.0
 40
0.0
 40
0.0
 40
0.0
 40
0.1141475829
 40
0.2373370756
 40
0.3669780685
 40
0.5000016033
 40
0.6330249151
 40
0.7626652568
 40
0.8858537231
 40
1.0
 40
1.0
 40
1.0
 40
1.0
 10
103.6044240157
 20
130.5024651112
 30
0.0
 10
103.6044240157
 20
130.726033255
 30
0.0
 10
103.6454028628
 20
131.1913093734
 30
0.0
 10
103.8086170434
 20
131.8932190255
 30
0.0
 10
104.0702004974
 20
132.6041820532
 30
0.0
 10
104.4201809534
 20
133.2974830688
 30
0.0
 10
104.8456031363
 20
133.9472265673
 30
0.0
 10
105.3305186739
 20
134.5292451705
 30
0.0
 10
105.8567776932
 20
135.0215449884
 30
0.0
 10
106.2392255988
 20
135.2896691026
 30
0.0
 10
106.4328393646
 20
135.4014513952
 30
0.0
  0
SPLINE
  5
475
100
AcDbEntity
  8
0
100
AcDbSpline
 62
7
  6
CONTINUOUS
 70
0
 71
3
 72
15
 73
11
 74
0
 42
0.0000001
 43
0.0000001
 44
0.0000000001
 40
0.0
 40
0.0
 40
0.0
 40
0.0
 40
0.1141452366
 40
0.2373326637
 40
0.3669736904
 40
0.49999842
 40
0.6330233684
 40
0.762665039
 40
0.8858534719
 40
1.0
 40
1.0
 40
1.0
 40
1.0
 10
100.3517463646
 20
124.0521284674
 30
0.0
 10
100.5744002189
 20
124.1806769628
 30
0.0
 10
101.0142090124
 20
124.4890203922
 30
0.0
 10
101.619411066
 20
125.0551557554
 30
0.0
 10
102.1770685097
 20
125.7244774365
 30
0.0
 10
102.6663059842
 20
126.4716908019
 30
0.0
 10
103.0687897234
 20
127.2689928393
 30
0.0
 10
103.3696085843
 20
128.0866043756
 30
0.0
 10
103.5572946153
 20
128.8937992895
 30
0.0
 10
103.6044240157
 20
129.4288616432
 30
0.0
 10
103.6044240157
 20
129.685962694
 30
0.0
  0
SPLINE
  5
476
100
AcDbEntity
  8
0
100
AcDbSpline
 62
7
  6
CONTINUOUS
 70
0
 71
3
 72
15
 73
11
 74
0
 42
0.0000001
 43
0.0000001
 44
0.0000000001
 40
0.0
 40
0.0
 40
0.0
 40
0.0
 40
0.1141475829
 40
0.2373370756
 40
0.3669780685
 40
0.5000016033
 40
0.6330249151
 40
0.7626652568
 40
0.8858537231
 40
1.0
 40
1.0
 40
1.0
 40
1.0
 10
96.8162271785
 20
118.7448980295
 30
0.0
 10
96.8162271785
 20
118.9684661734
 30
0.0
 10
96.8572060255
 20
119.4337422918
 30
0.0
 10
97.0204202061
 20
120.1356519438
 30
0.0
 10
97.2820036602
 20
120.8466149715
 30
0.0
 10
97.6319841161
 20
121.5399159872
 30
0.0
 10
98.0574062991
 20
122.1896594856
 30
0.0
 10
98.5423218366
 20
122.7716780889
 30
0.0
 10
99.068580856
 20
123.2639779068
 30
0.0
 10
99.4510287615
 20
123.532102021
 30
0.0
 10
99.6446425273
 20
123.6438843135
 30
0.0
  0
SPLINE
  5
477
100
AcDbEntity
  8
0
100
AcDbSpline
 62
7
  6
CONTINUOUS
 70
0
 71
3
 72
11
 73
7
 74
0
 42
0.0000001
 43
0.0000001
 44
0.0000000001
 40
0.0
 40
0.0
 40
0.0
 40
0.0
 40
0.289777178
 40
0.5490714024
 40
0.7822268829
 40
1.0
 40
1.0
 40
1.0
 40
1.0
 10
125.8077259095
 20
77.5119545803
 30
0.0
 10
125.8077259095
 20
77.3092286477
 30
0.0
 10
125.8383785856
 20
76.9237837846
 30
0.0
 10
125.9945877459
 20
76.3942338452
 30
0.0
 10
126.2573396469
 20
75.9645282818
 30
0.0
 10
126.5042480728
 20
75.7570103825
 30
0.0
 10
126.6361898938
 20
75.6808354531
 30
0.0
  0
SPLINE
  5
478
100
AcDbEntity
  8
0
100
AcDbSpline
 62
7
  6
CONTINUOUS
 70
0
 71
3
 72
11
 73
7
 74
0
 42
0.0000001
 43
0.0000001
 44
0.0000000001
 40
0.0
 40
0.0
 40
0.0
 40
0.0
 40
0.2177745347
 40
0.4509306045
 40
0.7102242968
 40
1.0
 40
1.0
 40
1.0
 40
1.0
 10
158.6374045766
 20
131.1089911502
 30
0.0
 10
158.5054671237
 20
131.1851635579
 30
0.0
 10
158.2023067163
 20
131.2952254254
 30
0.0
 10
157.6988139993
 20
131.3079198851
 30
0.0
 10
157.162128036
 20
131.1784315229
 30
0.0
 10
156.8130114331
 20
131.0122630572
 30
0.0
 10
156.637453212
 20
130.910905076
 30
0.0
  0
SPLINE
  5
479
100
AcDbEntity
  8
0
100
AcDbSpline
 62
7
  6
CONTINUOUS
 70
0
 71
3
 72
9
 73
5
 74
0
 42
0.0000001
 43
0.0000001
 44
0.0000000001
 40
0.0
 40
0.0
 40
0.0
 40
0.0
 40
0.2379869593
 40
1.0
 40
1.0
 40
1.0
 40
1.0
 10
132.5959227468
 20
112.9480917587
 30
0.0
 10
132.5959227468
 20
112.8527358782
 30
0.0
 10
132.5825983775
 20
112.4520905662
 30
0.0
 10
132.5200291647
 20
112.0537533803
 30
0.0
 10
132.4511187112
 20
111.7563104733
 30
0.0
  0
SPLINE
  5
47A
100
AcDbEntity
  8
0
100
AcDbSpline
 62
7
  6
CONTINUOUS
 70
0
 71
3
 72
9
 73
5
 74
0
 42
0.0000001
 43
0.0000001
 44
0.0000000001
 40
0.0
 40
0.0
 40
0.0
 40
0.0
 40
0.2439847325
 40
1.0
 40
1.0
 40
1.0
 40
1.0
 10
132.4511187112
 20
111.7563104733
 30
0.0
 10
132.4299194073
 20
111.6648064672
 30
0.0
 10
132.3346530034
 20
111.2917351843
 30
0.0
 10
132.2072578312
 20
110.9270491626
 30
0.0
 10
132.0957683546
 20
110.6582040887
 30
0.0
  0
SPLINE
  5
47B
100
AcDbEntity
  8
0
100
AcDbSpline
 62
7
  6
CONTINUOUS
 70
0
 71
3
 72
9
 73
5
 74
0
 42
0.0000001
 43
0.0000001
 44
0.0000000001
 40
0.0
 40
0.0
 40
0.0
 40
0.0
 40
0.2556064337
 40
1.0
 40
1.0
 40
1.0
 40
1.0
 10
131.0762060447
 20
108.8922796527
 30
0.0
 10
131.016340938
 20
108.8141959954
 30
0.0
 10
130.7762434246
 20
108.5133038673
 30
0.0
 10
130.5123699193
 20
108.231138552
 30
0.0
 10
130.3029571923
 20
108.0355556158
 30
0.0
  0
SPLINE
  5
47C
100
AcDbEntity
  8
0
100
AcDbSpline
 62
7
  6
CONTINUOUS
 70
0
 71
3
 72
9
 73
5
 74
0
 42
0.0000001
 43
0.0000001
 44
0.0000000001
 40
0.0
 40
0.0
 40
0.0
 40
0.0
 40
0.2616093359
 40
1.0
 40
1.0
 40
1.0
 40
1.0
 10
130.3029571923
 20
108.0355556158
 30
0.0
 10
130.2263565319
 20
107.9640137268
 30
0.0
 10
129.9268178337
 20
107.6979909311
 30
0.0
 10
129.5994468617
 20
107.4621748078
 30
0.0
 10
129.3432450956
 20
107.3142575321
 30
0.0
  0
SPLINE
  5
47D
100
AcDbEntity
  8
0
100
AcDbSpline
 62
7
  6
CONTINUOUS
 70
0
 71
3
 72
15
 73
11
 74
0
 42
0.0000001
 43
0.0000001
 44
0.0000000001
 40
0.0
 40
0.0
 40
0.0
 40
0.0
 40
0.1141462769
 40
0.2373347432
 40
0.3669750849
 40
0.4999983967
 40
0.6330219315
 40
0.7626629244
 40
0.8858524171
 40
1.0
 40
1.0
 40
1.0
 40
1.0
 10
135.4243380956
 20
118.6635804598
 30
0.0
 10
135.2307243298
 20
118.5517981673
 30
0.0
 10
134.8482764242
 20
118.283674053
 30
0.0
 10
134.3220174049
 20
117.7913742352
 30
0.0
 10
133.8371018673
 20
117.2093556319
 30
0.0
 10
133.4116796844
 20
116.5596121335
 30
0.0
 10
133.0616992284
 20
115.8663111178
 30
0.0
 10
132.8001157744
 20
115.1553480901
 30
0.0
 10
132.6369015938
 20
114.4534384381
 30
0.0
 10
132.5959227468
 20
113.9881623197
 30
0.0
 10
132.5959227468
 20
113.7645941758
 30
0.0
  0
SPLINE
  5
47E
100
AcDbEntity
  8
0
100
AcDbSpline
 62
7
  6
CONTINUOUS
 70
0
 71
3
 72
15
 73
11
 74
0
 42
0.0000001
 43
0.0000001
 44
0.0000000001
 40
0.0
 40
0.0
 40
0.0
 40
0.0
 40
0.1141462769
 40
0.2373347432
 40
0.3669750849
 40
0.4999983967
 40
0.6330219315
 40
0.7626629244
 40
0.8858524171
 40
1.0
 40
1.0
 40
1.0
 40
1.0
 10
128.6361412584
 20
106.9060133782
 30
0.0
 10
128.4425274925
 20
106.7942310856
 30
0.0
 10
128.060079587
 20
106.5261069714
 30
0.0
 10
127.5338205676
 20
106.0338071536
 30
0.0
 10
127.0489050301
 20
105.4517885503
 30
0.0
 10
126.6234828472
 20
104.8020450519
 30
0.0
 10
126.2735023912
 20
104.1087440362
 30
0.0
 10
126.0119189372
 20
103.3977810085
 30
0.0
 10
125.8487047566
 20
102.6958713565
 30
0.0
 10
125.8077259095
 20
102.2305952381
 30
0.0
 10
125.8077259095
 20
102.0070270942
 30
0.0
  0
SPLINE
  5
47F
100
AcDbEntity
  8
0
100
AcDbSpline
 62
7
  6
CONTINUOUS
 70
0
 71
3
 72
11
 73
7
 74
0
 42
0.0000001
 43
0.0000001
 44
0.0000000001
 40
0.0
 40
0.0
 40
0.0
 40
0.0
 40
0.2177839237
 40
0.4509111717
 40
0.7102971901
 40
1.0
 40
1.0
 40
1.0
 40
1.0
 10
61.9406634229
 20
104.7152402917
 30
0.0
 10
62.0396200958
 20
104.6581089725
 30
0.0
 10
62.2669882605
 20
104.5755972053
 30
0.0
 10
62.6446421294
 20
104.5660383099
 30
0.0
 10
63.0471321916
 20
104.6632360522
 30
0.0
 10
63.3089958838
 20
104.7878121608
 30
0.0
 10
63.4406304878
 20
104.8638109812
 30
0.0
  0
SPLINE
  5
480
100
AcDbEntity
  8
0
100
AcDbSpline
 62
7
  6
CONTINUOUS
 70
0
 71
3
 72
11
 73
7
 74
0
 42
0.0000001
 43
0.0000001
 44
0.0000000001
 40
0.0
 40
0.0
 40
0.0
 40
0.0
 40
0.2177825102
 40
0.4509091639
 40
0.7102957096
 40
1.0
 40
1.0
 40
1.0
 40
1.0
 10
29.0600612036
 20
123.6984353769
 30
0.0
 10
28.9611012797
 20
123.7555686345
 30
0.0
 10
28.7759510732
 20
123.9112225945
 30
0.0
 10
28.5788369962
 20
124.23351243
 30
0.0
 10
28.4617628932
 20
124.630694488
 30
0.0
 10
28.4387167568
 20
124.9197757369
 30
0.0
 10
28.4387167568
 20
125.0717808562
 30
0.0
  0
SPLINE
  5
481
100
AcDbEntity
  8
0
100
AcDbSpline
 62
7
  6
CONTINUOUS
 70
0
 71
3
 72
11
 73
7
 74
0
 42
0.0000001
 43
0.0000001
 44
0.0000000001
 40
0.0
 40
0.0
 40
0.0
 40
0.0
 40
0.2372398078
 40
0.4999994051
 40
0.7627593222
 40
1.0
 40
1.0
 40
1.0
 40
1.0
 10
76.8757152655
 20
144.3827265971
 30
0.0
 10
76.574548015
 20
144.2088486419
 30
0.0
 10
75.8741874511
 20
143.9551195941
 30
0.0
 10
74.7543985147
 20
143.8335551537
 30
0.0
 10
73.6346077262
 20
143.9551143881
 30
0.0
 10
72.9342441872
 20
144.208839978
 30
0.0
 10
72.6330745785
 20
144.3827163991
 30
0.0
  0
SPLINE
  5
482
100
AcDbEntity
  8
0
100
AcDbSpline
 62
7
  6
CONTINUOUS
 70
0
 71
3
 72
11
 73
7
 74
0
 42
0.0000001
 43
0.0000001
 44
0.0000000001
 40
0.0
 40
0.0
 40
0.0
 40
0.0
 40
0.2177821605
 40
0.4509085882
 40
0.7102951949
 40
1.0
 40
1.0
 40
1.0
 40
1.0
 10
113.9580875858
 20
166.509549539
 30
0.0
 10
113.9580875538
 20
166.3952855284
 30
0.0
 10
113.9158618801
 20
166.1571233425
 30
0.0
 10
113.7353120775
 20
165.8252866031
 30
0.0
 10
113.4498881619
 20
165.5253191238
 30
0.0
 10
113.2110675681
 20
165.3608268077
 30
0.0
 10
113.0794317309
 20
165.2848272754
 30
0.0
  0
SPLINE
  5
483
100
AcDbEntity
  8
0
100
AcDbSpline
 62
7
  6
CONTINUOUS
 70
0
 71
3
 72
11
 73
7
 74
0
 42
0.0000001
 43
0.0000001
 44
0.0000000001
 40
0.0
 40
0.0
 40
0.0
 40
0.0
 40
0.2897042895
 40
0.5490907647
 40
0.7822174449
 40
1.0
 40
1.0
 40
1.0
 40
1.0
 10
61.3193189761
 20
106.088585771
 30
0.0
 10
61.3193189761
 20
105.9365806517
 30
0.0
 10
61.3423650608
 20
105.6474994352
 30
0.0
 10
61.4594391935
 20
105.2503174005
 30
0.0
 10
61.6565532637
 20
104.9280275842
 30
0.0
 10
61.8417034517
 20
104.7723735153
 30
0.0
 10
61.9406634229
 20
104.7152402917
 30
0.0
  0
SPLINE
  5
484
100
AcDbEntity
  8
0
100
AcDbSpline
 62
7
  6
CONTINUOUS
 70
0
 71
3
 72
9
 73
5
 74
0
 42
0.0000001
 43
0.0000001
 44
0.0000000001
 40
0.0
 40
0.0
 40
0.0
 40
0.0
 40
0.2349022509
 40
1.0
 40
1.0
 40
1.0
 40
1.0
 10
72.6330745785
 20
167.4897348039
 30
0.0
 10
72.7065079132
 20
167.4473390074
 30
0.0
 10
73.0272771417
 20
167.2810644735
 30
0.0
 10
73.3740117451
 20
167.1676128268
 30
0.0
 10
73.6431500652
 20
167.1056520063
 30
0.0
  0
SPLINE
  5
485
100
AcDbEntity
  8
0
100
AcDbSpline
 62
7
  6
CONTINUOUS
 70
0
 71
3
 72
9
 73
5
 74
0
 42
0.0000001
 43
0.0000001
 44
0.0000000001
 40
0.0
 40
0.0
 40
0.0
 40
0.0
 40
0.2465708886
 40
1.0
 40
1.0
 40
1.0
 40
1.0
 10
73.6431500652
 20
167.1056520063
 30
0.0
 10
73.6862138225
 20
167.0957379007
 30
0.0
 10
73.8614485146
 20
167.0580984054
 30
0.0
 10
74.0388376983
 20
167.0305913199
 30
0.0
 10
74.1729984447
 20
167.0153037067
 30
0.0
  0
SPLINE
  5
486
100
AcDbEntity
  8
0
100
AcDbSpline
 62
7
  6
CONTINUOUS
 70
0
 71
3
 72
9
 73
5
 74
0
 42
0.0000001
 43
0.0000001
 44
0.0000000001
 40
0.0
 40
0.0
 40
0.0
 40
0.0
 40
0.2532154778
 40
1.0
 40
1.0
 40
1.0
 40
1.0
 10
75.335744281
 20
167.0153003501
 30
0.0
 10
75.3808295828
 20
167.0204375475
 30
0.0
 10
75.5585943914
 20
167.0431405022
 30
0.0
 10
75.7351338198
 20
167.0756133805
 30
0.0
 10
75.8655490948
 20
167.1056351999
 30
0.0
  0
SPLINE
  5
487
100
AcDbEntity
  8
0
100
AcDbSpline
 62
7
  6
CONTINUOUS
 70
0
 71
3
 72
9
 73
5
 74
0
 42
0.0000001
 43
0.0000001
 44
0.0000000001
 40
0.0
 40
0.0
 40
0.0
 40
0.0
 40
0.2642673046
 40
1.0
 40
1.0
 40
1.0
 40
1.0
 10
75.8655490948
 20
167.1056351999
 30
0.0
 10
75.9585049474
 20
167.1270337961
 30
0.0
 10
76.3074034563
 20
167.2191271932
 30
0.0
 10
76.6457314125
 20
167.356964555
 30
0.0
 10
76.8757152655
 20
167.4897450019
 30
0.0
  0
SPLINE
  5
488
100
AcDbEntity
  8
0
100
AcDbSpline
 62
7
  6
CONTINUOUS
 70
0
 71
3
 72
9
 73
5
 74
0
 42
0.0000001
 43
0.0000001
 44
0.0000000001
 40
0.0
 40
0.0
 40
0.0
 40
0.0
 40
0.256139438
 40
1.0
 40
1.0
 40
1.0
 40
1.0
 10
113.2674656402
 20
188.5110769699
 30
0.0
 10
113.286239479
 20
188.5241559276
 30
0.0
 10
113.3588141887
 20
188.5762390327
 30
0.0
 10
113.4284327275
 20
188.6324841086
 30
0.0
 10
113.4779921952
 20
188.6767465026
 30
0.0
  0
SPLINE
  5
489
100
AcDbEntity
  8
0
100
AcDbSpline
 62
7
  6
CONTINUOUS
 70
0
 71
3
 72
9
 73
5
 74
0
 42
0.0000001
 43
0.0000001
 44
0.0000000001
 40
0.0
 40
0.0
 40
0.0
 40
0.0
 40
0.2609341878
 40
1.0
 40
1.0
 40
1.0
 40
1.0
 10
113.4779921952
 20
188.6767465026
 30
0.0
 10
113.503981358
 20
188.699957861
 30
0.0
 10
113.6012354379
 20
188.7914629983
 30
0.0
 10
113.6886031532
 20
188.8937960152
 30
0.0
 10
113.7446921611
 20
188.9750046974
 30
0.0
  0
SPLINE
  5
48A
100
AcDbEntity
  8
0
100
AcDbSpline
 62
7
  6
CONTINUOUS
 70
0
 71
3
 72
9
 73
5
 74
0
 42
0.0000001
 43
0.0000001
 44
0.0000000001
 40
0.0
 40
0.0
 40
0.0
 40
0.0
 40
0.2604112263
 40
1.0
 40
1.0
 40
1.0
 40
1.0
 10
113.7446921611
 20
188.9750046974
 30
0.0
 10
113.7654338381
 20
189.005035613
 30
0.0
 10
113.8407008395
 20
189.1232609396
 30
0.0
 10
113.8968744859
 20
189.2541104584
 30
0.0
 10
113.9234496473
 20
189.3543019563
 30
0.0
  0
SPLINE
  5
48B
100
AcDbEntity
  8
0
100
AcDbSpline
 62
7
  6
CONTINUOUS
 70
0
 71
3
 72
9
 73
5
 74
0
 42
0.0000001
 43
0.0000001
 44
0.0000000001
 40
0.0
 40
0.0
 40
0.0
 40
0.0
 40
0.2527278947
 40
1.0
 40
1.0
 40
1.0
 40
1.0
 10
113.9234496473
 20
189.3543019563
 30
0.0
 10
113.9291722398
 20
189.3758768057
 30
0.0
 10
113.9491596929
 20
189.4619232734
 30
0.0
 10
113.9580875981
 20
189.5505689785
 30
0.0
 10
113.9580875859
 20
189.6165679437
 30
0.0
  0
ENDSEC
  0
SECTION
  2
OBJECTS
  0
DICTIONARY
  5
C
100
AcDbDictionary
280
0
281
1
  3
ACAD_GROUP
350
D
  3
ACAD_MLINESTYLE
350
17
  3
ACAD_LAYOUT
350
1A
  3
ACAD_PLOTSETTINGS
350
19
  3
ACAD_PLOTSTYLENAME
350
E
  0
DICTIONARY
  5
D
102
{ACAD_REACTORS
330
C
102
}
100
AcDbDictionary
280
0
281
1
  0
ACDBDICTIONARYWDFLT
  5
E
102
{ACAD_REACTORS
330
C
102
}
100
AcDbDictionary
281
1
  3
Normal
350
F
100
AcDbDictionaryWithDefault
340
F
  0
DICTIONARY
  5
17
102
{ACAD_REACTORS
330
C
102
}
100
AcDbDictionary
280
0
281
1
  3
Standard
350
18
  0
DICTIONARY
  5
19
102
{ACAD_REACTORS
330
C
102
}
100
AcDbDictionary
281
1
  0
DICTIONARY
  5
1A
102
{ACAD_REACTORS
330
C
102
}
100
AcDbDictionary
281
1
  3
Model
350
48C
  3
Layout1
350
48D
  0
ACDBPLACEHOLDER
  5
F
102
{ACAD_REACTORS
330
E
102
}
  0
MLINESTYLE
  5
18
102
{ACAD_REACTORS
330
17
102
}
100
AcDbMlineStyle
  2
STANDARD
 70
0
  3

 62
256
 51
90.0
 52
90.0
 71
2
 49
0.5
 62
256
  6
BYLAYER
 49
-0.5
 62
256
  6
BYLAYER
  0
LAYOUT
  5
48C
102
{ACAD_REACTORS
330
1A
102
}
100
AcDbPlotSettings
  1

  2
none_device
  4

  6

 40
0.0
 41
0.0
 42
0.0
 43
0.0
 44
210.0
 45
297.0
 46
0.0
 47
0.0
 48
0.0
 49
0.0
140
0.0
141
0.0
142
1.0
143
1.0
 70
1024
 72
1
 73
0
 74
0
  7

 75
0
147
1.0
148
0.0
149
0.0
100
AcDbLayout
  1
Model
 70
0
 71
0
 10
0.0
 20
0.0
 11
210.0
 21
297.0
 12
0.0
 22
0.0
 32
0.0
 14
0.0
 24
0.0
 34
0.0
 15
0.0
 25
0.0
 35
0.0
146
0.0
 13
0.0
 23
0.0
 33
0.0
 16
1.0
 26
0.0
 36
0.0
 17
0.0
 27
1.0
 37
0.0
 76
0
330
210
345
0
346
0
  0
LAYOUT
  5
48D
102
{ACAD_REACTORS
330
1A
102
}
100
AcDbPlotSettings
  1

  2
none_device
  4

  6

 40
0.0
 41
0.0
 42
0.0
 43
0.0
 44
210.0
 45
297.0
 46
0.0
 47
0.0
 48
0.0
 49
0.0
140
0.0
141
0.0
142
1.0
143
1.0
 70
0
 72
1
 73
0
 74
0
  7

 75
0
147
1.0
148
0.0
149
0.0
100
AcDbLayout
  1
Layout1
 70
0
 71
1
 10
0.0
 20
0.0
 11
210.0
 21
297.0
 12
0.0
 22
0.0
 32
0.0
 14
0.0
 24
0.0
 34
0.0
 15
0.0
 25
0.0
 35
0.0
146
0.0
 13
0.0
 23
0.0
 33
0.0
 16
1.0
 26
0.0
 36
0.0
 17
0.0
 27
1.0
 37
0.0
 76
0
330
211
345
0
346
0
  0
ENDSEC
  0
EOF
