999
DXF file: C:\Users\sesa63760\Dev\_Creo\CAD\MCADID0004255_3D-CAD\drw0001_2.dxf
999
Pro/ENGINEER 2019471 by Parametric Technology Corporation
  0
SECTION
  2
HEADER
  9
$ACADVER
  1
AC1024
  9
$DWGCODEPAGE
  3
ANSI_1252
  9
$EXTMAX
 10
888.3111839084
 20
1256.3258172419
 30
0.0
  9
$EXTMIN
 10
0.0
 20
0.0
 30
0.0
  9
$LIMMIN
 10
0.0
 20
0.0
  9
$LIMMAX
 10
888.3111839084
 20
1256.3258172419
  9
$VIEWCTR
 10
444.1555919542
 20
628.1629086209
  9
$VIEWSIZE
 40
1256.3258172419
  9
$CLAYER
  8
0
  9
$LTSCALE
 40
81.8938310498
  9
$CELTYPE
  6
BYLAYER
  9
$DIMSCALE
 40
1.0
  9
$DIMASZ
 40
10.5751331418
  9
$DIMEXO
 40
1.0
  9
$DIMDLI
 40
56.5811923617
  9
$DIMEXE
 40
1.0
  9
$DIMCEN
 40
13.4008087172
  9
$DIMLFAC
 40
1.0
  9
$DIMBLK
  1
_FILLED
  9
$DIMALT
 70
0
  9
$DIMALTF
 40
0.0393700787
  9
$DIMTXT
 40
14.8051863985
  9
$DIMTOL
 70
1
  9
$DIMLIM
 70
0
  9
$DIMTFAC
 40
1.0
  9
$DIMTP
 40
0.01
  9
$DIMTM
 40
0.01
  9
$DIMGAP
 40
0.625
  9
$DIMDSEP
 70
46
  9
$AUNITS
 70
0
  9
$PDMODE
 70
3
  9
$PDSIZE
 40
0.3125
  9
$HANDSEED
  5
437
  9
$TILEMODE
 70
1
  9
$MEASUREMENT
 70
1
  9
$INSUNITS
 70
4
  0
ENDSEC
  0
SECTION
  2
CLASSES
  0
CLASS
  1
ACDBDICTIONARYWDFLT
  2
AcDbDictionaryWithDefault
  3
AutoCAD 2000
 90
0
 91
1
280
0
281
0
  0
CLASS
  1
ACDBPLACEHOLDER
  2
AcDbPlaceHolder
  3
AutoCAD 2000
 90
0
 91
1
280
0
281
0
  0
CLASS
  1
LAYOUT
  2
AcDbLayout
  3
AutoCAD 2000
 90
0
 91
0
280
0
281
0
  0
ENDSEC
  0
SECTION
  2
TABLES
  0
TABLE
  2
VPORT
  5
8
100
AcDbSymbolTable
 70
2
  0
VPORT
  5
1F4
100
AcDbSymbolTableRecord
100
AcDbViewportTableRecord
  2
*ACTIVE
 70
0
 10
0.0
 20
0.0
 11
1.0
 21
1.0
 12
444.1555919542
 22
628.1629086209
 13
0.0
 23
0.0
 14
1.0
 24
1.0
 15
0.0
 25
0.0
 16
0.0
 26
0.0
 36
1.0
 17
0.0
 27
0.0
 37
0.0
 40
1256.3258172419
 41
0.7070707071
 42
50.0
 43
0.0
 44
0.0
 50
0.0
 51
0.0
 71
0
 72
100
 73
1
 74
1
 75
0
 76
0
 77
0
 78
0
  0
ENDTAB
  0
TABLE
  2
LTYPE
  5
5
100
AcDbSymbolTable
 70
6
  0
LTYPE
  5
14
100
AcDbSymbolTableRecord
100
AcDbLinetypeTableRecord
  2
BYBLOCK
 70
0
  3

 72
65
 73
0
 40
0.0
  0
LTYPE
  5
15
100
AcDbSymbolTableRecord
100
AcDbLinetypeTableRecord
  2
BYLAYER
 70
0
  3

 72
65
 73
0
 40
0.0
  0
LTYPE
  5
16
100
AcDbSymbolTableRecord
100
AcDbLinetypeTableRecord
  2
CONTINUOUS
 70
64
  3
Solid line
 72
65
 73
0
 40
0.0
  0
LTYPE
  5
1F5
100
AcDbSymbolTableRecord
100
AcDbLinetypeTableRecord
  2
CENTER
 70
64
  3
____ _ ____ _ ____ _ ____ _ ____ _ ____ _ ____
 72
65
 73
4
 40
0.6
 49
0.375
 74
0
 49
-0.075
 74
0
 49
0.075
 74
0
 49
-0.075
 74
0
  0
LTYPE
  5
1F6
100
AcDbSymbolTableRecord
100
AcDbLinetypeTableRecord
  2
HIDDEN
 70
64
  3
- - - - - - - - - - - - - - - - - - - -
 72
65
 73
2
 40
0.2
 49
0.1
 74
0
 49
-0.1
 74
0
  0
LTYPE
  5
1F7
100
AcDbSymbolTableRecord
100
AcDbLinetypeTableRecord
  2
PHANTOM
 70
64
  3
_____ _ _ _____ _ _ _____ _ _ _____
 72
65
 73
6
 40
0.8
 49
0.45
 74
0
 49
-0.05
 74
0
 49
0.1
 74
0
 49
-0.05
 74
0
 49
0.1
 74
0
 49
-0.05
 74
0
  0
LTYPE
  5
1F8
100
AcDbSymbolTableRecord
100
AcDbLinetypeTableRecord
  2
DOT
 70
64
  3
. . . . . . . . . . . . . . . . . . . .
 72
65
 73
2
 40
0.2
 49
0.1
 74
0
 49
-0.1
 74
0
  0
LTYPE
  5
1F9
100
AcDbSymbolTableRecord
100
AcDbLinetypeTableRecord
  2
DASHED
 70
64
  3
- - - - - - - - - - - - - - - - - - - -
 72
65
 73
2
 40
0.2
 49
0.1
 74
0
 49
-0.1
 74
0
  0
ENDTAB
  0
TABLE
  2
LAYER
  5
2
100
AcDbSymbolTable
 70
36
  0
LAYER
  5
10
100
AcDbSymbolTableRecord
100
AcDbLayerTableRecord
  2
0
 70
0
 62
7
  6
CONTINUOUS
370
-3
390
F
  0
LAYER
  5
1FA
100
AcDbSymbolTableRecord
100
AcDbLayerTableRecord
  2
DEFAULT_1
 70
0
 62
7
  6
CENTER
370
-3
390
F
  0
LAYER
  5
1FB
100
AcDbSymbolTableRecord
100
AcDbLayerTableRecord
  2
DEFAULT_2
 70
0
 62
7
  6
HIDDEN
370
-3
390
F
  0
LAYER
  5
1FC
100
AcDbSymbolTableRecord
100
AcDbLayerTableRecord
  2
DEFAULT_3
 70
0
 62
7
  6
PHANTOM
370
-3
390
F
  0
LAYER
  5
1FD
100
AcDbSymbolTableRecord
100
AcDbLayerTableRecord
  2
00_COMPONENTS
 70
0
 62
7
  6
CONTINUOUS
370
-3
390
F
  0
LAYER
  5
1FE
100
AcDbSymbolTableRecord
100
AcDbLayerTableRecord
  2
01_1_DEFAULT_DATUMS
 70
0
 62
7
  6
CONTINUOUS
370
-3
390
F
  0
LAYER
  5
1FF
100
AcDbSymbolTableRecord
100
AcDbLayerTableRecord
  2
01_PLANES
 70
0
 62
7
  6
CONTINUOUS
370
-3
390
F
  0
LAYER
  5
200
100
AcDbSymbolTableRecord
100
AcDbLayerTableRecord
  2
02_COORD_SYS
 70
0
 62
7
  6
CONTINUOUS
370
-3
390
F
  0
LAYER
  5
201
100
AcDbSymbolTableRecord
100
AcDbLayerTableRecord
  2
03_AXES
 70
0
 62
7
  6
CONTINUOUS
370
-3
390
F
  0
LAYER
  5
202
100
AcDbSymbolTableRecord
100
AcDbLayerTableRecord
  2
04_POINTS
 70
0
 62
7
  6
CONTINUOUS
370
-3
390
F
  0
LAYER
  5
203
100
AcDbSymbolTableRecord
100
AcDbLayerTableRecord
  2
05_CURVES
 70
0
 62
7
  6
CONTINUOUS
370
-3
390
F
  0
LAYER
  5
204
100
AcDbSymbolTableRecord
100
AcDbLayerTableRecord
  2
06_SURFS
 70
0
 62
7
  6
CONTINUOUS
370
-3
390
F
  0
LAYER
  5
205
100
AcDbSymbolTableRecord
100
AcDbLayerTableRecord
  2
07_COSMETICS
 70
0
 62
7
  6
CONTINUOUS
370
-3
390
F
  0
LAYER
  5
206
100
AcDbSymbolTableRecord
100
AcDbLayerTableRecord
  2
10_NOTES
 70
0
 62
7
  6
CONTINUOUS
370
-3
390
F
  0
LAYER
  5
207
100
AcDbSymbolTableRecord
100
AcDbLayerTableRecord
  2
11_NOTES_PUB
 70
0
 62
7
  6
CONTINUOUS
370
-3
390
F
  0
LAYER
  5
208
100
AcDbSymbolTableRecord
100
AcDbLayerTableRecord
  2
13_REF_GTOL
 70
0
 62
7
  6
CONTINUOUS
370
-3
390
F
  0
LAYER
  5
209
100
AcDbSymbolTableRecord
100
AcDbLayerTableRecord
  2
16_MISC
 70
0
 62
7
  6
CONTINUOUS
370
-3
390
F
  0
LAYER
  5
20A
100
AcDbSymbolTableRecord
100
AcDbLayerTableRecord
  2
17_NO_PRINT
 70
0
 62
7
  6
CONTINUOUS
370
-3
390
F
  0
LAYER
  5
20B
100
AcDbSymbolTableRecord
100
AcDbLayerTableRecord
  2
18_DATUM_CAMS_JOINTS
 70
0
 62
7
  6
CONTINUOUS
370
-3
390
F
  0
LAYER
  5
20C
100
AcDbSymbolTableRecord
100
AcDbLayerTableRecord
  2
19_DATUM_FUNCTIONAL
 70
0
 62
7
  6
CONTINUOUS
370
-3
390
F
  0
LAYER
  5
20D
100
AcDbSymbolTableRecord
100
AcDbLayerTableRecord
  2
20_DATUM_KINEMATIC_SCHEME
 70
0
 62
7
  6
CONTINUOUS
370
-3
390
F
  0
LAYER
  5
20E
100
AcDbSymbolTableRecord
100
AcDbLayerTableRecord
  2
3
 70
0
 62
7
  6
CONTINUOUS
370
-3
390
F
  0
LAYER
  5
20F
100
AcDbSymbolTableRecord
100
AcDbLayerTableRecord
  2
4
 70
0
 62
7
  6
CONTINUOUS
370
-3
390
F
  0
ENDTAB
  0
TABLE
  2
STYLE
  5
3
100
AcDbSymbolTable
 70
1
  0
STYLE
  5
11
100
AcDbSymbolTableRecord
100
AcDbTextStyleTableRecord
  2
STANDARD
 70
0
 40
0.0
 41
1.0
 50
0.0
 71
0
 42
0.2
  3
ARIAL.TTF
  4

  0
STYLE
  5
210
100
AcDbSymbolTableRecord
100
AcDbTextStyleTableRecord
  2
TEXTSTYLE_1
 70
0
 40
0.0
 41
0.8
 50
0.0
 71
0
 42
0.2
  3
gdt
  4

  0
ENDTAB
  0
TABLE
  2
VIEW
  5
6
100
AcDbSymbolTable
 70
0
  0
ENDTAB
  0
TABLE
  2
UCS
  5
7
100
AcDbSymbolTable
 70
0
  0
ENDTAB
  0
TABLE
  2
APPID
  5
9
100
AcDbSymbolTable
 70
1
  0
APPID
  5
211
100
AcDbSymbolTableRecord
100
AcDbRegAppTableRecord
  2
ACAD
 70
0
  0
ENDTAB
  0
TABLE
  2
BLOCK_RECORD
  5
1
100
AcDbSymbolTable
 70
0
  0
BLOCK_RECORD
  5
212
100
AcDbSymbolTableRecord
100
AcDbBlockTableRecord
  2
*Model_Space
  0
BLOCK_RECORD
  5
213
100
AcDbSymbolTableRecord
100
AcDbBlockTableRecord
  2
*Paper_Space
  0
BLOCK_RECORD
  5
214
100
AcDbSymbolTableRecord
100
AcDbBlockTableRecord
  2
_FILLED
  0
ENDTAB
  0
TABLE
  2
DIMSTYLE
  5
A
100
AcDbSymbolTable
 70
1
100
AcDbDimStyleTable
 71
0
  0
DIMSTYLE
105
215
100
AcDbSymbolTableRecord
100
AcDbDimStyleTableRecord
  2
STANDARD
 70
0
  3

  4

 40
1.0
 41
10.5751331418
 42
1.0
 43
0.38
 44
1.0
 45
0.0
 46
0.0
 47
0.01
 48
0.01
140
14.8051863985
141
0.09
142
0.0
143
25.4
144
1.0
145
0.0
146
1.0
147
0.625
 71
1
 72
0
 73
0
 74
0
 75
0
 76
0
 77
1
 78
8
 79
2
170
0
171
1
172
0
173
0
174
0
175
0
176
0
177
0
178
0
270
2
179
2
271
2
272
2
273
2
274
2
275
0
280
0
281
0
282
0
283
1
284
8
285
0
286
0
287
3
288
0
340
11
278
46
341
214
342
214
343
214
344
214
  0
ENDTAB
  0
ENDSEC
  0
SECTION
  2
BLOCKS
  0
BLOCK
  5
20
100
AcDbEntity
  8
0
100
AcDbBlockBegin
  2
*Model_Space
 70
0
 10
0.0
 20
0.0
 30
0.0
  3
*Model_Space
  1

  0
ENDBLK
  5
21
100
AcDbEntity
  8
0
100
AcDbBlockEnd
  0
BLOCK
  5
1C
100
AcDbEntity
  8
0
100
AcDbBlockBegin
  2
*Paper_Space
 70
0
 10
0.0
 20
0.0
 30
0.0
  3
*Paper_Space
  1

  0
ENDBLK
  5
1D
100
AcDbEntity
  8
0
100
AcDbBlockEnd
  0
BLOCK
  5
216
100
AcDbEntity
  8
0
100
AcDbBlockBegin
  2
_FILLED
 70
64
 10
0.0
 20
0.0
  3
_FILLED
  1

  0
SOLID
  5
217
100
AcDbEntity
  8
0
  6
BYBLOCK
 62
0
100
AcDbTrace
 10
0.0
 20
0.0
 11
-1.0
 21
0.25
 12
-1.0
 22
-0.25
 13
-1.0
 23
-0.25
  0
ENDBLK
  5
218
100
AcDbEntity
  8
0
  6
BYBLOCK
 62
0
100
AcDbBlockEnd
  0
ENDSEC
  0
SECTION
  2
ENTITIES
  0
LINE
  5
219
100
AcDbEntity
  8
0
100
AcDbLine
 62
7
  6
BYLAYER
 10
553.025214446
 20
83.8063121661
 11
547.4257911588
 21
83.8063121661
  0
LINE
  5
21A
100
AcDbEntity
  8
0
100
AcDbLine
 62
7
  6
BYLAYER
 10
511.025689489
 20
83.8063121661
 11
505.4253161217
 21
83.8063121661
  0
LINE
  5
21B
100
AcDbEntity
  8
0
100
AcDbLine
 62
7
  6
BYLAYER
 10
405.3760835575
 20
83.8063121661
 11
399.7766602703
 21
83.8063121661
  0
LINE
  5
21C
100
AcDbEntity
  8
0
100
AcDbLine
 62
7
  6
BYLAYER
 10
363.3765586005
 20
83.8063121661
 11
357.7761852332
 21
83.8063121661
  0
LINE
  5
21D
100
AcDbEntity
  8
0
100
AcDbLine
 62
7
  6
BYLAYER
 10
357.5765588471
 20
83.9062020276
 11
358.4037646862
 21
83.9062020276
  0
LINE
  5
21E
100
AcDbEntity
  8
0
100
AcDbLine
 62
7
  6
BYLAYER
 10
363.7493530081
 20
83.9062020276
 11
399.4037646833
 21
83.9062020276
  0
LINE
  5
21F
100
AcDbEntity
  8
0
100
AcDbLine
 62
7
  6
BYLAYER
 10
404.7493530052
 20
83.9062020276
 11
405.5765588471
 21
83.9062020276
  0
LINE
  5
220
100
AcDbEntity
  8
0
100
AcDbLine
 62
7
  6
BYLAYER
 10
505.2256897357
 20
83.9062020276
 11
506.0528955747
 21
83.9062020276
  0
LINE
  5
221
100
AcDbEntity
  8
0
100
AcDbLine
 62
7
  6
BYLAYER
 10
511.3984838966
 20
83.9062020276
 11
547.0528955718
 21
83.9062020276
  0
LINE
  5
222
100
AcDbEntity
  8
0
100
AcDbLine
 62
7
  6
BYLAYER
 10
552.3984838937
 20
83.9062020276
 11
553.2256897357
 21
83.9062020276
  0
LINE
  5
223
100
AcDbEntity
  8
0
100
AcDbLine
 62
7
  6
BYLAYER
 10
533.3671379159
 20
84.4062020276
 11
525.0852060814
 21
84.4062020276
  0
LINE
  5
224
100
AcDbEntity
  8
0
100
AcDbLine
 62
7
  6
BYLAYER
 10
385.7180070274
 20
84.4062020276
 11
377.4360751929
 21
84.4062020276
  0
LINE
  5
225
100
AcDbEntity
  8
0
100
AcDbLine
 62
7
  6
BYLAYER
 10
553.0256897328
 20
84.8063121661
 11
546.4256897328
 21
84.8063121661
  0
LINE
  5
226
100
AcDbEntity
  8
0
100
AcDbLine
 62
7
  6
BYLAYER
 10
512.0256897357
 20
84.8063121661
 11
505.4256897357
 21
84.8063121661
  0
LINE
  5
227
100
AcDbEntity
  8
0
100
AcDbLine
 62
7
  6
BYLAYER
 10
405.3765588442
 20
84.8063121661
 11
398.7765588442
 21
84.8063121661
  0
LINE
  5
228
100
AcDbEntity
  8
0
100
AcDbLine
 62
7
  6
BYLAYER
 10
364.3765588471
 20
84.8063121661
 11
357.7765588471
 21
84.8063121661
  0
LINE
  5
229
100
AcDbEntity
  8
0
100
AcDbLine
 62
7
  6
BYLAYER
 10
554.2256897357
 20
84.9062020276
 11
553.0256897328
 21
84.9062020276
  0
LINE
  5
22A
100
AcDbEntity
  8
0
100
AcDbLine
 62
7
  6
BYLAYER
 10
546.4256897328
 20
84.9062020276
 11
533.2256897357
 21
84.9062020342
  0
LINE
  5
22B
100
AcDbEntity
  8
0
100
AcDbLine
 62
7
  6
BYLAYER
 10
525.2256897357
 20
84.9062020277
 11
512.0256897357
 21
84.9062020276
  0
LINE
  5
22C
100
AcDbEntity
  8
0
100
AcDbLine
 62
7
  6
BYLAYER
 10
505.4256897357
 20
84.9062020276
 11
504.2256897357
 21
84.9062020276
  0
LINE
  5
22D
100
AcDbEntity
  8
0
100
AcDbLine
 62
7
  6
BYLAYER
 10
406.5765588471
 20
84.9062020276
 11
405.3765588442
 21
84.9062020276
  0
LINE
  5
22E
100
AcDbEntity
  8
0
100
AcDbLine
 62
7
  6
BYLAYER
 10
398.7765588442
 20
84.9062020276
 11
385.5765588471
 21
84.9062020342
  0
LINE
  5
22F
100
AcDbEntity
  8
0
100
AcDbLine
 62
7
  6
BYLAYER
 10
377.5765588471
 20
84.9062020277
 11
364.3765588471
 21
84.9062020276
  0
LINE
  5
230
100
AcDbEntity
  8
0
100
AcDbLine
 62
7
  6
BYLAYER
 10
357.7765588471
 20
84.9062020276
 11
356.5765588471
 21
84.9062020276
  0
LINE
  5
231
100
AcDbEntity
  8
0
100
AcDbLine
 62
7
  6
BYLAYER
 10
356.5765588471
 20
85.9062019587
 11
357.7765588471
 21
85.9062020276
  0
LINE
  5
232
100
AcDbEntity
  8
0
100
AcDbLine
 62
7
  6
BYLAYER
 10
364.3765588471
 20
85.9062020276
 11
365.5765588471
 21
85.9062019586
  0
LINE
  5
233
100
AcDbEntity
  8
0
100
AcDbLine
 62
7
  6
BYLAYER
 10
397.5765588471
 20
85.9062019587
 11
398.7765588442
 21
85.9062020276
  0
LINE
  5
234
100
AcDbEntity
  8
0
100
AcDbLine
 62
7
  6
BYLAYER
 10
405.3765588442
 20
85.9062020276
 11
406.5765588471
 21
85.9062019586
  0
LINE
  5
235
100
AcDbEntity
  8
0
100
AcDbLine
 62
7
  6
BYLAYER
 10
504.2256897357
 20
85.9062019587
 11
505.4256897357
 21
85.9062020276
  0
LINE
  5
236
100
AcDbEntity
  8
0
100
AcDbLine
 62
7
  6
BYLAYER
 10
512.0256897357
 20
85.9062020276
 11
513.2256897357
 21
85.9062019586
  0
LINE
  5
237
100
AcDbEntity
  8
0
100
AcDbLine
 62
7
  6
BYLAYER
 10
545.2256897357
 20
85.9062019587
 11
546.4256897328
 21
85.9062020276
  0
LINE
  5
238
100
AcDbEntity
  8
0
100
AcDbLine
 62
7
  6
BYLAYER
 10
553.0256897328
 20
85.9062020276
 11
554.2256897357
 21
85.9062019586
  0
LINE
  5
239
100
AcDbEntity
  8
0
100
AcDbLine
 62
7
  6
BYLAYER
 10
357.0765588471
 20
86.4062020276
 11
364.0765588471
 21
86.4062020276
  0
LINE
  5
23A
100
AcDbEntity
  8
0
100
AcDbLine
 62
7
  6
BYLAYER
 10
399.0765588471
 20
86.4062020276
 11
406.0765588471
 21
86.4062020276
  0
LINE
  5
23B
100
AcDbEntity
  8
0
100
AcDbLine
 62
7
  6
BYLAYER
 10
504.7256897357
 20
86.4062020276
 11
511.7256897357
 21
86.4062020276
  0
LINE
  5
23C
100
AcDbEntity
  8
0
100
AcDbLine
 62
7
  6
BYLAYER
 10
546.7256897357
 20
86.4062020276
 11
553.7256897357
 21
86.4062020276
  0
LINE
  5
23D
100
AcDbEntity
  8
0
100
AcDbLine
 62
7
  6
BYLAYER
 10
554.2256897357
 20
86.9062020276
 11
546.7256897357
 21
86.9062020276
  0
LINE
  5
23E
100
AcDbEntity
  8
0
100
AcDbLine
 62
7
  6
BYLAYER
 10
511.7256897357
 20
86.9062020276
 11
504.2256897357
 21
86.9062020276
  0
LINE
  5
23F
100
AcDbEntity
  8
0
100
AcDbLine
 62
7
  6
BYLAYER
 10
406.5765588471
 20
86.9062020276
 11
399.0765588471
 21
86.9062020276
  0
LINE
  5
240
100
AcDbEntity
  8
0
100
AcDbLine
 62
7
  6
BYLAYER
 10
364.0765588471
 20
86.9062020276
 11
356.5765588471
 21
86.9062020276
  0
LINE
  5
241
100
AcDbEntity
  8
0
100
AcDbLine
 62
7
  6
BYLAYER
 10
356.5765588471
 20
101.4062020276
 11
406.5765588471
 21
101.4062020276
  0
LINE
  5
242
100
AcDbEntity
  8
0
100
AcDbLine
 62
7
  6
BYLAYER
 10
504.2256897357
 20
101.4062020276
 11
554.2256897357
 21
101.4062020276
  0
LINE
  5
243
100
AcDbEntity
  8
4
100
AcDbLine
 62
7
  6
BYLAYER
 10
356.5760838041
 20
101.4063249746
 11
406.5760838041
 21
101.4063249746
  0
LINE
  5
244
100
AcDbEntity
  8
3
100
AcDbLine
 62
7
  6
BYLAYER
 10
504.2252146926
 20
101.4063249746
 11
554.2252146926
 21
101.4063249746
  0
LINE
  5
245
100
AcDbEntity
  8
4
100
AcDbLine
 62
7
  6
BYLAYER
 10
346.3873381206
 20
128.7544872893
 11
391.3873381206
 21
128.7544872893
  0
LINE
  5
246
100
AcDbEntity
  8
3
100
AcDbLine
 62
7
  6
BYLAYER
 10
494.0364690091
 20
128.7544872893
 11
539.0364690091
 21
128.7544872893
  0
LINE
  5
247
100
AcDbEntity
  8
3
100
AcDbLine
 62
7
  6
BYLAYER
 10
497.0364690091
 20
133.7544872893
 11
494.0364690091
 21
133.7544872893
  0
LINE
  5
248
100
AcDbEntity
  8
4
100
AcDbLine
 62
7
  6
BYLAYER
 10
349.3873381206
 20
133.7544872893
 11
346.3873381206
 21
133.7544872893
  0
LINE
  5
249
100
AcDbEntity
  8
3
100
AcDbLine
 62
7
  6
BYLAYER
 10
531.9256897342
 20
134.0779501089
 11
526.5256897342
 21
134.0779501089
  0
LINE
  5
24A
100
AcDbEntity
  8
4
100
AcDbLine
 62
7
  6
BYLAYER
 10
384.2765588457
 20
134.0779501089
 11
378.8765588457
 21
134.0779501089
  0
LINE
  5
24B
100
AcDbEntity
  8
4
100
AcDbLine
 62
7
  6
BYLAYER
 10
374.6873381206
 20
135.5044872893
 11
376.1722493769
 21
135.5044872893
  0
LINE
  5
24C
100
AcDbEntity
  8
4
100
AcDbLine
 62
7
  6
BYLAYER
 10
386.9805307749
 20
135.5044872893
 11
388.1873381206
 21
135.5044872893
  0
LINE
  5
24D
100
AcDbEntity
  8
3
100
AcDbLine
 62
7
  6
BYLAYER
 10
522.3364690091
 20
135.5044872893
 11
523.8213802654
 21
135.5044872893
  0
LINE
  5
24E
100
AcDbEntity
  8
3
100
AcDbLine
 62
7
  6
BYLAYER
 10
534.6296616634
 20
135.5044872893
 11
535.8364690091
 21
135.5044872893
  0
LINE
  5
24F
100
AcDbEntity
  8
3
100
AcDbLine
 62
7
  6
BYLAYER
 10
535.8364690091
 20
142.0044872893
 11
534.629999203
 21
142.0044872893
  0
LINE
  5
250
100
AcDbEntity
  8
3
100
AcDbLine
 62
7
  6
BYLAYER
 10
523.821717805
 20
142.0044872893
 11
522.3364690091
 21
142.0044872893
  0
LINE
  5
251
100
AcDbEntity
  8
4
100
AcDbLine
 62
7
  6
BYLAYER
 10
388.1873381206
 20
142.0044872893
 11
386.9808683145
 21
142.0044872893
  0
LINE
  5
252
100
AcDbEntity
  8
4
100
AcDbLine
 62
7
  6
BYLAYER
 10
376.1725869165
 20
142.0044872893
 11
374.6873381206
 21
142.0044872893
  0
LINE
  5
253
100
AcDbEntity
  8
4
100
AcDbLine
 62
7
  6
BYLAYER
 10
378.8765588457
 20
143.4310244697
 11
384.2765588457
 21
143.4310244697
  0
LINE
  5
254
100
AcDbEntity
  8
3
100
AcDbLine
 62
7
  6
BYLAYER
 10
526.5256897342
 20
143.4310244697
 11
531.9256897342
 21
143.4310244697
  0
LINE
  5
255
100
AcDbEntity
  8
0
100
AcDbLine
 62
7
  6
BYLAYER
 10
367.0758290575
 20
1167.9063121661
 11
366.5758310361
 21
1167.4063143246
  0
LINE
  5
256
100
AcDbEntity
  8
0
100
AcDbLine
 62
7
  6
BYLAYER
 10
365.3258310361
 20
1163.9063121661
 11
364.8258310361
 21
1163.4063121661
  0
LINE
  5
257
100
AcDbEntity
  8
3
100
AcDbLine
 62
7
  6
BYLAYER
 10
531.9256897342
 20
164.0779501089
 11
526.5256897342
 21
164.0779501089
  0
LINE
  5
258
100
AcDbEntity
  8
4
100
AcDbLine
 62
7
  6
BYLAYER
 10
384.2765588457
 20
164.0779501089
 11
378.8765588457
 21
164.0779501089
  0
LINE
  5
259
100
AcDbEntity
  8
4
100
AcDbLine
 62
7
  6
BYLAYER
 10
374.6873381206
 20
165.5044872893
 11
376.1722493769
 21
165.5044872893
  0
LINE
  5
25A
100
AcDbEntity
  8
4
100
AcDbLine
 62
7
  6
BYLAYER
 10
386.9805307749
 20
165.5044872893
 11
388.1873381206
 21
165.5044872893
  0
LINE
  5
25B
100
AcDbEntity
  8
3
100
AcDbLine
 62
7
  6
BYLAYER
 10
522.3364690091
 20
165.5044872893
 11
523.8213802654
 21
165.5044872893
  0
LINE
  5
25C
100
AcDbEntity
  8
3
100
AcDbLine
 62
7
  6
BYLAYER
 10
534.6296616634
 20
165.5044872893
 11
535.8364690091
 21
165.5044872893
  0
LINE
  5
25D
100
AcDbEntity
  8
3
100
AcDbLine
 62
7
  6
BYLAYER
 10
535.8364690091
 20
172.0044872893
 11
534.629999203
 21
172.0044872893
  0
LINE
  5
25E
100
AcDbEntity
  8
3
100
AcDbLine
 62
7
  6
BYLAYER
 10
523.821717805
 20
172.0044872893
 11
522.3364690091
 21
172.0044872893
  0
LINE
  5
25F
100
AcDbEntity
  8
4
100
AcDbLine
 62
7
  6
BYLAYER
 10
388.1873381206
 20
172.0044872893
 11
386.9808683145
 21
172.0044872893
  0
LINE
  5
260
100
AcDbEntity
  8
4
100
AcDbLine
 62
7
  6
BYLAYER
 10
376.1725869165
 20
172.0044872893
 11
374.6873381206
 21
172.0044872893
  0
LINE
  5
261
100
AcDbEntity
  8
4
100
AcDbLine
 62
7
  6
BYLAYER
 10
378.8765588457
 20
173.4310244697
 11
384.2765588457
 21
173.4310244697
  0
LINE
  5
262
100
AcDbEntity
  8
3
100
AcDbLine
 62
7
  6
BYLAYER
 10
526.5256897342
 20
173.4310244697
 11
531.9256897342
 21
173.4310244697
  0
LINE
  5
263
100
AcDbEntity
  8
4
100
AcDbLine
 62
7
  6
BYLAYER
 10
346.3873381206
 20
173.7544872893
 11
349.3873381206
 21
173.7544872893
  0
LINE
  5
264
100
AcDbEntity
  8
3
100
AcDbLine
 62
7
  6
BYLAYER
 10
494.0364690091
 20
173.7544872893
 11
497.0364690091
 21
173.7544872893
  0
LINE
  5
265
100
AcDbEntity
  8
4
100
AcDbLine
 62
7
  6
BYLAYER
 10
346.3873381206
 20
178.7544872893
 11
391.3873381206
 21
178.7544872893
  0
LINE
  5
266
100
AcDbEntity
  8
3
100
AcDbLine
 62
7
  6
BYLAYER
 10
494.0364690091
 20
178.7544872893
 11
539.0364690091
 21
178.7544872893
  0
LINE
  5
267
100
AcDbEntity
  8
0
100
AcDbLine
 62
7
  6
BYLAYER
 10
383.3258310361
 20
1163.9063121661
 11
382.8258310361
 21
1163.4063121661
  0
LINE
  5
268
100
AcDbEntity
  8
0
100
AcDbLine
 62
7
  6
BYLAYER
 10
514.724959946
 20
1167.9063121661
 11
514.2249619246
 21
1167.4063143246
  0
LINE
  5
269
100
AcDbEntity
  8
0
100
AcDbLine
 62
7
  6
BYLAYER
 10
512.9749619246
 20
1163.9063121661
 11
512.4749619246
 21
1163.4063121661
  0
LINE
  5
26A
100
AcDbEntity
  8
4
100
AcDbLine
 62
7
  6
BYLAYER
 10
378.8765588457
 20
1109.7659269306
 11
376.1765588457
 21
1105.0893897502
  0
LINE
  5
26B
100
AcDbEntity
  8
4
100
AcDbLine
 62
7
  6
BYLAYER
 10
384.2765588457
 20
1100.4128525697
 11
386.9765588457
 21
1105.0893897502
  0
LINE
  5
26C
100
AcDbEntity
  8
0
100
AcDbLine
 62
7
  6
BYLAYER
 10
530.9749619246
 20
1163.9063121661
 11
530.4749619246
 21
1163.4063121661
  0
LINE
  5
26D
100
AcDbEntity
  8
4
100
AcDbLine
 62
7
  6
BYLAYER
 10
376.1765588457
 20
138.7544872893
 11
378.8765588457
 21
134.0779501089
  0
LINE
  5
26E
100
AcDbEntity
  8
4
100
AcDbLine
 62
7
  6
BYLAYER
 10
386.9765588457
 20
138.7544872893
 11
384.2765588457
 21
143.4310244697
  0
LINE
  5
26F
100
AcDbEntity
  8
4
100
AcDbLine
 62
7
  6
BYLAYER
 10
376.1765588457
 20
168.7544872893
 11
378.8765588457
 21
164.0779501089
  0
LINE
  5
270
100
AcDbEntity
  8
4
100
AcDbLine
 62
7
  6
BYLAYER
 10
378.8765588457
 20
1079.7659269306
 11
376.1765588457
 21
1075.0893897502
  0
LINE
  5
271
100
AcDbEntity
  8
4
100
AcDbLine
 62
7
  6
BYLAYER
 10
384.2765588457
 20
1070.4128525697
 11
386.9765588457
 21
1075.0893897502
  0
LINE
  5
272
100
AcDbEntity
  8
4
100
AcDbLine
 62
7
  6
BYLAYER
 10
386.9765588457
 20
168.7544872893
 11
384.2765588457
 21
173.4310244697
  0
LINE
  5
273
100
AcDbEntity
  8
3
100
AcDbLine
 62
7
  6
BYLAYER
 10
523.8256897342
 20
138.7544872893
 11
526.5256897342
 21
134.0779501089
  0
LINE
  5
274
100
AcDbEntity
  8
3
100
AcDbLine
 62
7
  6
BYLAYER
 10
526.5256897342
 20
1109.7659269306
 11
523.8256897342
 21
1105.0893897502
  0
LINE
  5
275
100
AcDbEntity
  8
3
100
AcDbLine
 62
7
  6
BYLAYER
 10
531.9256897342
 20
1100.4128525697
 11
534.6256897342
 21
1105.0893897502
  0
LINE
  5
276
100
AcDbEntity
  8
3
100
AcDbLine
 62
7
  6
BYLAYER
 10
526.5256897342
 20
1079.7659269306
 11
523.8256897342
 21
1075.0893897502
  0
LINE
  5
277
100
AcDbEntity
  8
3
100
AcDbLine
 62
7
  6
BYLAYER
 10
531.9256897342
 20
1070.4128525697
 11
534.6256897342
 21
1075.0893897502
  0
LINE
  5
278
100
AcDbEntity
  8
3
100
AcDbLine
 62
7
  6
BYLAYER
 10
534.6256897342
 20
138.7544872893
 11
531.9256897342
 21
143.4310244697
  0
LINE
  5
279
100
AcDbEntity
  8
3
100
AcDbLine
 62
7
  6
BYLAYER
 10
523.8256897342
 20
168.7544872893
 11
526.5256897342
 21
164.0779501089
  0
LINE
  5
27A
100
AcDbEntity
  8
3
100
AcDbLine
 62
7
  6
BYLAYER
 10
534.6256897342
 20
168.7544872893
 11
531.9256897342
 21
173.4310244697
  0
LINE
  5
27B
100
AcDbEntity
  8
4
100
AcDbLine
 62
7
  6
BYLAYER
 10
346.3873381206
 20
128.7544872893
 11
346.3873381206
 21
178.7544872893
  0
LINE
  5
27C
100
AcDbEntity
  8
4
100
AcDbLine
 62
7
  6
BYLAYER
 10
346.3873381206
 20
1065.0893897502
 11
346.3873381206
 21
1115.0893897502
  0
LINE
  5
27D
100
AcDbEntity
  8
4
100
AcDbLine
 62
7
  6
BYLAYER
 10
349.3873381206
 20
1115.0893897502
 11
349.3873381206
 21
1065.0893897502
  0
LINE
  5
27E
100
AcDbEntity
  8
4
100
AcDbLine
 62
7
  6
BYLAYER
 10
349.3873381206
 20
178.7544872893
 11
349.3873381206
 21
128.7544872893
  0
LINE
  5
27F
100
AcDbEntity
  8
4
100
AcDbLine
 62
7
  6
BYLAYER
 10
353.3873381206
 20
128.7544872893
 11
353.3873381206
 21
178.7544872893
  0
LINE
  5
280
100
AcDbEntity
  8
4
100
AcDbLine
 62
7
  6
BYLAYER
 10
353.3873381206
 20
1065.0893897502
 11
353.3873381206
 21
1115.0893897502
  0
LINE
  5
281
100
AcDbEntity
  8
0
100
AcDbLine
 62
7
  6
BYLAYER
 10
356.5758310361
 20
1156.4063121661
 11
356.5758310361
 21
1154.4182458718
  0
LINE
  5
282
100
AcDbEntity
  8
0
100
AcDbLine
 62
7
  6
BYLAYER
 10
356.5758310361
 20
1154.4063121661
 11
356.5758310361
 21
1139.9063121661
  0
LINE
  5
283
100
AcDbEntity
  8
4
100
AcDbLine
 62
7
  6
BYLAYER
 10
356.5760838041
 20
1139.9063249746
 11
356.5760838041
 21
1115.0893897502
  0
LINE
  5
284
100
AcDbEntity
  8
4
100
AcDbLine
 62
7
  6
BYLAYER
 10
356.5760838041
 20
1065.0893897502
 11
356.5760838041
 21
178.7544872893
  0
LINE
  5
285
100
AcDbEntity
  8
4
100
AcDbLine
 62
7
  6
BYLAYER
 10
356.5760838041
 20
128.7544872893
 11
356.5760838041
 21
101.4063249746
  0
LINE
  5
286
100
AcDbEntity
  8
0
100
AcDbLine
 62
7
  6
BYLAYER
 10
356.5765588471
 20
84.9062020276
 11
356.5765588471
 21
101.4062020276
  0
LINE
  5
287
100
AcDbEntity
  8
0
100
AcDbLine
 62
7
  6
BYLAYER
 10
357.5758310344
 20
1155.4063121661
 11
357.5758310361
 21
1157.4063121661
  0
LINE
  5
288
100
AcDbEntity
  8
0
100
AcDbLine
 62
7
  6
BYLAYER
 10
357.5765588471
 20
83.9062020276
 11
357.5765588454
 21
85.9062020276
  0
LINE
  5
289
100
AcDbEntity
  8
0
100
AcDbLine
 62
7
  6
BYLAYER
 10
357.7758310361
 20
1154.9063121661
 11
357.7758310361
 21
1156.5063121661
  0
LINE
  5
28A
100
AcDbEntity
  8
0
100
AcDbLine
 62
7
  6
BYLAYER
 10
357.7765588471
 20
84.8063121661
 11
357.7765588471
 21
86.4063121661
  0
LINE
  5
28B
100
AcDbEntity
  8
0
100
AcDbLine
 62
7
  6
BYLAYER
 10
360.5758310361
 20
1139.9063121661
 11
360.5758310361
 21
1154.9063121661
  0
LINE
  5
28C
100
AcDbEntity
  8
4
100
AcDbLine
 62
7
  6
BYLAYER
 10
360.5760838041
 20
101.4063249746
 11
360.5760838041
 21
128.7544872893
  0
LINE
  5
28D
100
AcDbEntity
  8
4
100
AcDbLine
 62
7
  6
BYLAYER
 10
360.5760838041
 20
178.7544872893
 11
360.5760838041
 21
1065.0893897502
  0
LINE
  5
28E
100
AcDbEntity
  8
4
100
AcDbLine
 62
7
  6
BYLAYER
 10
360.5760838041
 20
1115.0893897502
 11
360.5760838041
 21
1139.9063249746
  0
LINE
  5
28F
100
AcDbEntity
  8
0
100
AcDbLine
 62
7
  6
BYLAYER
 10
360.5765588471
 20
86.4062020276
 11
360.5765588471
 21
101.4062020276
  0
LINE
  5
290
100
AcDbEntity
  8
0
100
AcDbLine
 62
7
  6
BYLAYER
 10
364.0758309633
 20
1154.9063121661
 11
364.0758309633
 21
1154.4063121661
  0
LINE
  5
291
100
AcDbEntity
  8
0
100
AcDbLine
 62
7
  6
BYLAYER
 10
364.0765587746
 20
86.9062020276
 11
364.0765587746
 21
86.4062020276
  0
LINE
  5
292
100
AcDbEntity
  8
0
100
AcDbLine
 62
7
  6
BYLAYER
 10
364.3758310361
 20
1156.5063121661
 11
364.3758310361
 21
1155.0104946009
  0
LINE
  5
293
100
AcDbEntity
  8
0
100
AcDbLine
 62
7
  6
BYLAYER
 10
364.3765588471
 20
86.3021350334
 11
364.3765588471
 21
84.8063121661
  0
LINE
  5
294
100
AcDbEntity
  8
0
100
AcDbLine
 62
7
  6
BYLAYER
 10
364.5758310361
 20
1156.4063121661
 11
364.5758310361
 21
1155.4063121661
  0
LINE
  5
295
100
AcDbEntity
  8
0
100
AcDbLine
 62
7
  6
BYLAYER
 10
364.5765588471
 20
85.9062020276
 11
364.5765588471
 21
84.9062020276
  0
LINE
  5
296
100
AcDbEntity
  8
0
100
AcDbLine
 62
7
  6
BYLAYER
 10
364.8258310361
 20
1157.4063121661
 11
364.8258310361
 21
1163.4063121661
  0
LINE
  5
297
100
AcDbEntity
  8
0
100
AcDbLine
 62
7
  6
BYLAYER
 10
365.5758310361
 20
1155.4063121661
 11
365.5758310361
 21
1157.4063121661
  0
LINE
  5
298
100
AcDbEntity
  8
0
100
AcDbLine
 62
7
  6
BYLAYER
 10
365.5765588471
 20
83.9062020276
 11
365.5765588471
 21
85.9062020276
  0
LINE
  5
299
100
AcDbEntity
  8
0
100
AcDbLine
 62
7
  6
BYLAYER
 10
366.5758310361
 20
1163.9063121661
 11
366.5758310361
 21
1167.4063112287
  0
LINE
  5
29A
100
AcDbEntity
  8
0
100
AcDbLine
 62
7
  6
BYLAYER
 10
368.4516110361
 20
1165.1063121661
 11
368.4516110361
 21
1163.9063121661
  0
LINE
  5
29B
100
AcDbEntity
  8
0
100
AcDbLine
 62
7
  6
BYLAYER
 10
376.7016110361
 20
1165.1063121661
 11
376.7016110361
 21
1163.9063121661
  0
LINE
  5
29C
100
AcDbEntity
  8
0
100
AcDbLine
 62
7
  6
BYLAYER
 10
377.0758310361
 20
1156.4063121661
 11
377.0758310361
 21
1139.9063121661
  0
LINE
  5
29D
100
AcDbEntity
  8
4
100
AcDbLine
 62
7
  6
BYLAYER
 10
377.0760838041
 20
1139.9063249746
 11
377.0760838041
 21
1115.0893897502
  0
LINE
  5
29E
100
AcDbEntity
  8
4
100
AcDbLine
 62
7
  6
BYLAYER
 10
377.0760838041
 20
1065.0893897502
 11
377.0760838041
 21
178.7544872893
  0
LINE
  5
29F
100
AcDbEntity
  8
4
100
AcDbLine
 62
7
  6
BYLAYER
 10
377.0760838041
 20
128.7544872893
 11
377.0760838041
 21
101.4063249746
  0
LINE
  5
2A0
100
AcDbEntity
  8
0
100
AcDbLine
 62
7
  6
BYLAYER
 10
377.0765588471
 20
101.4062020276
 11
377.0765588471
 21
84.9062020276
  0
LINE
  5
2A1
100
AcDbEntity
  8
0
100
AcDbLine
 62
7
  6
BYLAYER
 10
377.5758310361
 20
1139.9063121661
 11
377.5758310361
 21
1156.406312166
  0
LINE
  5
2A2
100
AcDbEntity
  8
4
100
AcDbLine
 62
7
  6
BYLAYER
 10
377.5760838041
 20
101.4063249746
 11
377.5760838041
 21
128.7544872893
  0
LINE
  5
2A3
100
AcDbEntity
  8
4
100
AcDbLine
 62
7
  6
BYLAYER
 10
377.5760838041
 20
178.7544872893
 11
377.5760838041
 21
1065.0893897502
  0
LINE
  5
2A4
100
AcDbEntity
  8
4
100
AcDbLine
 62
7
  6
BYLAYER
 10
377.5760838041
 20
1115.0893897502
 11
377.5760838041
 21
1139.9063249746
  0
LINE
  5
2A5
100
AcDbEntity
  8
0
100
AcDbLine
 62
7
  6
BYLAYER
 10
377.5765588471
 20
84.9062020276
 11
377.5765588471
 21
101.4062020276
  0
LINE
  5
2A6
100
AcDbEntity
  8
0
100
AcDbLine
 62
7
  6
BYLAYER
 10
378.5758310361
 20
1167.4063112287
 11
378.5758310361
 21
1163.9063121661
  0
LINE
  5
2A7
100
AcDbEntity
  8
0
100
AcDbLine
 62
7
  6
BYLAYER
 10
380.3258310361
 20
1157.4063121661
 11
380.3258310361
 21
1163.4063121661
  0
LINE
  5
2A8
100
AcDbEntity
  8
0
100
AcDbLine
 62
7
  6
BYLAYER
 10
382.8258310361
 20
1157.4063121661
 11
382.8258310361
 21
1163.4063121661
  0
LINE
  5
2A9
100
AcDbEntity
  8
0
100
AcDbLine
 62
7
  6
BYLAYER
 10
385.5758310361
 20
1156.406312166
 11
385.5758310361
 21
1139.9063121661
  0
LINE
  5
2AA
100
AcDbEntity
  8
4
100
AcDbLine
 62
7
  6
BYLAYER
 10
385.5760838041
 20
1139.9063249746
 11
385.5760838041
 21
1115.0893897502
  0
LINE
  5
2AB
100
AcDbEntity
  8
4
100
AcDbLine
 62
7
  6
BYLAYER
 10
385.5760838041
 20
1065.0893897502
 11
385.5760838041
 21
178.7544872893
  0
LINE
  5
2AC
100
AcDbEntity
  8
4
100
AcDbLine
 62
7
  6
BYLAYER
 10
385.5760838041
 20
128.7544872893
 11
385.5760838041
 21
101.4063249746
  0
LINE
  5
2AD
100
AcDbEntity
  8
0
100
AcDbLine
 62
7
  6
BYLAYER
 10
385.5765588471
 20
101.4062020276
 11
385.5765588471
 21
84.9062020277
  0
LINE
  5
2AE
100
AcDbEntity
  8
0
100
AcDbLine
 62
7
  6
BYLAYER
 10
386.0758310361
 20
1139.9063121661
 11
386.0758310361
 21
1156.4063121661
  0
LINE
  5
2AF
100
AcDbEntity
  8
4
100
AcDbLine
 62
7
  6
BYLAYER
 10
386.0760838041
 20
101.4063249746
 11
386.0760838041
 21
128.7544872893
  0
LINE
  5
2B0
100
AcDbEntity
  8
4
100
AcDbLine
 62
7
  6
BYLAYER
 10
386.0760838041
 20
178.7544872893
 11
386.0760838041
 21
1065.0893897502
  0
LINE
  5
2B1
100
AcDbEntity
  8
4
100
AcDbLine
 62
7
  6
BYLAYER
 10
386.0760838041
 20
1115.0893897502
 11
386.0760838041
 21
1139.9063249746
  0
LINE
  5
2B2
100
AcDbEntity
  8
0
100
AcDbLine
 62
7
  6
BYLAYER
 10
386.0765588471
 20
84.9062020276
 11
386.0765588471
 21
101.4062020276
  0
LINE
  5
2B3
100
AcDbEntity
  8
0
100
AcDbLine
 62
7
  6
BYLAYER
 10
386.4525910361
 20
1165.1063121661
 11
386.4525910361
 21
1163.9063121661
  0
LINE
  5
2B4
100
AcDbEntity
  8
0
100
AcDbLine
 62
7
  6
BYLAYER
 10
394.7025910361
 20
1165.1063121661
 11
394.7025910361
 21
1163.9063121661
  0
LINE
  5
2B5
100
AcDbEntity
  8
4
100
AcDbLine
 62
7
  6
BYLAYER
 10
396.3873381206
 20
1110.0893897502
 11
396.3873381206
 21
1070.0893897502
  0
LINE
  5
2B6
100
AcDbEntity
  8
4
100
AcDbLine
 62
7
  6
BYLAYER
 10
396.3873381206
 20
173.7544872893
 11
396.3873381206
 21
133.7544872893
  0
LINE
  5
2B7
100
AcDbEntity
  8
0
100
AcDbLine
 62
7
  6
BYLAYER
 10
397.5758310361
 20
1157.4063121661
 11
397.5758310361
 21
1155.4063121661
  0
LINE
  5
2B8
100
AcDbEntity
  8
0
100
AcDbLine
 62
7
  6
BYLAYER
 10
397.5765588471
 20
85.9062020276
 11
397.5765588471
 21
83.9062020276
  0
LINE
  5
2B9
100
AcDbEntity
  8
0
100
AcDbLine
 62
7
  6
BYLAYER
 10
398.3258310361
 20
1157.4063121661
 11
398.3258310361
 21
1163.4063121661
  0
LINE
  5
2BA
100
AcDbEntity
  8
0
100
AcDbLine
 62
7
  6
BYLAYER
 10
398.5758310361
 20
1155.4063121661
 11
398.5758310361
 21
1156.4063121661
  0
LINE
  5
2BB
100
AcDbEntity
  8
0
100
AcDbLine
 62
7
  6
BYLAYER
 10
398.5765588471
 20
84.9062020276
 11
398.5765588471
 21
85.9062020276
  0
LINE
  5
2BC
100
AcDbEntity
  8
0
100
AcDbLine
 62
7
  6
BYLAYER
 10
398.7758310361
 20
1155.0103791601
 11
398.7758310361
 21
1156.5063121661
  0
LINE
  5
2BD
100
AcDbEntity
  8
0
100
AcDbLine
 62
7
  6
BYLAYER
 10
398.7765588442
 20
84.8063121661
 11
398.7765588442
 21
86.3020195909
  0
LINE
  5
2BE
100
AcDbEntity
  8
0
100
AcDbLine
 62
7
  6
BYLAYER
 10
399.0758311086
 20
1154.4063121661
 11
399.0758311086
 21
1154.9063121661
  0
LINE
  5
2BF
100
AcDbEntity
  8
0
100
AcDbLine
 62
7
  6
BYLAYER
 10
399.07655892
 20
86.4062020276
 11
399.07655892
 21
86.9062020276
  0
LINE
  5
2C0
100
AcDbEntity
  8
0
100
AcDbLine
 62
7
  6
BYLAYER
 10
402.5758310361
 20
1154.9063121661
 11
402.5758310361
 21
1139.9063121661
  0
LINE
  5
2C1
100
AcDbEntity
  8
4
100
AcDbLine
 62
7
  6
BYLAYER
 10
402.5760838041
 20
1139.9063249746
 11
402.5760838041
 21
101.4063249746
  0
LINE
  5
2C2
100
AcDbEntity
  8
0
100
AcDbLine
 62
7
  6
BYLAYER
 10
402.5765588471
 20
101.4062020276
 11
402.5765588471
 21
86.4062020276
  0
LINE
  5
2C3
100
AcDbEntity
  8
0
100
AcDbLine
 62
7
  6
BYLAYER
 10
405.3758310361
 20
1156.5063121661
 11
405.3758310361
 21
1154.9063121661
  0
LINE
  5
2C4
100
AcDbEntity
  8
0
100
AcDbLine
 62
7
  6
BYLAYER
 10
405.3765588442
 20
86.4063121661
 11
405.3765588442
 21
84.8063121661
  0
LINE
  5
2C5
100
AcDbEntity
  8
0
100
AcDbLine
 62
7
  6
BYLAYER
 10
405.5758310361
 20
1157.4063121661
 11
405.5758310378
 21
1155.4063121661
  0
LINE
  5
2C6
100
AcDbEntity
  8
0
100
AcDbLine
 62
7
  6
BYLAYER
 10
405.5765588488
 20
85.9062020276
 11
405.5765588471
 21
83.9062020276
  0
LINE
  5
2C7
100
AcDbEntity
  8
0
100
AcDbLine
 62
7
  6
BYLAYER
 10
406.5758310361
 20
1139.9063121661
 11
406.5758310361
 21
1156.4063121661
  0
LINE
  5
2C8
100
AcDbEntity
  8
4
100
AcDbLine
 62
7
  6
BYLAYER
 10
406.5760838041
 20
101.4063249746
 11
406.5760838041
 21
1139.9063249746
  0
LINE
  5
2C9
100
AcDbEntity
  8
0
100
AcDbLine
 62
7
  6
BYLAYER
 10
406.5765588471
 20
86.9062020276
 11
406.5765588471
 21
101.4062020276
  0
LINE
  5
2CA
100
AcDbEntity
  8
0
100
AcDbLine
 62
7
  6
BYLAYER
 10
406.5765588471
 20
84.9062020276
 11
406.5765588472
 21
86.8943551215
  0
LINE
  5
2CB
100
AcDbEntity
  8
3
100
AcDbLine
 62
7
  6
BYLAYER
 10
494.0364690091
 20
128.7544872893
 11
494.0364690091
 21
178.7544872893
  0
LINE
  5
2CC
100
AcDbEntity
  8
3
100
AcDbLine
 62
7
  6
BYLAYER
 10
494.0364690091
 20
1065.0893897502
 11
494.0364690091
 21
1115.0893897502
  0
LINE
  5
2CD
100
AcDbEntity
  8
3
100
AcDbLine
 62
7
  6
BYLAYER
 10
497.0364690091
 20
1115.0893897502
 11
497.0364690091
 21
1065.0893897502
  0
LINE
  5
2CE
100
AcDbEntity
  8
3
100
AcDbLine
 62
7
  6
BYLAYER
 10
497.0364690091
 20
178.7544872893
 11
497.0364690091
 21
128.7544872893
  0
LINE
  5
2CF
100
AcDbEntity
  8
3
100
AcDbLine
 62
7
  6
BYLAYER
 10
501.0364690091
 20
128.7544872893
 11
501.0364690091
 21
178.7544872893
  0
LINE
  5
2D0
100
AcDbEntity
  8
3
100
AcDbLine
 62
7
  6
BYLAYER
 10
501.0364690091
 20
1065.0893897502
 11
501.0364690091
 21
1115.0893897502
  0
LINE
  5
2D1
100
AcDbEntity
  8
0
100
AcDbLine
 62
7
  6
BYLAYER
 10
504.2249619246
 20
1156.4063121661
 11
504.2249619246
 21
1154.4181624975
  0
LINE
  5
2D2
100
AcDbEntity
  8
0
100
AcDbLine
 62
7
  6
BYLAYER
 10
504.2249619246
 20
1154.4063121661
 11
504.2249619246
 21
1139.9063121661
  0
LINE
  5
2D3
100
AcDbEntity
  8
3
100
AcDbLine
 62
7
  6
BYLAYER
 10
504.2252146926
 20
1139.9063249746
 11
504.2252146926
 21
1115.0893897502
  0
LINE
  5
2D4
100
AcDbEntity
  8
3
100
AcDbLine
 62
7
  6
BYLAYER
 10
504.2252146926
 20
1065.0893897502
 11
504.2252146926
 21
178.7544872893
  0
LINE
  5
2D5
100
AcDbEntity
  8
3
100
AcDbLine
 62
7
  6
BYLAYER
 10
504.2252146926
 20
128.7544872893
 11
504.2252146926
 21
101.4063249746
  0
LINE
  5
2D6
100
AcDbEntity
  8
0
100
AcDbLine
 62
7
  6
BYLAYER
 10
504.2256897357
 20
84.9062020276
 11
504.2256897357
 21
101.4062020276
  0
LINE
  5
2D7
100
AcDbEntity
  8
0
100
AcDbLine
 62
7
  6
BYLAYER
 10
505.2249619229
 20
1155.4063121661
 11
505.2249619246
 21
1157.4063121661
  0
LINE
  5
2D8
100
AcDbEntity
  8
0
100
AcDbLine
 62
7
  6
BYLAYER
 10
505.2256897357
 20
83.9062020276
 11
505.225689734
 21
85.9062020276
  0
LINE
  5
2D9
100
AcDbEntity
  8
0
100
AcDbLine
 62
7
  6
BYLAYER
 10
505.4249619246
 20
1154.9063121661
 11
505.4249619246
 21
1156.5063121661
  0
LINE
  5
2DA
100
AcDbEntity
  8
0
100
AcDbLine
 62
7
  6
BYLAYER
 10
505.4256897357
 20
84.8063121661
 11
505.4256897357
 21
86.4063121661
  0
LINE
  5
2DB
100
AcDbEntity
  8
0
100
AcDbLine
 62
7
  6
BYLAYER
 10
508.2249619246
 20
1139.9063121661
 11
508.2249619246
 21
1154.9063121661
  0
LINE
  5
2DC
100
AcDbEntity
  8
3
100
AcDbLine
 62
7
  6
BYLAYER
 10
508.2252146926
 20
101.4063249746
 11
508.2252146926
 21
128.7544872893
  0
LINE
  5
2DD
100
AcDbEntity
  8
3
100
AcDbLine
 62
7
  6
BYLAYER
 10
508.2252146926
 20
178.7544872893
 11
508.2252146926
 21
1065.0893897502
  0
LINE
  5
2DE
100
AcDbEntity
  8
3
100
AcDbLine
 62
7
  6
BYLAYER
 10
508.2252146926
 20
1115.0893897502
 11
508.2252146926
 21
1139.9063249746
  0
LINE
  5
2DF
100
AcDbEntity
  8
0
100
AcDbLine
 62
7
  6
BYLAYER
 10
508.2256897357
 20
86.4062020276
 11
508.2256897357
 21
101.4062020276
  0
LINE
  5
2E0
100
AcDbEntity
  8
0
100
AcDbLine
 62
7
  6
BYLAYER
 10
511.7249618518
 20
1154.9063121661
 11
511.7249618518
 21
1154.4063121661
  0
LINE
  5
2E1
100
AcDbEntity
  8
0
100
AcDbLine
 62
7
  6
BYLAYER
 10
511.7256896631
 20
86.9062020276
 11
511.7256896631
 21
86.4062020276
  0
LINE
  5
2E2
100
AcDbEntity
  8
0
100
AcDbLine
 62
7
  6
BYLAYER
 10
512.0249619246
 20
1156.5063121661
 11
512.0249619246
 21
1155.0104946009
  0
LINE
  5
2E3
100
AcDbEntity
  8
0
100
AcDbLine
 62
7
  6
BYLAYER
 10
512.0256897357
 20
86.3021350334
 11
512.0256897357
 21
84.8063121661
  0
LINE
  5
2E4
100
AcDbEntity
  8
0
100
AcDbLine
 62
7
  6
BYLAYER
 10
512.2249619246
 20
1156.4063121661
 11
512.2249619246
 21
1155.4063121661
  0
LINE
  5
2E5
100
AcDbEntity
  8
0
100
AcDbLine
 62
7
  6
BYLAYER
 10
512.2256897357
 20
85.9062020276
 11
512.2256897357
 21
84.9062020276
  0
LINE
  5
2E6
100
AcDbEntity
  8
0
100
AcDbLine
 62
7
  6
BYLAYER
 10
512.4749619246
 20
1157.4063121661
 11
512.4749619246
 21
1163.4063121661
  0
LINE
  5
2E7
100
AcDbEntity
  8
0
100
AcDbLine
 62
7
  6
BYLAYER
 10
513.2249619246
 20
1155.4063121661
 11
513.2249619246
 21
1157.4063121661
  0
LINE
  5
2E8
100
AcDbEntity
  8
0
100
AcDbLine
 62
7
  6
BYLAYER
 10
513.2256897357
 20
83.9062020276
 11
513.2256897357
 21
85.9062020276
  0
LINE
  5
2E9
100
AcDbEntity
  8
0
100
AcDbLine
 62
7
  6
BYLAYER
 10
514.2249619246
 20
1163.9063121661
 11
514.2249619246
 21
1167.4063112287
  0
LINE
  5
2EA
100
AcDbEntity
  8
0
100
AcDbLine
 62
7
  6
BYLAYER
 10
516.1007419246
 20
1165.1063121661
 11
516.1007419246
 21
1163.9063121661
  0
LINE
  5
2EB
100
AcDbEntity
  8
0
100
AcDbLine
 62
7
  6
BYLAYER
 10
524.3507419246
 20
1165.1063121661
 11
524.3507419246
 21
1163.9063121661
  0
LINE
  5
2EC
100
AcDbEntity
  8
0
100
AcDbLine
 62
7
  6
BYLAYER
 10
524.7249619246
 20
1156.4063121661
 11
524.7249619246
 21
1139.9063121661
  0
LINE
  5
2ED
100
AcDbEntity
  8
3
100
AcDbLine
 62
7
  6
BYLAYER
 10
524.7252146926
 20
1139.9063249746
 11
524.7252146926
 21
1115.0893897502
  0
LINE
  5
2EE
100
AcDbEntity
  8
3
100
AcDbLine
 62
7
  6
BYLAYER
 10
524.7252146926
 20
1065.0893897502
 11
524.7252146926
 21
178.7544872893
  0
LINE
  5
2EF
100
AcDbEntity
  8
3
100
AcDbLine
 62
7
  6
BYLAYER
 10
524.7252146926
 20
128.7544872893
 11
524.7252146926
 21
101.4063249746
  0
LINE
  5
2F0
100
AcDbEntity
  8
0
100
AcDbLine
 62
7
  6
BYLAYER
 10
524.7256897357
 20
101.4062020276
 11
524.7256897357
 21
84.9062020276
  0
LINE
  5
2F1
100
AcDbEntity
  8
0
100
AcDbLine
 62
7
  6
BYLAYER
 10
525.2249619246
 20
1139.9063121661
 11
525.2249619246
 21
1156.406312166
  0
LINE
  5
2F2
100
AcDbEntity
  8
3
100
AcDbLine
 62
7
  6
BYLAYER
 10
525.2252146926
 20
101.4063249746
 11
525.2252146926
 21
128.7544872893
  0
LINE
  5
2F3
100
AcDbEntity
  8
3
100
AcDbLine
 62
7
  6
BYLAYER
 10
525.2252146926
 20
178.7544872893
 11
525.2252146926
 21
1065.0893897502
  0
LINE
  5
2F4
100
AcDbEntity
  8
3
100
AcDbLine
 62
7
  6
BYLAYER
 10
525.2252146926
 20
1115.0893897502
 11
525.2252146926
 21
1139.9063249746
  0
LINE
  5
2F5
100
AcDbEntity
  8
0
100
AcDbLine
 62
7
  6
BYLAYER
 10
525.2256897357
 20
84.9062020276
 11
525.2256897357
 21
101.4062020276
  0
LINE
  5
2F6
100
AcDbEntity
  8
0
100
AcDbLine
 62
7
  6
BYLAYER
 10
526.2249619246
 20
1167.4063112287
 11
526.2249619246
 21
1163.9063121661
  0
LINE
  5
2F7
100
AcDbEntity
  8
0
100
AcDbLine
 62
7
  6
BYLAYER
 10
527.9749619246
 20
1157.4063121661
 11
527.9749619246
 21
1163.4063121661
  0
LINE
  5
2F8
100
AcDbEntity
  8
0
100
AcDbLine
 62
7
  6
BYLAYER
 10
530.4749619246
 20
1157.4063121661
 11
530.4749619246
 21
1163.4063121661
  0
LINE
  5
2F9
100
AcDbEntity
  8
0
100
AcDbLine
 62
7
  6
BYLAYER
 10
533.2249619246
 20
1156.406312166
 11
533.2249619246
 21
1139.9063121661
  0
LINE
  5
2FA
100
AcDbEntity
  8
3
100
AcDbLine
 62
7
  6
BYLAYER
 10
533.2252146926
 20
1139.9063249746
 11
533.2252146926
 21
1115.0893897502
  0
LINE
  5
2FB
100
AcDbEntity
  8
3
100
AcDbLine
 62
7
  6
BYLAYER
 10
533.2252146926
 20
1065.0893897502
 11
533.2252146926
 21
178.7544872893
  0
LINE
  5
2FC
100
AcDbEntity
  8
3
100
AcDbLine
 62
7
  6
BYLAYER
 10
533.2252146926
 20
128.7544872893
 11
533.2252146926
 21
101.4063249746
  0
LINE
  5
2FD
100
AcDbEntity
  8
0
100
AcDbLine
 62
7
  6
BYLAYER
 10
533.2256897357
 20
101.4062020276
 11
533.2256897357
 21
84.9062020277
  0
LINE
  5
2FE
100
AcDbEntity
  8
0
100
AcDbLine
 62
7
  6
BYLAYER
 10
533.7249619246
 20
1139.9063121661
 11
533.7249619246
 21
1156.4063121661
  0
LINE
  5
2FF
100
AcDbEntity
  8
3
100
AcDbLine
 62
7
  6
BYLAYER
 10
533.7252146926
 20
101.4063249746
 11
533.7252146926
 21
128.7544872893
  0
LINE
  5
300
100
AcDbEntity
  8
3
100
AcDbLine
 62
7
  6
BYLAYER
 10
533.7252146926
 20
178.7544872893
 11
533.7252146926
 21
1065.0893897502
  0
LINE
  5
301
100
AcDbEntity
  8
3
100
AcDbLine
 62
7
  6
BYLAYER
 10
533.7252146926
 20
1115.0893897502
 11
533.7252146926
 21
1139.9063249746
  0
LINE
  5
302
100
AcDbEntity
  8
0
100
AcDbLine
 62
7
  6
BYLAYER
 10
533.7256897357
 20
84.9062020276
 11
533.7256897357
 21
101.4062020276
  0
LINE
  5
303
100
AcDbEntity
  8
0
100
AcDbLine
 62
7
  6
BYLAYER
 10
534.1017219246
 20
1165.1063121661
 11
534.1017219246
 21
1163.9063121661
  0
LINE
  5
304
100
AcDbEntity
  8
0
100
AcDbLine
 62
7
  6
BYLAYER
 10
542.3517219246
 20
1165.1063121661
 11
542.3517219246
 21
1163.9063121661
  0
LINE
  5
305
100
AcDbEntity
  8
3
100
AcDbLine
 62
7
  6
BYLAYER
 10
544.0364690091
 20
1110.0893897502
 11
544.0364690091
 21
1070.0893897502
  0
LINE
  5
306
100
AcDbEntity
  8
3
100
AcDbLine
 62
7
  6
BYLAYER
 10
544.0364690091
 20
173.7544872893
 11
544.0364690091
 21
133.7544872893
  0
LINE
  5
307
100
AcDbEntity
  8
0
100
AcDbLine
 62
7
  6
BYLAYER
 10
545.2249619246
 20
1157.4063121661
 11
545.2249619246
 21
1155.4063121661
  0
LINE
  5
308
100
AcDbEntity
  8
0
100
AcDbLine
 62
7
  6
BYLAYER
 10
545.2256897357
 20
85.9062020276
 11
545.2256897357
 21
83.9062020276
  0
LINE
  5
309
100
AcDbEntity
  8
0
100
AcDbLine
 62
7
  6
BYLAYER
 10
545.9749619246
 20
1157.4063121661
 11
545.9749619246
 21
1163.4063121661
  0
LINE
  5
30A
100
AcDbEntity
  8
0
100
AcDbLine
 62
7
  6
BYLAYER
 10
546.2249619246
 20
1155.4063121661
 11
546.2249619246
 21
1156.4063121661
  0
LINE
  5
30B
100
AcDbEntity
  8
0
100
AcDbLine
 62
7
  6
BYLAYER
 10
546.2256897357
 20
84.9062020276
 11
546.2256897357
 21
85.9062020276
  0
LINE
  5
30C
100
AcDbEntity
  8
0
100
AcDbLine
 62
7
  6
BYLAYER
 10
546.4249619246
 20
1155.0103791602
 11
546.4249619246
 21
1156.5063121661
  0
LINE
  5
30D
100
AcDbEntity
  8
0
100
AcDbLine
 62
7
  6
BYLAYER
 10
546.4256897328
 20
84.8063121661
 11
546.4256897328
 21
86.3020195909
  0
LINE
  5
30E
100
AcDbEntity
  8
0
100
AcDbLine
 62
7
  6
BYLAYER
 10
546.7249619971
 20
1154.4063121661
 11
546.7249619971
 21
1154.9063121661
  0
LINE
  5
30F
100
AcDbEntity
  8
0
100
AcDbLine
 62
7
  6
BYLAYER
 10
546.7256898085
 20
86.4062020276
 11
546.7256898085
 21
86.9062020276
  0
LINE
  5
310
100
AcDbEntity
  8
0
100
AcDbLine
 62
7
  6
BYLAYER
 10
550.2249619246
 20
1154.9063121661
 11
550.2249619246
 21
1139.9063121661
  0
LINE
  5
311
100
AcDbEntity
  8
3
100
AcDbLine
 62
7
  6
BYLAYER
 10
550.2252146926
 20
1139.9063249746
 11
550.2252146926
 21
101.4063249746
  0
LINE
  5
312
100
AcDbEntity
  8
0
100
AcDbLine
 62
7
  6
BYLAYER
 10
550.2256897357
 20
101.4062020276
 11
550.2256897357
 21
86.4062020276
  0
LINE
  5
313
100
AcDbEntity
  8
0
100
AcDbLine
 62
7
  6
BYLAYER
 10
553.0249619246
 20
1156.5063121661
 11
553.0249619246
 21
1154.9063121661
  0
LINE
  5
314
100
AcDbEntity
  8
0
100
AcDbLine
 62
7
  6
BYLAYER
 10
553.0256897328
 20
86.4063121661
 11
553.0256897328
 21
84.8063121661
  0
LINE
  5
315
100
AcDbEntity
  8
0
100
AcDbLine
 62
7
  6
BYLAYER
 10
553.2249619246
 20
1157.4063121661
 11
553.2249619263
 21
1155.4063121661
  0
LINE
  5
316
100
AcDbEntity
  8
0
100
AcDbLine
 62
7
  6
BYLAYER
 10
553.2256897374
 20
85.9062020276
 11
553.2256897357
 21
83.9062020276
  0
LINE
  5
317
100
AcDbEntity
  8
0
100
AcDbLine
 62
7
  6
BYLAYER
 10
554.2249619246
 20
1139.9063121661
 11
554.2249619246
 21
1156.4063121661
  0
LINE
  5
318
100
AcDbEntity
  8
3
100
AcDbLine
 62
7
  6
BYLAYER
 10
554.2252146926
 20
101.4063249746
 11
554.2252146926
 21
1139.9063249746
  0
LINE
  5
319
100
AcDbEntity
  8
0
100
AcDbLine
 62
7
  6
BYLAYER
 10
554.2256897357
 20
84.9062020276
 11
554.2256897356
 21
86.8944451815
  0
LINE
  5
31A
100
AcDbEntity
  8
0
100
AcDbLine
 62
7
  6
BYLAYER
 10
554.2256897357
 20
86.9062020276
 11
554.2256897357
 21
101.4062020276
  0
LINE
  5
31B
100
AcDbEntity
  8
4
100
AcDbLine
 62
7
  6
BYLAYER
 10
378.8765588457
 20
173.4310244697
 11
376.1765588457
 21
168.7544872893
  0
LINE
  5
31C
100
AcDbEntity
  8
4
100
AcDbLine
 62
7
  6
BYLAYER
 10
384.2765588457
 20
164.0779501089
 11
386.9765588457
 21
168.7544872893
  0
LINE
  5
31D
100
AcDbEntity
  8
4
100
AcDbLine
 62
7
  6
BYLAYER
 10
378.8765588457
 20
143.4310244697
 11
376.1765588457
 21
138.7544872893
  0
LINE
  5
31E
100
AcDbEntity
  8
4
100
AcDbLine
 62
7
  6
BYLAYER
 10
384.2765588457
 20
134.0779501089
 11
386.9765588457
 21
138.7544872893
  0
LINE
  5
31F
100
AcDbEntity
  8
4
100
AcDbLine
 62
7
  6
BYLAYER
 10
376.1765588457
 20
1075.0893897502
 11
378.8765588457
 21
1070.4128525697
  0
LINE
  5
320
100
AcDbEntity
  8
4
100
AcDbLine
 62
7
  6
BYLAYER
 10
386.9765588457
 20
1075.0893897502
 11
384.2765588457
 21
1079.7659269306
  0
LINE
  5
321
100
AcDbEntity
  8
4
100
AcDbLine
 62
7
  6
BYLAYER
 10
376.1765588457
 20
1105.0893897502
 11
378.8765588457
 21
1100.4128525697
  0
LINE
  5
322
100
AcDbEntity
  8
4
100
AcDbLine
 62
7
  6
BYLAYER
 10
386.9765588457
 20
1105.0893897502
 11
384.2765588457
 21
1109.7659269306
  0
LINE
  5
323
100
AcDbEntity
  8
3
100
AcDbLine
 62
7
  6
BYLAYER
 10
526.5256897342
 20
173.4310244697
 11
523.8256897342
 21
168.7544872893
  0
LINE
  5
324
100
AcDbEntity
  8
3
100
AcDbLine
 62
7
  6
BYLAYER
 10
523.8256897342
 20
1075.0893897502
 11
526.5256897342
 21
1070.4128525697
  0
LINE
  5
325
100
AcDbEntity
  8
3
100
AcDbLine
 62
7
  6
BYLAYER
 10
534.6256897342
 20
1075.0893897502
 11
531.9256897342
 21
1079.7659269306
  0
LINE
  5
326
100
AcDbEntity
  8
3
100
AcDbLine
 62
7
  6
BYLAYER
 10
531.9256897342
 20
164.0779501089
 11
534.6256897342
 21
168.7544872893
  0
LINE
  5
327
100
AcDbEntity
  8
3
100
AcDbLine
 62
7
  6
BYLAYER
 10
526.5256897342
 20
143.4310244697
 11
523.8256897342
 21
138.7544872893
  0
LINE
  5
328
100
AcDbEntity
  8
3
100
AcDbLine
 62
7
  6
BYLAYER
 10
531.9256897342
 20
134.0779501089
 11
534.6256897342
 21
138.7544872893
  0
LINE
  5
329
100
AcDbEntity
  8
0
100
AcDbLine
 62
7
  6
BYLAYER
 10
379.8258310361
 20
1163.9063121661
 11
380.3258310361
 21
1163.4063121661
  0
LINE
  5
32A
100
AcDbEntity
  8
0
100
AcDbLine
 62
7
  6
BYLAYER
 10
378.0758330147
 20
1167.9063121661
 11
378.5758310361
 21
1167.4063143246
  0
LINE
  5
32B
100
AcDbEntity
  8
3
100
AcDbLine
 62
7
  6
BYLAYER
 10
523.8256897342
 20
1105.0893897502
 11
526.5256897342
 21
1100.4128525697
  0
LINE
  5
32C
100
AcDbEntity
  8
3
100
AcDbLine
 62
7
  6
BYLAYER
 10
534.6256897342
 20
1105.0893897502
 11
531.9256897342
 21
1109.7659269306
  0
LINE
  5
32D
100
AcDbEntity
  8
0
100
AcDbLine
 62
7
  6
BYLAYER
 10
397.8258310361
 20
1163.9063121661
 11
398.3258310361
 21
1163.4063121661
  0
LINE
  5
32E
100
AcDbEntity
  8
4
100
AcDbLine
 62
7
  6
BYLAYER
 10
346.3873381206
 20
1065.0893897502
 11
391.3873381206
 21
1065.0893897502
  0
LINE
  5
32F
100
AcDbEntity
  8
3
100
AcDbLine
 62
7
  6
BYLAYER
 10
494.0364690091
 20
1065.0893897502
 11
539.0364690091
 21
1065.0893897502
  0
LINE
  5
330
100
AcDbEntity
  8
3
100
AcDbLine
 62
7
  6
BYLAYER
 10
497.0364690091
 20
1070.0893897502
 11
494.0364690091
 21
1070.0893897502
  0
LINE
  5
331
100
AcDbEntity
  8
4
100
AcDbLine
 62
7
  6
BYLAYER
 10
349.3873381206
 20
1070.0893897502
 11
346.3873381206
 21
1070.0893897502
  0
LINE
  5
332
100
AcDbEntity
  8
3
100
AcDbLine
 62
7
  6
BYLAYER
 10
531.9256897342
 20
1070.4128525697
 11
526.5256897342
 21
1070.4128525697
  0
LINE
  5
333
100
AcDbEntity
  8
4
100
AcDbLine
 62
7
  6
BYLAYER
 10
384.2765588457
 20
1070.4128525697
 11
378.8765588457
 21
1070.4128525697
  0
LINE
  5
334
100
AcDbEntity
  8
4
100
AcDbLine
 62
7
  6
BYLAYER
 10
374.6873381206
 20
1071.8393897502
 11
376.1722493769
 21
1071.8393897502
  0
LINE
  5
335
100
AcDbEntity
  8
4
100
AcDbLine
 62
7
  6
BYLAYER
 10
386.9805307749
 20
1071.8393897502
 11
388.1873381206
 21
1071.8393897502
  0
LINE
  5
336
100
AcDbEntity
  8
3
100
AcDbLine
 62
7
  6
BYLAYER
 10
522.3364690091
 20
1071.8393897502
 11
523.8213802654
 21
1071.8393897502
  0
LINE
  5
337
100
AcDbEntity
  8
3
100
AcDbLine
 62
7
  6
BYLAYER
 10
534.6296616634
 20
1071.8393897502
 11
535.8364690091
 21
1071.8393897502
  0
LINE
  5
338
100
AcDbEntity
  8
0
100
AcDbLine
 62
7
  6
BYLAYER
 10
527.4749619246
 20
1163.9063121661
 11
527.9749619246
 21
1163.4063121661
  0
LINE
  5
339
100
AcDbEntity
  8
0
100
AcDbLine
 62
7
  6
BYLAYER
 10
525.7249639033
 20
1167.9063121661
 11
526.2249619246
 21
1167.4063143246
  0
LINE
  5
33A
100
AcDbEntity
  8
3
100
AcDbLine
 62
7
  6
BYLAYER
 10
535.8364690091
 20
1078.3393897502
 11
534.629999203
 21
1078.3393897502
  0
LINE
  5
33B
100
AcDbEntity
  8
3
100
AcDbLine
 62
7
  6
BYLAYER
 10
523.821717805
 20
1078.3393897502
 11
522.3364690091
 21
1078.3393897502
  0
LINE
  5
33C
100
AcDbEntity
  8
4
100
AcDbLine
 62
7
  6
BYLAYER
 10
388.1873381206
 20
1078.3393897502
 11
386.9808683145
 21
1078.3393897502
  0
LINE
  5
33D
100
AcDbEntity
  8
4
100
AcDbLine
 62
7
  6
BYLAYER
 10
376.1725869165
 20
1078.3393897502
 11
374.6873381206
 21
1078.3393897502
  0
LINE
  5
33E
100
AcDbEntity
  8
4
100
AcDbLine
 62
7
  6
BYLAYER
 10
378.8765588457
 20
1079.7659269306
 11
384.2765588457
 21
1079.7659269306
  0
LINE
  5
33F
100
AcDbEntity
  8
3
100
AcDbLine
 62
7
  6
BYLAYER
 10
526.5256897342
 20
1079.7659269306
 11
531.9256897342
 21
1079.7659269306
  0
LINE
  5
340
100
AcDbEntity
  8
3
100
AcDbLine
 62
7
  6
BYLAYER
 10
531.9256897342
 20
1100.4128525697
 11
526.5256897342
 21
1100.4128525697
  0
LINE
  5
341
100
AcDbEntity
  8
4
100
AcDbLine
 62
7
  6
BYLAYER
 10
384.2765588457
 20
1100.4128525697
 11
378.8765588457
 21
1100.4128525697
  0
LINE
  5
342
100
AcDbEntity
  8
4
100
AcDbLine
 62
7
  6
BYLAYER
 10
374.6873381206
 20
1101.8393897502
 11
376.1722493769
 21
1101.8393897502
  0
LINE
  5
343
100
AcDbEntity
  8
4
100
AcDbLine
 62
7
  6
BYLAYER
 10
386.9805307749
 20
1101.8393897502
 11
388.1873381206
 21
1101.8393897502
  0
LINE
  5
344
100
AcDbEntity
  8
3
100
AcDbLine
 62
7
  6
BYLAYER
 10
522.3364690091
 20
1101.8393897502
 11
523.8213802654
 21
1101.8393897502
  0
LINE
  5
345
100
AcDbEntity
  8
3
100
AcDbLine
 62
7
  6
BYLAYER
 10
534.6296616634
 20
1101.8393897502
 11
535.8364690091
 21
1101.8393897502
  0
LINE
  5
346
100
AcDbEntity
  8
3
100
AcDbLine
 62
7
  6
BYLAYER
 10
535.8364690091
 20
1108.3393897502
 11
534.629999203
 21
1108.3393897502
  0
LINE
  5
347
100
AcDbEntity
  8
3
100
AcDbLine
 62
7
  6
BYLAYER
 10
523.821717805
 20
1108.3393897502
 11
522.3364690091
 21
1108.3393897502
  0
LINE
  5
348
100
AcDbEntity
  8
4
100
AcDbLine
 62
7
  6
BYLAYER
 10
388.1873381206
 20
1108.3393897502
 11
386.9808683145
 21
1108.3393897502
  0
LINE
  5
349
100
AcDbEntity
  8
4
100
AcDbLine
 62
7
  6
BYLAYER
 10
376.1725869165
 20
1108.3393897502
 11
374.6873381206
 21
1108.3393897502
  0
LINE
  5
34A
100
AcDbEntity
  8
0
100
AcDbLine
 62
7
  6
BYLAYER
 10
545.4749619246
 20
1163.9063121661
 11
545.9749619246
 21
1163.4063121661
  0
LINE
  5
34B
100
AcDbEntity
  8
4
100
AcDbLine
 62
7
  6
BYLAYER
 10
378.8765588457
 20
1109.7659269306
 11
384.2765588457
 21
1109.7659269306
  0
LINE
  5
34C
100
AcDbEntity
  8
3
100
AcDbLine
 62
7
  6
BYLAYER
 10
526.5256897342
 20
1109.7659269306
 11
531.9256897342
 21
1109.7659269306
  0
LINE
  5
34D
100
AcDbEntity
  8
4
100
AcDbLine
 62
7
  6
BYLAYER
 10
346.3873381206
 20
1110.0893897502
 11
349.3873381206
 21
1110.0893897502
  0
LINE
  5
34E
100
AcDbEntity
  8
3
100
AcDbLine
 62
7
  6
BYLAYER
 10
494.0364690091
 20
1110.0893897502
 11
497.0364690091
 21
1110.0893897502
  0
LINE
  5
34F
100
AcDbEntity
  8
4
100
AcDbLine
 62
7
  6
BYLAYER
 10
346.3873381206
 20
1115.0893897502
 11
391.3873381206
 21
1115.0893897502
  0
LINE
  5
350
100
AcDbEntity
  8
3
100
AcDbLine
 62
7
  6
BYLAYER
 10
494.0364690091
 20
1115.0893897502
 11
539.0364690091
 21
1115.0893897502
  0
LINE
  5
351
100
AcDbEntity
  8
0
100
AcDbLine
 62
7
  6
BYLAYER
 10
356.5758310361
 20
1139.9063121661
 11
406.5758310361
 21
1139.9063121661
  0
LINE
  5
352
100
AcDbEntity
  8
4
100
AcDbLine
 62
7
  6
BYLAYER
 10
356.5760838041
 20
1139.9063249746
 11
406.5760838041
 21
1139.9063249746
  0
LINE
  5
353
100
AcDbEntity
  8
0
100
AcDbLine
 62
7
  6
BYLAYER
 10
504.2249619246
 20
1139.9063121661
 11
554.2249619246
 21
1139.9063121661
  0
LINE
  5
354
100
AcDbEntity
  8
3
100
AcDbLine
 62
7
  6
BYLAYER
 10
504.2252146926
 20
1139.9063249746
 11
554.2252146926
 21
1139.9063249746
  0
LINE
  5
355
100
AcDbEntity
  8
0
100
AcDbLine
 62
7
  6
BYLAYER
 10
546.2249619246
 20
1153.4063121661
 11
530.2249787386
 21
1153.4063121661
  0
LINE
  5
356
100
AcDbEntity
  8
0
100
AcDbLine
 62
7
  6
BYLAYER
 10
528.2249619246
 20
1153.4063121661
 11
512.2249787386
 21
1153.4063121661
  0
LINE
  5
357
100
AcDbEntity
  8
0
100
AcDbLine
 62
7
  6
BYLAYER
 10
398.5758310361
 20
1153.4063121661
 11
382.57584785
 21
1153.4063121661
  0
LINE
  5
358
100
AcDbEntity
  8
0
100
AcDbLine
 62
7
  6
BYLAYER
 10
380.5758310361
 20
1153.4063121661
 11
364.57584785
 21
1153.4063121661
  0
LINE
  5
359
100
AcDbEntity
  8
0
100
AcDbLine
 62
7
  6
BYLAYER
 10
546.1197528958
 20
1153.4175064171
 11
530.3301875463
 21
1153.4175064171
  0
LINE
  5
35A
100
AcDbEntity
  8
0
100
AcDbLine
 62
7
  6
BYLAYER
 10
528.1197528958
 20
1153.4175064171
 11
512.3301875463
 21
1153.4175064171
  0
LINE
  5
35B
100
AcDbEntity
  8
0
100
AcDbLine
 62
7
  6
BYLAYER
 10
398.4706220072
 20
1153.4175064171
 11
382.6810566578
 21
1153.4175064171
  0
LINE
  5
35C
100
AcDbEntity
  8
0
100
AcDbLine
 62
7
  6
BYLAYER
 10
380.4706220072
 20
1153.4175064171
 11
364.6810566578
 21
1153.4175064171
  0
LINE
  5
35D
100
AcDbEntity
  8
0
100
AcDbLine
 62
7
  6
BYLAYER
 10
364.4703363759
 20
1154.3950563493
 11
380.6813086607
 21
1154.3950563493
  0
LINE
  5
35E
100
AcDbEntity
  8
0
100
AcDbLine
 62
7
  6
BYLAYER
 10
512.1194672644
 20
1154.3950563493
 11
528.3304395492
 21
1154.3950563493
  0
LINE
  5
35F
100
AcDbEntity
  8
0
100
AcDbLine
 62
7
  6
BYLAYER
 10
546.3301709535
 20
1154.3951179151
 11
530.1197699308
 21
1154.3951179151
  0
LINE
  5
360
100
AcDbEntity
  8
0
100
AcDbLine
 62
7
  6
BYLAYER
 10
398.681040065
 20
1154.3951179151
 11
382.4706390423
 21
1154.3951179151
  0
LINE
  5
361
100
AcDbEntity
  8
0
100
AcDbLine
 62
7
  6
BYLAYER
 10
356.5758310361
 20
1154.4063121661
 11
364.0758310361
 21
1154.4063121661
  0
LINE
  5
362
100
AcDbEntity
  8
0
100
AcDbLine
 62
7
  6
BYLAYER
 10
399.0758310361
 20
1154.4063121661
 11
406.5758310361
 21
1154.4063121661
  0
LINE
  5
363
100
AcDbEntity
  8
0
100
AcDbLine
 62
7
  6
BYLAYER
 10
504.2249619246
 20
1154.4063121661
 11
511.7249619246
 21
1154.4063121661
  0
LINE
  5
364
100
AcDbEntity
  8
0
100
AcDbLine
 62
7
  6
BYLAYER
 10
546.7249619246
 20
1154.4063121661
 11
554.2249619246
 21
1154.4063121661
  0
LINE
  5
365
100
AcDbEntity
  8
0
100
AcDbLine
 62
7
  6
BYLAYER
 10
357.0758310361
 20
1154.9063121661
 11
364.0758310361
 21
1154.9063121661
  0
LINE
  5
366
100
AcDbEntity
  8
0
100
AcDbLine
 62
7
  6
BYLAYER
 10
399.0758310361
 20
1154.9063121661
 11
406.0758310361
 21
1154.9063121661
  0
LINE
  5
367
100
AcDbEntity
  8
0
100
AcDbLine
 62
7
  6
BYLAYER
 10
504.7249619246
 20
1154.9063121661
 11
511.7249619246
 21
1154.9063121661
  0
LINE
  5
368
100
AcDbEntity
  8
0
100
AcDbLine
 62
7
  6
BYLAYER
 10
546.7249619246
 20
1154.9063121661
 11
553.7249619246
 21
1154.9063121661
  0
LINE
  5
369
100
AcDbEntity
  8
0
100
AcDbLine
 62
7
  6
BYLAYER
 10
554.2249619246
 20
1155.406312235
 11
553.0249619246
 21
1155.4063121661
  0
LINE
  5
36A
100
AcDbEntity
  8
0
100
AcDbLine
 62
7
  6
BYLAYER
 10
546.4249619246
 20
1155.4063121661
 11
545.2249619246
 21
1155.4063122351
  0
LINE
  5
36B
100
AcDbEntity
  8
0
100
AcDbLine
 62
7
  6
BYLAYER
 10
513.2249619246
 20
1155.406312235
 11
512.0249619246
 21
1155.4063121661
  0
LINE
  5
36C
100
AcDbEntity
  8
0
100
AcDbLine
 62
7
  6
BYLAYER
 10
505.4249619246
 20
1155.4063121661
 11
504.2249619246
 21
1155.4063122351
  0
LINE
  5
36D
100
AcDbEntity
  8
0
100
AcDbLine
 62
7
  6
BYLAYER
 10
406.5758310361
 20
1155.406312235
 11
405.3758310361
 21
1155.4063121661
  0
LINE
  5
36E
100
AcDbEntity
  8
0
100
AcDbLine
 62
7
  6
BYLAYER
 10
398.7758310361
 20
1155.4063121661
 11
397.5758310361
 21
1155.4063122351
  0
LINE
  5
36F
100
AcDbEntity
  8
0
100
AcDbLine
 62
7
  6
BYLAYER
 10
365.5758310361
 20
1155.406312235
 11
364.3758310361
 21
1155.4063121661
  0
LINE
  5
370
100
AcDbEntity
  8
0
100
AcDbLine
 62
7
  6
BYLAYER
 10
357.7758310361
 20
1155.4063121661
 11
356.5758310361
 21
1155.4063122351
  0
LINE
  5
371
100
AcDbEntity
  8
0
100
AcDbLine
 62
7
  6
BYLAYER
 10
356.5758310361
 20
1156.4063121661
 11
357.7758310361
 21
1156.4063121661
  0
LINE
  5
372
100
AcDbEntity
  8
0
100
AcDbLine
 62
7
  6
BYLAYER
 10
364.3758310361
 20
1156.4063121661
 11
377.5758310361
 21
1156.4063121594
  0
LINE
  5
373
100
AcDbEntity
  8
0
100
AcDbLine
 62
7
  6
BYLAYER
 10
385.5758310361
 20
1156.406312166
 11
398.7758310361
 21
1156.4063121661
  0
LINE
  5
374
100
AcDbEntity
  8
0
100
AcDbLine
 62
7
  6
BYLAYER
 10
405.3758310361
 20
1156.4063121661
 11
406.5758310361
 21
1156.4063121661
  0
LINE
  5
375
100
AcDbEntity
  8
0
100
AcDbLine
 62
7
  6
BYLAYER
 10
504.2249619246
 20
1156.4063121661
 11
505.4249619246
 21
1156.4063121661
  0
LINE
  5
376
100
AcDbEntity
  8
0
100
AcDbLine
 62
7
  6
BYLAYER
 10
512.0249619246
 20
1156.4063121661
 11
525.2249619246
 21
1156.4063121594
  0
LINE
  5
377
100
AcDbEntity
  8
0
100
AcDbLine
 62
7
  6
BYLAYER
 10
533.2249619246
 20
1156.406312166
 11
546.4249619246
 21
1156.4063121661
  0
LINE
  5
378
100
AcDbEntity
  8
0
100
AcDbLine
 62
7
  6
BYLAYER
 10
553.0249619246
 20
1156.4063121661
 11
554.2249619246
 21
1156.4063121661
  0
LINE
  5
379
100
AcDbEntity
  8
0
100
AcDbLine
 62
7
  6
BYLAYER
 10
357.7758310361
 20
1156.5063121661
 11
364.3758310361
 21
1156.5063121661
  0
LINE
  5
37A
100
AcDbEntity
  8
0
100
AcDbLine
 62
7
  6
BYLAYER
 10
398.7758310361
 20
1156.5063121661
 11
405.3758310361
 21
1156.5063121661
  0
LINE
  5
37B
100
AcDbEntity
  8
0
100
AcDbLine
 62
7
  6
BYLAYER
 10
505.4249619246
 20
1156.5063121661
 11
512.0249619246
 21
1156.5063121661
  0
LINE
  5
37C
100
AcDbEntity
  8
0
100
AcDbLine
 62
7
  6
BYLAYER
 10
546.4249619246
 20
1156.5063121661
 11
553.0249619246
 21
1156.5063121661
  0
LINE
  5
37D
100
AcDbEntity
  8
0
100
AcDbLine
 62
7
  6
BYLAYER
 10
377.4343828559
 20
1156.9063121661
 11
385.7163146903
 21
1156.9063121661
  0
LINE
  5
37E
100
AcDbEntity
  8
0
100
AcDbLine
 62
7
  6
BYLAYER
 10
525.0835137444
 20
1156.9063121661
 11
533.3654455788
 21
1156.9063121661
  0
LINE
  5
37F
100
AcDbEntity
  8
0
100
AcDbLine
 62
7
  6
BYLAYER
 10
553.2249619246
 20
1157.4063121661
 11
552.3981671281
 21
1157.4063121661
  0
LINE
  5
380
100
AcDbEntity
  8
0
100
AcDbLine
 62
7
  6
BYLAYER
 10
506.0517567211
 20
1157.4063121661
 11
505.2249619246
 21
1157.4063121661
  0
LINE
  5
381
100
AcDbEntity
  8
0
100
AcDbLine
 62
7
  6
BYLAYER
 10
405.5758310361
 20
1157.4063121661
 11
404.7490362396
 21
1157.4063121661
  0
LINE
  5
382
100
AcDbEntity
  8
0
100
AcDbLine
 62
7
  6
BYLAYER
 10
358.4026258326
 20
1157.4063121661
 11
357.5758310361
 21
1157.4063121661
  0
LINE
  5
383
100
AcDbEntity
  8
0
100
AcDbLine
 62
7
  6
BYLAYER
 10
363.7490362396
 20
1157.4063121661
 11
399.4026258326
 21
1157.4063121661
  0
LINE
  5
384
100
AcDbEntity
  8
0
100
AcDbLine
 62
7
  6
BYLAYER
 10
511.3981671281
 20
1157.4063121661
 11
547.0517567211
 21
1157.4063121661
  0
LINE
  5
385
100
AcDbEntity
  8
0
100
AcDbLine
 62
7
  6
BYLAYER
 10
357.7758312828
 20
1157.5063121661
 11
363.3757296101
 21
1157.5063121661
  0
LINE
  5
386
100
AcDbEntity
  8
0
100
AcDbLine
 62
7
  6
BYLAYER
 10
399.7758312828
 20
1157.5063121661
 11
405.3757296101
 21
1157.5063121661
  0
LINE
  5
387
100
AcDbEntity
  8
0
100
AcDbLine
 62
7
  6
BYLAYER
 10
505.4249621713
 20
1157.5063121661
 11
511.0248604986
 21
1157.5063121661
  0
LINE
  5
388
100
AcDbEntity
  8
0
100
AcDbLine
 62
7
  6
BYLAYER
 10
547.4249621713
 20
1157.5063121661
 11
553.0248604986
 21
1157.5063121661
  0
LINE
  5
389
100
AcDbEntity
  8
0
100
AcDbLine
 62
7
  6
BYLAYER
 10
545.9749619246
 20
1158.9063121661
 11
530.4749619246
 21
1158.9063121661
  0
LINE
  5
38A
100
AcDbEntity
  8
0
100
AcDbLine
 62
7
  6
BYLAYER
 10
527.9749619246
 20
1158.9063121661
 11
512.4749619246
 21
1158.9063121661
  0
LINE
  5
38B
100
AcDbEntity
  8
0
100
AcDbLine
 62
7
  6
BYLAYER
 10
398.3258310361
 20
1158.9063121661
 11
382.8258310361
 21
1158.9063121661
  0
LINE
  5
38C
100
AcDbEntity
  8
0
100
AcDbLine
 62
7
  6
BYLAYER
 10
380.3258310361
 20
1158.9063121661
 11
364.8258310361
 21
1158.9063121661
  0
LINE
  5
38D
100
AcDbEntity
  8
0
100
AcDbLine
 62
7
  6
BYLAYER
 10
545.9749576418
 20
1161.9063121661
 11
530.4749662074
 21
1161.9063121661
  0
LINE
  5
38E
100
AcDbEntity
  8
0
100
AcDbLine
 62
7
  6
BYLAYER
 10
527.9749576418
 20
1161.9063121661
 11
512.4749662074
 21
1161.9063121661
  0
LINE
  5
38F
100
AcDbEntity
  8
0
100
AcDbLine
 62
7
  6
BYLAYER
 10
398.3258267533
 20
1161.9063121661
 11
382.8258353189
 21
1161.9063121661
  0
LINE
  5
390
100
AcDbEntity
  8
0
100
AcDbLine
 62
7
  6
BYLAYER
 10
380.3258267533
 20
1161.9063121661
 11
364.8258353189
 21
1161.9063121661
  0
LINE
  5
391
100
AcDbEntity
  8
0
100
AcDbLine
 62
7
  6
BYLAYER
 10
364.8258310361
 20
1163.4063121661
 11
380.3258310361
 21
1163.4063121661
  0
LINE
  5
392
100
AcDbEntity
  8
0
100
AcDbLine
 62
7
  6
BYLAYER
 10
382.8258310361
 20
1163.4063121661
 11
398.3258310361
 21
1163.4063121661
  0
LINE
  5
393
100
AcDbEntity
  8
0
100
AcDbLine
 62
7
  6
BYLAYER
 10
512.4749619246
 20
1163.4063121661
 11
527.9749619246
 21
1163.4063121661
  0
LINE
  5
394
100
AcDbEntity
  8
0
100
AcDbLine
 62
7
  6
BYLAYER
 10
530.4749619246
 20
1163.4063121661
 11
545.9749619246
 21
1163.4063121661
  0
LINE
  5
395
100
AcDbEntity
  8
0
100
AcDbLine
 62
7
  6
BYLAYER
 10
365.3258350389
 20
1163.9063121661
 11
379.8258270333
 21
1163.9063121661
  0
LINE
  5
396
100
AcDbEntity
  8
0
100
AcDbLine
 62
7
  6
BYLAYER
 10
383.3258350389
 20
1163.9063121661
 11
397.8258270333
 21
1163.9063121661
  0
LINE
  5
397
100
AcDbEntity
  8
0
100
AcDbLine
 62
7
  6
BYLAYER
 10
512.9749659274
 20
1163.9063121661
 11
527.4749579218
 21
1163.9063121661
  0
LINE
  5
398
100
AcDbEntity
  8
0
100
AcDbLine
 62
7
  6
BYLAYER
 10
530.9749659274
 20
1163.9063121661
 11
545.4749579218
 21
1163.9063121661
  0
LINE
  5
399
100
AcDbEntity
  8
0
100
AcDbLine
 62
7
  6
BYLAYER
 10
368.4516110361
 20
1165.1063121661
 11
376.7016110361
 21
1165.1063121661
  0
LINE
  5
39A
100
AcDbEntity
  8
0
100
AcDbLine
 62
7
  6
BYLAYER
 10
386.4525910361
 20
1165.1063121661
 11
394.7025910361
 21
1165.1063121661
  0
LINE
  5
39B
100
AcDbEntity
  8
0
100
AcDbLine
 62
7
  6
BYLAYER
 10
516.1007419246
 20
1165.1063121661
 11
524.3507419246
 21
1165.1063121661
  0
LINE
  5
39C
100
AcDbEntity
  8
0
100
AcDbLine
 62
7
  6
BYLAYER
 10
534.1017219246
 20
1165.1063121661
 11
542.3517219246
 21
1165.1063121661
  0
LINE
  5
39D
100
AcDbEntity
  8
0
100
AcDbLine
 62
7
  6
BYLAYER
 10
368.7516985122
 20
1165.4063121661
 11
376.4016296532
 21
1165.4063121661
  0
LINE
  5
39E
100
AcDbEntity
  8
0
100
AcDbLine
 62
7
  6
BYLAYER
 10
386.7525306682
 20
1165.4063121661
 11
394.4026129274
 21
1165.4063121661
  0
LINE
  5
39F
100
AcDbEntity
  8
0
100
AcDbLine
 62
7
  6
BYLAYER
 10
516.4008294007
 20
1165.4063121661
 11
524.0507605418
 21
1165.4063121661
  0
LINE
  5
3A0
100
AcDbEntity
  8
0
100
AcDbLine
 62
7
  6
BYLAYER
 10
534.4016615567
 20
1165.4063121661
 11
542.0517438159
 21
1165.4063121661
  0
LINE
  5
3A1
100
AcDbEntity
  8
0
100
AcDbLine
 62
7
  6
BYLAYER
 10
366.5758310361
 20
1167.4063112287
 11
378.5758310361
 21
1167.4063112287
  0
LINE
  5
3A2
100
AcDbEntity
  8
0
100
AcDbLine
 62
7
  6
BYLAYER
 10
514.2249619246
 20
1167.4063112287
 11
526.2249619246
 21
1167.4063112287
  0
LINE
  5
3A3
100
AcDbEntity
  8
0
100
AcDbLine
 62
7
  6
BYLAYER
 10
367.0758363374
 20
1167.9063121661
 11
378.0758316004
 21
1167.9063121661
  0
LINE
  5
3A4
100
AcDbEntity
  8
0
100
AcDbLine
 62
7
  6
BYLAYER
 10
514.724967226
 20
1167.9063121661
 11
525.7249624889
 21
1167.9063121661
  0
ARC
  5
3A5
100
AcDbEntity
  8
0
100
AcDbCircle
 62
7
  6
BYLAYER
 10
357.7760838072
 20
84.8063121661
 40
1.0
100
AcDbArc
 50
234.2503109332
 51
270.0
  0
ARC
  5
3A6
100
AcDbEntity
  8
0
100
AcDbCircle
 62
7
  6
BYLAYER
 10
363.3765588471
 20
84.8063121661
 40
1.0
100
AcDbArc
 50
270.0
 51
360.0
  0
ARC
  5
3A7
100
AcDbEntity
  8
0
100
AcDbCircle
 62
7
  6
BYLAYER
 10
358.7765588471
 20
84.8063121661
 40
1.0
100
AcDbArc
 50
180.0
 51
270.0
  0
ARC
  5
3A8
100
AcDbEntity
  8
0
100
AcDbCircle
 62
7
  6
BYLAYER
 10
365.5765588471
 20
84.9062020276
 40
1.0
100
AcDbArc
 50
180.0
 51
270.0
  0
ARC
  5
3A9
100
AcDbEntity
  8
0
100
AcDbCircle
 62
7
  6
BYLAYER
 10
357.5765588471
 20
84.9062020276
 40
1.0
100
AcDbArc
 50
180.0
 51
270.0
  0
ARC
  5
3AA
100
AcDbEntity
  8
0
100
AcDbCircle
 62
7
  6
BYLAYER
 10
376.5765588471
 20
84.9062020276
 40
1.0
100
AcDbArc
 50
270.0
 51
360.0
  0
ARC
  5
3AB
100
AcDbEntity
  8
0
100
AcDbCircle
 62
7
  6
BYLAYER
 10
357.0765588471
 20
86.9062020276
 40
0.5
100
AcDbArc
 50
180.0
 51
270.0
  0
ARC
  5
3AC
100
AcDbEntity
  8
0
100
AcDbCircle
 62
7
  6
BYLAYER
 10
364.0765588471
 20
85.9062020276
 40
0.5
100
AcDbArc
 50
0.0
 51
90.0
  0
ARC
  5
3AD
100
AcDbEntity
  8
4
100
AcDbCircle
 62
7
  6
BYLAYER
 10
374.6873381206
 20
138.7544872893
 40
3.25
100
AcDbArc
 50
90.0
 51
270.0
  0
ARC
  5
3AE
100
AcDbEntity
  8
4
100
AcDbCircle
 62
7
  6
BYLAYER
 10
374.6873381206
 20
168.7544872893
 40
3.25
100
AcDbArc
 50
90.0
 51
270.0
  0
ARC
  5
3AF
100
AcDbEntity
  8
0
100
AcDbCircle
 62
7
  6
BYLAYER
 10
405.3760838041
 20
84.8063121661
 40
1.0
100
AcDbArc
 50
270.0
 51
305.7190868306
  0
ARC
  5
3B0
100
AcDbEntity
  8
0
100
AcDbCircle
 62
7
  6
BYLAYER
 10
404.3765588442
 20
84.8063121661
 40
1.0
100
AcDbArc
 50
270.0
 51
360.0
  0
ARC
  5
3B1
100
AcDbEntity
  8
0
100
AcDbCircle
 62
7
  6
BYLAYER
 10
399.7765588442
 20
84.8063121661
 40
1.0
100
AcDbArc
 50
180.0
 51
270.0
  0
ARC
  5
3B2
100
AcDbEntity
  8
0
100
AcDbCircle
 62
7
  6
BYLAYER
 10
386.5765588471
 20
84.9062020276
 40
1.0
100
AcDbArc
 50
179.9999999983
 51
270.0
  0
ARC
  5
3B3
100
AcDbEntity
  8
0
100
AcDbCircle
 62
7
  6
BYLAYER
 10
405.5765588471
 20
84.9062020276
 40
1.0
100
AcDbArc
 50
270.0
 51
360.0
  0
ARC
  5
3B4
100
AcDbEntity
  8
0
100
AcDbCircle
 62
7
  6
BYLAYER
 10
397.5765588471
 20
84.9062020276
 40
1.0
100
AcDbArc
 50
270.0
 51
360.0
  0
ARC
  5
3B5
100
AcDbEntity
  8
0
100
AcDbCircle
 62
7
  6
BYLAYER
 10
399.0765588471
 20
85.9062020276
 40
0.5
100
AcDbArc
 50
90.0
 51
180.0
  0
ARC
  5
3B6
100
AcDbEntity
  8
0
100
AcDbCircle
 62
7
  6
BYLAYER
 10
406.0765588471
 20
86.9062020276
 40
0.5
100
AcDbArc
 50
270.0
 51
360.0
  0
CIRCLE
  5
3B7
100
AcDbEntity
  8
4
100
AcDbCircle
 62
7
  6
BYLAYER
 10
381.5765588457
 20
138.7544872893
 40
6.3525
  0
CIRCLE
  5
3B8
100
AcDbEntity
  8
4
100
AcDbCircle
 62
7
  6
BYLAYER
 10
381.5765588457
 20
168.7544872893
 40
6.3525
  0
ARC
  5
3B9
100
AcDbEntity
  8
4
100
AcDbCircle
 62
7
  6
BYLAYER
 10
391.3873381206
 20
133.7544872893
 40
5.0
100
AcDbArc
 50
270.0
 51
360.0
  0
ARC
  5
3BA
100
AcDbEntity
  8
4
100
AcDbCircle
 62
7
  6
BYLAYER
 10
391.3873381206
 20
173.7544872893
 40
5.0
100
AcDbArc
 50
0.0
 51
90.0
  0
ARC
  5
3BB
100
AcDbEntity
  8
4
100
AcDbCircle
 62
7
  6
BYLAYER
 10
388.1873381206
 20
138.7544872893
 40
3.25
100
AcDbArc
 50
270.0
 51
90.0
  0
ARC
  5
3BC
100
AcDbEntity
  8
4
100
AcDbCircle
 62
7
  6
BYLAYER
 10
388.1873381206
 20
168.7544872893
 40
3.25
100
AcDbArc
 50
270.0
 51
90.0
  0
CIRCLE
  5
3BD
100
AcDbEntity
  8
4
100
AcDbCircle
 62
7
  6
BYLAYER
 10
381.5765588457
 20
138.7544872893
 40
3.0
  0
CIRCLE
  5
3BE
100
AcDbEntity
  8
4
100
AcDbCircle
 62
7
  6
BYLAYER
 10
381.5765588457
 20
168.7544872893
 40
3.0
  0
ARC
  5
3BF
100
AcDbEntity
  8
4
100
AcDbCircle
 62
7
  6
BYLAYER
 10
374.6873381206
 20
1075.0893897502
 40
3.25
100
AcDbArc
 50
90.0
 51
270.0
  0
ARC
  5
3C0
100
AcDbEntity
  8
4
100
AcDbCircle
 62
7
  6
BYLAYER
 10
374.6873381206
 20
1105.0893897502
 40
3.25
100
AcDbArc
 50
90.0
 51
270.0
  0
ARC
  5
3C1
100
AcDbEntity
  8
0
100
AcDbCircle
 62
7
  6
BYLAYER
 10
357.7758310361
 20
1156.5063121661
 40
1.0
100
AcDbArc
 50
90.0
 51
125.746880854
  0
ARC
  5
3C2
100
AcDbEntity
  8
0
100
AcDbCircle
 62
7
  6
BYLAYER
 10
358.7758310361
 20
1156.5063121661
 40
1.0
100
AcDbArc
 50
90.0
 51
180.0
  0
ARC
  5
3C3
100
AcDbEntity
  8
0
100
AcDbCircle
 62
7
  6
BYLAYER
 10
363.3758310361
 20
1156.5063121661
 40
1.0
100
AcDbArc
 50
0.0
 51
90.0
  0
ARC
  5
3C4
100
AcDbEntity
  8
0
100
AcDbCircle
 62
7
  6
BYLAYER
 10
376.5758310361
 20
1156.4063121661
 40
1.0
100
AcDbArc
 50
0.0
 51
90.0
  0
ARC
  5
3C5
100
AcDbEntity
  8
0
100
AcDbCircle
 62
7
  6
BYLAYER
 10
357.5758310361
 20
1156.4063121661
 40
1.0
100
AcDbArc
 50
90.0
 51
180.0
  0
ARC
  5
3C6
100
AcDbEntity
  8
0
100
AcDbCircle
 62
7
  6
BYLAYER
 10
365.5758310361
 20
1156.4063121661
 40
1.0
100
AcDbArc
 50
90.0
 51
180.0
  0
ARC
  5
3C7
100
AcDbEntity
  8
0
100
AcDbCircle
 62
7
  6
BYLAYER
 10
364.0758310361
 20
1155.4063121661
 40
0.5
100
AcDbArc
 50
270.0
 51
360.0
  0
ARC
  5
3C8
100
AcDbEntity
  8
0
100
AcDbCircle
 62
7
  6
BYLAYER
 10
357.0758310361
 20
1154.4063121661
 40
0.5
100
AcDbArc
 50
90.0
 51
180.0
  0
ARC
  5
3C9
100
AcDbEntity
  8
0
100
AcDbCircle
 62
7
  6
BYLAYER
 10
380.5758133742
 20
1153.9063123491
 40
0.4999999532
100
AcDbArc
 50
257.819789003
 51
77.8195901876
  0
ARC
  5
3CA
100
AcDbEntity
  8
0
100
AcDbCircle
 62
7
  6
BYLAYER
 10
364.575848698
 20
1153.9063123491
 40
0.4999999532
100
AcDbArc
 50
102.1804098124
 51
282.180210997
  0
ARC
  5
3CB
100
AcDbEntity
  8
0
100
AcDbCircle
 62
7
  6
BYLAYER
 10
368.7516110361
 20
1165.1063121661
 40
0.3
100
AcDbArc
 50
90.0
 51
180.0
  0
ARC
  5
3CC
100
AcDbEntity
  8
0
100
AcDbCircle
 62
7
  6
BYLAYER
 10
376.4016110361
 20
1165.1063121661
 40
0.3
100
AcDbArc
 50
0.0000000001
 51
90.0
  0
CIRCLE
  5
3CD
100
AcDbEntity
  8
4
100
AcDbCircle
 62
7
  6
BYLAYER
 10
381.5765588457
 20
1105.0893897502
 40
6.3525
  0
CIRCLE
  5
3CE
100
AcDbEntity
  8
4
100
AcDbCircle
 62
7
  6
BYLAYER
 10
381.5765588457
 20
1075.0893897502
 40
6.3525
  0
ARC
  5
3CF
100
AcDbEntity
  8
4
100
AcDbCircle
 62
7
  6
BYLAYER
 10
391.3873381206
 20
1070.0893897502
 40
5.0
100
AcDbArc
 50
270.0
 51
360.0
  0
ARC
  5
3D0
100
AcDbEntity
  8
4
100
AcDbCircle
 62
7
  6
BYLAYER
 10
391.3873381206
 20
1110.0893897502
 40
5.0
100
AcDbArc
 50
0.0
 51
90.0
  0
ARC
  5
3D1
100
AcDbEntity
  8
4
100
AcDbCircle
 62
7
  6
BYLAYER
 10
388.1873381206
 20
1075.0893897502
 40
3.25
100
AcDbArc
 50
270.0
 51
90.0
  0
ARC
  5
3D2
100
AcDbEntity
  8
4
100
AcDbCircle
 62
7
  6
BYLAYER
 10
388.1873381206
 20
1105.0893897502
 40
3.25
100
AcDbArc
 50
270.0
 51
90.0
  0
CIRCLE
  5
3D3
100
AcDbEntity
  8
4
100
AcDbCircle
 62
7
  6
BYLAYER
 10
381.5765588457
 20
1075.0893897502
 40
3.0
  0
CIRCLE
  5
3D4
100
AcDbEntity
  8
4
100
AcDbCircle
 62
7
  6
BYLAYER
 10
381.5765588457
 20
1105.0893897502
 40
3.0
  0
ARC
  5
3D5
100
AcDbEntity
  8
0
100
AcDbCircle
 62
7
  6
BYLAYER
 10
405.3758310361
 20
1156.5063121661
 40
1.0
100
AcDbArc
 50
54.2529864704
 51
90.0
  0
ARC
  5
3D6
100
AcDbEntity
  8
0
100
AcDbCircle
 62
7
  6
BYLAYER
 10
399.7758310361
 20
1156.5063121661
 40
1.0
100
AcDbArc
 50
90.0
 51
180.0
  0
ARC
  5
3D7
100
AcDbEntity
  8
0
100
AcDbCircle
 62
7
  6
BYLAYER
 10
404.3758310361
 20
1156.5063121661
 40
1.0
100
AcDbArc
 50
0.0
 51
90.0
  0
ARC
  5
3D8
100
AcDbEntity
  8
0
100
AcDbCircle
 62
7
  6
BYLAYER
 10
397.5758310361
 20
1156.4063121661
 40
1.0
100
AcDbArc
 50
0.0
 51
90.0
  0
ARC
  5
3D9
100
AcDbEntity
  8
0
100
AcDbCircle
 62
7
  6
BYLAYER
 10
386.5758310361
 20
1156.4063121661
 40
1.0
100
AcDbArc
 50
90.0
 51
180.0000000008
  0
ARC
  5
3DA
100
AcDbEntity
  8
0
100
AcDbCircle
 62
7
  6
BYLAYER
 10
405.5758310361
 20
1156.4063121661
 40
1.0
100
AcDbArc
 50
0.0
 51
90.0
  0
ARC
  5
3DB
100
AcDbEntity
  8
0
100
AcDbCircle
 62
7
  6
BYLAYER
 10
406.0758310361
 20
1154.4063121661
 40
0.5
100
AcDbArc
 50
0.0
 51
90.0
  0
ARC
  5
3DC
100
AcDbEntity
  8
0
100
AcDbCircle
 62
7
  6
BYLAYER
 10
399.0758310361
 20
1155.4063121661
 40
0.5
100
AcDbArc
 50
179.9999999999
 51
270.0
  0
ARC
  5
3DD
100
AcDbEntity
  8
0
100
AcDbCircle
 62
7
  6
BYLAYER
 10
398.5758133737
 20
1153.9063123489
 40
0.4999999534
100
AcDbArc
 50
257.8430202394
 51
77.8428213138
  0
ARC
  5
3DE
100
AcDbEntity
  8
0
100
AcDbCircle
 62
7
  6
BYLAYER
 10
382.5758486986
 20
1153.9063123489
 40
0.4999999534
100
AcDbArc
 50
102.1571786862
 51
282.1569797606
  0
ARC
  5
3DF
100
AcDbEntity
  8
0
100
AcDbCircle
 62
7
  6
BYLAYER
 10
386.7525910361
 20
1165.1063121661
 40
0.3
100
AcDbArc
 50
90.0
 51
179.9999999999
  0
ARC
  5
3E0
100
AcDbEntity
  8
0
100
AcDbCircle
 62
7
  6
BYLAYER
 10
394.4025910361
 20
1165.1063121661
 40
0.3
100
AcDbArc
 50
0.0
 51
90.0
  0
ARC
  5
3E1
100
AcDbEntity
  8
0
100
AcDbCircle
 62
7
  6
BYLAYER
 10
505.4252146957
 20
84.8063121661
 40
1.0
100
AcDbArc
 50
234.2503109332
 51
270.0
  0
ARC
  5
3E2
100
AcDbEntity
  8
0
100
AcDbCircle
 62
7
  6
BYLAYER
 10
511.0256897357
 20
84.8063121661
 40
1.0
100
AcDbArc
 50
270.0
 51
360.0
  0
ARC
  5
3E3
100
AcDbEntity
  8
0
100
AcDbCircle
 62
7
  6
BYLAYER
 10
506.4256897357
 20
84.8063121661
 40
1.0
100
AcDbArc
 50
180.0
 51
270.0
  0
ARC
  5
3E4
100
AcDbEntity
  8
0
100
AcDbCircle
 62
7
  6
BYLAYER
 10
513.2256897357
 20
84.9062020276
 40
1.0
100
AcDbArc
 50
180.0
 51
270.0
  0
ARC
  5
3E5
100
AcDbEntity
  8
0
100
AcDbCircle
 62
7
  6
BYLAYER
 10
505.2256897357
 20
84.9062020276
 40
1.0
100
AcDbArc
 50
180.0
 51
270.0
  0
ARC
  5
3E6
100
AcDbEntity
  8
0
100
AcDbCircle
 62
7
  6
BYLAYER
 10
524.2256897357
 20
84.9062020276
 40
1.0
100
AcDbArc
 50
270.0
 51
360.0
  0
ARC
  5
3E7
100
AcDbEntity
  8
0
100
AcDbCircle
 62
7
  6
BYLAYER
 10
504.7256897357
 20
86.9062020276
 40
0.5
100
AcDbArc
 50
180.0
 51
270.0
  0
ARC
  5
3E8
100
AcDbEntity
  8
0
100
AcDbCircle
 62
7
  6
BYLAYER
 10
511.7256897357
 20
85.9062020276
 40
0.5
100
AcDbArc
 50
0.0
 51
90.0
  0
ARC
  5
3E9
100
AcDbEntity
  8
3
100
AcDbCircle
 62
7
  6
BYLAYER
 10
522.3364690091
 20
138.7544872893
 40
3.25
100
AcDbArc
 50
90.0
 51
270.0
  0
ARC
  5
3EA
100
AcDbEntity
  8
3
100
AcDbCircle
 62
7
  6
BYLAYER
 10
522.3364690091
 20
168.7544872893
 40
3.25
100
AcDbArc
 50
90.0
 51
270.0
  0
ARC
  5
3EB
100
AcDbEntity
  8
0
100
AcDbCircle
 62
7
  6
BYLAYER
 10
553.0252146927
 20
84.8063121661
 40
1.0
100
AcDbArc
 50
270.0
 51
305.7190868306
  0
ARC
  5
3EC
100
AcDbEntity
  8
0
100
AcDbCircle
 62
7
  6
BYLAYER
 10
552.0256897328
 20
84.8063121661
 40
1.0
100
AcDbArc
 50
270.0
 51
360.0
  0
ARC
  5
3ED
100
AcDbEntity
  8
0
100
AcDbCircle
 62
7
  6
BYLAYER
 10
547.4256897328
 20
84.8063121661
 40
1.0
100
AcDbArc
 50
180.0
 51
270.0
  0
ARC
  5
3EE
100
AcDbEntity
  8
0
100
AcDbCircle
 62
7
  6
BYLAYER
 10
534.2256897357
 20
84.9062020276
 40
1.0
100
AcDbArc
 50
179.9999999983
 51
270.0
  0
ARC
  5
3EF
100
AcDbEntity
  8
0
100
AcDbCircle
 62
7
  6
BYLAYER
 10
553.2256897357
 20
84.9062020276
 40
1.0
100
AcDbArc
 50
270.0
 51
360.0
  0
ARC
  5
3F0
100
AcDbEntity
  8
0
100
AcDbCircle
 62
7
  6
BYLAYER
 10
545.2256897357
 20
84.9062020276
 40
1.0
100
AcDbArc
 50
270.0
 51
360.0
  0
ARC
  5
3F1
100
AcDbEntity
  8
0
100
AcDbCircle
 62
7
  6
BYLAYER
 10
546.7256897357
 20
85.9062020276
 40
0.5
100
AcDbArc
 50
90.0
 51
180.0
  0
ARC
  5
3F2
100
AcDbEntity
  8
0
100
AcDbCircle
 62
7
  6
BYLAYER
 10
553.7256897357
 20
86.9062020276
 40
0.5
100
AcDbArc
 50
270.0
 51
360.0
  0
CIRCLE
  5
3F3
100
AcDbEntity
  8
3
100
AcDbCircle
 62
7
  6
BYLAYER
 10
529.2256897342
 20
168.7544872893
 40
6.3525
  0
CIRCLE
  5
3F4
100
AcDbEntity
  8
3
100
AcDbCircle
 62
7
  6
BYLAYER
 10
529.2256897342
 20
138.7544872893
 40
6.3525
  0
ARC
  5
3F5
100
AcDbEntity
  8
3
100
AcDbCircle
 62
7
  6
BYLAYER
 10
539.0364690091
 20
133.7544872893
 40
5.0
100
AcDbArc
 50
270.0
 51
360.0
  0
ARC
  5
3F6
100
AcDbEntity
  8
3
100
AcDbCircle
 62
7
  6
BYLAYER
 10
539.0364690091
 20
173.7544872893
 40
5.0
100
AcDbArc
 50
0.0
 51
90.0
  0
ARC
  5
3F7
100
AcDbEntity
  8
3
100
AcDbCircle
 62
7
  6
BYLAYER
 10
535.8364690091
 20
138.7544872893
 40
3.25
100
AcDbArc
 50
270.0
 51
90.0
  0
ARC
  5
3F8
100
AcDbEntity
  8
3
100
AcDbCircle
 62
7
  6
BYLAYER
 10
535.8364690091
 20
168.7544872893
 40
3.25
100
AcDbArc
 50
270.0
 51
90.0
  0
CIRCLE
  5
3F9
100
AcDbEntity
  8
3
100
AcDbCircle
 62
7
  6
BYLAYER
 10
529.2256897342
 20
138.7544872893
 40
3.0
  0
CIRCLE
  5
3FA
100
AcDbEntity
  8
3
100
AcDbCircle
 62
7
  6
BYLAYER
 10
529.2256897342
 20
168.7544872893
 40
3.0
  0
ARC
  5
3FB
100
AcDbEntity
  8
3
100
AcDbCircle
 62
7
  6
BYLAYER
 10
522.3364690091
 20
1075.0893897502
 40
3.25
100
AcDbArc
 50
90.0
 51
270.0
  0
ARC
  5
3FC
100
AcDbEntity
  8
3
100
AcDbCircle
 62
7
  6
BYLAYER
 10
522.3364690091
 20
1105.0893897502
 40
3.25
100
AcDbArc
 50
90.0
 51
270.0
  0
ARC
  5
3FD
100
AcDbEntity
  8
0
100
AcDbCircle
 62
7
  6
BYLAYER
 10
505.4249619246
 20
1156.5063121661
 40
1.0
100
AcDbArc
 50
90.0
 51
125.746880854
  0
ARC
  5
3FE
100
AcDbEntity
  8
0
100
AcDbCircle
 62
7
  6
BYLAYER
 10
506.4249619246
 20
1156.5063121661
 40
1.0
100
AcDbArc
 50
90.0
 51
180.0
  0
ARC
  5
3FF
100
AcDbEntity
  8
0
100
AcDbCircle
 62
7
  6
BYLAYER
 10
511.0249619246
 20
1156.5063121661
 40
1.0
100
AcDbArc
 50
0.0
 51
90.0
  0
ARC
  5
400
100
AcDbEntity
  8
0
100
AcDbCircle
 62
7
  6
BYLAYER
 10
524.2249619246
 20
1156.4063121661
 40
1.0
100
AcDbArc
 50
0.0
 51
90.0
  0
ARC
  5
401
100
AcDbEntity
  8
0
100
AcDbCircle
 62
7
  6
BYLAYER
 10
505.2249619246
 20
1156.4063121661
 40
1.0
100
AcDbArc
 50
90.0
 51
180.0
  0
ARC
  5
402
100
AcDbEntity
  8
0
100
AcDbCircle
 62
7
  6
BYLAYER
 10
513.2249619246
 20
1156.4063121661
 40
1.0
100
AcDbArc
 50
90.0
 51
180.0
  0
ARC
  5
403
100
AcDbEntity
  8
0
100
AcDbCircle
 62
7
  6
BYLAYER
 10
511.7249619246
 20
1155.4063121661
 40
0.5
100
AcDbArc
 50
270.0
 51
360.0
  0
ARC
  5
404
100
AcDbEntity
  8
0
100
AcDbCircle
 62
7
  6
BYLAYER
 10
504.7249619246
 20
1154.4063121661
 40
0.5
100
AcDbArc
 50
90.0
 51
180.0
  0
ARC
  5
405
100
AcDbEntity
  8
0
100
AcDbCircle
 62
7
  6
BYLAYER
 10
528.2249442627
 20
1153.9063123491
 40
0.4999999532
100
AcDbArc
 50
257.819789003
 51
77.8195901876
  0
ARC
  5
406
100
AcDbEntity
  8
0
100
AcDbCircle
 62
7
  6
BYLAYER
 10
512.2249795865
 20
1153.9063123491
 40
0.4999999532
100
AcDbArc
 50
102.1804098124
 51
282.1802109969
  0
ARC
  5
407
100
AcDbEntity
  8
0
100
AcDbCircle
 62
7
  6
BYLAYER
 10
516.4007419246
 20
1165.1063121661
 40
0.3
100
AcDbArc
 50
90.0
 51
180.0
  0
ARC
  5
408
100
AcDbEntity
  8
0
100
AcDbCircle
 62
7
  6
BYLAYER
 10
524.0507419246
 20
1165.1063121661
 40
0.3
100
AcDbArc
 50
0.0000000001
 51
90.0
  0
CIRCLE
  5
409
100
AcDbEntity
  8
3
100
AcDbCircle
 62
7
  6
BYLAYER
 10
529.2256897342
 20
1105.0893897502
 40
6.3525
  0
CIRCLE
  5
40A
100
AcDbEntity
  8
3
100
AcDbCircle
 62
7
  6
BYLAYER
 10
529.2256897342
 20
1075.0893897502
 40
6.3525
  0
ARC
  5
40B
100
AcDbEntity
  8
3
100
AcDbCircle
 62
7
  6
BYLAYER
 10
539.0364690091
 20
1070.0893897502
 40
5.0
100
AcDbArc
 50
270.0
 51
360.0
  0
ARC
  5
40C
100
AcDbEntity
  8
3
100
AcDbCircle
 62
7
  6
BYLAYER
 10
539.0364690091
 20
1110.0893897502
 40
5.0
100
AcDbArc
 50
0.0
 51
90.0
  0
ARC
  5
40D
100
AcDbEntity
  8
3
100
AcDbCircle
 62
7
  6
BYLAYER
 10
535.8364690091
 20
1075.0893897502
 40
3.25
100
AcDbArc
 50
270.0
 51
90.0
  0
ARC
  5
40E
100
AcDbEntity
  8
3
100
AcDbCircle
 62
7
  6
BYLAYER
 10
535.8364690091
 20
1105.0893897502
 40
3.25
100
AcDbArc
 50
270.0
 51
90.0
  0
CIRCLE
  5
40F
100
AcDbEntity
  8
3
100
AcDbCircle
 62
7
  6
BYLAYER
 10
529.2256897342
 20
1075.0893897502
 40
3.0
  0
CIRCLE
  5
410
100
AcDbEntity
  8
3
100
AcDbCircle
 62
7
  6
BYLAYER
 10
529.2256897342
 20
1105.0893897502
 40
3.0
  0
ARC
  5
411
100
AcDbEntity
  8
0
100
AcDbCircle
 62
7
  6
BYLAYER
 10
553.0249619246
 20
1156.5063121661
 40
1.0
100
AcDbArc
 50
54.2529864704
 51
90.0
  0
ARC
  5
412
100
AcDbEntity
  8
0
100
AcDbCircle
 62
7
  6
BYLAYER
 10
547.4249619246
 20
1156.5063121661
 40
1.0
100
AcDbArc
 50
90.0
 51
180.0
  0
ARC
  5
413
100
AcDbEntity
  8
0
100
AcDbCircle
 62
7
  6
BYLAYER
 10
552.0249619246
 20
1156.5063121661
 40
1.0
100
AcDbArc
 50
0.0
 51
90.0
  0
ARC
  5
414
100
AcDbEntity
  8
0
100
AcDbCircle
 62
7
  6
BYLAYER
 10
545.2249619246
 20
1156.4063121661
 40
1.0
100
AcDbArc
 50
0.0
 51
90.0
  0
ARC
  5
415
100
AcDbEntity
  8
0
100
AcDbCircle
 62
7
  6
BYLAYER
 10
534.2249619246
 20
1156.4063121661
 40
1.0
100
AcDbArc
 50
90.0
 51
180.0000000008
  0
ARC
  5
416
100
AcDbEntity
  8
0
100
AcDbCircle
 62
7
  6
BYLAYER
 10
553.2249619246
 20
1156.4063121661
 40
1.0
100
AcDbArc
 50
0.0000000001
 51
90.0
  0
ARC
  5
417
100
AcDbEntity
  8
0
100
AcDbCircle
 62
7
  6
BYLAYER
 10
553.7249619246
 20
1154.4063121661
 40
0.5
100
AcDbArc
 50
0.0
 51
90.0
  0
ARC
  5
418
100
AcDbEntity
  8
0
100
AcDbCircle
 62
7
  6
BYLAYER
 10
546.7249619246
 20
1155.4063121661
 40
0.5
100
AcDbArc
 50
179.9999999999
 51
270.0
  0
ARC
  5
419
100
AcDbEntity
  8
0
100
AcDbCircle
 62
7
  6
BYLAYER
 10
546.2249442622
 20
1153.9063123489
 40
0.4999999534
100
AcDbArc
 50
257.8430202394
 51
77.8428213138
  0
ARC
  5
41A
100
AcDbEntity
  8
0
100
AcDbCircle
 62
7
  6
BYLAYER
 10
530.2249795871
 20
1153.9063123489
 40
0.4999999534
100
AcDbArc
 50
102.1571786862
 51
282.1569797606
  0
ARC
  5
41B
100
AcDbEntity
  8
0
100
AcDbCircle
 62
7
  6
BYLAYER
 10
534.4017219246
 20
1165.1063121661
 40
0.3
100
AcDbArc
 50
90.0
 51
179.9999999999
  0
ARC
  5
41C
100
AcDbEntity
  8
0
100
AcDbCircle
 62
7
  6
BYLAYER
 10
542.0517219246
 20
1165.1063121661
 40
0.3
100
AcDbArc
 50
0.0
 51
90.0
  0
SPLINE
  5
41D
100
AcDbEntity
  8
0
100
AcDbSpline
 62
7
  6
BYLAYER
 70
0
 71
3
 72
11
 73
7
 74
0
 42
0.0000001
 43
0.0000001
 44
0.0000000001
 40
0.0
 40
0.0
 40
0.0
 40
0.0
 40
0.1598605771
 40
0.3733762137
 40
0.6595504004
 40
1.0
 40
1.0
 40
1.0
 40
1.0
 10
534.2249639589
 20
1157.4063121664
 30
0.0
 10
534.1608198777
 20
1157.4062990352
 30
0.0
 10
534.0120564682
 20
1157.3407299584
 30
0.0
 10
533.857577154
 20
1157.1178312862
 30
0.0
 10
533.7498245447
 20
1156.7955675807
 30
0.0
 10
533.7249631104
 20
1156.5429176232
 30
0.0
 10
533.7249624655
 20
1156.4063121661
 30
0.0
  0
SPLINE
  5
41E
100
AcDbEntity
  8
0
100
AcDbSpline
 62
7
  6
BYLAYER
 70
0
 71
3
 72
12
 73
8
 74
0
 42
0.0000001
 43
0.0000001
 44
0.0000000001
 40
0.0
 40
0.0
 40
0.0
 40
0.0
 40
0.1249612752
 40
0.2501494132
 40
0.4995021241
 40
0.7494103699
 40
1.0
 40
1.0
 40
1.0
 40
1.0
 10
513.2249619246
 20
1155.4063121661
 30
0.0
 10
513.2249617043
 20
1155.3233037123
 30
0.0
 10
513.1928152211
 20
1155.1560412998
 30
0.0
 10
513.0299259711
 20
1154.8628052936
 30
0.0
 10
512.7051452897
 20
1154.5842100206
 30
0.0
 10
512.2267589502
 20
1154.4132319298
 30
0.0
 10
511.8914219554
 20
1154.4063121247
 30
0.0
 10
511.7249619246
 20
1154.4063121661
 30
0.0
  0
SPLINE
  5
41F
100
AcDbEntity
  8
0
100
AcDbSpline
 62
7
  6
BYLAYER
 70
0
 71
3
 72
16
 73
12
 74
0
 42
0.0000001
 43
0.0000001
 44
0.0000000001
 40
0.0
 40
0.0
 40
0.0
 40
0.0
 40
0.2636273647
 40
0.4178764038
 40
0.5741876959
 40
0.7240052304
 40
0.8563237188
 40
0.9120390276
 40
0.957262702
 40
0.9883504454
 40
1.0
 40
1.0
 40
1.0
 40
1.0
 10
505.2249619363
 20
1155.4063121661
 30
0.0
 10
505.2249617814
 20
1155.3430181514
 30
0.0
 10
505.155415601
 20
1155.2530925703
 30
0.0
 10
505.0590481637
 20
1155.1588386636
 30
0.0
 10
504.974262993
 20
1155.0867735918
 30
0.0
 10
504.8923330165
 20
1155.0209572391
 30
0.0
 10
504.8272030861
 20
1154.9724707005
 30
0.0
 10
504.7814715281
 20
1154.9402175621
 30
0.0
 10
504.7541721065
 20
1154.9238063354
 30
0.0
 10
504.7374179855
 20
1154.9113361846
 30
0.0
 10
504.7266988554
 20
1154.9085044083
 30
0.0
 10
504.7249619329
 20
1154.9063121689
 30
0.0
  0
SPLINE
  5
420
100
AcDbEntity
  8
0
100
AcDbSpline
 62
7
  6
BYLAYER
 70
0
 71
3
 72
16
 73
12
 74
0
 42
0.0000001
 43
0.0000001
 44
0.0000000001
 40
0.0
 40
0.0
 40
0.0
 40
0.0
 40
0.0116495546
 40
0.042737298
 40
0.0879609725
 40
0.1436762813
 40
0.2759947698
 40
0.4258123044
 40
0.5821235967
 40
0.7363726357
 40
1.0
 40
1.0
 40
1.0
 40
1.0
 10
553.7249619172
 20
1154.9063121689
 30
0.0
 10
553.7232258687
 20
1154.9085051004
 30
0.0
 10
553.7125047509
 20
1154.9113353025
 30
0.0
 10
553.6957523463
 20
1154.9238068127
 30
0.0
 10
553.6684520938
 20
1154.9402173814
 30
0.0
 10
553.6227209354
 20
1154.9724708362
 30
0.0
 10
553.5575907645
 20
1155.0209571844
 30
0.0
 10
553.4756608779
 20
1155.0867736084
 30
0.0
 10
553.3908756814
 20
1155.1588386597
 30
0.0
 10
553.2945082525
 20
1155.2530925728
 30
0.0
 10
553.2249620696
 20
1155.3430181515
 30
0.0
 10
553.2249619147
 20
1155.4063121661
 30
0.0
  0
SPLINE
  5
421
100
AcDbEntity
  8
0
100
AcDbSpline
 62
7
  6
BYLAYER
 70
0
 71
3
 72
11
 73
7
 74
0
 42
0.0000001
 43
0.0000001
 44
0.0000000001
 40
0.0
 40
0.0
 40
0.0
 40
0.0
 40
0.3404385698
 40
0.6266185405
 40
0.8401374976
 40
1.0
 40
1.0
 40
1.0
 40
1.0
 10
524.7249605014
 20
1156.4063121661
 30
0.0
 10
524.724960501
 20
1156.5429131842
 30
0.0
 10
524.7000989871
 20
1156.7955609743
 30
0.0
 10
524.5923494169
 20
1157.1178243022
 30
0.0
 10
524.4378691519
 20
1157.3407290115
 30
0.0
 10
524.289103831
 20
1157.4062976728
 30
0.0
 10
524.2249589838
 20
1157.4063121665
 30
0.0
  0
SPLINE
  5
422
100
AcDbEntity
  8
0
100
AcDbSpline
 62
7
  6
BYLAYER
 70
0
 71
3
 72
12
 73
8
 74
0
 42
0.0000001
 43
0.0000001
 44
0.0000000001
 40
0.0
 40
0.0
 40
0.0
 40
0.0
 40
0.1249608927
 40
0.2501492077
 40
0.4995019733
 40
0.7494104792
 40
1.0
 40
1.0
 40
1.0
 40
1.0
 10
545.2249619246
 20
1155.4063121661
 30
0.0
 10
545.224962145
 20
1155.3233039668
 30
0.0
 10
545.2571085029
 20
1155.1560416989
 30
0.0
 10
545.4199975176
 20
1154.8628056543
 30
0.0
 10
545.7447783853
 20
1154.5842100647
 30
0.0
 10
546.2231648827
 20
1154.4132319533
 30
0.0
 10
546.5585019672
 20
1154.4063121248
 30
0.0
 10
546.7249619246
 20
1154.4063121661
 30
0.0
  0
SPLINE
  5
423
100
AcDbEntity
  8
0
100
AcDbSpline
 62
7
  6
BYLAYER
 70
0
 71
3
 72
11
 73
7
 74
0
 42
0.0000001
 43
0.0000001
 44
0.0000000001
 40
0.0
 40
0.0
 40
0.0
 40
0.0
 40
0.1598605771
 40
0.3733762137
 40
0.6595504004
 40
1.0
 40
1.0
 40
1.0
 40
1.0
 10
386.5758330704
 20
1157.4063121664
 30
0.0
 10
386.5116889892
 20
1157.4062990352
 30
0.0
 10
386.3629255797
 20
1157.3407299584
 30
0.0
 10
386.2084462654
 20
1157.1178312862
 30
0.0
 10
386.1006936562
 20
1156.7955675807
 30
0.0
 10
386.0758322219
 20
1156.5429176232
 30
0.0
 10
386.0758315769
 20
1156.4063121661
 30
0.0
  0
SPLINE
  5
424
100
AcDbEntity
  8
0
100
AcDbSpline
 62
7
  6
BYLAYER
 70
0
 71
3
 72
12
 73
8
 74
0
 42
0.0000001
 43
0.0000001
 44
0.0000000001
 40
0.0
 40
0.0
 40
0.0
 40
0.0
 40
0.1249612752
 40
0.2501494132
 40
0.4995021241
 40
0.7494103699
 40
1.0
 40
1.0
 40
1.0
 40
1.0
 10
365.5758310361
 20
1155.4063121661
 30
0.0
 10
365.5758308158
 20
1155.3233037123
 30
0.0
 10
365.5436843325
 20
1155.1560412998
 30
0.0
 10
365.3807950826
 20
1154.8628052936
 30
0.0
 10
365.0560144012
 20
1154.5842100206
 30
0.0
 10
364.5776280617
 20
1154.4132319298
 30
0.0
 10
364.2422910669
 20
1154.4063121247
 30
0.0
 10
364.0758310361
 20
1154.4063121661
 30
0.0
  0
SPLINE
  5
425
100
AcDbEntity
  8
0
100
AcDbSpline
 62
7
  6
BYLAYER
 70
0
 71
3
 72
16
 73
12
 74
0
 42
0.0000001
 43
0.0000001
 44
0.0000000001
 40
0.0
 40
0.0
 40
0.0
 40
0.0
 40
0.2636273647
 40
0.4178764038
 40
0.5741876959
 40
0.7240052304
 40
0.8563237188
 40
0.9120390276
 40
0.957262702
 40
0.9883504454
 40
1.0
 40
1.0
 40
1.0
 40
1.0
 10
357.5758310478
 20
1155.4063121661
 30
0.0
 10
357.5758308929
 20
1155.3430181514
 30
0.0
 10
357.5062847126
 20
1155.2530925702
 30
0.0
 10
357.4099172751
 20
1155.1588386637
 30
0.0
 10
357.3251321049
 20
1155.0867735915
 30
0.0
 10
357.2432021266
 20
1155.0209572403
 30
0.0
 10
357.1780722011
 20
1154.9724706977
 30
0.0
 10
357.1323406349
 20
1154.9402175658
 30
0.0
 10
357.1050412304
 20
1154.9238063256
 30
0.0
 10
357.0882870741
 20
1154.9113362027
 30
0.0
 10
357.0775679849
 20
1154.908504394
 30
0.0
 10
357.0758310444
 20
1154.9063121689
 30
0.0
  0
SPLINE
  5
426
100
AcDbEntity
  8
0
100
AcDbSpline
 62
7
  6
BYLAYER
 70
0
 71
3
 72
16
 73
12
 74
0
 42
0.0000001
 43
0.0000001
 44
0.0000000001
 40
0.0
 40
0.0
 40
0.0
 40
0.0
 40
0.0116495546
 40
0.042737298
 40
0.0879609725
 40
0.1436762813
 40
0.2759947698
 40
0.4258123044
 40
0.5821235967
 40
0.7363726357
 40
1.0
 40
1.0
 40
1.0
 40
1.0
 10
406.0758310287
 20
1154.9063121689
 30
0.0
 10
406.0740949802
 20
1154.9085051004
 30
0.0
 10
406.0633738624
 20
1154.9113353025
 30
0.0
 10
406.0466214578
 20
1154.9238068127
 30
0.0
 10
406.0193212053
 20
1154.9402173814
 30
0.0
 10
405.9735900469
 20
1154.9724708362
 30
0.0
 10
405.9084598759
 20
1155.0209571844
 30
0.0
 10
405.8265299894
 20
1155.0867736084
 30
0.0
 10
405.7417447929
 20
1155.1588386597
 30
0.0
 10
405.645377364
 20
1155.2530925728
 30
0.0
 10
405.5758311811
 20
1155.3430181515
 30
0.0
 10
405.5758310262
 20
1155.4063121661
 30
0.0
  0
SPLINE
  5
427
100
AcDbEntity
  8
0
100
AcDbSpline
 62
7
  6
BYLAYER
 70
0
 71
3
 72
11
 73
7
 74
0
 42
0.0000001
 43
0.0000001
 44
0.0000000001
 40
0.0
 40
0.0
 40
0.0
 40
0.0
 40
0.3404385698
 40
0.6266185405
 40
0.8401374976
 40
1.0
 40
1.0
 40
1.0
 40
1.0
 10
377.0758296129
 20
1156.4063121661
 30
0.0
 10
377.0758296125
 20
1156.5429131842
 30
0.0
 10
377.0509680986
 20
1156.7955609743
 30
0.0
 10
376.9432185284
 20
1157.1178243022
 30
0.0
 10
376.7887382634
 20
1157.3407290114
 30
0.0
 10
376.6399729424
 20
1157.4062976728
 30
0.0
 10
376.5758280953
 20
1157.4063121665
 30
0.0
  0
SPLINE
  5
428
100
AcDbEntity
  8
0
100
AcDbSpline
 62
7
  6
BYLAYER
 70
0
 71
3
 72
12
 73
8
 74
0
 42
0.0000001
 43
0.0000001
 44
0.0000000001
 40
0.0
 40
0.0
 40
0.0
 40
0.0
 40
0.1249608927
 40
0.2501492077
 40
0.4995019733
 40
0.7494104792
 40
1.0
 40
1.0
 40
1.0
 40
1.0
 10
397.5758310361
 20
1155.4063121661
 30
0.0
 10
397.5758312565
 20
1155.3233039668
 30
0.0
 10
397.6079776144
 20
1155.1560416989
 30
0.0
 10
397.7708666291
 20
1154.8628056543
 30
0.0
 10
398.0956474968
 20
1154.5842100647
 30
0.0
 10
398.5740339941
 20
1154.4132319533
 30
0.0
 10
398.9093710787
 20
1154.4063121248
 30
0.0
 10
399.0758310361
 20
1154.4063121661
 30
0.0
  0
SPLINE
  5
429
100
AcDbEntity
  8
0
100
AcDbSpline
 62
7
  6
BYLAYER
 70
0
 71
3
 72
11
 73
7
 74
0
 42
0.0000001
 43
0.0000001
 44
0.0000000001
 40
0.0
 40
0.0
 40
0.0
 40
0.0
 40
0.3404385698
 40
0.6266185405
 40
0.8401374976
 40
1.0
 40
1.0
 40
1.0
 40
1.0
 10
386.0765602703
 20
84.9062020276
 30
0.0
 10
386.0765602707
 20
84.7696010095
 30
0.0
 10
386.1014217847
 20
84.5169532194
 30
0.0
 10
386.2091713549
 20
84.1946898914
 30
0.0
 10
386.3636516199
 20
83.9717851822
 30
0.0
 10
386.5124169408
 20
83.9062165209
 30
0.0
 10
386.576561788
 20
83.9062020272
 30
0.0
  0
SPLINE
  5
42A
100
AcDbEntity
  8
0
100
AcDbSpline
 62
7
  6
BYLAYER
 70
0
 71
3
 72
11
 73
7
 74
0
 42
0.0000001
 43
0.0000001
 44
0.0000000001
 40
0.0
 40
0.0
 40
0.0
 40
0.0
 40
0.1598605678
 40
0.3733761936
 40
0.6595503807
 40
1.0
 40
1.0
 40
1.0
 40
1.0
 10
376.5765569052
 20
83.9062020273
 30
0.0
 10
376.6407009837
 20
83.9062151515
 30
0.0
 10
376.7894643947
 20
83.971784214
 30
0.0
 10
376.9439437155
 20
84.1946828783
 30
0.0
 10
377.0516963327
 20
84.5169465908
 30
0.0
 10
377.0765577702
 20
84.7695965605
 30
0.0
 10
377.0765584152
 20
84.9062020275
 30
0.0
  0
SPLINE
  5
42B
100
AcDbEntity
  8
0
100
AcDbSpline
 62
7
  6
BYLAYER
 70
0
 71
3
 72
16
 73
12
 74
0
 42
0.0000001
 43
0.0000001
 44
0.0000000001
 40
0.0
 40
0.0
 40
0.0
 40
0.0
 40
0.0116495546
 40
0.042737298
 40
0.0879609725
 40
0.1436762813
 40
0.2759947698
 40
0.4258123044
 40
0.5821235967
 40
0.7363726357
 40
1.0
 40
1.0
 40
1.0
 40
1.0
 10
357.0765588545
 20
86.4062020247
 30
0.0
 10
357.0782949208
 20
86.4040091072
 30
0.0
 10
357.0890159983
 20
86.4011788733
 30
0.0
 10
357.1057684376
 20
86.3887073906
 30
0.0
 10
357.1330686733
 20
86.3722968087
 30
0.0
 10
357.1787998399
 20
86.3400433602
 30
0.0
 10
357.2439300059
 20
86.2915570082
 30
0.0
 10
357.3258598943
 20
86.2257405856
 30
0.0
 10
357.4106450902
 20
86.1536755339
 30
0.0
 10
357.5070125193
 20
86.0594216209
 30
0.0
 10
357.5765587022
 20
85.9694960422
 30
0.0
 10
357.5765588571
 20
85.9062020276
 30
0.0
  0
SPLINE
  5
42C
100
AcDbEntity
  8
0
100
AcDbSpline
 62
7
  6
BYLAYER
 70
0
 71
3
 72
12
 73
8
 74
0
 42
0.0000001
 43
0.0000001
 44
0.0000000001
 40
0.0
 40
0.0
 40
0.0
 40
0.0
 40
0.1249608927
 40
0.2501492077
 40
0.4995019733
 40
0.7494104792
 40
1.0
 40
1.0
 40
1.0
 40
1.0
 10
365.5765588471
 20
85.9062020276
 30
0.0
 10
365.5765586268
 20
85.9892102268
 30
0.0
 10
365.5444122689
 20
86.1564724948
 30
0.0
 10
365.3815232542
 20
86.4497085394
 30
0.0
 10
365.0567423865
 20
86.728304129
 30
0.0
 10
364.5783558891
 20
86.8992822404
 30
0.0
 10
364.2430188046
 20
86.9062020689
 30
0.0
 10
364.0765588471
 20
86.9062020276
 30
0.0
  0
SPLINE
  5
42D
100
AcDbEntity
  8
0
100
AcDbSpline
 62
7
  6
BYLAYER
 70
0
 71
3
 72
12
 73
8
 74
0
 42
0.0000001
 43
0.0000001
 44
0.0000000001
 40
0.0
 40
0.0
 40
0.0
 40
0.0
 40
0.1249612752
 40
0.2501494132
 40
0.4995021241
 40
0.7494103699
 40
1.0
 40
1.0
 40
1.0
 40
1.0
 10
397.5765588471
 20
85.9062020276
 30
0.0
 10
397.5765590674
 20
85.9892104813
 30
0.0
 10
397.6087055507
 20
86.1564728939
 30
0.0
 10
397.7715948006
 20
86.4497089001
 30
0.0
 10
398.096375482
 20
86.7283041731
 30
0.0
 10
398.5747618216
 20
86.8992822639
 30
0.0
 10
398.9100988163
 20
86.906202069
 30
0.0
 10
399.0765588471
 20
86.9062020276
 30
0.0
  0
SPLINE
  5
42E
100
AcDbEntity
  8
0
100
AcDbSpline
 62
7
  6
BYLAYER
 70
0
 71
3
 72
16
 73
12
 74
0
 42
0.0000001
 43
0.0000001
 44
0.0000000001
 40
0.0
 40
0.0
 40
0.0
 40
0.0
 40
0.2636273647
 40
0.4178764038
 40
0.5741876959
 40
0.7240052304
 40
0.8563237188
 40
0.9120390276
 40
0.957262702
 40
0.9883504454
 40
1.0
 40
1.0
 40
1.0
 40
1.0
 10
405.5765588355
 20
85.9062020276
 30
0.0
 10
405.5765589904
 20
85.9694960423
 30
0.0
 10
405.6461051705
 20
86.0594216235
 30
0.0
 10
405.7424726084
 20
86.1536755298
 30
0.0
 10
405.8272577774
 20
86.2257406029
 30
0.0
 10
405.9091877598
 20
86.2915569509
 30
0.0
 10
405.9743176744
 20
86.3400435022
 30
0.0
 10
406.0200492587
 20
86.3722966197
 30
0.0
 10
406.0473486255
 20
86.3887078897
 30
0.0
 10
406.0641028596
 20
86.401177951
 30
0.0
 10
406.0748218587
 20
86.404009831
 30
0.0
 10
406.0765588389
 20
86.4062020247
 30
0.0
  0
SPLINE
  5
42F
100
AcDbEntity
  8
0
100
AcDbSpline
 62
7
  6
BYLAYER
 70
0
 71
3
 72
11
 73
7
 74
0
 42
0.0000001
 43
0.0000001
 44
0.0000000001
 40
0.0
 40
0.0
 40
0.0
 40
0.0
 40
0.3404385698
 40
0.6266185405
 40
0.8401374976
 40
1.0
 40
1.0
 40
1.0
 40
1.0
 10
533.7256911588
 20
84.9062020276
 30
0.0
 10
533.7256911592
 20
84.7696010095
 30
0.0
 10
533.7505526732
 20
84.5169532194
 30
0.0
 10
533.8583022434
 20
84.1946898914
 30
0.0
 10
534.0127825084
 20
83.9717851822
 30
0.0
 10
534.1615478293
 20
83.9062165209
 30
0.0
 10
534.2256926765
 20
83.9062020272
 30
0.0
  0
SPLINE
  5
430
100
AcDbEntity
  8
0
100
AcDbSpline
 62
7
  6
BYLAYER
 70
0
 71
3
 72
11
 73
7
 74
0
 42
0.0000001
 43
0.0000001
 44
0.0000000001
 40
0.0
 40
0.0
 40
0.0
 40
0.0
 40
0.1598605678
 40
0.3733761936
 40
0.6595503807
 40
1.0
 40
1.0
 40
1.0
 40
1.0
 10
524.2256877938
 20
83.9062020273
 30
0.0
 10
524.2898318722
 20
83.9062151515
 30
0.0
 10
524.4385952832
 20
83.971784214
 30
0.0
 10
524.5930746041
 20
84.1946828783
 30
0.0
 10
524.7008272212
 20
84.5169465908
 30
0.0
 10
524.7256886587
 20
84.7695965605
 30
0.0
 10
524.7256893037
 20
84.9062020275
 30
0.0
  0
SPLINE
  5
431
100
AcDbEntity
  8
0
100
AcDbSpline
 62
7
  6
BYLAYER
 70
0
 71
3
 72
16
 73
12
 74
0
 42
0.0000001
 43
0.0000001
 44
0.0000000001
 40
0.0
 40
0.0
 40
0.0
 40
0.0
 40
0.0116495546
 40
0.042737298
 40
0.0879609725
 40
0.1436762813
 40
0.2759947698
 40
0.4258123044
 40
0.5821235967
 40
0.7363726357
 40
1.0
 40
1.0
 40
1.0
 40
1.0
 10
504.7256897431
 20
86.4062020247
 30
0.0
 10
504.7274257919
 20
86.4040090935
 30
0.0
 10
504.738146909
 20
86.4011788908
 30
0.0
 10
504.7548993142
 20
86.3887073811
 30
0.0
 10
504.7821995664
 20
86.3722968122
 30
0.0
 10
504.827930725
 20
86.3400433575
 30
0.0
 10
504.8930608958
 20
86.2915570093
 30
0.0
 10
504.9749907824
 20
86.2257405853
 30
0.0
 10
505.0597759788
 20
86.153675534
 30
0.0
 10
505.1561434078
 20
86.0594216209
 30
0.0
 10
505.2256895907
 20
85.9694960422
 30
0.0
 10
505.2256897456
 20
85.9062020276
 30
0.0
  0
SPLINE
  5
432
100
AcDbEntity
  8
0
100
AcDbSpline
 62
7
  6
BYLAYER
 70
0
 71
3
 72
12
 73
8
 74
0
 42
0.0000001
 43
0.0000001
 44
0.0000000001
 40
0.0
 40
0.0
 40
0.0
 40
0.0
 40
0.1249608927
 40
0.2501492077
 40
0.4995019733
 40
0.7494104792
 40
1.0
 40
1.0
 40
1.0
 40
1.0
 10
513.2256897357
 20
85.9062020276
 30
0.0
 10
513.2256895153
 20
85.9892102268
 30
0.0
 10
513.1935431574
 20
86.1564724948
 30
0.0
 10
513.0306541427
 20
86.4497085394
 30
0.0
 10
512.705873275
 20
86.728304129
 30
0.0
 10
512.2274867776
 20
86.8992822404
 30
0.0
 10
511.8921496931
 20
86.9062020689
 30
0.0
 10
511.7256897357
 20
86.9062020276
 30
0.0
  0
SPLINE
  5
433
100
AcDbEntity
  8
0
100
AcDbSpline
 62
7
  6
BYLAYER
 70
0
 71
3
 72
12
 73
8
 74
0
 42
0.0000001
 43
0.0000001
 44
0.0000000001
 40
0.0
 40
0.0
 40
0.0
 40
0.0
 40
0.1249612752
 40
0.2501494132
 40
0.4995021241
 40
0.7494103699
 40
1.0
 40
1.0
 40
1.0
 40
1.0
 10
545.2256897357
 20
85.9062020276
 30
0.0
 10
545.2256899559
 20
85.9892104813
 30
0.0
 10
545.2578364392
 20
86.1564728939
 30
0.0
 10
545.4207256892
 20
86.4497089001
 30
0.0
 10
545.7455063706
 20
86.7283041731
 30
0.0
 10
546.2238927101
 20
86.8992822639
 30
0.0
 10
546.5592297048
 20
86.906202069
 30
0.0
 10
546.7256897357
 20
86.9062020276
 30
0.0
  0
SPLINE
  5
434
100
AcDbEntity
  8
0
100
AcDbSpline
 62
7
  6
BYLAYER
 70
0
 71
3
 72
16
 73
12
 74
0
 42
0.0000001
 43
0.0000001
 44
0.0000000001
 40
0.0
 40
0.0
 40
0.0
 40
0.0
 40
0.2636273647
 40
0.4178764038
 40
0.5741876959
 40
0.7240052304
 40
0.8563237188
 40
0.9120390276
 40
0.957262702
 40
0.9883504454
 40
1.0
 40
1.0
 40
1.0
 40
1.0
 10
553.225689724
 20
85.9062020276
 30
0.0
 10
553.2256898789
 20
85.9694960423
 30
0.0
 10
553.2952360591
 20
86.0594216235
 30
0.0
 10
553.3916034969
 20
86.1536755298
 30
0.0
 10
553.4763886659
 20
86.2257406029
 30
0.0
 10
553.5583186483
 20
86.291556951
 30
0.0
 10
553.623448563
 20
86.3400435021
 30
0.0
 10
553.6691801471
 20
86.3722966198
 30
0.0
 10
553.6964795143
 20
86.3887078895
 30
0.0
 10
553.7132337477
 20
86.4011779513
 30
0.0
 10
553.7239527476
 20
86.4040098308
 30
0.0
 10
553.7256897274
 20
86.4062020247
 30
0.0
  0
ENDSEC
  0
SECTION
  2
OBJECTS
  0
DICTIONARY
  5
C
100
AcDbDictionary
280
0
281
1
  3
ACAD_GROUP
350
D
  3
ACAD_MLINESTYLE
350
17
  3
ACAD_LAYOUT
350
1A
  3
ACAD_PLOTSETTINGS
350
19
  3
ACAD_PLOTSTYLENAME
350
E
  0
DICTIONARY
  5
D
102
{ACAD_REACTORS
330
C
102
}
100
AcDbDictionary
280
0
281
1
  0
ACDBDICTIONARYWDFLT
  5
E
102
{ACAD_REACTORS
330
C
102
}
100
AcDbDictionary
281
1
  3
Normal
350
F
100
AcDbDictionaryWithDefault
340
F
  0
DICTIONARY
  5
17
102
{ACAD_REACTORS
330
C
102
}
100
AcDbDictionary
280
0
281
1
  3
Standard
350
18
  0
DICTIONARY
  5
19
102
{ACAD_REACTORS
330
C
102
}
100
AcDbDictionary
281
1
  0
DICTIONARY
  5
1A
102
{ACAD_REACTORS
330
C
102
}
100
AcDbDictionary
281
1
  3
Model
350
435
  3
Layout1
350
436
  0
ACDBPLACEHOLDER
  5
F
102
{ACAD_REACTORS
330
E
102
}
  0
MLINESTYLE
  5
18
102
{ACAD_REACTORS
330
17
102
}
100
AcDbMlineStyle
  2
STANDARD
 70
0
  3

 62
256
 51
90.0
 52
90.0
 71
2
 49
0.5
 62
256
  6
BYLAYER
 49
-0.5
 62
256
  6
BYLAYER
  0
LAYOUT
  5
435
102
{ACAD_REACTORS
330
1A
102
}
100
AcDbPlotSettings
  1

  2
none_device
  4

  6

 40
0.0
 41
0.0
 42
0.0
 43
0.0
 44
210.0
 45
297.0
 46
0.0
 47
0.0
 48
0.0
 49
0.0
140
0.0
141
0.0
142
1.0
143
1.0
 70
1024
 72
1
 73
0
 74
0
  7

 75
0
147
1.0
148
0.0
149
0.0
100
AcDbLayout
  1
Model
 70
0
 71
0
 10
0.0
 20
0.0
 11
210.0
 21
297.0
 12
0.0
 22
0.0
 32
0.0
 14
0.0
 24
0.0
 34
0.0
 15
0.0
 25
0.0
 35
0.0
146
0.0
 13
0.0
 23
0.0
 33
0.0
 16
1.0
 26
0.0
 36
0.0
 17
0.0
 27
1.0
 37
0.0
 76
0
330
212
345
0
346
0
  0
LAYOUT
  5
436
102
{ACAD_REACTORS
330
1A
102
}
100
AcDbPlotSettings
  1

  2
none_device
  4

  6

 40
0.0
 41
0.0
 42
0.0
 43
0.0
 44
210.0
 45
297.0
 46
0.0
 47
0.0
 48
0.0
 49
0.0
140
0.0
141
0.0
142
1.0
143
1.0
 70
0
 72
1
 73
0
 74
0
  7

 75
0
147
1.0
148
0.0
149
0.0
100
AcDbLayout
  1
Layout1
 70
0
 71
1
 10
0.0
 20
0.0
 11
210.0
 21
297.0
 12
0.0
 22
0.0
 32
0.0
 14
0.0
 24
0.0
 34
0.0
 15
0.0
 25
0.0
 35
0.0
146
0.0
 13
0.0
 23
0.0
 33
0.0
 16
1.0
 26
0.0
 36
0.0
 17
0.0
 27
1.0
 37
0.0
 76
0
330
213
345
0
346
0
  0
ENDSEC
  0
EOF
