999
DXF file: C:\Users\sesa63760\Dev\_Creo\CAD\MCADID0000559_3D-CAD\drw0001_7.dxf
999
Pro/ENGINEER 2019471 by Parametric Technology Corporation
  0
SECTION
  2
HEADER
  9
$ACADVER
  1
AC1024
  9
$DWGCODEPAGE
  3
ANSI_1252
  9
$EXTMAX
 10
289.8448009939
 20
409.9233614057
 30
0.0
  9
$EXTMIN
 10
0.0
 20
0.0
 30
0.0
  9
$LIMMIN
 10
0.0
 20
0.0
  9
$LIMMAX
 10
289.8448009939
 20
409.9233614057
  9
$VIEWCTR
 10
144.922400497
 20
204.9616807029
  9
$VIEWSIZE
 40
409.9233614057
  9
$CLAYER
  8
0
  9
$LTSCALE
 40
26.720930225
  9
$CELTYPE
  6
BYLAYER
  9
$DIMSCALE
 40
1.0
  9
$DIMASZ
 40
3.4505333452
  9
$DIMEXO
 40
1.0
  9
$DIMDLI
 40
18.46173361
  9
$DIMEXE
 40
1.0
  9
$DIMCEN
 40
4.372515855
  9
$DIMLFAC
 40
1.0
  9
$DIMBLK
  1
_FILLED
  9
$DIMALT
 70
0
  9
$DIMALTF
 40
0.0393700787
  9
$DIMTXT
 40
4.8307466832
  9
$DIMTOL
 70
1
  9
$DIMLIM
 70
0
  9
$DIMTFAC
 40
1.0
  9
$DIMTP
 40
0.01
  9
$DIMTM
 40
0.01
  9
$DIMGAP
 40
0.625
  9
$DIMDSEP
 70
46
  9
$AUNITS
 70
0
  9
$PDMODE
 70
3
  9
$PDSIZE
 40
0.3125
  9
$HANDSEED
  5
2BF
  9
$TILEMODE
 70
1
  9
$MEASUREMENT
 70
1
  9
$INSUNITS
 70
4
  0
ENDSEC
  0
SECTION
  2
CLASSES
  0
CLASS
  1
ACDBDICTIONARYWDFLT
  2
AcDbDictionaryWithDefault
  3
AutoCAD 2000
 90
0
 91
1
280
0
281
0
  0
CLASS
  1
ACDBPLACEHOLDER
  2
AcDbPlaceHolder
  3
AutoCAD 2000
 90
0
 91
1
280
0
281
0
  0
CLASS
  1
LAYOUT
  2
AcDbLayout
  3
AutoCAD 2000
 90
0
 91
0
280
0
281
0
  0
ENDSEC
  0
SECTION
  2
TABLES
  0
TABLE
  2
VPORT
  5
8
100
AcDbSymbolTable
 70
2
  0
VPORT
  5
1F4
100
AcDbSymbolTableRecord
100
AcDbViewportTableRecord
  2
*ACTIVE
 70
0
 10
0.0
 20
0.0
 11
1.0
 21
1.0
 12
144.922400497
 22
204.9616807029
 13
0.0
 23
0.0
 14
1.0
 24
1.0
 15
0.0
 25
0.0
 16
0.0
 26
0.0
 36
1.0
 17
0.0
 27
0.0
 37
0.0
 40
409.9233614057
 41
0.7070707071
 42
50.0
 43
0.0
 44
0.0
 50
0.0
 51
0.0
 71
0
 72
100
 73
1
 74
1
 75
0
 76
0
 77
0
 78
0
  0
ENDTAB
  0
TABLE
  2
LTYPE
  5
5
100
AcDbSymbolTable
 70
6
  0
LTYPE
  5
14
100
AcDbSymbolTableRecord
100
AcDbLinetypeTableRecord
  2
BYBLOCK
 70
0
  3

 72
65
 73
0
 40
0.0
  0
LTYPE
  5
15
100
AcDbSymbolTableRecord
100
AcDbLinetypeTableRecord
  2
BYLAYER
 70
0
  3

 72
65
 73
0
 40
0.0
  0
LTYPE
  5
16
100
AcDbSymbolTableRecord
100
AcDbLinetypeTableRecord
  2
CONTINUOUS
 70
64
  3
Solid line
 72
65
 73
0
 40
0.0
  0
LTYPE
  5
1F5
100
AcDbSymbolTableRecord
100
AcDbLinetypeTableRecord
  2
CENTER
 70
64
  3
____ _ ____ _ ____ _ ____ _ ____ _ ____ _ ____
 72
65
 73
4
 40
0.6
 49
0.375
 74
0
 49
-0.075
 74
0
 49
0.075
 74
0
 49
-0.075
 74
0
  0
LTYPE
  5
1F6
100
AcDbSymbolTableRecord
100
AcDbLinetypeTableRecord
  2
HIDDEN
 70
64
  3
- - - - - - - - - - - - - - - - - - - -
 72
65
 73
2
 40
0.2
 49
0.1
 74
0
 49
-0.1
 74
0
  0
LTYPE
  5
1F7
100
AcDbSymbolTableRecord
100
AcDbLinetypeTableRecord
  2
PHANTOM
 70
64
  3
_____ _ _ _____ _ _ _____ _ _ _____
 72
65
 73
6
 40
0.8
 49
0.45
 74
0
 49
-0.05
 74
0
 49
0.1
 74
0
 49
-0.05
 74
0
 49
0.1
 74
0
 49
-0.05
 74
0
  0
LTYPE
  5
1F8
100
AcDbSymbolTableRecord
100
AcDbLinetypeTableRecord
  2
DOT
 70
64
  3
. . . . . . . . . . . . . . . . . . . .
 72
65
 73
2
 40
0.2
 49
0.1
 74
0
 49
-0.1
 74
0
  0
LTYPE
  5
1F9
100
AcDbSymbolTableRecord
100
AcDbLinetypeTableRecord
  2
DASHED
 70
64
  3
- - - - - - - - - - - - - - - - - - - -
 72
65
 73
2
 40
0.2
 49
0.1
 74
0
 49
-0.1
 74
0
  0
ENDTAB
  0
TABLE
  2
LAYER
  5
2
100
AcDbSymbolTable
 70
36
  0
LAYER
  5
10
100
AcDbSymbolTableRecord
100
AcDbLayerTableRecord
  2
0
 70
0
 62
7
  6
CONTINUOUS
370
-3
390
F
  0
LAYER
  5
1FA
100
AcDbSymbolTableRecord
100
AcDbLayerTableRecord
  2
DEFAULT_1
 70
0
 62
7
  6
CENTER
370
-3
390
F
  0
LAYER
  5
1FB
100
AcDbSymbolTableRecord
100
AcDbLayerTableRecord
  2
DEFAULT_2
 70
0
 62
8
  6
HIDDEN
370
-3
390
F
  0
LAYER
  5
1FC
100
AcDbSymbolTableRecord
100
AcDbLayerTableRecord
  2
DEFAULT_3
 70
0
 62
7
  6
PHANTOM
370
-3
390
F
  0
LAYER
  5
1FD
100
AcDbSymbolTableRecord
100
AcDbLayerTableRecord
  2
00_COMPONENTS
 70
0
 62
7
  6
CONTINUOUS
370
-3
390
F
  0
LAYER
  5
1FE
100
AcDbSymbolTableRecord
100
AcDbLayerTableRecord
  2
01_1_DEFAULT_DATUMS
 70
0
 62
7
  6
CONTINUOUS
370
-3
390
F
  0
LAYER
  5
1FF
100
AcDbSymbolTableRecord
100
AcDbLayerTableRecord
  2
01_PLANES
 70
0
 62
7
  6
CONTINUOUS
370
-3
390
F
  0
LAYER
  5
200
100
AcDbSymbolTableRecord
100
AcDbLayerTableRecord
  2
02_COORD_SYS
 70
0
 62
7
  6
CONTINUOUS
370
-3
390
F
  0
LAYER
  5
201
100
AcDbSymbolTableRecord
100
AcDbLayerTableRecord
  2
03_AXES
 70
0
 62
7
  6
CONTINUOUS
370
-3
390
F
  0
LAYER
  5
202
100
AcDbSymbolTableRecord
100
AcDbLayerTableRecord
  2
04_POINTS
 70
0
 62
7
  6
CONTINUOUS
370
-3
390
F
  0
LAYER
  5
203
100
AcDbSymbolTableRecord
100
AcDbLayerTableRecord
  2
05_CURVES
 70
0
 62
7
  6
CONTINUOUS
370
-3
390
F
  0
LAYER
  5
204
100
AcDbSymbolTableRecord
100
AcDbLayerTableRecord
  2
06_SURFS
 70
0
 62
7
  6
CONTINUOUS
370
-3
390
F
  0
LAYER
  5
205
100
AcDbSymbolTableRecord
100
AcDbLayerTableRecord
  2
07_COSMETICS
 70
0
 62
7
  6
CONTINUOUS
370
-3
390
F
  0
LAYER
  5
206
100
AcDbSymbolTableRecord
100
AcDbLayerTableRecord
  2
10_NOTES
 70
0
 62
7
  6
CONTINUOUS
370
-3
390
F
  0
LAYER
  5
207
100
AcDbSymbolTableRecord
100
AcDbLayerTableRecord
  2
11_NOTES_PUB
 70
0
 62
7
  6
CONTINUOUS
370
-3
390
F
  0
LAYER
  5
208
100
AcDbSymbolTableRecord
100
AcDbLayerTableRecord
  2
13_REF_GTOL
 70
0
 62
7
  6
CONTINUOUS
370
-3
390
F
  0
LAYER
  5
209
100
AcDbSymbolTableRecord
100
AcDbLayerTableRecord
  2
16_MISC
 70
0
 62
7
  6
CONTINUOUS
370
-3
390
F
  0
LAYER
  5
20A
100
AcDbSymbolTableRecord
100
AcDbLayerTableRecord
  2
17_NO_PRINT
 70
0
 62
7
  6
CONTINUOUS
370
-3
390
F
  0
LAYER
  5
20B
100
AcDbSymbolTableRecord
100
AcDbLayerTableRecord
  2
18_DATUM_CAMS_JOINTS
 70
0
 62
7
  6
CONTINUOUS
370
-3
390
F
  0
LAYER
  5
20C
100
AcDbSymbolTableRecord
100
AcDbLayerTableRecord
  2
19_DATUM_FUNCTIONAL
 70
0
 62
7
  6
CONTINUOUS
370
-3
390
F
  0
LAYER
  5
20D
100
AcDbSymbolTableRecord
100
AcDbLayerTableRecord
  2
20_DATUM_KINEMATIC_SCHEME
 70
0
 62
7
  6
CONTINUOUS
370
-3
390
F
  0
ENDTAB
  0
TABLE
  2
STYLE
  5
3
100
AcDbSymbolTable
 70
1
  0
STYLE
  5
11
100
AcDbSymbolTableRecord
100
AcDbTextStyleTableRecord
  2
STANDARD
 70
0
 40
0.0
 41
0.8
 50
0.0
 71
0
 42
0.2
  3
txt
  4

  0
STYLE
  5
20E
100
AcDbSymbolTableRecord
100
AcDbTextStyleTableRecord
  2
TEXTSTYLE_1
 70
0
 40
0.0
 41
0.8
 50
0.0
 71
0
 42
0.2
  3
gdt
  4

  0
ENDTAB
  0
TABLE
  2
VIEW
  5
6
100
AcDbSymbolTable
 70
0
  0
ENDTAB
  0
TABLE
  2
UCS
  5
7
100
AcDbSymbolTable
 70
0
  0
ENDTAB
  0
TABLE
  2
APPID
  5
9
100
AcDbSymbolTable
 70
1
  0
APPID
  5
20F
100
AcDbSymbolTableRecord
100
AcDbRegAppTableRecord
  2
ACAD
 70
0
  0
ENDTAB
  0
TABLE
  2
BLOCK_RECORD
  5
1
100
AcDbSymbolTable
 70
0
  0
BLOCK_RECORD
  5
210
100
AcDbSymbolTableRecord
100
AcDbBlockTableRecord
  2
*Model_Space
  0
BLOCK_RECORD
  5
211
100
AcDbSymbolTableRecord
100
AcDbBlockTableRecord
  2
*Paper_Space
  0
BLOCK_RECORD
  5
212
100
AcDbSymbolTableRecord
100
AcDbBlockTableRecord
  2
_FILLED
  0
ENDTAB
  0
TABLE
  2
DIMSTYLE
  5
A
100
AcDbSymbolTable
 70
1
100
AcDbDimStyleTable
 71
0
  0
DIMSTYLE
105
213
100
AcDbSymbolTableRecord
100
AcDbDimStyleTableRecord
  2
STANDARD
 70
0
  3

  4

 40
1.0
 41
3.4505333452
 42
1.0
 43
0.38
 44
1.0
 45
0.0
 46
0.0
 47
0.01
 48
0.01
140
4.8307466832
141
0.09
142
0.0
143
25.4
144
1.0
145
0.0
146
1.0
147
0.625
 71
1
 72
0
 73
0
 74
0
 75
0
 76
0
 77
1
 78
8
 79
2
170
0
171
1
172
0
173
0
174
0
175
0
176
0
177
0
178
0
270
2
179
2
271
2
272
2
273
2
274
2
275
0
280
0
281
0
282
0
283
1
284
8
285
0
286
0
287
3
288
0
340
11
278
46
341
212
342
212
343
212
344
212
  0
ENDTAB
  0
ENDSEC
  0
SECTION
  2
BLOCKS
  0
BLOCK
  5
20
100
AcDbEntity
  8
0
100
AcDbBlockBegin
  2
*Model_Space
 70
0
 10
0.0
 20
0.0
 30
0.0
  3
*Model_Space
  1

  0
ENDBLK
  5
21
100
AcDbEntity
  8
0
100
AcDbBlockEnd
  0
BLOCK
  5
1C
100
AcDbEntity
  8
0
100
AcDbBlockBegin
  2
*Paper_Space
 70
0
 10
0.0
 20
0.0
 30
0.0
  3
*Paper_Space
  1

  0
ENDBLK
  5
1D
100
AcDbEntity
  8
0
100
AcDbBlockEnd
  0
BLOCK
  5
214
100
AcDbEntity
  8
0
100
AcDbBlockBegin
  2
_FILLED
 70
64
 10
0.0
 20
0.0
  3
_FILLED
  1

  0
SOLID
  5
215
100
AcDbEntity
  8
0
  6
BYBLOCK
 62
0
100
AcDbTrace
 10
0.0
 20
0.0
 11
-1.0
 21
0.25
 12
-1.0
 22
-0.25
 13
-1.0
 23
-0.25
  0
ENDBLK
  5
216
100
AcDbEntity
  8
0
  6
BYBLOCK
 62
0
100
AcDbBlockEnd
  0
ENDSEC
  0
SECTION
  2
ENTITIES
  0
LINE
  5
217
100
AcDbEntity
  8
0
100
AcDbLine
 62
7
  6
CONTINUOUS
 10
30.7722309041
 20
180.1151650637
 11
30.7722309041
 21
237.3151650637
  0
LINE
  5
218
100
AcDbEntity
  8
0
100
AcDbLine
 62
7
  6
CONTINUOUS
 10
33.8843901291
 20
180.1151650637
 11
33.8843901291
 21
237.3151650637
  0
LINE
  5
219
100
AcDbEntity
  8
0
100
AcDbLine
 62
7
  6
CONTINUOUS
 10
34.5722309041
 20
180.1151650637
 11
34.5722309041
 21
237.3151650637
  0
LINE
  5
21A
100
AcDbEntity
  8
0
100
AcDbLine
 62
7
  6
CONTINUOUS
 10
35.522537546
 20
180.1151650637
 11
35.522537546
 21
237.3151650637
  0
LINE
  5
21B
100
AcDbEntity
  8
0
100
AcDbLine
 62
7
  6
CONTINUOUS
 10
38.2722309041
 20
180.1151650637
 11
38.2722309041
 21
183.6151650637
  0
LINE
  5
21C
100
AcDbEntity
  8
0
100
AcDbLine
 62
7
  6
CONTINUOUS
 10
38.2722309041
 20
233.8151650637
 11
38.2722309041
 21
237.3151650637
  0
LINE
  5
21D
100
AcDbEntity
  8
0
100
AcDbLine
 62
7
  6
CONTINUOUS
 10
44.2722309041
 20
237.3151650637
 11
44.2722309041
 21
233.8151650637
  0
LINE
  5
21E
100
AcDbEntity
  8
0
100
AcDbLine
 62
7
  6
CONTINUOUS
 10
44.2722309041
 20
183.6151650637
 11
44.2722309041
 21
180.1151650637
  0
LINE
  5
21F
100
AcDbEntity
  8
0
100
AcDbLine
 62
7
  6
CONTINUOUS
 10
47.2222309041
 20
178.1151650637
 11
47.2222309041
 21
180.1151650637
  0
LINE
  5
220
100
AcDbEntity
  8
0
100
AcDbLine
 62
7
  6
CONTINUOUS
 10
48.1574517418
 20
228.9900822813
 11
43.7985527982
 21
221.4402478461
  0
LINE
  5
221
100
AcDbEntity
  8
0
100
AcDbLine
 62
7
  6
CONTINUOUS
 10
53.5222309041
 20
178.1151650637
 11
53.5222309041
 21
176.6151650637
  0
LINE
  5
222
100
AcDbEntity
  8
0
100
AcDbLine
 62
7
  6
CONTINUOUS
 10
54.0222309041
 20
176.6151650637
 11
54.0222309041
 21
174.6151650637
  0
LINE
  5
223
100
AcDbEntity
  8
0
100
AcDbLine
 62
7
  6
CONTINUOUS
 10
43.7985527982
 20
195.9900822813
 11
48.1574517418
 21
188.4402478461
  0
LINE
  5
224
100
AcDbEntity
  8
0
100
AcDbLine
 62
7
  6
CONTINUOUS
 10
61.0222309041
 20
174.6151650637
 11
61.0222309041
 21
176.6151650637
  0
LINE
  5
225
100
AcDbEntity
  8
0
100
AcDbLine
 62
7
  6
CONTINUOUS
 10
61.5222309041
 20
176.6151650637
 11
61.5222309041
 21
178.1151650637
  0
LINE
  5
226
100
AcDbEntity
  8
0
100
AcDbLine
 62
7
  6
CONTINUOUS
 10
66.0222309041
 20
178.1151650637
 11
66.0222309041
 21
176.0329855186
  0
LINE
  5
227
100
AcDbEntity
  8
0
100
AcDbLine
 62
7
  6
CONTINUOUS
 10
48.1574517418
 20
204.9900822813
 11
43.7985527982
 21
197.4402478461
  0
LINE
  5
228
100
AcDbEntity
  8
0
100
AcDbLine
 62
7
  6
CONTINUOUS
 10
51.5222656528
 20
227.8697200022
 11
46.6176759656
 21
222.965130315
  0
LINE
  5
229
100
AcDbEntity
  8
0
100
AcDbLine
 62
7
  6
CONTINUOUS
 10
43.7985527982
 20
219.9900822813
 11
48.1574517418
 21
212.4402478461
  0
LINE
  5
22A
100
AcDbEntity
  8
0
100
AcDbLine
 62
7
  6
CONTINUOUS
 10
66.2722309041
 20
174.6151650637
 11
66.0222309041
 21
176.0329855186
  0
LINE
  5
22B
100
AcDbEntity
  8
0
100
AcDbLine
 62
7
  6
CONTINUOUS
 10
70.2722309041
 20
193.1151650637
 11
70.2722309041
 21
209.1151650637
  0
LINE
  5
22C
100
AcDbEntity
  8
0
100
AcDbLine
 62
7
  6
CONTINUOUS
 10
70.7722309041
 20
203.1151536023
 11
70.7722309041
 21
199.1151765251
  0
LINE
  5
22D
100
AcDbEntity
  8
0
100
AcDbLine
 62
7
  6
CONTINUOUS
 10
72.7722309041
 20
207.6151650637
 11
72.7722309041
 21
194.6151650637
  0
LINE
  5
22E
100
AcDbEntity
  8
0
100
AcDbLine
 62
7
  6
CONTINUOUS
 10
59.3870100664
 20
212.4402478461
 11
63.7459090099
 21
219.9900822813
  0
LINE
  5
22F
100
AcDbEntity
  8
0
100
AcDbLine
 62
7
  6
CONTINUOUS
 10
63.7459090099
 20
197.4402478461
 11
59.3870100664
 21
204.9900822813
  0
LINE
  5
230
100
AcDbEntity
  8
0
100
AcDbLine
 62
7
  6
CONTINUOUS
 10
76.0222309041
 20
178.1151650637
 11
76.0222309041
 21
176.0329855186
  0
LINE
  5
231
100
AcDbEntity
  8
0
100
AcDbLine
 62
7
  6
CONTINUOUS
 10
79.5222309041
 20
178.1151650637
 11
79.5222309041
 21
176.0329855186
  0
LINE
  5
232
100
AcDbEntity
  8
0
100
AcDbLine
 62
7
  6
CONTINUOUS
 10
76.0222309041
 20
176.0329855186
 11
75.7722309041
 21
174.6151650637
  0
LINE
  5
233
100
AcDbEntity
  8
0
100
AcDbLine
 62
7
  6
CONTINUOUS
 10
59.3870100664
 20
188.4402478461
 11
63.7459090099
 21
195.9900822813
  0
LINE
  5
234
100
AcDbEntity
  8
0
100
AcDbLine
 62
7
  6
CONTINUOUS
 10
56.0221961554
 20
213.5606101252
 11
60.9267858426
 21
218.4651998124
  0
LINE
  5
235
100
AcDbEntity
  8
0
100
AcDbLine
 62
7
  6
CONTINUOUS
 10
63.7459090099
 20
221.4402478461
 11
59.3870100664
 21
228.9900822813
  0
LINE
  5
236
100
AcDbEntity
  8
0
100
AcDbLine
 62
7
  6
CONTINUOUS
 10
79.7722309041
 20
174.6151650637
 11
79.5222309041
 21
176.0329855186
  0
LINE
  5
237
100
AcDbEntity
  8
0
100
AcDbLine
 62
7
  6
CONTINUOUS
 10
89.5222309041
 20
178.1151650637
 11
89.5222309041
 21
176.0329855186
  0
LINE
  5
238
100
AcDbEntity
  8
0
100
AcDbLine
 62
7
  6
CONTINUOUS
 10
89.7722309041
 20
194.6151650637
 11
89.7722309041
 21
207.6151650637
  0
LINE
  5
239
100
AcDbEntity
  8
0
100
AcDbLine
 62
7
  6
CONTINUOUS
 10
70.2722309041
 20
193.1151650637
 11
78.7028878384
 21
186.049471633
  0
LINE
  5
23A
100
AcDbEntity
  8
0
100
AcDbLine
 62
7
  6
CONTINUOUS
 10
72.7722309041
 20
194.6151650637
 11
74.2722309041
 21
193.1151650637
  0
LINE
  5
23B
100
AcDbEntity
  8
0
100
AcDbLine
 62
7
  6
CONTINUOUS
 10
91.7722309041
 20
199.1151765251
 11
91.7722309041
 21
203.1151536023
  0
LINE
  5
23C
100
AcDbEntity
  8
0
100
AcDbLine
 62
7
  6
CONTINUOUS
 10
92.2722309041
 20
193.1151650637
 11
92.2722309041
 21
209.1151650637
  0
LINE
  5
23D
100
AcDbEntity
  8
0
100
AcDbLine
 62
7
  6
CONTINUOUS
 10
94.8222309041
 20
178.1151650637
 11
94.8222309041
 21
180.1151650637
  0
LINE
  5
23E
100
AcDbEntity
  8
0
100
AcDbLine
 62
7
  6
CONTINUOUS
 10
97.2722309041
 20
180.1151650637
 11
97.2722309041
 21
183.6151650637
  0
LINE
  5
23F
100
AcDbEntity
  8
0
100
AcDbLine
 62
7
  6
CONTINUOUS
 10
97.2722309041
 20
233.8151650637
 11
97.2722309041
 21
237.3151650637
  0
LINE
  5
240
100
AcDbEntity
  8
0
100
AcDbLine
 62
7
  6
CONTINUOUS
 10
89.5222309041
 20
176.0329855186
 11
89.2722309041
 21
174.6151650637
  0
LINE
  5
241
100
AcDbEntity
  8
0
100
AcDbLine
 62
7
  6
CONTINUOUS
 10
74.2722309041
 20
209.1151650637
 11
72.7722309041
 21
207.6151650637
  0
LINE
  5
242
100
AcDbEntity
  8
0
100
AcDbLine
 62
7
  6
CONTINUOUS
 10
78.7028878384
 20
216.1808584944
 11
70.2722309041
 21
209.1151650637
  0
LINE
  5
243
100
AcDbEntity
  8
0
100
AcDbLine
 62
7
  6
CONTINUOUS
 10
103.7722309041
 20
183.1151650637
 11
103.7722309041
 21
234.3151650637
  0
LINE
  5
244
100
AcDbEntity
  8
0
100
AcDbLine
 62
7
  6
CONTINUOUS
 10
105.7722309041
 20
232.5151650637
 11
105.7722309041
 21
184.9151650637
  0
LINE
  5
245
100
AcDbEntity
  8
0
100
AcDbLine
 62
7
  6
CONTINUOUS
 10
107.2722309041
 20
199.2151650637
 11
107.2722309041
 21
191.2151650637
  0
LINE
  5
246
100
AcDbEntity
  8
0
100
AcDbLine
 62
7
  6
CONTINUOUS
 10
109.2722309041
 20
226.9651650637
 11
109.2722309041
 21
217.4651650637
  0
LINE
  5
247
100
AcDbEntity
  8
0
100
AcDbLine
 62
7
  6
CONTINUOUS
 10
109.2722309041
 20
213.4651650637
 11
109.2722309041
 21
203.9651650637
  0
LINE
  5
248
100
AcDbEntity
  8
0
100
AcDbLine
 62
7
  6
CONTINUOUS
 10
109.2722309041
 20
198.7151650637
 11
109.2722309041
 21
191.7151650637
  0
LINE
  5
249
100
AcDbEntity
  8
0
100
AcDbLine
 62
7
  6
CONTINUOUS
 10
88.2722309041
 20
193.1151650637
 11
89.7722309041
 21
194.6151650637
  0
LINE
  5
24A
100
AcDbEntity
  8
0
100
AcDbLine
 62
7
  6
CONTINUOUS
 10
89.2722309041
 20
174.6151650637
 11
79.7722309041
 21
174.6151650637
  0
LINE
  5
24B
100
AcDbEntity
  8
0
100
AcDbLine
 62
7
  6
CONTINUOUS
 10
75.7722309041
 20
174.6151650637
 11
66.2722309041
 21
174.6151650637
  0
LINE
  5
24C
100
AcDbEntity
  8
0
100
AcDbLine
 62
7
  6
CONTINUOUS
 10
61.0222309041
 20
174.6151650637
 11
54.0222309041
 21
174.6151650637
  0
LINE
  5
24D
100
AcDbEntity
  8
0
100
AcDbLine
 62
7
  6
CONTINUOUS
 10
92.2722309041
 20
209.1151650637
 11
83.8415739698
 21
216.1808584944
  0
LINE
  5
24E
100
AcDbEntity
  8
0
100
AcDbLine
 62
7
  6
CONTINUOUS
 10
89.7722309041
 20
207.6151650637
 11
88.2722309041
 21
209.1151650637
  0
LINE
  5
24F
100
AcDbEntity
  8
0
100
AcDbLine
 62
7
  6
CONTINUOUS
 10
117.7722309041
 20
237.3151650637
 11
117.7722309041
 21
180.1151650637
  0
LINE
  5
250
100
AcDbEntity
  8
0
100
AcDbLine
 62
7
  6
CONTINUOUS
 10
83.8415739698
 20
186.049471633
 11
92.2722309041
 21
193.1151650637
  0
LINE
  5
251
100
AcDbEntity
  8
0
100
AcDbLine
 62
7
  6
CONTINUOUS
 10
61.5222309041
 20
176.6151650637
 11
53.5222309041
 21
176.6151650637
  0
LINE
  5
252
100
AcDbEntity
  8
0
100
AcDbLine
 62
7
  6
CONTINUOUS
 10
94.8222309041
 20
178.1151650637
 11
47.2222309041
 21
178.1151650637
  0
LINE
  5
253
100
AcDbEntity
  8
0
100
AcDbLine
 62
7
  6
CONTINUOUS
 10
30.7722372848
 20
180.1151650637
 11
117.7722309041
 21
180.1151650637
  0
LINE
  5
254
100
AcDbEntity
  8
0
100
AcDbLine
 62
7
  6
CONTINUOUS
 10
123.2722309041
 20
180.1151650637
 11
240.0722309041
 21
180.1151650637
  0
LINE
  5
255
100
AcDbEntity
  8
0
100
AcDbLine
 62
7
  6
CONTINUOUS
 10
123.2722309041
 20
180.3151650637
 11
117.7722309041
 21
180.3151650637
  0
LINE
  5
256
100
AcDbEntity
  8
0
100
AcDbLine
 62
7
  6
CONTINUOUS
 10
117.7722309041
 20
183.1151650637
 11
103.7722309041
 21
183.1151650637
  0
LINE
  5
257
100
AcDbEntity
  8
0
100
AcDbLine
 62
7
  6
CONTINUOUS
 10
123.2722309041
 20
183.1151650637
 11
174.1720433638
 21
183.1151650637
  0
LINE
  5
258
100
AcDbEntity
  8
0
100
AcDbLine
 62
7
  6
CONTINUOUS
 10
123.2722309041
 20
180.1151650637
 11
123.2722309041
 21
237.3151650637
  0
LINE
  5
259
100
AcDbEntity
  8
0
100
AcDbLine
 62
7
  6
CONTINUOUS
 10
123.2722309041
 20
183.3151650637
 11
117.7722309041
 21
183.3151650637
  0
LINE
  5
25A
100
AcDbEntity
  8
0
100
AcDbLine
 62
7
  6
CONTINUOUS
 10
240.0722309041
 20
183.7151650637
 11
241.6722309041
 21
183.7151650637
  0
LINE
  5
25B
100
AcDbEntity
  8
0
100
AcDbLine
 62
7
  6
CONTINUOUS
 10
234.2722309041
 20
184.1151650637
 11
180.4722309041
 21
184.1151650637
  0
LINE
  5
25C
100
AcDbEntity
  8
0
100
AcDbLine
 62
7
  6
CONTINUOUS
 10
105.7722309041
 20
184.9151650637
 11
103.7722309041
 21
184.9151650637
  0
LINE
  5
25D
100
AcDbEntity
  8
0
100
AcDbLine
 62
7
  6
CONTINUOUS
 10
180.4722309041
 20
185.1151650637
 11
240.0722309041
 21
185.1151650637
  0
LINE
  5
25E
100
AcDbEntity
  8
0
100
AcDbLine
 62
7
  6
CONTINUOUS
 10
100.2722309041
 20
186.6151650637
 11
103.7722309041
 21
186.6151650637
  0
LINE
  5
25F
100
AcDbEntity
  8
0
100
AcDbLine
 62
7
  6
CONTINUOUS
 10
58.1311298476
 20
187.7151650637
 11
49.4133319605
 21
187.7151650637
  0
LINE
  5
260
100
AcDbEntity
  8
0
100
AcDbLine
 62
7
  6
CONTINUOUS
 10
180.4722309041
 20
189.7151650637
 11
234.2722309041
 21
189.7151650637
  0
LINE
  5
261
100
AcDbEntity
  8
0
100
AcDbLine
 62
7
  6
CONTINUOUS
 10
105.7722309041
 20
191.2151650637
 11
107.2722309041
 21
191.2151650637
  0
LINE
  5
262
100
AcDbEntity
  8
0
100
AcDbLine
 62
7
  6
CONTINUOUS
 10
107.2722309041
 20
191.7151650637
 11
109.2722309041
 21
191.7151650637
  0
LINE
  5
263
100
AcDbEntity
  8
0
100
AcDbLine
 62
7
  6
CONTINUOUS
 10
74.2722309041
 20
193.1151650637
 11
88.2722309041
 21
193.1151650637
  0
LINE
  5
264
100
AcDbEntity
  8
0
100
AcDbLine
 62
7
  6
CONTINUOUS
 10
234.2722309041
 20
193.7151650637
 11
180.4722309041
 21
193.7151650637
  0
LINE
  5
265
100
AcDbEntity
  8
0
100
AcDbLine
 62
7
  6
CONTINUOUS
 10
109.2722309041
 20
198.7151650637
 11
107.2722309041
 21
198.7151650637
  0
LINE
  5
266
100
AcDbEntity
  8
0
100
AcDbLine
 62
7
  6
CONTINUOUS
 10
70.2722309041
 20
199.1151650637
 11
70.7722309041
 21
199.1151650637
  0
LINE
  5
267
100
AcDbEntity
  8
0
100
AcDbLine
 62
7
  6
CONTINUOUS
 10
91.7722309041
 20
199.1151650637
 11
92.2722309041
 21
199.1151650637
  0
LINE
  5
268
100
AcDbEntity
  8
0
100
AcDbLine
 62
7
  6
CONTINUOUS
 10
107.2722309041
 20
199.2151650637
 11
105.7722309041
 21
199.2151650637
  0
LINE
  5
269
100
AcDbEntity
  8
0
100
AcDbLine
 62
7
  6
CONTINUOUS
 10
70.7722309041
 20
199.6151650637
 11
72.7722309041
 21
199.6151650637
  0
LINE
  5
26A
100
AcDbEntity
  8
0
100
AcDbLine
 62
7
  6
CONTINUOUS
 10
89.7722309041
 20
199.6151650637
 11
91.7722309041
 21
199.6151650637
  0
LINE
  5
26B
100
AcDbEntity
  8
0
100
AcDbLine
 62
7
  6
CONTINUOUS
 10
70.7722309041
 20
202.6151650637
 11
72.7722309041
 21
202.6151650637
  0
LINE
  5
26C
100
AcDbEntity
  8
0
100
AcDbLine
 62
7
  6
CONTINUOUS
 10
89.7722309041
 20
202.6151650637
 11
91.7722309041
 21
202.6151650637
  0
LINE
  5
26D
100
AcDbEntity
  8
0
100
AcDbLine
 62
7
  6
CONTINUOUS
 10
70.2722309041
 20
203.1151650637
 11
70.7722309041
 21
203.1151650637
  0
LINE
  5
26E
100
AcDbEntity
  8
0
100
AcDbLine
 62
7
  6
CONTINUOUS
 10
91.7722309041
 20
203.1151650637
 11
92.2722309041
 21
203.1151650637
  0
LINE
  5
26F
100
AcDbEntity
  8
0
100
AcDbLine
 62
7
  6
CONTINUOUS
 10
105.7722309041
 20
203.7151650637
 11
107.8544104492
 21
203.7151650637
  0
LINE
  5
270
100
AcDbEntity
  8
0
100
AcDbLine
 62
7
  6
CONTINUOUS
 10
241.6722309041
 20
204.2151650637
 11
260.0722309041
 21
204.2151650637
  0
LINE
  5
271
100
AcDbEntity
  8
0
100
AcDbLine
 62
7
  6
CONTINUOUS
 10
49.4133319605
 20
205.7151650637
 11
58.1311298476
 21
205.7151650637
  0
LINE
  5
272
100
AcDbEntity
  8
0
100
AcDbLine
 62
7
  6
CONTINUOUS
 10
109.2722309041
 20
203.9651650637
 11
107.8544104492
 21
203.7151650637
  0
LINE
  5
273
100
AcDbEntity
  8
0
100
AcDbLine
 62
7
  6
CONTINUOUS
 10
88.2722309041
 20
209.1151650637
 11
74.2722309041
 21
209.1151650637
  0
LINE
  5
274
100
AcDbEntity
  8
0
100
AcDbLine
 62
7
  6
CONTINUOUS
 10
58.1311298476
 20
211.7151650637
 11
49.4133319605
 21
211.7151650637
  0
LINE
  5
275
100
AcDbEntity
  8
0
100
AcDbLine
 62
7
  6
CONTINUOUS
 10
241.6722309041
 20
213.2151650637
 11
260.0722309041
 21
213.2151650637
  0
LINE
  5
276
100
AcDbEntity
  8
0
100
AcDbLine
 62
7
  6
CONTINUOUS
 10
105.7722309041
 20
213.7151650637
 11
107.8544104492
 21
213.7151650637
  0
LINE
  5
277
100
AcDbEntity
  8
0
100
AcDbLine
 62
7
  6
CONTINUOUS
 10
107.8544104492
 20
213.7151650637
 11
109.2722309041
 21
213.4651650637
  0
LINE
  5
278
100
AcDbEntity
  8
0
100
AcDbLine
 62
7
  6
CONTINUOUS
 10
105.7722309041
 20
217.2151650637
 11
107.8544104492
 21
217.2151650637
  0
LINE
  5
279
100
AcDbEntity
  8
0
100
AcDbLine
 62
7
  6
CONTINUOUS
 10
107.8544104492
 20
227.2151650637
 11
109.2722309041
 21
226.9651650637
  0
LINE
  5
27A
100
AcDbEntity
  8
0
100
AcDbLine
 62
7
  6
CONTINUOUS
 10
163.2722309041
 20
237.3151650637
 11
163.2722309041
 21
180.1151650637
  0
LINE
  5
27B
100
AcDbEntity
  8
0
100
AcDbLine
 62
7
  6
CONTINUOUS
 10
109.2722309041
 20
217.4651650637
 11
107.8544104492
 21
217.2151650637
  0
LINE
  5
27C
100
AcDbEntity
  8
0
100
AcDbLine
 62
7
  6
CONTINUOUS
 10
180.4722309041
 20
223.7151650637
 11
234.2722309041
 21
223.7151650637
  0
LINE
  5
27D
100
AcDbEntity
  8
0
100
AcDbLine
 62
7
  6
CONTINUOUS
 10
105.7722309041
 20
227.2151650637
 11
107.8544104492
 21
227.2151650637
  0
LINE
  5
27E
100
AcDbEntity
  8
0
100
AcDbLine
 62
7
  6
CONTINUOUS
 10
234.2722309041
 20
227.7151650637
 11
180.4722309041
 21
227.7151650637
  0
LINE
  5
27F
100
AcDbEntity
  8
0
100
AcDbLine
 62
7
  6
CONTINUOUS
 10
49.4133319605
 20
229.7151650637
 11
58.1311298476
 21
229.7151650637
  0
LINE
  5
280
100
AcDbEntity
  8
0
100
AcDbLine
 62
7
  6
CONTINUOUS
 10
174.1720433638
 20
237.3151650637
 11
174.1720433638
 21
234.3151650637
  0
LINE
  5
281
100
AcDbEntity
  8
0
100
AcDbLine
 62
7
  6
CONTINUOUS
 10
174.1720433638
 20
183.1151650637
 11
174.1720433638
 21
180.1151650637
  0
LINE
  5
282
100
AcDbEntity
  8
0
100
AcDbLine
 62
7
  6
CONTINUOUS
 10
103.7722309041
 20
230.8151650637
 11
100.2722309041
 21
230.8151650637
  0
LINE
  5
283
100
AcDbEntity
  8
0
100
AcDbLine
 62
7
  6
CONTINUOUS
 10
180.4722309041
 20
232.3151650637
 11
240.0722309041
 21
232.3151650637
  0
LINE
  5
284
100
AcDbEntity
  8
0
100
AcDbLine
 62
7
  6
CONTINUOUS
 10
105.7722309041
 20
232.5151650637
 11
103.7722309041
 21
232.5151650637
  0
LINE
  5
285
100
AcDbEntity
  8
0
100
AcDbLine
 62
7
  6
CONTINUOUS
 10
180.4722309041
 20
233.3151650637
 11
234.2722309041
 21
233.3151650637
  0
LINE
  5
286
100
AcDbEntity
  8
0
100
AcDbLine
 62
7
  6
CONTINUOUS
 10
240.0722309041
 20
233.7151650637
 11
241.6722309041
 21
233.7151650637
  0
LINE
  5
287
100
AcDbEntity
  8
0
100
AcDbLine
 62
7
  6
CONTINUOUS
 10
123.2722309041
 20
234.1151650637
 11
117.7722309041
 21
234.1151650637
  0
LINE
  5
288
100
AcDbEntity
  8
0
100
AcDbLine
 62
7
  6
CONTINUOUS
 10
117.7722309041
 20
234.3151650637
 11
103.7722309041
 21
234.3151650637
  0
LINE
  5
289
100
AcDbEntity
  8
0
100
AcDbLine
 62
7
  6
CONTINUOUS
 10
123.2722309041
 20
234.3151650637
 11
174.1720433638
 21
234.3151650637
  0
LINE
  5
28A
100
AcDbEntity
  8
0
100
AcDbLine
 62
7
  6
CONTINUOUS
 10
123.2722309041
 20
237.1151650637
 11
117.7722309041
 21
237.1151650637
  0
LINE
  5
28B
100
AcDbEntity
  8
0
100
AcDbLine
 62
7
  6
CONTINUOUS
 10
30.7722372848
 20
237.3151650637
 11
117.7722309041
 21
237.3151650637
  0
LINE
  5
28C
100
AcDbEntity
  8
0
100
AcDbLine
 62
7
  6
CONTINUOUS
 10
123.2722309041
 20
237.3151650637
 11
240.0722309041
 21
237.3151650637
  0
LINE
  5
28D
100
AcDbEntity
  8
0
100
AcDbLine
 62
7
  6
CONTINUOUS
 10
180.4722309041
 20
180.1151650637
 11
180.4722309041
 21
237.3151650637
  0
LINE
  5
28E
100
AcDbEntity
  8
0
100
AcDbLine
 62
7
  6
CONTINUOUS
 10
174.1720433638
 20
183.1151650637
 11
180.4722309041
 21
192.0249757287
  0
LINE
  5
28F
100
AcDbEntity
  8
0
100
AcDbLine
 62
7
  6
CONTINUOUS
 10
174.1720433638
 20
234.3151650637
 11
180.4722309041
 21
225.4053543987
  0
LINE
  5
290
100
AcDbEntity
  8
0
100
AcDbLine
 62
7
  6
CONTINUOUS
 10
221.4722309041
 20
237.3151650637
 11
221.4722309041
 21
180.1151650637
  0
LINE
  5
291
100
AcDbEntity
  8
0
100
AcDbLine
 62
7
  6
CONTINUOUS
 10
234.2722309041
 20
180.1151650637
 11
234.2722309041
 21
193.7151650637
  0
LINE
  5
292
100
AcDbEntity
  8
0
100
AcDbLine
 62
7
  6
CONTINUOUS
 10
234.2722309041
 20
223.7151650637
 11
234.2722309041
 21
237.3151650637
  0
LINE
  5
293
100
AcDbEntity
  8
0
100
AcDbLine
 62
7
  6
CONTINUOUS
 10
240.0722309041
 20
237.3151650637
 11
240.0722309041
 21
180.1151650637
  0
LINE
  5
294
100
AcDbEntity
  8
0
100
AcDbLine
 62
7
  6
CONTINUOUS
 10
241.6722309041
 20
233.7151512002
 11
241.6722309041
 21
183.7151789272
  0
LINE
  5
295
100
AcDbEntity
  8
0
100
AcDbLine
 62
7
  6
CONTINUOUS
 10
260.0722309041
 20
213.2151601535
 11
260.0722309041
 21
204.2151699739
  0
ARC
  5
296
100
AcDbEntity
  8
0
100
AcDbCircle
 62
7
  6
CONTINUOUS
 10
53.7722309041
 20
196.7151650637
 40
10.0
100
AcDbArc
 50
235.8419327632
 51
244.1580672368
  0
ARC
  5
297
100
AcDbEntity
  8
0
100
AcDbCircle
 62
7
  6
CONTINUOUS
 10
53.7722309041
 20
196.7151650637
 40
10.0
100
AcDbArc
 50
295.8419327632
 51
304.1580672368
  0
ARC
  5
298
100
AcDbEntity
  8
0
100
AcDbCircle
 62
7
  6
CONTINUOUS
 10
53.7722309041
 20
196.7151650637
 40
10.0
100
AcDbArc
 50
355.8419327632
 51
4.1580672368
  0
ARC
  5
299
100
AcDbEntity
  8
0
100
AcDbCircle
 62
7
  6
CONTINUOUS
 10
53.7722309041
 20
196.7151650637
 40
10.0
100
AcDbArc
 50
55.8419327632
 51
64.1580672368
  0
ARC
  5
29A
100
AcDbEntity
  8
0
100
AcDbCircle
 62
7
  6
CONTINUOUS
 10
53.7722309041
 20
196.7151650637
 40
10.0
100
AcDbArc
 50
115.8419327632
 51
124.1580672368
  0
ARC
  5
29B
100
AcDbEntity
  8
0
100
AcDbCircle
 62
7
  6
CONTINUOUS
 10
53.7722309041
 20
196.7151650637
 40
10.0
100
AcDbArc
 50
175.8419327632
 51
184.1580672368
  0
CIRCLE
  5
29C
100
AcDbEntity
  8
0
100
AcDbCircle
 62
7
  6
CONTINUOUS
 10
53.7722309041
 20
196.7151650637
 40
7.5
  0
CIRCLE
  5
29D
100
AcDbEntity
  8
0
100
AcDbCircle
 62
7
  6
CONTINUOUS
 10
53.7722309041
 20
196.7151650637
 40
6.0
  0
CIRCLE
  5
29E
100
AcDbEntity
  8
0
100
AcDbCircle
 62
7
  6
CONTINUOUS
 10
53.7722309041
 20
196.7151650637
 40
5.25
  0
CIRCLE
  5
29F
100
AcDbEntity
  8
0
100
AcDbCircle
 62
7
  6
CONTINUOUS
 10
41.2722309041
 20
183.6151650637
 40
3.0
  0
ARC
  5
2A0
100
AcDbEntity
  8
0
100
AcDbCircle
 62
7
  6
CONTINUOUS
 10
53.7722309041
 20
220.7151650637
 40
10.0
100
AcDbArc
 50
115.8419327632
 51
124.1580672368
  0
ARC
  5
2A1
100
AcDbEntity
  8
0
100
AcDbCircle
 62
7
  6
CONTINUOUS
 10
53.7722309041
 20
220.7151650637
 40
10.0
100
AcDbArc
 50
175.8419327632
 51
184.1580672368
  0
ARC
  5
2A2
100
AcDbEntity
  8
0
100
AcDbCircle
 62
7
  6
CONTINUOUS
 10
53.7722309041
 20
220.7151650637
 40
10.0
100
AcDbArc
 50
235.8419327632
 51
244.1580672368
  0
ARC
  5
2A3
100
AcDbEntity
  8
0
100
AcDbCircle
 62
7
  6
CONTINUOUS
 10
53.7722309041
 20
220.7151650637
 40
10.0
100
AcDbArc
 50
295.8419327632
 51
304.1580672368
  0
ARC
  5
2A4
100
AcDbEntity
  8
0
100
AcDbCircle
 62
7
  6
CONTINUOUS
 10
53.7722309041
 20
220.7151650637
 40
10.0
100
AcDbArc
 50
355.8419327632
 51
4.1580672368
  0
ARC
  5
2A5
100
AcDbEntity
  8
0
100
AcDbCircle
 62
7
  6
CONTINUOUS
 10
53.7722309041
 20
220.7151650637
 40
10.0
100
AcDbArc
 50
55.8419327632
 51
64.1580672368
  0
ARC
  5
2A6
100
AcDbEntity
  8
0
100
AcDbCircle
 62
7
  6
CONTINUOUS
 10
53.7722309041
 20
220.7151650637
 40
7.5
100
AcDbArc
 50
162.5426751545
 51
287.4573248455
  0
ARC
  5
2A7
100
AcDbEntity
  8
0
100
AcDbCircle
 62
7
  6
CONTINUOUS
 10
53.7722309041
 20
220.7151650637
 40
7.5
100
AcDbArc
 50
342.5426751545
 51
107.4573248455
  0
ARC
  5
2A8
100
AcDbEntity
  8
0
100
AcDbCircle
 62
7
  6
CONTINUOUS
 10
53.7722309041
 20
220.7151650637
 40
6.75
100
AcDbArc
 50
144.8746877614
 51
305.1253122386
  0
ARC
  5
2A9
100
AcDbEntity
  8
0
100
AcDbCircle
 62
7
  6
CONTINUOUS
 10
53.7722309041
 20
220.7151650637
 40
6.75
100
AcDbArc
 50
324.8746877614
 51
125.1253122386
  0
CIRCLE
  5
2AA
100
AcDbEntity
  8
0
100
AcDbCircle
 62
7
  6
CONTINUOUS
 10
53.7722309041
 20
220.7151650637
 40
4.0
  0
CIRCLE
  5
2AB
100
AcDbEntity
  8
0
100
AcDbCircle
 62
7
  6
CONTINUOUS
 10
41.2722309041
 20
233.8151650637
 40
3.0
  0
ARC
  5
2AC
100
AcDbEntity
  8
0
100
AcDbCircle
 62
7
  6
CONTINUOUS
 10
81.2722309041
 20
189.1151650637
 40
4.0
100
AcDbArc
 50
230.0337869562
 51
309.9662130438
  0
CIRCLE
  5
2AD
100
AcDbEntity
  8
0
100
AcDbCircle
 62
7
  6
CONTINUOUS
 10
81.2722309041
 20
189.1151650637
 40
3.0
  0
ARC
  5
2AE
100
AcDbEntity
  8
0
100
AcDbCircle
 62
7
  6
CONTINUOUS
 10
100.7722309041
 20
183.1151650637
 40
3.0
100
AcDbArc
 50
270.0
 51
360.0
  0
CIRCLE
  5
2AF
100
AcDbEntity
  8
0
100
AcDbCircle
 62
7
  6
CONTINUOUS
 10
100.2722309041
 20
183.6151650637
 40
3.0
  0
ARC
  5
2B0
100
AcDbEntity
  8
0
100
AcDbCircle
 62
7
  6
CONTINUOUS
 10
81.2722309041
 20
213.1151650637
 40
4.0
100
AcDbArc
 50
50.0337869562
 51
129.9662130438
  0
CIRCLE
  5
2B1
100
AcDbEntity
  8
0
100
AcDbCircle
 62
7
  6
CONTINUOUS
 10
92.7722309041
 20
230.1151650637
 40
4.0
  0
CIRCLE
  5
2B2
100
AcDbEntity
  8
0
100
AcDbCircle
 62
7
  6
CONTINUOUS
 10
81.2722309041
 20
213.1151650637
 40
3.0
  0
ARC
  5
2B3
100
AcDbEntity
  8
0
100
AcDbCircle
 62
7
  6
CONTINUOUS
 10
100.7722309041
 20
234.3151650637
 40
3.0
100
AcDbArc
 50
0.0
 51
90.0
  0
CIRCLE
  5
2B4
100
AcDbEntity
  8
0
100
AcDbCircle
 62
7
  6
CONTINUOUS
 10
100.2722309041
 20
233.8151650637
 40
3.0
  0
SPLINE
  5
2B5
100
AcDbEntity
  8
0
100
AcDbSpline
 62
7
  6
CONTINUOUS
 70
0
 71
3
 72
25
 73
21
 74
0
 42
0.0000001
 43
0.0000001
 44
0.0000000001
 40
0.0
 40
0.0
 40
0.0
 40
0.0
 40
0.1293154793
 40
0.1935116852
 40
0.257216253
 40
0.3201776334
 40
0.3819541346
 40
0.4122347892
 40
0.4419789807
 40
0.4711760626
 40
0.4999990206
 40
0.5288219023
 40
0.5580192298
 40
0.587763659
 40
0.6180444095
 40
0.6798210242
 40
0.7427829973
 40
0.8064878662
 40
0.8706842581
 40
1.0
 40
1.0
 40
1.0
 40
1.0
 10
105.7741886866
 20
209.5264047082
 30
0.0
 10
105.9965878742
 20
209.6198672104
 30
0.0
 10
106.3261637818
 20
209.7680570603
 30
0.0
 10
106.7509247975
 20
209.9915942086
 30
0.0
 10
107.0564339702
 20
210.1750302668
 30
0.0
 10
107.3427269248
 20
210.3797245472
 30
0.0
 10
107.5569418002
 20
210.5761790121
 30
0.0
 10
107.6989489889
 20
210.7542321303
 30
0.0
 10
107.7840654239
 20
210.8980816869
 30
0.0
 10
107.8408772946
 20
211.0528710844
 30
0.0
 10
107.8611410959
 20
211.2152279582
 30
0.0
 10
107.8408461371
 20
211.3775810487
 30
0.0
 10
107.7840105473
 20
211.5323620832
 30
0.0
 10
107.6988760018
 20
211.6762019373
 30
0.0
 10
107.5568515631
 20
211.8542419276
 30
0.0
 10
107.3426273854
 20
212.0506875767
 30
0.0
 10
107.0563235005
 20
212.2553699291
 30
0.0
 10
106.7508087407
 20
212.4388002041
 30
0.0
 10
106.3260424803
 20
212.6623304049
 30
0.0
 10
105.9964646262
 20
212.8105178115
 30
0.0
 10
105.7740638016
 20
212.9039776828
 30
0.0
  0
SPLINE
  5
2B6
100
AcDbEntity
  8
0
100
AcDbSpline
 62
7
  6
CONTINUOUS
 70
0
 71
3
 72
25
 73
21
 74
0
 42
0.0000001
 43
0.0000001
 44
0.0000000001
 40
0.0
 40
0.0
 40
0.0
 40
0.0
 40
0.1293154793
 40
0.1935116852
 40
0.257216253
 40
0.3201776334
 40
0.3819541346
 40
0.4122347892
 40
0.4419789807
 40
0.4711760626
 40
0.4999990206
 40
0.5288219023
 40
0.5580192298
 40
0.587763659
 40
0.6180444095
 40
0.6798210242
 40
0.7427829973
 40
0.8064878662
 40
0.8706842581
 40
1.0
 40
1.0
 40
1.0
 40
1.0
 10
105.7741886866
 20
204.5264047082
 30
0.0
 10
105.9965878742
 20
204.6198672104
 30
0.0
 10
106.3261637818
 20
204.7680570603
 30
0.0
 10
106.7509247975
 20
204.9915942086
 30
0.0
 10
107.0564339702
 20
205.1750302668
 30
0.0
 10
107.3427269248
 20
205.3797245472
 30
0.0
 10
107.5569418002
 20
205.5761790121
 30
0.0
 10
107.6989489889
 20
205.7542321303
 30
0.0
 10
107.7840654239
 20
205.8980816869
 30
0.0
 10
107.8408772946
 20
206.0528710844
 30
0.0
 10
107.8611410959
 20
206.2152279582
 30
0.0
 10
107.8408461371
 20
206.3775810487
 30
0.0
 10
107.7840105473
 20
206.5323620832
 30
0.0
 10
107.6988760018
 20
206.6762019373
 30
0.0
 10
107.5568515631
 20
206.8542419276
 30
0.0
 10
107.3426273854
 20
207.0506875767
 30
0.0
 10
107.0563235005
 20
207.2553699291
 30
0.0
 10
106.7508087407
 20
207.4388002041
 30
0.0
 10
106.3260424803
 20
207.6623304049
 30
0.0
 10
105.9964646262
 20
207.8105178115
 30
0.0
 10
105.7740638016
 20
207.9039776828
 30
0.0
  0
SPLINE
  5
2B7
100
AcDbEntity
  8
0
100
AcDbSpline
 62
7
  6
CONTINUOUS
 70
0
 71
3
 72
25
 73
21
 74
0
 42
0.0000001
 43
0.0000001
 44
0.0000000001
 40
0.0
 40
0.0
 40
0.0
 40
0.0
 40
0.1293154793
 40
0.1935116852
 40
0.257216253
 40
0.3201776334
 40
0.3819541346
 40
0.4122347892
 40
0.4419789807
 40
0.4711760626
 40
0.4999990206
 40
0.5288219023
 40
0.5580192298
 40
0.587763659
 40
0.6180444095
 40
0.6798210242
 40
0.7427829973
 40
0.8064878662
 40
0.8706842581
 40
1.0
 40
1.0
 40
1.0
 40
1.0
 10
105.7741886866
 20
218.0264047082
 30
0.0
 10
105.9965878742
 20
218.1198672104
 30
0.0
 10
106.3261637818
 20
218.2680570603
 30
0.0
 10
106.7509247975
 20
218.4915942086
 30
0.0
 10
107.0564339702
 20
218.6750302668
 30
0.0
 10
107.3427269248
 20
218.8797245472
 30
0.0
 10
107.5569418002
 20
219.0761790121
 30
0.0
 10
107.6989489889
 20
219.2542321303
 30
0.0
 10
107.7840654239
 20
219.3980816869
 30
0.0
 10
107.8408772946
 20
219.5528710844
 30
0.0
 10
107.8611410959
 20
219.7152279582
 30
0.0
 10
107.8408461371
 20
219.8775810487
 30
0.0
 10
107.7840105473
 20
220.0323620832
 30
0.0
 10
107.6988760018
 20
220.1762019373
 30
0.0
 10
107.5568515631
 20
220.3542419276
 30
0.0
 10
107.3426273854
 20
220.5506875767
 30
0.0
 10
107.0563235005
 20
220.7553699291
 30
0.0
 10
106.7508087407
 20
220.9388002041
 30
0.0
 10
106.3260424803
 20
221.1623304049
 30
0.0
 10
105.9964646262
 20
221.3105178115
 30
0.0
 10
105.7740638016
 20
221.4039776828
 30
0.0
  0
SPLINE
  5
2B8
100
AcDbEntity
  8
0
100
AcDbSpline
 62
7
  6
CONTINUOUS
 70
0
 71
3
 72
25
 73
21
 74
0
 42
0.0000001
 43
0.0000001
 44
0.0000000001
 40
0.0
 40
0.0
 40
0.0
 40
0.0
 40
0.1293154793
 40
0.1935116852
 40
0.257216253
 40
0.3201776334
 40
0.3819541346
 40
0.4122347892
 40
0.4419789807
 40
0.4711760626
 40
0.4999990206
 40
0.5288219023
 40
0.5580192298
 40
0.587763659
 40
0.6180444095
 40
0.6798210242
 40
0.7427829973
 40
0.8064878662
 40
0.8706842581
 40
1.0
 40
1.0
 40
1.0
 40
1.0
 10
105.7741886866
 20
223.0264047082
 30
0.0
 10
105.9965878742
 20
223.1198672104
 30
0.0
 10
106.3261637818
 20
223.2680570603
 30
0.0
 10
106.7509247975
 20
223.4915942086
 30
0.0
 10
107.0564339702
 20
223.6750302668
 30
0.0
 10
107.3427269248
 20
223.8797245472
 30
0.0
 10
107.5569418002
 20
224.0761790121
 30
0.0
 10
107.6989489889
 20
224.2542321303
 30
0.0
 10
107.7840654239
 20
224.3980816869
 30
0.0
 10
107.8408772946
 20
224.5528710844
 30
0.0
 10
107.8611410959
 20
224.7152279582
 30
0.0
 10
107.8408461371
 20
224.8775810487
 30
0.0
 10
107.7840105473
 20
225.0323620832
 30
0.0
 10
107.6988760018
 20
225.1762019373
 30
0.0
 10
107.5568515631
 20
225.3542419276
 30
0.0
 10
107.3426273854
 20
225.5506875767
 30
0.0
 10
107.0563235005
 20
225.7553699291
 30
0.0
 10
106.7508087407
 20
225.9388002041
 30
0.0
 10
106.3260424803
 20
226.1623304049
 30
0.0
 10
105.9964646262
 20
226.3105178115
 30
0.0
 10
105.7740638016
 20
226.4039776828
 30
0.0
  0
SPLINE
  5
2B9
100
AcDbEntity
  8
0
100
AcDbSpline
 62
7
  6
CONTINUOUS
 70
0
 71
3
 72
25
 73
21
 74
0
 42
0.0000001
 43
0.0000001
 44
0.0000000001
 40
0.0
 40
0.0
 40
0.0
 40
0.0
 40
0.1293154637
 40
0.1935116611
 40
0.257216218
 40
0.3201775838
 40
0.381954097
 40
0.412234765
 40
0.441978977
 40
0.4711760707
 40
0.4999990449
 40
0.5288219317
 40
0.5580192705
 40
0.587763715
 40
0.6180444701
 40
0.6798210904
 40
0.7427830411
 40
0.8064878959
 40
0.8706842769
 40
1.0
 40
1.0
 40
1.0
 40
1.0
 10
71.8334714072
 20
178.1132052312
 30
0.0
 10
71.9269338499
 20
177.8908063241
 30
0.0
 10
72.0751235561
 20
177.5612308161
 30
0.0
 10
72.2986605072
 20
177.1364703394
 30
0.0
 10
72.4820963709
 20
176.8309615561
 30
0.0
 10
72.6867905193
 20
176.5446689968
 30
0.0
 10
72.883244718
 20
176.3304542671
 30
0.0
 10
73.0612977068
 20
176.1884471577
 30
0.0
 10
73.2051471646
 20
176.1033307381
 30
0.0
 10
73.3599364465
 20
176.0465187979
 30
0.0
 10
73.5222931927
 20
176.0262548852
 30
0.0
 10
73.6846461979
 20
176.0465496462
 30
0.0
 10
73.8394271684
 20
176.1033850864
 30
0.0
 10
73.9832670118
 20
176.1885194156
 30
0.0
 10
74.1613069801
 20
176.330543586
 30
0.0
 10
74.3577524332
 20
176.5447675021
 30
0.0
 10
74.562434779
 20
176.8310708615
 30
0.0
 10
74.7458649064
 20
177.1365851776
 30
0.0
 10
74.9693949832
 20
177.5613508412
 30
0.0
 10
75.1175822771
 20
177.8909282713
 30
0.0
 10
75.2110421138
 20
178.1133287984
 30
0.0
  0
SPLINE
  5
2BA
100
AcDbEntity
  8
0
100
AcDbSpline
 62
7
  6
CONTINUOUS
 70
0
 71
3
 72
25
 73
21
 74
0
 42
0.0000001
 43
0.0000001
 44
0.0000000001
 40
0.0
 40
0.0
 40
0.0
 40
0.0
 40
0.1293154637
 40
0.1935116611
 40
0.257216218
 40
0.3201775838
 40
0.381954097
 40
0.412234765
 40
0.441978977
 40
0.4711760707
 40
0.4999990449
 40
0.5288219317
 40
0.5580192705
 40
0.587763715
 40
0.6180444701
 40
0.6798210904
 40
0.7427830411
 40
0.8064878959
 40
0.8706842769
 40
1.0
 40
1.0
 40
1.0
 40
1.0
 10
66.8334714072
 20
178.1132052312
 30
0.0
 10
66.9269338499
 20
177.8908063241
 30
0.0
 10
67.0751235561
 20
177.5612308161
 30
0.0
 10
67.2986605072
 20
177.1364703394
 30
0.0
 10
67.4820963709
 20
176.8309615561
 30
0.0
 10
67.6867905193
 20
176.5446689968
 30
0.0
 10
67.883244718
 20
176.3304542671
 30
0.0
 10
68.0612977068
 20
176.1884471577
 30
0.0
 10
68.2051471646
 20
176.1033307381
 30
0.0
 10
68.3599364465
 20
176.0465187979
 30
0.0
 10
68.5222931927
 20
176.0262548852
 30
0.0
 10
68.6846461979
 20
176.0465496462
 30
0.0
 10
68.8394271684
 20
176.1033850864
 30
0.0
 10
68.9832670118
 20
176.1885194156
 30
0.0
 10
69.1613069801
 20
176.330543586
 30
0.0
 10
69.3577524332
 20
176.5447675021
 30
0.0
 10
69.562434779
 20
176.8310708615
 30
0.0
 10
69.7458649064
 20
177.1365851776
 30
0.0
 10
69.9693949832
 20
177.5613508412
 30
0.0
 10
70.1175822771
 20
177.8909282713
 30
0.0
 10
70.2110421138
 20
178.1133287984
 30
0.0
  0
SPLINE
  5
2BB
100
AcDbEntity
  8
0
100
AcDbSpline
 62
7
  6
CONTINUOUS
 70
0
 71
3
 72
25
 73
21
 74
0
 42
0.0000001
 43
0.0000001
 44
0.0000000001
 40
0.0
 40
0.0
 40
0.0
 40
0.0
 40
0.1293154637
 40
0.1935116611
 40
0.257216218
 40
0.3201775838
 40
0.381954097
 40
0.412234765
 40
0.441978977
 40
0.4711760707
 40
0.4999990449
 40
0.5288219317
 40
0.5580192705
 40
0.587763715
 40
0.6180444701
 40
0.6798210904
 40
0.7427830411
 40
0.8064878959
 40
0.8706842769
 40
1.0
 40
1.0
 40
1.0
 40
1.0
 10
80.3334714072
 20
178.1132052312
 30
0.0
 10
80.4269338499
 20
177.8908063241
 30
0.0
 10
80.5751235561
 20
177.5612308161
 30
0.0
 10
80.7986605072
 20
177.1364703394
 30
0.0
 10
80.9820963709
 20
176.8309615561
 30
0.0
 10
81.1867905193
 20
176.5446689968
 30
0.0
 10
81.383244718
 20
176.3304542671
 30
0.0
 10
81.5612977068
 20
176.1884471577
 30
0.0
 10
81.7051471646
 20
176.1033307381
 30
0.0
 10
81.8599364465
 20
176.0465187979
 30
0.0
 10
82.0222931927
 20
176.0262548852
 30
0.0
 10
82.1846461979
 20
176.0465496462
 30
0.0
 10
82.3394271684
 20
176.1033850864
 30
0.0
 10
82.4832670118
 20
176.1885194156
 30
0.0
 10
82.6613069801
 20
176.330543586
 30
0.0
 10
82.8577524332
 20
176.5447675021
 30
0.0
 10
83.062434779
 20
176.8310708615
 30
0.0
 10
83.2458649064
 20
177.1365851776
 30
0.0
 10
83.4693949832
 20
177.5613508412
 30
0.0
 10
83.6175822771
 20
177.8909282713
 30
0.0
 10
83.7110421138
 20
178.1133287984
 30
0.0
  0
SPLINE
  5
2BC
100
AcDbEntity
  8
0
100
AcDbSpline
 62
7
  6
CONTINUOUS
 70
0
 71
3
 72
25
 73
21
 74
0
 42
0.0000001
 43
0.0000001
 44
0.0000000001
 40
0.0
 40
0.0
 40
0.0
 40
0.0
 40
0.1293154637
 40
0.1935116611
 40
0.257216218
 40
0.3201775838
 40
0.381954097
 40
0.412234765
 40
0.441978977
 40
0.4711760707
 40
0.4999990449
 40
0.5288219317
 40
0.5580192705
 40
0.587763715
 40
0.6180444701
 40
0.6798210904
 40
0.7427830411
 40
0.8064878959
 40
0.8706842769
 40
1.0
 40
1.0
 40
1.0
 40
1.0
 10
85.3334714072
 20
178.1132052312
 30
0.0
 10
85.4269338499
 20
177.8908063241
 30
0.0
 10
85.5751235561
 20
177.5612308161
 30
0.0
 10
85.7986605072
 20
177.1364703394
 30
0.0
 10
85.9820963709
 20
176.8309615561
 30
0.0
 10
86.1867905193
 20
176.5446689968
 30
0.0
 10
86.383244718
 20
176.3304542671
 30
0.0
 10
86.5612977068
 20
176.1884471577
 30
0.0
 10
86.7051471646
 20
176.1033307381
 30
0.0
 10
86.8599364465
 20
176.0465187979
 30
0.0
 10
87.0222931927
 20
176.0262548852
 30
0.0
 10
87.1846461979
 20
176.0465496462
 30
0.0
 10
87.3394271684
 20
176.1033850864
 30
0.0
 10
87.4832670118
 20
176.1885194156
 30
0.0
 10
87.6613069801
 20
176.330543586
 30
0.0
 10
87.8577524332
 20
176.5447675021
 30
0.0
 10
88.062434779
 20
176.8310708615
 30
0.0
 10
88.2458649064
 20
177.1365851776
 30
0.0
 10
88.4693949832
 20
177.5613508412
 30
0.0
 10
88.6175822771
 20
177.8909282713
 30
0.0
 10
88.7110421138
 20
178.1133287984
 30
0.0
  0
ENDSEC
  0
SECTION
  2
OBJECTS
  0
DICTIONARY
  5
C
100
AcDbDictionary
280
0
281
1
  3
ACAD_GROUP
350
D
  3
ACAD_MLINESTYLE
350
17
  3
ACAD_LAYOUT
350
1A
  3
ACAD_PLOTSETTINGS
350
19
  3
ACAD_PLOTSTYLENAME
350
E
  0
DICTIONARY
  5
D
102
{ACAD_REACTORS
330
C
102
}
100
AcDbDictionary
280
0
281
1
  0
ACDBDICTIONARYWDFLT
  5
E
102
{ACAD_REACTORS
330
C
102
}
100
AcDbDictionary
281
1
  3
Normal
350
F
100
AcDbDictionaryWithDefault
340
F
  0
DICTIONARY
  5
17
102
{ACAD_REACTORS
330
C
102
}
100
AcDbDictionary
280
0
281
1
  3
Standard
350
18
  0
DICTIONARY
  5
19
102
{ACAD_REACTORS
330
C
102
}
100
AcDbDictionary
281
1
  0
DICTIONARY
  5
1A
102
{ACAD_REACTORS
330
C
102
}
100
AcDbDictionary
281
1
  3
Model
350
2BD
  3
Layout1
350
2BE
  0
ACDBPLACEHOLDER
  5
F
102
{ACAD_REACTORS
330
E
102
}
  0
MLINESTYLE
  5
18
102
{ACAD_REACTORS
330
17
102
}
100
AcDbMlineStyle
  2
STANDARD
 70
0
  3

 62
256
 51
90.0
 52
90.0
 71
2
 49
0.5
 62
256
  6
BYLAYER
 49
-0.5
 62
256
  6
BYLAYER
  0
LAYOUT
  5
2BD
102
{ACAD_REACTORS
330
1A
102
}
100
AcDbPlotSettings
  1

  2
none_device
  4

  6

 40
0.0
 41
0.0
 42
0.0
 43
0.0
 44
210.0
 45
297.0
 46
0.0
 47
0.0
 48
0.0
 49
0.0
140
0.0
141
0.0
142
1.0
143
1.0
 70
1024
 72
1
 73
0
 74
0
  7

 75
0
147
1.0
148
0.0
149
0.0
100
AcDbLayout
  1
Model
 70
0
 71
0
 10
0.0
 20
0.0
 11
210.0
 21
297.0
 12
0.0
 22
0.0
 32
0.0
 14
0.0
 24
0.0
 34
0.0
 15
0.0
 25
0.0
 35
0.0
146
0.0
 13
0.0
 23
0.0
 33
0.0
 16
1.0
 26
0.0
 36
0.0
 17
0.0
 27
1.0
 37
0.0
 76
0
330
210
345
0
346
0
  0
LAYOUT
  5
2BE
102
{ACAD_REACTORS
330
1A
102
}
100
AcDbPlotSettings
  1

  2
none_device
  4

  6

 40
0.0
 41
0.0
 42
0.0
 43
0.0
 44
210.0
 45
297.0
 46
0.0
 47
0.0
 48
0.0
 49
0.0
140
0.0
141
0.0
142
1.0
143
1.0
 70
0
 72
1
 73
0
 74
0
  7

 75
0
147
1.0
148
0.0
149
0.0
100
AcDbLayout
  1
Layout1
 70
0
 71
1
 10
0.0
 20
0.0
 11
210.0
 21
297.0
 12
0.0
 22
0.0
 32
0.0
 14
0.0
 24
0.0
 34
0.0
 15
0.0
 25
0.0
 35
0.0
146
0.0
 13
0.0
 23
0.0
 33
0.0
 16
1.0
 26
0.0
 36
0.0
 17
0.0
 27
1.0
 37
0.0
 76
0
330
211
345
0
346
0
  0
ENDSEC
  0
EOF
