999
DXF file: C:\Users\sesa63760\Dev\_Creo\CAD\MCADPD0005444_3D-CAD\drw0001_6.dxf
999
Pro/ENGINEER 2019471 by Parametric Technology Corporation
  0
SECTION
  2
HEADER
  9
$ACADVER
  1
AC1024
  9
$DWGCODEPAGE
  3
ANSI_1252
  9
$EXTMAX
 10
299.5829360462
 20
423.6958666939
 30
0.0
  9
$EXTMIN
 10
0.0
 20
0.0
 30
0.0
  9
$LIMMIN
 10
0.0
 20
0.0
  9
$LIMMAX
 10
299.5829360462
 20
423.6958666939
  9
$VIEWCTR
 10
149.7914680231
 20
211.847933347
  9
$VIEWSIZE
 40
423.6958666939
  9
$CLAYER
  8
0
  9
$LTSCALE
 40
27.6186935326
  9
$CELTYPE
  6
BYLAYER
  9
$DIMSCALE
 40
1.0
  9
$DIMASZ
 40
3.5664635244
  9
$DIMEXO
 40
1.0
  9
$DIMDLI
 40
19.0820064407
  9
$DIMEXE
 40
1.0
  9
$DIMCEN
 40
4.5194225781
  9
$DIMLFAC
 40
1.0
  9
$DIMBLK
  1
_FILLED
  9
$DIMALT
 70
0
  9
$DIMALTF
 40
0.0393700787
  9
$DIMTXT
 40
4.9930489341
  9
$DIMTOL
 70
1
  9
$DIMLIM
 70
0
  9
$DIMTFAC
 40
1.0
  9
$DIMTP
 40
0.01
  9
$DIMTM
 40
0.01
  9
$DIMGAP
 40
0.625
  9
$DIMDSEP
 70
46
  9
$AUNITS
 70
0
  9
$PDMODE
 70
3
  9
$PDSIZE
 40
0.3125
  9
$HANDSEED
  5
27A
  9
$TILEMODE
 70
1
  9
$MEASUREMENT
 70
1
  9
$INSUNITS
 70
4
  0
ENDSEC
  0
SECTION
  2
CLASSES
  0
CLASS
  1
ACDBDICTIONARYWDFLT
  2
AcDbDictionaryWithDefault
  3
AutoCAD 2000
 90
0
 91
1
280
0
281
0
  0
CLASS
  1
ACDBPLACEHOLDER
  2
AcDbPlaceHolder
  3
AutoCAD 2000
 90
0
 91
1
280
0
281
0
  0
CLASS
  1
LAYOUT
  2
AcDbLayout
  3
AutoCAD 2000
 90
0
 91
0
280
0
281
0
  0
ENDSEC
  0
SECTION
  2
TABLES
  0
TABLE
  2
VPORT
  5
8
100
AcDbSymbolTable
 70
2
  0
VPORT
  5
1F4
100
AcDbSymbolTableRecord
100
AcDbViewportTableRecord
  2
*ACTIVE
 70
0
 10
0.0
 20
0.0
 11
1.0
 21
1.0
 12
149.7914680231
 22
211.847933347
 13
0.0
 23
0.0
 14
1.0
 24
1.0
 15
0.0
 25
0.0
 16
0.0
 26
0.0
 36
1.0
 17
0.0
 27
0.0
 37
0.0
 40
423.6958666939
 41
0.7070707071
 42
50.0
 43
0.0
 44
0.0
 50
0.0
 51
0.0
 71
0
 72
100
 73
1
 74
1
 75
0
 76
0
 77
0
 78
0
  0
ENDTAB
  0
TABLE
  2
LTYPE
  5
5
100
AcDbSymbolTable
 70
6
  0
LTYPE
  5
14
100
AcDbSymbolTableRecord
100
AcDbLinetypeTableRecord
  2
BYBLOCK
 70
0
  3

 72
65
 73
0
 40
0.0
  0
LTYPE
  5
15
100
AcDbSymbolTableRecord
100
AcDbLinetypeTableRecord
  2
BYLAYER
 70
0
  3

 72
65
 73
0
 40
0.0
  0
LTYPE
  5
16
100
AcDbSymbolTableRecord
100
AcDbLinetypeTableRecord
  2
CONTINUOUS
 70
64
  3
Solid line
 72
65
 73
0
 40
0.0
  0
LTYPE
  5
1F5
100
AcDbSymbolTableRecord
100
AcDbLinetypeTableRecord
  2
CENTER
 70
64
  3
____ _ ____ _ ____ _ ____ _ ____ _ ____ _ ____
 72
65
 73
4
 40
0.6
 49
0.375
 74
0
 49
-0.075
 74
0
 49
0.075
 74
0
 49
-0.075
 74
0
  0
LTYPE
  5
1F6
100
AcDbSymbolTableRecord
100
AcDbLinetypeTableRecord
  2
HIDDEN
 70
64
  3
- - - - - - - - - - - - - - - - - - - -
 72
65
 73
2
 40
0.2
 49
0.1
 74
0
 49
-0.1
 74
0
  0
LTYPE
  5
1F7
100
AcDbSymbolTableRecord
100
AcDbLinetypeTableRecord
  2
PHANTOM
 70
64
  3
_____ _ _ _____ _ _ _____ _ _ _____
 72
65
 73
6
 40
0.8
 49
0.45
 74
0
 49
-0.05
 74
0
 49
0.1
 74
0
 49
-0.05
 74
0
 49
0.1
 74
0
 49
-0.05
 74
0
  0
LTYPE
  5
1F8
100
AcDbSymbolTableRecord
100
AcDbLinetypeTableRecord
  2
DOT
 70
64
  3
. . . . . . . . . . . . . . . . . . . .
 72
65
 73
2
 40
0.2
 49
0.1
 74
0
 49
-0.1
 74
0
  0
LTYPE
  5
1F9
100
AcDbSymbolTableRecord
100
AcDbLinetypeTableRecord
  2
DASHED
 70
64
  3
- - - - - - - - - - - - - - - - - - - -
 72
65
 73
2
 40
0.2
 49
0.1
 74
0
 49
-0.1
 74
0
  0
ENDTAB
  0
TABLE
  2
LAYER
  5
2
100
AcDbSymbolTable
 70
36
  0
LAYER
  5
10
100
AcDbSymbolTableRecord
100
AcDbLayerTableRecord
  2
0
 70
0
 62
7
  6
CONTINUOUS
370
-3
390
F
  0
LAYER
  5
1FA
100
AcDbSymbolTableRecord
100
AcDbLayerTableRecord
  2
DEFAULT_1
 70
0
 62
7
  6
CENTER
370
-3
390
F
  0
LAYER
  5
1FB
100
AcDbSymbolTableRecord
100
AcDbLayerTableRecord
  2
DEFAULT_2
 70
0
 62
7
  6
HIDDEN
370
-3
390
F
  0
LAYER
  5
1FC
100
AcDbSymbolTableRecord
100
AcDbLayerTableRecord
  2
DEFAULT_3
 70
0
 62
7
  6
PHANTOM
370
-3
390
F
  0
LAYER
  5
1FD
100
AcDbSymbolTableRecord
100
AcDbLayerTableRecord
  2
00_COMPONENTS
 70
0
 62
7
  6
CONTINUOUS
370
-3
390
F
  0
LAYER
  5
1FE
100
AcDbSymbolTableRecord
100
AcDbLayerTableRecord
  2
01_1_DEFAULT_DATUMS
 70
0
 62
7
  6
CONTINUOUS
370
-3
390
F
  0
LAYER
  5
1FF
100
AcDbSymbolTableRecord
100
AcDbLayerTableRecord
  2
01_PLANES
 70
0
 62
7
  6
CONTINUOUS
370
-3
390
F
  0
LAYER
  5
200
100
AcDbSymbolTableRecord
100
AcDbLayerTableRecord
  2
02_COORD_SYS
 70
0
 62
7
  6
CONTINUOUS
370
-3
390
F
  0
LAYER
  5
201
100
AcDbSymbolTableRecord
100
AcDbLayerTableRecord
  2
03_AXES
 70
0
 62
7
  6
CONTINUOUS
370
-3
390
F
  0
LAYER
  5
202
100
AcDbSymbolTableRecord
100
AcDbLayerTableRecord
  2
04_POINTS
 70
0
 62
7
  6
CONTINUOUS
370
-3
390
F
  0
LAYER
  5
203
100
AcDbSymbolTableRecord
100
AcDbLayerTableRecord
  2
05_CURVES
 70
0
 62
7
  6
CONTINUOUS
370
-3
390
F
  0
LAYER
  5
204
100
AcDbSymbolTableRecord
100
AcDbLayerTableRecord
  2
06_SURFS
 70
0
 62
7
  6
CONTINUOUS
370
-3
390
F
  0
LAYER
  5
205
100
AcDbSymbolTableRecord
100
AcDbLayerTableRecord
  2
07_COSMETICS
 70
0
 62
7
  6
CONTINUOUS
370
-3
390
F
  0
LAYER
  5
206
100
AcDbSymbolTableRecord
100
AcDbLayerTableRecord
  2
10_NOTES
 70
0
 62
7
  6
CONTINUOUS
370
-3
390
F
  0
LAYER
  5
207
100
AcDbSymbolTableRecord
100
AcDbLayerTableRecord
  2
11_NOTES_PUB
 70
0
 62
7
  6
CONTINUOUS
370
-3
390
F
  0
LAYER
  5
208
100
AcDbSymbolTableRecord
100
AcDbLayerTableRecord
  2
13_REF_GTOL
 70
0
 62
7
  6
CONTINUOUS
370
-3
390
F
  0
LAYER
  5
209
100
AcDbSymbolTableRecord
100
AcDbLayerTableRecord
  2
16_MISC
 70
0
 62
7
  6
CONTINUOUS
370
-3
390
F
  0
LAYER
  5
20A
100
AcDbSymbolTableRecord
100
AcDbLayerTableRecord
  2
17_NO_PRINT
 70
0
 62
7
  6
CONTINUOUS
370
-3
390
F
  0
LAYER
  5
20B
100
AcDbSymbolTableRecord
100
AcDbLayerTableRecord
  2
18_DATUM_CAMS_JOINTS
 70
0
 62
7
  6
CONTINUOUS
370
-3
390
F
  0
LAYER
  5
20C
100
AcDbSymbolTableRecord
100
AcDbLayerTableRecord
  2
19_DATUM_FUNCTIONAL
 70
0
 62
7
  6
CONTINUOUS
370
-3
390
F
  0
LAYER
  5
20D
100
AcDbSymbolTableRecord
100
AcDbLayerTableRecord
  2
20_DATUM_KINEMATIC_SCHEME
 70
0
 62
7
  6
CONTINUOUS
370
-3
390
F
  0
ENDTAB
  0
TABLE
  2
STYLE
  5
3
100
AcDbSymbolTable
 70
1
  0
STYLE
  5
11
100
AcDbSymbolTableRecord
100
AcDbTextStyleTableRecord
  2
STANDARD
 70
0
 40
0.0
 41
1.0
 50
0.0
 71
0
 42
0.2
  3
ARIAL.TTF
  4

  0
STYLE
  5
20E
100
AcDbSymbolTableRecord
100
AcDbTextStyleTableRecord
  2
TEXTSTYLE_1
 70
0
 40
0.0
 41
0.8
 50
0.0
 71
0
 42
0.2
  3
gdt
  4

  0
ENDTAB
  0
TABLE
  2
VIEW
  5
6
100
AcDbSymbolTable
 70
0
  0
ENDTAB
  0
TABLE
  2
UCS
  5
7
100
AcDbSymbolTable
 70
0
  0
ENDTAB
  0
TABLE
  2
APPID
  5
9
100
AcDbSymbolTable
 70
1
  0
APPID
  5
20F
100
AcDbSymbolTableRecord
100
AcDbRegAppTableRecord
  2
ACAD
 70
0
  0
ENDTAB
  0
TABLE
  2
BLOCK_RECORD
  5
1
100
AcDbSymbolTable
 70
0
  0
BLOCK_RECORD
  5
210
100
AcDbSymbolTableRecord
100
AcDbBlockTableRecord
  2
*Model_Space
  0
BLOCK_RECORD
  5
211
100
AcDbSymbolTableRecord
100
AcDbBlockTableRecord
  2
*Paper_Space
  0
BLOCK_RECORD
  5
212
100
AcDbSymbolTableRecord
100
AcDbBlockTableRecord
  2
_FILLED
  0
ENDTAB
  0
TABLE
  2
DIMSTYLE
  5
A
100
AcDbSymbolTable
 70
1
100
AcDbDimStyleTable
 71
0
  0
DIMSTYLE
105
213
100
AcDbSymbolTableRecord
100
AcDbDimStyleTableRecord
  2
STANDARD
 70
0
  3

  4

 40
1.0
 41
3.5664635244
 42
1.0
 43
0.38
 44
1.0
 45
0.0
 46
0.0
 47
0.01
 48
0.01
140
4.9930489341
141
0.09
142
0.0
143
25.4
144
1.0
145
0.0
146
1.0
147
0.625
 71
1
 72
0
 73
0
 74
0
 75
0
 76
0
 77
1
 78
8
 79
2
170
0
171
1
172
0
173
0
174
0
175
0
176
0
177
0
178
0
270
2
179
2
271
2
272
2
273
2
274
2
275
0
280
0
281
0
282
0
283
1
284
8
285
0
286
0
287
3
288
0
340
11
278
46
341
212
342
212
343
212
344
212
  0
ENDTAB
  0
ENDSEC
  0
SECTION
  2
BLOCKS
  0
BLOCK
  5
20
100
AcDbEntity
  8
0
100
AcDbBlockBegin
  2
*Model_Space
 70
0
 10
0.0
 20
0.0
 30
0.0
  3
*Model_Space
  1

  0
ENDBLK
  5
21
100
AcDbEntity
  8
0
100
AcDbBlockEnd
  0
BLOCK
  5
1C
100
AcDbEntity
  8
0
100
AcDbBlockBegin
  2
*Paper_Space
 70
0
 10
0.0
 20
0.0
 30
0.0
  3
*Paper_Space
  1

  0
ENDBLK
  5
1D
100
AcDbEntity
  8
0
100
AcDbBlockEnd
  0
BLOCK
  5
214
100
AcDbEntity
  8
0
100
AcDbBlockBegin
  2
_FILLED
 70
64
 10
0.0
 20
0.0
  3
_FILLED
  1

  0
SOLID
  5
215
100
AcDbEntity
  8
0
  6
BYBLOCK
 62
0
100
AcDbTrace
 10
0.0
 20
0.0
 11
-1.0
 21
0.25
 12
-1.0
 22
-0.25
 13
-1.0
 23
-0.25
  0
ENDBLK
  5
216
100
AcDbEntity
  8
0
  6
BYBLOCK
 62
0
100
AcDbBlockEnd
  0
ENDSEC
  0
SECTION
  2
ENTITIES
  0
LINE
  5
217
100
AcDbEntity
  8
0
100
AcDbLine
 62
7
  6
BYLAYER
 10
33.8844592029
 20
209.4393090426
 11
33.8844592029
 21
213.4393090426
  0
LINE
  5
218
100
AcDbEntity
  8
0
100
AcDbLine
 62
7
  6
BYLAYER
 10
34.8844592029
 20
208.4393090426
 11
34.8844592029
 21
214.4393090426
  0
LINE
  5
219
100
AcDbEntity
  8
0
100
AcDbLine
 62
7
  6
BYLAYER
 10
48.1344592029
 20
203.8894474446
 11
48.1344592029
 21
218.9891903337
  0
LINE
  5
21A
100
AcDbEntity
  8
0
100
AcDbLine
 62
7
  6
BYLAYER
 10
49.6344592029
 20
202.3893090426
 11
49.6344592029
 21
220.4893090426
  0
LINE
  5
21B
100
AcDbEntity
  8
0
100
AcDbLine
 62
7
  6
BYLAYER
 10
51.8844592029
 20
202.3893692036
 11
51.8844592029
 21
220.489221115
  0
LINE
  5
21C
100
AcDbEntity
  8
0
100
AcDbLine
 62
7
  6
BYLAYER
 10
71.8844592029
 20
204.939465297
 11
71.8844592029
 21
217.9392040029
  0
LINE
  5
21D
100
AcDbEntity
  8
0
100
AcDbLine
 62
7
  6
BYLAYER
 10
34.8844592029
 20
214.4393090426
 11
33.8844592029
 21
213.4393090426
  0
LINE
  5
21E
100
AcDbEntity
  8
0
100
AcDbLine
 62
7
  6
BYLAYER
 10
48.1344592029
 20
218.9893090426
 11
49.6344592029
 21
220.4893090426
  0
LINE
  5
21F
100
AcDbEntity
  8
0
100
AcDbLine
 62
7
  6
BYLAYER
 10
34.8844592029
 20
208.4393090426
 11
33.8844592029
 21
209.4393090426
  0
LINE
  5
220
100
AcDbEntity
  8
0
100
AcDbLine
 62
7
  6
BYLAYER
 10
48.1344592029
 20
203.8893090426
 11
49.6344592029
 21
202.3893090426
  0
LINE
  5
221
100
AcDbEntity
  8
0
100
AcDbLine
 62
7
  6
BYLAYER
 10
49.6344592029
 20
210.1393090426
 11
48.1344592029
 21
209.5559909448
  0
LINE
  5
222
100
AcDbEntity
  8
0
100
AcDbLine
 62
7
  6
BYLAYER
 10
269.2794593155
 20
200.2739445396
 11
269.3133840121
 21
200.2820058515
  0
LINE
  5
223
100
AcDbEntity
  8
0
100
AcDbLine
 62
7
  6
BYLAYER
 10
49.6344592029
 20
212.7393090426
 11
48.1344592029
 21
213.3226271404
  0
LINE
  5
224
100
AcDbEntity
  8
0
100
AcDbLine
 62
7
  6
BYLAYER
 10
242.6844595084
 20
203.4393090426
 11
242.7201382348
 21
203.4478557913
  0
LINE
  5
225
100
AcDbEntity
  8
0
100
AcDbLine
 62
7
  6
BYLAYER
 10
232.6844595084
 20
203.4393090426
 11
232.7201382348
 21
203.4478557913
  0
LINE
  5
226
100
AcDbEntity
  8
0
100
AcDbLine
 62
7
  6
BYLAYER
 10
222.6844595084
 20
203.4393090426
 11
222.7201382348
 21
203.4478557913
  0
LINE
  5
227
100
AcDbEntity
  8
0
100
AcDbLine
 62
7
  6
BYLAYER
 10
242.6844595084
 20
203.4393090426
 11
242.7769063474
 21
203.4601522679
  0
LINE
  5
228
100
AcDbEntity
  8
0
100
AcDbLine
 62
7
  6
BYLAYER
 10
232.6844595084
 20
203.4393090426
 11
232.7769063474
 21
203.4601522679
  0
LINE
  5
229
100
AcDbEntity
  8
0
100
AcDbLine
 62
7
  6
BYLAYER
 10
222.6844595084
 20
203.4393090426
 11
222.7769063474
 21
203.4601522679
  0
LINE
  5
22A
100
AcDbEntity
  8
0
100
AcDbLine
 62
7
  6
BYLAYER
 10
212.6844595084
 20
203.4393090426
 11
212.7201382348
 21
203.4478557913
  0
LINE
  5
22B
100
AcDbEntity
  8
0
100
AcDbLine
 62
7
  6
BYLAYER
 10
212.6844595084
 20
203.4393090426
 11
212.7769063474
 21
203.4601522679
  0
LINE
  5
22C
100
AcDbEntity
  8
0
100
AcDbLine
 62
7
  6
BYLAYER
 10
251.0814486226
 20
219.4386309699
 11
251.0844592047
 21
219.4393090426
  0
LINE
  5
22D
100
AcDbEntity
  8
0
100
AcDbLine
 62
7
  6
BYLAYER
 10
241.0814486226
 20
219.4386309699
 11
241.0844592047
 21
219.4393090426
  0
LINE
  5
22E
100
AcDbEntity
  8
0
100
AcDbLine
 62
7
  6
BYLAYER
 10
231.0814486226
 20
219.4386309699
 11
231.0844592047
 21
219.4393090426
  0
LINE
  5
22F
100
AcDbEntity
  8
0
100
AcDbLine
 62
7
  6
BYLAYER
 10
221.0814486226
 20
219.4386309699
 11
221.0844592047
 21
219.4393090426
  0
LINE
  5
230
100
AcDbEntity
  8
0
100
AcDbLine
 62
7
  6
BYLAYER
 10
269.2795304105
 20
200.2739445388
 11
266.8844592029
 21
200.2739445388
  0
LINE
  5
231
100
AcDbEntity
  8
0
100
AcDbLine
 62
7
  6
BYLAYER
 10
266.8844592029
 20
200.3295543511
 11
269.1773525013
 21
200.3295543511
  0
LINE
  5
232
100
AcDbEntity
  8
0
100
AcDbLine
 62
7
  6
BYLAYER
 10
51.8844592029
 20
202.3893090426
 11
49.6344592029
 21
202.3893090426
  0
LINE
  5
233
100
AcDbEntity
  8
0
100
AcDbLine
 62
7
  6
BYLAYER
 10
266.8844592029
 20
203.4393090426
 11
246.0844589637
 21
203.4393090426
  0
LINE
  5
234
100
AcDbEntity
  8
0
100
AcDbLine
 62
7
  6
BYLAYER
 10
242.6844594406
 20
203.4393090426
 11
236.0844589637
 21
203.4393090426
  0
LINE
  5
235
100
AcDbEntity
  8
0
100
AcDbLine
 62
7
  6
BYLAYER
 10
232.6844594406
 20
203.4393090426
 11
226.0844589637
 21
203.4393090426
  0
LINE
  5
236
100
AcDbEntity
  8
0
100
AcDbLine
 62
7
  6
BYLAYER
 10
222.6844594406
 20
203.4393090426
 11
216.0844589637
 21
203.4393090426
  0
LINE
  5
237
100
AcDbEntity
  8
0
100
AcDbLine
 62
7
  6
BYLAYER
 10
212.6844594406
 20
203.4393090426
 11
210.3844592029
 21
203.4393090426
  0
LINE
  5
238
100
AcDbEntity
  8
0
100
AcDbLine
 62
7
  6
BYLAYER
 10
210.3844592029
 20
204.0231105555
 11
262.8844592029
 21
204.0231105555
  0
LINE
  5
239
100
AcDbEntity
  8
0
100
AcDbLine
 62
7
  6
BYLAYER
 10
262.8844592029
 20
204.824930765
 11
210.3844592029
 21
204.824930765
  0
LINE
  5
23A
100
AcDbEntity
  8
0
100
AcDbLine
 62
7
  6
BYLAYER
 10
51.8844592029
 20
204.9393090426
 11
71.8844592029
 21
204.9393090426
  0
LINE
  5
23B
100
AcDbEntity
  8
0
100
AcDbLine
 62
7
  6
BYLAYER
 10
210.3844592029
 20
206.065126692
 11
262.8844592029
 21
206.065126692
  0
LINE
  5
23C
100
AcDbEntity
  8
0
100
AcDbLine
 62
7
  6
BYLAYER
 10
210.3844592029
 20
207.5392903609
 11
262.8844592029
 21
207.5392903609
  0
LINE
  5
23D
100
AcDbEntity
  8
0
100
AcDbLine
 62
7
  6
BYLAYER
 10
49.6344592029
 20
208.067535263
 11
51.8844592029
 21
208.067535263
  0
LINE
  5
23E
100
AcDbEntity
  8
0
100
AcDbLine
 62
7
  6
BYLAYER
 10
48.1344592029
 20
208.4393090426
 11
34.8844592029
 21
208.4393090426
  0
LINE
  5
23F
100
AcDbEntity
  8
0
100
AcDbLine
 62
7
  6
BYLAYER
 10
71.8844592029
 20
208.4393090426
 11
262.8844592029
 21
208.4393090426
  0
LINE
  5
240
100
AcDbEntity
  8
0
100
AcDbLine
 62
7
  6
BYLAYER
 10
51.8844592029
 20
210.1393090426
 11
49.6344592029
 21
210.1393090426
  0
LINE
  5
241
100
AcDbEntity
  8
0
100
AcDbLine
 62
7
  6
BYLAYER
 10
51.8844592029
 20
212.7393090426
 11
49.6344592029
 21
212.7393090426
  0
LINE
  5
242
100
AcDbEntity
  8
0
100
AcDbLine
 62
7
  6
BYLAYER
 10
48.1344592029
 20
214.4393090426
 11
34.8844592029
 21
214.4393090426
  0
LINE
  5
243
100
AcDbEntity
  8
0
100
AcDbLine
 62
7
  6
BYLAYER
 10
71.8844592029
 20
214.4393090426
 11
262.8844592029
 21
214.4393090426
  0
LINE
  5
244
100
AcDbEntity
  8
0
100
AcDbLine
 62
7
  6
BYLAYER
 10
51.8844592029
 20
214.8110828223
 11
49.6344592029
 21
214.8110828223
  0
LINE
  5
245
100
AcDbEntity
  8
0
100
AcDbLine
 62
7
  6
BYLAYER
 10
210.3844592029
 20
215.3393090426
 11
262.8844592029
 21
215.3393090426
  0
LINE
  5
246
100
AcDbEntity
  8
0
100
AcDbLine
 62
7
  6
BYLAYER
 10
210.3844592029
 20
216.8134913932
 11
262.8844592029
 21
216.8134913932
  0
LINE
  5
247
100
AcDbEntity
  8
0
100
AcDbLine
 62
7
  6
BYLAYER
 10
51.8844592029
 20
217.9393090426
 11
71.8844592029
 21
217.9393090426
  0
LINE
  5
248
100
AcDbEntity
  8
0
100
AcDbLine
 62
7
  6
BYLAYER
 10
210.3844592029
 20
218.0536873203
 11
262.8844592029
 21
218.0536873203
  0
LINE
  5
249
100
AcDbEntity
  8
0
100
AcDbLine
 62
7
  6
BYLAYER
 10
262.8844592029
 20
218.8555075297
 11
210.3844592029
 21
218.8555075297
  0
LINE
  5
24A
100
AcDbEntity
  8
0
100
AcDbLine
 62
7
  6
BYLAYER
 10
266.8844592029
 20
219.4393090426
 11
251.0844592029
 21
219.4393090426
  0
LINE
  5
24B
100
AcDbEntity
  8
0
100
AcDbLine
 62
7
  6
BYLAYER
 10
247.6844592029
 20
219.4393090426
 11
241.0844592029
 21
219.4393090426
  0
LINE
  5
24C
100
AcDbEntity
  8
0
100
AcDbLine
 62
7
  6
BYLAYER
 10
237.6844592029
 20
219.4393090426
 11
231.0844592029
 21
219.4393090426
  0
LINE
  5
24D
100
AcDbEntity
  8
0
100
AcDbLine
 62
7
  6
BYLAYER
 10
227.6844592029
 20
219.4393090426
 11
221.0844592029
 21
219.4393090426
  0
LINE
  5
24E
100
AcDbEntity
  8
0
100
AcDbLine
 62
7
  6
BYLAYER
 10
217.6844592029
 20
219.4393090426
 11
210.3844592029
 21
219.4393090426
  0
LINE
  5
24F
100
AcDbEntity
  8
0
100
AcDbLine
 62
7
  6
BYLAYER
 10
51.8844592029
 20
220.4893090426
 11
49.6344592029
 21
220.4893090426
  0
LINE
  5
250
100
AcDbEntity
  8
0
100
AcDbLine
 62
7
  6
BYLAYER
 10
269.1773524531
 20
223.3958093377
 11
266.8844592029
 21
223.3958093377
  0
LINE
  5
251
100
AcDbEntity
  8
0
100
AcDbLine
 62
7
  6
BYLAYER
 10
266.8844592029
 20
223.4175493259
 11
269.2393358172
 21
223.4175493259
  0
LINE
  5
252
100
AcDbEntity
  8
0
100
AcDbLine
 62
7
  6
BYLAYER
 10
270.3844592029
 20
222.937494768
 11
270.6524050489
 21
222.9066266884
  0
LINE
  5
253
100
AcDbEntity
  8
0
100
AcDbLine
 62
7
  6
BYLAYER
 10
217.6844951511
 20
219.4393021661
 11
217.6870572345
 21
219.4387239251
  0
LINE
  5
254
100
AcDbEntity
  8
0
100
AcDbLine
 62
7
  6
BYLAYER
 10
227.6844951511
 20
219.4393021661
 11
227.6870572345
 21
219.4387239251
  0
LINE
  5
255
100
AcDbEntity
  8
0
100
AcDbLine
 62
7
  6
BYLAYER
 10
269.1773524531
 20
223.3958093377
 11
269.2395275836
 21
223.41754932
  0
LINE
  5
256
100
AcDbEntity
  8
0
100
AcDbLine
 62
7
  6
BYLAYER
 10
269.2395275836
 20
223.41754932
 11
269.2623009629
 21
223.4141696511
  0
LINE
  5
257
100
AcDbEntity
  8
0
100
AcDbLine
 62
7
  6
BYLAYER
 10
237.6844951511
 20
219.4393021661
 11
237.6870572345
 21
219.4387239251
  0
LINE
  5
258
100
AcDbEntity
  8
0
100
AcDbLine
 62
7
  6
BYLAYER
 10
247.6844951511
 20
219.4393021661
 11
247.6870572345
 21
219.4387239251
  0
LINE
  5
259
100
AcDbEntity
  8
0
100
AcDbLine
 62
7
  6
BYLAYER
 10
269.1773525013
 20
200.3295543511
 11
269.2794593155
 21
200.2739445396
  0
LINE
  5
25A
100
AcDbEntity
  8
0
100
AcDbLine
 62
7
  6
BYLAYER
 10
210.3844592029
 20
219.4393090426
 11
210.3844592029
 21
203.4393090426
  0
LINE
  5
25B
100
AcDbEntity
  8
0
100
AcDbLine
 62
7
  6
BYLAYER
 10
269.7714016942
 20
200.5254387502
 11
270.346883712
 21
200.8673011188
  0
LINE
  5
25C
100
AcDbEntity
  8
0
100
AcDbLine
 62
7
  6
BYLAYER
 10
269.3133631503
 20
200.2820071575
 11
269.77763613
 21
200.528922232
  0
LINE
  5
25D
100
AcDbEntity
  8
0
100
AcDbLine
 62
7
  6
BYLAYER
 10
270.3407619881
 20
200.8634415958
 11
270.7490343537
 21
201.1319661813
  0
LINE
  5
25E
100
AcDbEntity
  8
0
100
AcDbLine
 62
7
  6
BYLAYER
 10
262.8844592029
 20
218.8555075297
 11
262.8844592029
 21
204.0231105555
  0
LINE
  5
25F
100
AcDbEntity
  8
0
100
AcDbLine
 62
7
  6
BYLAYER
 10
266.8844592029
 20
223.4175402677
 11
266.8844592029
 21
200.2740718831
  0
LINE
  5
260
100
AcDbEntity
  8
0
100
AcDbLine
 62
7
  6
BYLAYER
 10
270.3844592029
 20
201.0740597963
 11
270.3844592029
 21
222.9374932692
  0
LINE
  5
261
100
AcDbEntity
  8
0
100
AcDbLine
 62
7
  6
BYLAYER
 10
270.8844592029
 20
201.3893189469
 11
270.8844592029
 21
222.5524583127
  0
ARC
  5
262
100
AcDbEntity
  8
0
100
AcDbCircle
 62
7
  6
BYLAYER
 10
265.6720252319
 20
211.4271680959
 40
12.513161423
100
AcDbArc
 50
66.5456617705
 51
73.3258172688
  0
ARC
  5
263
100
AcDbEntity
  8
0
100
AcDbCircle
 62
7
  6
BYLAYER
 10
263.5469088188
 20
210.8091477758
 40
11.8963874021
100
AcDbArc
 50
298.704558024
 51
305.0827251206
  0
ARC
  5
264
100
AcDbEntity
  8
0
100
AcDbCircle
 62
7
  6
BYLAYER
 10
263.5583080216
 20
210.7899687697
 40
11.8740904089
100
AcDbArc
 50
298.2434936377
 51
298.7007615741
  0
ARC
  5
265
100
AcDbEntity
  8
0
100
AcDbCircle
 62
7
  6
BYLAYER
 10
265.6294519864
 20
212.2333065992
 40
11.7128009415
100
AcDbArc
 50
66.0482798914
 51
72.0031692846
  0
ARC
  5
266
100
AcDbEntity
  8
0
100
AcDbCircle
 62
7
  6
BYLAYER
 10
265.7362306922
 20
212.5503604694
 40
11.3782691241
100
AcDbArc
 50
72.0212773765
 51
72.3964851587
  0
SPLINE
  5
267
100
AcDbEntity
  8
0
100
AcDbSpline
 62
7
  6
BYLAYER
 70
0
 71
3
 72
10
 73
6
 74
0
 42
0.0000001
 43
0.0000001
 44
0.0000000001
 40
0.0
 40
0.0
 40
0.0
 40
0.0
 40
0.2533270969
 40
0.6291608944
 40
1.0
 40
1.0
 40
1.0
 40
1.0
 10
49.6344592029
 20
208.067535263
 30
0.0
 10
49.5085051387
 20
208.0408918579
 30
0.0
 10
49.1953402035
 20
207.9763178393
 30
0.0
 10
48.6955549629
 20
207.8839763693
 30
0.0
 10
48.3209361005
 20
207.8232467948
 30
0.0
 10
48.1344592029
 20
207.7959721347
 30
0.0
  0
SPLINE
  5
268
100
AcDbEntity
  8
0
100
AcDbSpline
 62
7
  6
BYLAYER
 70
0
 71
3
 72
9
 73
5
 74
0
 42
0.0000001
 43
0.0000001
 44
0.0000000001
 40
0.0
 40
0.0
 40
0.0
 40
0.0
 40
0.25330104
 40
1.0
 40
1.0
 40
1.0
 40
1.0
 10
49.6344592029
 20
214.8110828223
 30
0.0
 10
49.5085250956
 20
214.8377220058
 30
0.0
 10
49.0107346454
 20
214.9398904687
 30
0.0
 10
48.5099168137
 20
215.0277304149
 30
0.0
 10
48.1344592029
 20
215.0826459506
 30
0.0
  0
SPLINE
  5
269
100
AcDbEntity
  8
0
100
AcDbSpline
 62
7
  6
BYLAYER
 70
0
 71
3
 72
9
 73
5
 74
0
 42
0.0000001
 43
0.0000001
 44
0.0000000001
 40
0.0
 40
0.0
 40
0.0
 40
0.0
 40
0.492817476
 40
1.0
 40
1.0
 40
1.0
 40
1.0
 10
270.6524227719
 20
222.9066034027
 30
0.0
 10
270.7191507046
 20
222.8776510258
 30
0.0
 10
270.8422302551
 20
222.7795857797
 30
0.0
 10
270.8844592029
 20
222.6273168261
 30
0.0
 10
270.8844592029
 20
222.5524583127
 30
0.0
  0
SPLINE
  5
26A
100
AcDbEntity
  8
0
100
AcDbSpline
 62
7
  6
BYLAYER
 70
0
 71
3
 72
9
 73
5
 74
0
 42
0.0000001
 43
0.0000001
 44
0.0000000001
 40
0.0
 40
0.0
 40
0.0
 40
0.0
 40
0.4958761249
 40
1.0
 40
1.0
 40
1.0
 40
1.0
 10
270.7490212301
 20
201.1319861718
 30
0.0
 10
270.7899170871
 20
201.1600337385
 30
0.0
 10
270.8611743009
 20
201.2366885255
 30
0.0
 10
270.8844592029
 20
201.3389044497
 30
0.0
 10
270.8844592029
 20
201.3893189469
 30
0.0
  0
SPLINE
  5
26B
100
AcDbEntity
  8
0
100
AcDbSpline
 62
7
  6
BYLAYER
 70
0
 71
3
 72
29
 73
25
 74
0
 42
0.0000001
 43
0.0000001
 44
0.0000000001
 40
0.0
 40
0.0
 40
0.0
 40
0.0
 40
0.002759883
 40
0.0102070783
 40
0.0221749184
 40
0.0385149843
 40
0.0591082843
 40
0.0838373058
 40
0.1449555967
 40
0.2200395567
 40
0.3066901311
 40
0.401753198
 40
0.5012810509
 40
0.6007477528
 40
0.6956362521
 40
0.7820207132
 40
0.8567758311
 40
0.9175173272
 40
0.9420442922
 40
0.9624294465
 40
0.9785427378
 40
0.9902546838
 40
0.9974454483
 40
1.0
 40
1.0
 40
1.0
 40
1.0
 10
237.6844827368
 20
219.4392823859
 30
0.0
 10
237.687430581
 20
219.4381482654
 30
0.0
 10
237.6990204091
 20
219.4361213682
 30
0.0
 10
237.7235083601
 20
219.4296502072
 30
0.0
 10
237.7634760697
 20
219.4207192293
 30
0.0
 10
237.8179866105
 20
219.4081103481
 30
0.0
 10
237.8869342862
 20
219.3930412935
 30
0.0
 10
238.006157677
 20
219.3680614774
 30
0.0
 10
238.1871492825
 20
219.333824495
 30
0.0
 10
238.4391514583
 20
219.294257441
 30
0.0
 10
238.7311084659
 20
219.2598933026
 30
0.0
 10
239.0522321398
 20
219.2364505816
 30
0.0
 10
239.388799946
 20
219.2282381444
 30
0.0
 10
239.7251572145
 20
219.2368689007
 30
0.0
 10
240.0456790217
 20
219.2606560242
 30
0.0
 10
240.3367233295
 20
219.2952308485
 30
0.0
 10
240.5875916183
 20
219.3348434958
 30
0.0
 10
240.7675380546
 20
219.3690158892
 30
0.0
 10
240.885867111
 20
219.3938684603
 30
0.0
 10
240.9541000501
 20
219.4087999475
 30
0.0
 10
241.0078244098
 20
219.4212856812
 30
0.0
 10
241.0469857726
 20
219.4299804499
 30
0.0
 10
241.0706306522
 20
219.4363998403
 30
0.0
 10
241.0817381191
 20
219.4382142601
 30
0.0
 10
241.0844523552
 20
219.4393004247
 30
0.0
  0
SPLINE
  5
26C
100
AcDbEntity
  8
0
100
AcDbSpline
 62
7
  6
BYLAYER
 70
0
 71
3
 72
29
 73
25
 74
0
 42
0.0000001
 43
0.0000001
 44
0.0000000001
 40
0.0
 40
0.0
 40
0.0
 40
0.0
 40
0.002759883
 40
0.0102070783
 40
0.0221749184
 40
0.0385149843
 40
0.0591082843
 40
0.0838373059
 40
0.1449555967
 40
0.2200395568
 40
0.3066901312
 40
0.4017531981
 40
0.501281051
 40
0.6007477529
 40
0.6956362523
 40
0.7820207134
 40
0.8567758313
 40
0.9175173273
 40
0.9420442928
 40
0.9624294474
 40
0.9785427383
 40
0.9902546828
 40
0.9974454462
 40
1.0
 40
1.0
 40
1.0
 40
1.0
 10
217.6844827368
 20
219.4392823859
 30
0.0
 10
217.687430581
 20
219.4381482654
 30
0.0
 10
217.6990204091
 20
219.4361213682
 30
0.0
 10
217.7235083601
 20
219.4296502072
 30
0.0
 10
217.7634760697
 20
219.4207192293
 30
0.0
 10
217.8179866105
 20
219.4081103481
 30
0.0
 10
217.8869342862
 20
219.3930412935
 30
0.0
 10
218.006157677
 20
219.3680614774
 30
0.0
 10
218.1871492825
 20
219.333824495
 30
0.0
 10
218.4391514582
 20
219.294257441
 30
0.0
 10
218.7311084658
 20
219.2598933026
 30
0.0
 10
219.0522321397
 20
219.2364505816
 30
0.0
 10
219.3887999459
 20
219.2282381444
 30
0.0
 10
219.7251572144
 20
219.2368689007
 30
0.0
 10
220.0456790215
 20
219.2606560242
 30
0.0
 10
220.3367233293
 20
219.2952308486
 30
0.0
 10
220.5875916182
 20
219.3348434953
 30
0.0
 10
220.7675380542
 20
219.3690158903
 30
0.0
 10
220.8858671123
 20
219.3938684592
 30
0.0
 10
220.9541000501
 20
219.4087999505
 30
0.0
 10
221.0078244127
 20
219.4212856724
 30
0.0
 10
221.046985761
 20
219.4299804679
 30
0.0
 10
221.0706306593
 20
219.4363998117
 30
0.0
 10
221.0817381063
 20
219.4382142828
 30
0.0
 10
221.0844523541
 20
219.4393004247
 30
0.0
  0
SPLINE
  5
26D
100
AcDbEntity
  8
0
100
AcDbSpline
 62
7
  6
BYLAYER
 70
0
 71
3
 72
29
 73
25
 74
0
 42
0.0000001
 43
0.0000001
 44
0.0000000001
 40
0.0
 40
0.0
 40
0.0
 40
0.0
 40
0.002759883
 40
0.0102070783
 40
0.0221749184
 40
0.0385149843
 40
0.0591082843
 40
0.0838373059
 40
0.1449555967
 40
0.2200395568
 40
0.3066901312
 40
0.4017531981
 40
0.501281051
 40
0.6007477529
 40
0.6956362523
 40
0.7820207134
 40
0.8567758313
 40
0.9175173273
 40
0.9420442928
 40
0.9624294474
 40
0.9785427383
 40
0.9902546828
 40
0.9974454462
 40
1.0
 40
1.0
 40
1.0
 40
1.0
 10
227.6844827368
 20
219.4392823859
 30
0.0
 10
227.687430581
 20
219.4381482654
 30
0.0
 10
227.6990204091
 20
219.4361213682
 30
0.0
 10
227.7235083601
 20
219.4296502072
 30
0.0
 10
227.7634760697
 20
219.4207192293
 30
0.0
 10
227.8179866105
 20
219.4081103481
 30
0.0
 10
227.8869342862
 20
219.3930412935
 30
0.0
 10
228.006157677
 20
219.3680614774
 30
0.0
 10
228.1871492825
 20
219.333824495
 30
0.0
 10
228.4391514582
 20
219.294257441
 30
0.0
 10
228.7311084658
 20
219.2598933026
 30
0.0
 10
229.0522321397
 20
219.2364505816
 30
0.0
 10
229.3887999459
 20
219.2282381444
 30
0.0
 10
229.7251572144
 20
219.2368689007
 30
0.0
 10
230.0456790215
 20
219.2606560242
 30
0.0
 10
230.3367233293
 20
219.2952308486
 30
0.0
 10
230.5875916182
 20
219.3348434953
 30
0.0
 10
230.7675380542
 20
219.3690158903
 30
0.0
 10
230.8858671123
 20
219.3938684592
 30
0.0
 10
230.9541000501
 20
219.4087999505
 30
0.0
 10
231.0078244127
 20
219.4212856724
 30
0.0
 10
231.046985761
 20
219.4299804679
 30
0.0
 10
231.0706306593
 20
219.4363998118
 30
0.0
 10
231.0817381063
 20
219.4382142827
 30
0.0
 10
231.0844523541
 20
219.4393004247
 30
0.0
  0
SPLINE
  5
26E
100
AcDbEntity
  8
0
100
AcDbSpline
 62
7
  6
BYLAYER
 70
0
 71
3
 72
22
 73
18
 74
0
 42
0.0000001
 43
0.0000001
 44
0.0000000001
 40
0.0
 40
0.0
 40
0.0
 40
0.0
 40
0.200094314
 40
0.3909198703
 40
0.5647373683
 40
0.7148915442
 40
0.7795597275
 40
0.8366620677
 40
0.8857626152
 40
0.9264469059
 40
0.9584249346
 40
0.9710710313
 40
0.9814495823
 40
0.9895445867
 40
0.9953432238
 40
0.9988326503
 40
1.0
 40
1.0
 40
1.0
 40
1.0
 10
214.3844605842
 20
203.6475298981
 30
0.0
 10
214.2699625937
 20
203.6477947322
 30
0.0
 10
214.0462197894
 20
203.6419812546
 30
0.0
 10
213.723856368
 20
203.6179384167
 30
0.0
 10
213.4312352128
 20
203.5832981112
 30
0.0
 10
213.2115261795
 20
203.5485584515
 30
0.0
 10
213.0584869461
 20
203.5204147778
 30
0.0
 10
212.9625644168
 20
203.5014540782
 30
0.0
 10
212.8803044026
 20
203.4841772705
 30
0.0
 10
212.8122624341
 20
203.4691890216
 30
0.0
 10
212.7646646113
 20
203.4583216094
 30
0.0
 10
212.7340376457
 20
203.4511152068
 30
0.0
 10
212.7166678394
 20
203.4470934748
 30
0.0
 10
212.7032567664
 20
203.4436974548
 30
0.0
 10
212.6933557346
 20
203.4417865791
 30
0.0
 10
212.6879427054
 20
203.4396593878
 30
0.0
 10
212.6849362409
 20
203.4397769345
 30
0.0
 10
212.6844594998
 20
203.4393090468
 30
0.0
  0
SPLINE
  5
26F
100
AcDbEntity
  8
0
100
AcDbSpline
 62
7
  6
BYLAYER
 70
0
 71
3
 72
22
 73
18
 74
0
 42
0.0000001
 43
0.0000001
 44
0.0000000001
 40
0.0
 40
0.0
 40
0.0
 40
0.0
 40
0.200094314
 40
0.3909198703
 40
0.5647373683
 40
0.7148915442
 40
0.7795597275
 40
0.8366620677
 40
0.8857626152
 40
0.9264469059
 40
0.9584249346
 40
0.9710710313
 40
0.9814495823
 40
0.9895445867
 40
0.9953432238
 40
0.9988326503
 40
1.0
 40
1.0
 40
1.0
 40
1.0
 10
224.3844605842
 20
203.6475298981
 30
0.0
 10
224.2699625937
 20
203.6477947322
 30
0.0
 10
224.0462197894
 20
203.6419812546
 30
0.0
 10
223.723856368
 20
203.6179384167
 30
0.0
 10
223.4312352128
 20
203.5832981112
 30
0.0
 10
223.2115261795
 20
203.5485584515
 30
0.0
 10
223.0584869461
 20
203.5204147778
 30
0.0
 10
222.9625644168
 20
203.5014540782
 30
0.0
 10
222.8803044026
 20
203.4841772705
 30
0.0
 10
222.8122624341
 20
203.4691890216
 30
0.0
 10
222.7646646113
 20
203.4583216094
 30
0.0
 10
222.7340376457
 20
203.4511152068
 30
0.0
 10
222.7166678394
 20
203.4470934748
 30
0.0
 10
222.7032567664
 20
203.4436974548
 30
0.0
 10
222.6933557346
 20
203.4417865791
 30
0.0
 10
222.6879427054
 20
203.4396593878
 30
0.0
 10
222.6849362409
 20
203.4397769345
 30
0.0
 10
222.6844594998
 20
203.4393090468
 30
0.0
  0
SPLINE
  5
270
100
AcDbEntity
  8
0
100
AcDbSpline
 62
7
  6
BYLAYER
 70
0
 71
3
 72
29
 73
25
 74
0
 42
0.0000001
 43
0.0000001
 44
0.0000000001
 40
0.0
 40
0.0
 40
0.0
 40
0.0
 40
0.002759883
 40
0.0102070783
 40
0.0221749184
 40
0.0385149843
 40
0.0591082843
 40
0.0838373058
 40
0.1449555967
 40
0.2200395567
 40
0.3066901311
 40
0.401753198
 40
0.5012810509
 40
0.6007477528
 40
0.6956362521
 40
0.7820207132
 40
0.8567758311
 40
0.9175173272
 40
0.9420442922
 40
0.9624294465
 40
0.9785427378
 40
0.9902546838
 40
0.9974454483
 40
1.0
 40
1.0
 40
1.0
 40
1.0
 10
247.6844827368
 20
219.4392823859
 30
0.0
 10
247.687430581
 20
219.4381482654
 30
0.0
 10
247.6990204091
 20
219.4361213682
 30
0.0
 10
247.7235083601
 20
219.4296502072
 30
0.0
 10
247.7634760697
 20
219.4207192293
 30
0.0
 10
247.8179866105
 20
219.4081103481
 30
0.0
 10
247.8869342862
 20
219.3930412935
 30
0.0
 10
248.006157677
 20
219.3680614774
 30
0.0
 10
248.1871492825
 20
219.333824495
 30
0.0
 10
248.4391514583
 20
219.294257441
 30
0.0
 10
248.7311084659
 20
219.2598933026
 30
0.0
 10
249.0522321398
 20
219.2364505816
 30
0.0
 10
249.388799946
 20
219.2282381444
 30
0.0
 10
249.7251572145
 20
219.2368689007
 30
0.0
 10
250.0456790217
 20
219.2606560242
 30
0.0
 10
250.3367233295
 20
219.2952308485
 30
0.0
 10
250.5875916183
 20
219.3348434958
 30
0.0
 10
250.7675380546
 20
219.3690158892
 30
0.0
 10
250.8858671111
 20
219.3938684603
 30
0.0
 10
250.9541000501
 20
219.4087999476
 30
0.0
 10
251.0078244098
 20
219.4212856812
 30
0.0
 10
251.0469857725
 20
219.42998045
 30
0.0
 10
251.0706306522
 20
219.4363998402
 30
0.0
 10
251.081738119
 20
219.4382142602
 30
0.0
 10
251.0844523552
 20
219.4393004247
 30
0.0
  0
SPLINE
  5
271
100
AcDbEntity
  8
0
100
AcDbSpline
 62
7
  6
BYLAYER
 70
0
 71
3
 72
22
 73
18
 74
0
 42
0.0000001
 43
0.0000001
 44
0.0000000001
 40
0.0
 40
0.0
 40
0.0
 40
0.0
 40
0.200094314
 40
0.3909198703
 40
0.5647373683
 40
0.7148915442
 40
0.7795597275
 40
0.8366620677
 40
0.8857626152
 40
0.9264469059
 40
0.9584249346
 40
0.9710710313
 40
0.9814495823
 40
0.9895445867
 40
0.9953432238
 40
0.9988326503
 40
1.0
 40
1.0
 40
1.0
 40
1.0
 10
234.3844605842
 20
203.6475298981
 30
0.0
 10
234.2699625937
 20
203.6477947322
 30
0.0
 10
234.0462197894
 20
203.6419812546
 30
0.0
 10
233.723856368
 20
203.6179384167
 30
0.0
 10
233.4312352128
 20
203.5832981112
 30
0.0
 10
233.2115261795
 20
203.5485584515
 30
0.0
 10
233.0584869461
 20
203.5204147778
 30
0.0
 10
232.9625644168
 20
203.5014540782
 30
0.0
 10
232.8803044026
 20
203.4841772705
 30
0.0
 10
232.8122624341
 20
203.4691890216
 30
0.0
 10
232.7646646113
 20
203.4583216094
 30
0.0
 10
232.7340376457
 20
203.4511152068
 30
0.0
 10
232.7166678394
 20
203.4470934748
 30
0.0
 10
232.7032567664
 20
203.4436974548
 30
0.0
 10
232.6933557346
 20
203.4417865791
 30
0.0
 10
232.6879427054
 20
203.4396593878
 30
0.0
 10
232.6849362409
 20
203.4397769345
 30
0.0
 10
232.6844594998
 20
203.4393090468
 30
0.0
  0
SPLINE
  5
272
100
AcDbEntity
  8
0
100
AcDbSpline
 62
7
  6
BYLAYER
 70
0
 71
3
 72
22
 73
18
 74
0
 42
0.0000001
 43
0.0000001
 44
0.0000000001
 40
0.0
 40
0.0
 40
0.0
 40
0.0
 40
0.200094314
 40
0.3909198703
 40
0.5647373683
 40
0.7148915442
 40
0.7795597275
 40
0.8366620677
 40
0.8857626152
 40
0.9264469059
 40
0.9584249346
 40
0.9710710313
 40
0.9814495823
 40
0.9895445867
 40
0.9953432238
 40
0.9988326503
 40
1.0
 40
1.0
 40
1.0
 40
1.0
 10
244.3844605842
 20
203.6475298981
 30
0.0
 10
244.2699625937
 20
203.6477947322
 30
0.0
 10
244.0462197894
 20
203.6419812546
 30
0.0
 10
243.723856368
 20
203.6179384167
 30
0.0
 10
243.4312352128
 20
203.5832981112
 30
0.0
 10
243.2115261795
 20
203.5485584515
 30
0.0
 10
243.0584869461
 20
203.5204147778
 30
0.0
 10
242.9625644168
 20
203.5014540782
 30
0.0
 10
242.8803044026
 20
203.4841772705
 30
0.0
 10
242.8122624341
 20
203.4691890216
 30
0.0
 10
242.7646646113
 20
203.4583216094
 30
0.0
 10
242.7340376457
 20
203.4511152068
 30
0.0
 10
242.7166678394
 20
203.4470934748
 30
0.0
 10
242.7032567664
 20
203.4436974548
 30
0.0
 10
242.6933557346
 20
203.4417865791
 30
0.0
 10
242.6879427054
 20
203.4396593878
 30
0.0
 10
242.6849362409
 20
203.4397769345
 30
0.0
 10
242.6844594998
 20
203.4393090468
 30
0.0
  0
SPLINE
  5
273
100
AcDbEntity
  8
0
100
AcDbSpline
 62
7
  6
BYLAYER
 70
0
 71
3
 72
19
 73
15
 74
0
 42
0.0000001
 43
0.0000001
 44
0.0000000001
 40
0.0
 40
0.0
 40
0.0
 40
0.0
 40
0.0046575434
 40
0.0104519969
 40
0.0185390435
 40
0.0415373996
 40
0.0734994966
 40
0.1141553889
 40
0.1632182926
 40
0.2850231185
 40
0.4352045207
 40
0.6089146308
 40
0.799934939
 40
1.0
 40
1.0
 40
1.0
 40
1.0
 10
216.0844588959
 20
203.4393090426
 30
0.0
 10
216.0817937609
 20
203.4393090426
 30
0.0
 10
216.0761011117
 20
203.4417138784
 30
0.0
 10
216.0657244564
 20
203.4436789704
 30
0.0
 10
216.0452296159
 20
203.4488562327
 30
0.0
 10
216.010080091
 20
203.4568804865
 30
0.0
 10
215.9567625802
 20
203.4692116716
 30
0.0
 10
215.8887587783
 20
203.4841509156
 30
0.0
 10
215.770306935
 20
203.5090532372
 30
0.0
 10
215.5898111669
 20
203.543396637
 30
0.0
 10
215.3378590229
 20
203.5832715875
 30
0.0
 10
215.0451807373
 20
203.6179999709
 30
0.0
 10
214.7227732126
 20
203.6419130957
 30
0.0
 10
214.4989414849
 20
203.647706261
 30
0.0
 10
214.3844605842
 20
203.6475298981
 30
0.0
  0
SPLINE
  5
274
100
AcDbEntity
  8
0
100
AcDbSpline
 62
7
  6
BYLAYER
 70
0
 71
3
 72
19
 73
15
 74
0
 42
0.0000001
 43
0.0000001
 44
0.0000000001
 40
0.0
 40
0.0
 40
0.0
 40
0.0
 40
0.0046575434
 40
0.0104519969
 40
0.0185390435
 40
0.0415373996
 40
0.0734994966
 40
0.1141553889
 40
0.1632182926
 40
0.2850231185
 40
0.4352045207
 40
0.6089146308
 40
0.799934939
 40
1.0
 40
1.0
 40
1.0
 40
1.0
 10
226.0844588959
 20
203.4393090426
 30
0.0
 10
226.0817937609
 20
203.4393090426
 30
0.0
 10
226.0761011117
 20
203.4417138784
 30
0.0
 10
226.0657244564
 20
203.4436789704
 30
0.0
 10
226.0452296159
 20
203.4488562327
 30
0.0
 10
226.010080091
 20
203.4568804865
 30
0.0
 10
225.9567625802
 20
203.4692116716
 30
0.0
 10
225.8887587783
 20
203.4841509156
 30
0.0
 10
225.770306935
 20
203.5090532372
 30
0.0
 10
225.5898111669
 20
203.543396637
 30
0.0
 10
225.3378590229
 20
203.5832715875
 30
0.0
 10
225.0451807373
 20
203.6179999709
 30
0.0
 10
224.7227732126
 20
203.6419130957
 30
0.0
 10
224.4989414849
 20
203.647706261
 30
0.0
 10
224.3844605842
 20
203.6475298981
 30
0.0
  0
SPLINE
  5
275
100
AcDbEntity
  8
0
100
AcDbSpline
 62
7
  6
BYLAYER
 70
0
 71
3
 72
19
 73
15
 74
0
 42
0.0000001
 43
0.0000001
 44
0.0000000001
 40
0.0
 40
0.0
 40
0.0
 40
0.0
 40
0.0046575434
 40
0.0104519969
 40
0.0185390435
 40
0.0415373996
 40
0.0734994966
 40
0.1141553889
 40
0.1632182926
 40
0.2850231185
 40
0.4352045207
 40
0.6089146308
 40
0.799934939
 40
1.0
 40
1.0
 40
1.0
 40
1.0
 10
236.0844588959
 20
203.4393090426
 30
0.0
 10
236.0817937609
 20
203.4393090426
 30
0.0
 10
236.0761011117
 20
203.4417138784
 30
0.0
 10
236.0657244564
 20
203.4436789704
 30
0.0
 10
236.0452296159
 20
203.4488562327
 30
0.0
 10
236.010080091
 20
203.4568804865
 30
0.0
 10
235.9567625802
 20
203.4692116716
 30
0.0
 10
235.8887587783
 20
203.4841509156
 30
0.0
 10
235.770306935
 20
203.5090532372
 30
0.0
 10
235.5898111669
 20
203.543396637
 30
0.0
 10
235.3378590229
 20
203.5832715875
 30
0.0
 10
235.0451807373
 20
203.6179999709
 30
0.0
 10
234.7227732126
 20
203.6419130957
 30
0.0
 10
234.4989414849
 20
203.647706261
 30
0.0
 10
234.3844605842
 20
203.6475298981
 30
0.0
  0
SPLINE
  5
276
100
AcDbEntity
  8
0
100
AcDbSpline
 62
7
  6
BYLAYER
 70
0
 71
3
 72
19
 73
15
 74
0
 42
0.0000001
 43
0.0000001
 44
0.0000000001
 40
0.0
 40
0.0
 40
0.0
 40
0.0
 40
0.0046575434
 40
0.0104519969
 40
0.0185390435
 40
0.0415373996
 40
0.0734994966
 40
0.1141553889
 40
0.1632182926
 40
0.2850231185
 40
0.4352045207
 40
0.6089146308
 40
0.799934939
 40
1.0
 40
1.0
 40
1.0
 40
1.0
 10
246.0844588959
 20
203.4393090426
 30
0.0
 10
246.0817937609
 20
203.4393090426
 30
0.0
 10
246.0761011117
 20
203.4417138784
 30
0.0
 10
246.0657244564
 20
203.4436789704
 30
0.0
 10
246.0452296159
 20
203.4488562327
 30
0.0
 10
246.010080091
 20
203.4568804865
 30
0.0
 10
245.9567625802
 20
203.4692116716
 30
0.0
 10
245.8887587783
 20
203.4841509156
 30
0.0
 10
245.770306935
 20
203.5090532372
 30
0.0
 10
245.5898111669
 20
203.543396637
 30
0.0
 10
245.3378590229
 20
203.5832715875
 30
0.0
 10
245.0451807373
 20
203.6179999709
 30
0.0
 10
244.7227732126
 20
203.6419130957
 30
0.0
 10
244.4989414849
 20
203.647706261
 30
0.0
 10
244.3844605842
 20
203.6475298981
 30
0.0
  0
SPLINE
  5
277
100
AcDbEntity
  8
0
100
AcDbSpline
 62
7
  6
BYLAYER
 70
0
 71
3
 72
9
 73
5
 74
0
 42
0.0000001
 43
0.0000001
 44
0.0000000001
 40
0.0
 40
0.0
 40
0.0
 40
0.0
 40
0.5239195412
 40
1.0
 40
1.0
 40
1.0
 40
1.0
 10
270.3844592029
 20
201.0740860661
 30
0.0
 10
270.4488995871
 20
201.0610372428
 30
0.0
 10
270.5768985966
 20
201.0544874103
 30
0.0
 10
270.6997506104
 20
201.0981949495
 30
0.0
 10
270.7490212301
 20
201.1319861718
 30
0.0
  0
ENDSEC
  0
SECTION
  2
OBJECTS
  0
DICTIONARY
  5
C
100
AcDbDictionary
280
0
281
1
  3
ACAD_GROUP
350
D
  3
ACAD_MLINESTYLE
350
17
  3
ACAD_LAYOUT
350
1A
  3
ACAD_PLOTSETTINGS
350
19
  3
ACAD_PLOTSTYLENAME
350
E
  0
DICTIONARY
  5
D
102
{ACAD_REACTORS
330
C
102
}
100
AcDbDictionary
280
0
281
1
  0
ACDBDICTIONARYWDFLT
  5
E
102
{ACAD_REACTORS
330
C
102
}
100
AcDbDictionary
281
1
  3
Normal
350
F
100
AcDbDictionaryWithDefault
340
F
  0
DICTIONARY
  5
17
102
{ACAD_REACTORS
330
C
102
}
100
AcDbDictionary
280
0
281
1
  3
Standard
350
18
  0
DICTIONARY
  5
19
102
{ACAD_REACTORS
330
C
102
}
100
AcDbDictionary
281
1
  0
DICTIONARY
  5
1A
102
{ACAD_REACTORS
330
C
102
}
100
AcDbDictionary
281
1
  3
Model
350
278
  3
Layout1
350
279
  0
ACDBPLACEHOLDER
  5
F
102
{ACAD_REACTORS
330
E
102
}
  0
MLINESTYLE
  5
18
102
{ACAD_REACTORS
330
17
102
}
100
AcDbMlineStyle
  2
STANDARD
 70
0
  3

 62
256
 51
90.0
 52
90.0
 71
2
 49
0.5
 62
256
  6
BYLAYER
 49
-0.5
 62
256
  6
BYLAYER
  0
LAYOUT
  5
278
102
{ACAD_REACTORS
330
1A
102
}
100
AcDbPlotSettings
  1

  2
none_device
  4

  6

 40
0.0
 41
0.0
 42
0.0
 43
0.0
 44
210.0
 45
297.0
 46
0.0
 47
0.0
 48
0.0
 49
0.0
140
0.0
141
0.0
142
1.0
143
1.0
 70
1024
 72
1
 73
0
 74
0
  7

 75
0
147
1.0
148
0.0
149
0.0
100
AcDbLayout
  1
Model
 70
0
 71
0
 10
0.0
 20
0.0
 11
210.0
 21
297.0
 12
0.0
 22
0.0
 32
0.0
 14
0.0
 24
0.0
 34
0.0
 15
0.0
 25
0.0
 35
0.0
146
0.0
 13
0.0
 23
0.0
 33
0.0
 16
1.0
 26
0.0
 36
0.0
 17
0.0
 27
1.0
 37
0.0
 76
0
330
210
345
0
346
0
  0
LAYOUT
  5
279
102
{ACAD_REACTORS
330
1A
102
}
100
AcDbPlotSettings
  1

  2
none_device
  4

  6

 40
0.0
 41
0.0
 42
0.0
 43
0.0
 44
210.0
 45
297.0
 46
0.0
 47
0.0
 48
0.0
 49
0.0
140
0.0
141
0.0
142
1.0
143
1.0
 70
0
 72
1
 73
0
 74
0
  7

 75
0
147
1.0
148
0.0
149
0.0
100
AcDbLayout
  1
Layout1
 70
0
 71
1
 10
0.0
 20
0.0
 11
210.0
 21
297.0
 12
0.0
 22
0.0
 32
0.0
 14
0.0
 24
0.0
 34
0.0
 15
0.0
 25
0.0
 35
0.0
146
0.0
 13
0.0
 23
0.0
 33
0.0
 16
1.0
 26
0.0
 36
0.0
 17
0.0
 27
1.0
 37
0.0
 76
0
330
211
345
0
346
0
  0
ENDSEC
  0
EOF
