999
DXF file: C:\Users\sesa63760\Dev\_Creo\CAD\MCADID0004247_3D-CAD\drw0001_2.dxf
999
Pro/ENGINEER 2019471 by Parametric Technology Corporation
  0
SECTION
  2
HEADER
  9
$ACADVER
  1
AC1024
  9
$DWGCODEPAGE
  3
ANSI_1252
  9
$EXTMAX
 10
1306.2050158448
 20
1847.3470938376
 30
0.0
  9
$EXTMIN
 10
0.0
 20
0.0
 30
0.0
  9
$LIMMIN
 10
0.0
 20
0.0
  9
$LIMMAX
 10
1306.2050158448
 20
1847.3470938376
  9
$VIEWCTR
 10
653.1025079224
 20
923.6735469188
  9
$VIEWSIZE
 40
1847.3470938376
  9
$CLAYER
  8
0
  9
$LTSCALE
 40
120.4196624131
  9
$CELTYPE
  6
BYLAYER
  9
$DIMSCALE
 40
1.0
  9
$DIMASZ
 40
15.5500597124
  9
$DIMEXO
 40
1.0
  9
$DIMDLI
 40
83.1990394854
  9
$DIMEXE
 40
1.0
  9
$DIMCEN
 40
19.7050356676
  9
$DIMLFAC
 40
1.0
  9
$DIMBLK
  1
_FILLED
  9
$DIMALT
 70
0
  9
$DIMALTF
 40
0.0393700787
  9
$DIMTXT
 40
21.7700835974
  9
$DIMTOL
 70
1
  9
$DIMLIM
 70
0
  9
$DIMTFAC
 40
1.0
  9
$DIMTP
 40
0.01
  9
$DIMTM
 40
0.01
  9
$DIMGAP
 40
0.625
  9
$DIMDSEP
 70
46
  9
$AUNITS
 70
0
  9
$PDMODE
 70
3
  9
$PDSIZE
 40
0.3125
  9
$HANDSEED
  5
491
  9
$TILEMODE
 70
1
  9
$MEASUREMENT
 70
1
  9
$INSUNITS
 70
4
  0
ENDSEC
  0
SECTION
  2
CLASSES
  0
CLASS
  1
ACDBDICTIONARYWDFLT
  2
AcDbDictionaryWithDefault
  3
AutoCAD 2000
 90
0
 91
1
280
0
281
0
  0
CLASS
  1
ACDBPLACEHOLDER
  2
AcDbPlaceHolder
  3
AutoCAD 2000
 90
0
 91
1
280
0
281
0
  0
CLASS
  1
LAYOUT
  2
AcDbLayout
  3
AutoCAD 2000
 90
0
 91
0
280
0
281
0
  0
ENDSEC
  0
SECTION
  2
TABLES
  0
TABLE
  2
VPORT
  5
8
100
AcDbSymbolTable
 70
2
  0
VPORT
  5
1F4
100
AcDbSymbolTableRecord
100
AcDbViewportTableRecord
  2
*ACTIVE
 70
0
 10
0.0
 20
0.0
 11
1.0
 21
1.0
 12
653.1025079224
 22
923.6735469188
 13
0.0
 23
0.0
 14
1.0
 24
1.0
 15
0.0
 25
0.0
 16
0.0
 26
0.0
 36
1.0
 17
0.0
 27
0.0
 37
0.0
 40
1847.3470938376
 41
0.7070707071
 42
50.0
 43
0.0
 44
0.0
 50
0.0
 51
0.0
 71
0
 72
100
 73
1
 74
1
 75
0
 76
0
 77
0
 78
0
  0
ENDTAB
  0
TABLE
  2
LTYPE
  5
5
100
AcDbSymbolTable
 70
6
  0
LTYPE
  5
14
100
AcDbSymbolTableRecord
100
AcDbLinetypeTableRecord
  2
BYBLOCK
 70
0
  3

 72
65
 73
0
 40
0.0
  0
LTYPE
  5
15
100
AcDbSymbolTableRecord
100
AcDbLinetypeTableRecord
  2
BYLAYER
 70
0
  3

 72
65
 73
0
 40
0.0
  0
LTYPE
  5
16
100
AcDbSymbolTableRecord
100
AcDbLinetypeTableRecord
  2
CONTINUOUS
 70
64
  3
Solid line
 72
65
 73
0
 40
0.0
  0
LTYPE
  5
1F5
100
AcDbSymbolTableRecord
100
AcDbLinetypeTableRecord
  2
CENTER
 70
64
  3
____ _ ____ _ ____ _ ____ _ ____ _ ____ _ ____
 72
65
 73
4
 40
0.6
 49
0.375
 74
0
 49
-0.075
 74
0
 49
0.075
 74
0
 49
-0.075
 74
0
  0
LTYPE
  5
1F6
100
AcDbSymbolTableRecord
100
AcDbLinetypeTableRecord
  2
HIDDEN
 70
64
  3
- - - - - - - - - - - - - - - - - - - -
 72
65
 73
2
 40
0.2
 49
0.1
 74
0
 49
-0.1
 74
0
  0
LTYPE
  5
1F7
100
AcDbSymbolTableRecord
100
AcDbLinetypeTableRecord
  2
PHANTOM
 70
64
  3
_____ _ _ _____ _ _ _____ _ _ _____
 72
65
 73
6
 40
0.8
 49
0.45
 74
0
 49
-0.05
 74
0
 49
0.1
 74
0
 49
-0.05
 74
0
 49
0.1
 74
0
 49
-0.05
 74
0
  0
LTYPE
  5
1F8
100
AcDbSymbolTableRecord
100
AcDbLinetypeTableRecord
  2
DOT
 70
64
  3
. . . . . . . . . . . . . . . . . . . .
 72
65
 73
2
 40
0.2
 49
0.1
 74
0
 49
-0.1
 74
0
  0
LTYPE
  5
1F9
100
AcDbSymbolTableRecord
100
AcDbLinetypeTableRecord
  2
DASHED
 70
64
  3
- - - - - - - - - - - - - - - - - - - -
 72
65
 73
2
 40
0.2
 49
0.1
 74
0
 49
-0.1
 74
0
  0
ENDTAB
  0
TABLE
  2
LAYER
  5
2
100
AcDbSymbolTable
 70
36
  0
LAYER
  5
10
100
AcDbSymbolTableRecord
100
AcDbLayerTableRecord
  2
0
 70
0
 62
7
  6
CONTINUOUS
370
-3
390
F
  0
LAYER
  5
1FA
100
AcDbSymbolTableRecord
100
AcDbLayerTableRecord
  2
DEFAULT_1
 70
0
 62
7
  6
CENTER
370
-3
390
F
  0
LAYER
  5
1FB
100
AcDbSymbolTableRecord
100
AcDbLayerTableRecord
  2
DEFAULT_2
 70
0
 62
7
  6
HIDDEN
370
-3
390
F
  0
LAYER
  5
1FC
100
AcDbSymbolTableRecord
100
AcDbLayerTableRecord
  2
DEFAULT_3
 70
0
 62
7
  6
PHANTOM
370
-3
390
F
  0
LAYER
  5
1FD
100
AcDbSymbolTableRecord
100
AcDbLayerTableRecord
  2
00_COMPONENTS
 70
0
 62
7
  6
CONTINUOUS
370
-3
390
F
  0
LAYER
  5
1FE
100
AcDbSymbolTableRecord
100
AcDbLayerTableRecord
  2
01_1_DEFAULT_DATUMS
 70
0
 62
7
  6
CONTINUOUS
370
-3
390
F
  0
LAYER
  5
1FF
100
AcDbSymbolTableRecord
100
AcDbLayerTableRecord
  2
01_PLANES
 70
0
 62
7
  6
CONTINUOUS
370
-3
390
F
  0
LAYER
  5
200
100
AcDbSymbolTableRecord
100
AcDbLayerTableRecord
  2
02_COORD_SYS
 70
0
 62
7
  6
CONTINUOUS
370
-3
390
F
  0
LAYER
  5
201
100
AcDbSymbolTableRecord
100
AcDbLayerTableRecord
  2
03_AXES
 70
0
 62
7
  6
CONTINUOUS
370
-3
390
F
  0
LAYER
  5
202
100
AcDbSymbolTableRecord
100
AcDbLayerTableRecord
  2
04_POINTS
 70
0
 62
7
  6
CONTINUOUS
370
-3
390
F
  0
LAYER
  5
203
100
AcDbSymbolTableRecord
100
AcDbLayerTableRecord
  2
05_CURVES
 70
0
 62
7
  6
CONTINUOUS
370
-3
390
F
  0
LAYER
  5
204
100
AcDbSymbolTableRecord
100
AcDbLayerTableRecord
  2
06_SURFS
 70
0
 62
7
  6
CONTINUOUS
370
-3
390
F
  0
LAYER
  5
205
100
AcDbSymbolTableRecord
100
AcDbLayerTableRecord
  2
07_COSMETICS
 70
0
 62
7
  6
CONTINUOUS
370
-3
390
F
  0
LAYER
  5
206
100
AcDbSymbolTableRecord
100
AcDbLayerTableRecord
  2
10_NOTES
 70
0
 62
7
  6
CONTINUOUS
370
-3
390
F
  0
LAYER
  5
207
100
AcDbSymbolTableRecord
100
AcDbLayerTableRecord
  2
11_NOTES_PUB
 70
0
 62
7
  6
CONTINUOUS
370
-3
390
F
  0
LAYER
  5
208
100
AcDbSymbolTableRecord
100
AcDbLayerTableRecord
  2
13_REF_GTOL
 70
0
 62
7
  6
CONTINUOUS
370
-3
390
F
  0
LAYER
  5
209
100
AcDbSymbolTableRecord
100
AcDbLayerTableRecord
  2
16_MISC
 70
0
 62
7
  6
CONTINUOUS
370
-3
390
F
  0
LAYER
  5
20A
100
AcDbSymbolTableRecord
100
AcDbLayerTableRecord
  2
17_NO_PRINT
 70
0
 62
7
  6
CONTINUOUS
370
-3
390
F
  0
LAYER
  5
20B
100
AcDbSymbolTableRecord
100
AcDbLayerTableRecord
  2
18_DATUM_CAMS_JOINTS
 70
0
 62
7
  6
CONTINUOUS
370
-3
390
F
  0
LAYER
  5
20C
100
AcDbSymbolTableRecord
100
AcDbLayerTableRecord
  2
19_DATUM_FUNCTIONAL
 70
0
 62
7
  6
CONTINUOUS
370
-3
390
F
  0
LAYER
  5
20D
100
AcDbSymbolTableRecord
100
AcDbLayerTableRecord
  2
20_DATUM_KINEMATIC_SCHEME
 70
0
 62
7
  6
CONTINUOUS
370
-3
390
F
  0
LAYER
  5
20E
100
AcDbSymbolTableRecord
100
AcDbLayerTableRecord
  2
3
 70
0
 62
7
  6
CONTINUOUS
370
-3
390
F
  0
LAYER
  5
20F
100
AcDbSymbolTableRecord
100
AcDbLayerTableRecord
  2
4
 70
0
 62
7
  6
CONTINUOUS
370
-3
390
F
  0
ENDTAB
  0
TABLE
  2
STYLE
  5
3
100
AcDbSymbolTable
 70
1
  0
STYLE
  5
11
100
AcDbSymbolTableRecord
100
AcDbTextStyleTableRecord
  2
STANDARD
 70
0
 40
0.0
 41
1.0
 50
0.0
 71
0
 42
0.2
  3
ARIAL.TTF
  4

  0
STYLE
  5
210
100
AcDbSymbolTableRecord
100
AcDbTextStyleTableRecord
  2
TEXTSTYLE_1
 70
0
 40
0.0
 41
0.8
 50
0.0
 71
0
 42
0.2
  3
gdt
  4

  0
ENDTAB
  0
TABLE
  2
VIEW
  5
6
100
AcDbSymbolTable
 70
0
  0
ENDTAB
  0
TABLE
  2
UCS
  5
7
100
AcDbSymbolTable
 70
0
  0
ENDTAB
  0
TABLE
  2
APPID
  5
9
100
AcDbSymbolTable
 70
1
  0
APPID
  5
211
100
AcDbSymbolTableRecord
100
AcDbRegAppTableRecord
  2
ACAD
 70
0
  0
ENDTAB
  0
TABLE
  2
BLOCK_RECORD
  5
1
100
AcDbSymbolTable
 70
0
  0
BLOCK_RECORD
  5
212
100
AcDbSymbolTableRecord
100
AcDbBlockTableRecord
  2
*Model_Space
  0
BLOCK_RECORD
  5
213
100
AcDbSymbolTableRecord
100
AcDbBlockTableRecord
  2
*Paper_Space
  0
BLOCK_RECORD
  5
214
100
AcDbSymbolTableRecord
100
AcDbBlockTableRecord
  2
_FILLED
  0
ENDTAB
  0
TABLE
  2
DIMSTYLE
  5
A
100
AcDbSymbolTable
 70
1
100
AcDbDimStyleTable
 71
0
  0
DIMSTYLE
105
215
100
AcDbSymbolTableRecord
100
AcDbDimStyleTableRecord
  2
STANDARD
 70
0
  3

  4

 40
1.0
 41
15.5500597124
 42
1.0
 43
0.38
 44
1.0
 45
0.0
 46
0.0
 47
0.01
 48
0.01
140
21.7700835974
141
0.09
142
0.0
143
25.4
144
1.0
145
0.0
146
1.0
147
0.625
 71
1
 72
0
 73
0
 74
0
 75
0
 76
0
 77
1
 78
8
 79
2
170
0
171
1
172
0
173
0
174
0
175
0
176
0
177
0
178
0
270
2
179
2
271
2
272
2
273
2
274
2
275
0
280
0
281
0
282
0
283
1
284
8
285
0
286
0
287
3
288
0
340
11
278
46
341
214
342
214
343
214
344
214
  0
ENDTAB
  0
ENDSEC
  0
SECTION
  2
BLOCKS
  0
BLOCK
  5
20
100
AcDbEntity
  8
0
100
AcDbBlockBegin
  2
*Model_Space
 70
0
 10
0.0
 20
0.0
 30
0.0
  3
*Model_Space
  1

  0
ENDBLK
  5
21
100
AcDbEntity
  8
0
100
AcDbBlockEnd
  0
BLOCK
  5
1C
100
AcDbEntity
  8
0
100
AcDbBlockBegin
  2
*Paper_Space
 70
0
 10
0.0
 20
0.0
 30
0.0
  3
*Paper_Space
  1

  0
ENDBLK
  5
1D
100
AcDbEntity
  8
0
100
AcDbBlockEnd
  0
BLOCK
  5
216
100
AcDbEntity
  8
0
100
AcDbBlockBegin
  2
_FILLED
 70
64
 10
0.0
 20
0.0
  3
_FILLED
  1

  0
SOLID
  5
217
100
AcDbEntity
  8
0
  6
BYBLOCK
 62
0
100
AcDbTrace
 10
0.0
 20
0.0
 11
-1.0
 21
0.25
 12
-1.0
 22
-0.25
 13
-1.0
 23
-0.25
  0
ENDBLK
  5
218
100
AcDbEntity
  8
0
  6
BYBLOCK
 62
0
100
AcDbBlockEnd
  0
ENDSEC
  0
SECTION
  2
ENTITIES
  0
LINE
  5
219
100
AcDbEntity
  8
0
100
AcDbLine
 62
7
  6
BYLAYER
 10
764.8657474355
 20
123.231844081
 11
759.2663241483
 21
123.231844081
  0
LINE
  5
21A
100
AcDbEntity
  8
0
100
AcDbLine
 62
7
  6
BYLAYER
 10
722.8662224785
 20
123.231844081
 11
717.2658491112
 21
123.231844081
  0
LINE
  5
21B
100
AcDbEntity
  8
0
100
AcDbLine
 62
7
  6
BYLAYER
 10
617.216616547
 20
123.231844081
 11
611.6171932597
 21
123.231844081
  0
LINE
  5
21C
100
AcDbEntity
  8
0
100
AcDbLine
 62
7
  6
BYLAYER
 10
575.21709159
 20
123.231844081
 11
569.6167182227
 21
123.231844081
  0
LINE
  5
21D
100
AcDbEntity
  8
0
100
AcDbLine
 62
7
  6
BYLAYER
 10
569.4170918366
 20
123.3317339425
 11
570.2442976757
 21
123.3317339425
  0
LINE
  5
21E
100
AcDbEntity
  8
0
100
AcDbLine
 62
7
  6
BYLAYER
 10
575.5898859976
 20
123.3317339425
 11
611.2442976728
 21
123.3317339425
  0
LINE
  5
21F
100
AcDbEntity
  8
0
100
AcDbLine
 62
7
  6
BYLAYER
 10
616.5898859947
 20
123.3317339425
 11
617.4170918366
 21
123.3317339425
  0
LINE
  5
220
100
AcDbEntity
  8
0
100
AcDbLine
 62
7
  6
BYLAYER
 10
717.0662227251
 20
123.3317339425
 11
717.8934285642
 21
123.3317339425
  0
LINE
  5
221
100
AcDbEntity
  8
0
100
AcDbLine
 62
7
  6
BYLAYER
 10
723.2390168861
 20
123.3317339425
 11
758.8934285613
 21
123.3317339425
  0
LINE
  5
222
100
AcDbEntity
  8
0
100
AcDbLine
 62
7
  6
BYLAYER
 10
764.2390168832
 20
123.3317339425
 11
765.0662227251
 21
123.3317339425
  0
LINE
  5
223
100
AcDbEntity
  8
0
100
AcDbLine
 62
7
  6
BYLAYER
 10
745.2076709054
 20
123.8317339425
 11
736.9257390709
 21
123.8317339425
  0
LINE
  5
224
100
AcDbEntity
  8
0
100
AcDbLine
 62
7
  6
BYLAYER
 10
597.5585400169
 20
123.8317339425
 11
589.2766081824
 21
123.8317339425
  0
LINE
  5
225
100
AcDbEntity
  8
0
100
AcDbLine
 62
7
  6
BYLAYER
 10
764.8662227222
 20
124.231844081
 11
758.2662227222
 21
124.231844081
  0
LINE
  5
226
100
AcDbEntity
  8
0
100
AcDbLine
 62
7
  6
BYLAYER
 10
723.8662227251
 20
124.231844081
 11
717.2662227251
 21
124.231844081
  0
LINE
  5
227
100
AcDbEntity
  8
0
100
AcDbLine
 62
7
  6
BYLAYER
 10
617.2170918337
 20
124.231844081
 11
610.6170918337
 21
124.231844081
  0
LINE
  5
228
100
AcDbEntity
  8
0
100
AcDbLine
 62
7
  6
BYLAYER
 10
576.2170918366
 20
124.231844081
 11
569.6170918366
 21
124.231844081
  0
LINE
  5
229
100
AcDbEntity
  8
0
100
AcDbLine
 62
7
  6
BYLAYER
 10
766.0662227251
 20
124.3317339425
 11
764.8662227222
 21
124.3317339425
  0
LINE
  5
22A
100
AcDbEntity
  8
0
100
AcDbLine
 62
7
  6
BYLAYER
 10
758.2662227222
 20
124.3317339425
 11
745.0662227251
 21
124.3317339491
  0
LINE
  5
22B
100
AcDbEntity
  8
0
100
AcDbLine
 62
7
  6
BYLAYER
 10
737.0662227251
 20
124.3317339425
 11
723.8662227251
 21
124.3317339425
  0
LINE
  5
22C
100
AcDbEntity
  8
0
100
AcDbLine
 62
7
  6
BYLAYER
 10
717.2662227251
 20
124.3317339425
 11
716.0662227251
 21
124.3317339425
  0
LINE
  5
22D
100
AcDbEntity
  8
0
100
AcDbLine
 62
7
  6
BYLAYER
 10
618.4170918366
 20
124.3317339425
 11
617.2170918337
 21
124.3317339425
  0
LINE
  5
22E
100
AcDbEntity
  8
0
100
AcDbLine
 62
7
  6
BYLAYER
 10
610.6170918337
 20
124.3317339425
 11
597.4170918366
 21
124.3317339491
  0
LINE
  5
22F
100
AcDbEntity
  8
0
100
AcDbLine
 62
7
  6
BYLAYER
 10
589.4170918366
 20
124.3317339425
 11
576.2170918366
 21
124.3317339425
  0
LINE
  5
230
100
AcDbEntity
  8
0
100
AcDbLine
 62
7
  6
BYLAYER
 10
569.6170918366
 20
124.3317339425
 11
568.4170918366
 21
124.3317339425
  0
LINE
  5
231
100
AcDbEntity
  8
0
100
AcDbLine
 62
7
  6
BYLAYER
 10
568.4170918366
 20
125.3317338736
 11
569.6170918366
 21
125.3317339425
  0
LINE
  5
232
100
AcDbEntity
  8
0
100
AcDbLine
 62
7
  6
BYLAYER
 10
576.2170918366
 20
125.3317339425
 11
577.4170918366
 21
125.3317338735
  0
LINE
  5
233
100
AcDbEntity
  8
0
100
AcDbLine
 62
7
  6
BYLAYER
 10
609.4170918366
 20
125.3317338736
 11
610.6170918337
 21
125.3317339425
  0
LINE
  5
234
100
AcDbEntity
  8
0
100
AcDbLine
 62
7
  6
BYLAYER
 10
617.2170918337
 20
125.3317339425
 11
618.4170918366
 21
125.3317338735
  0
LINE
  5
235
100
AcDbEntity
  8
0
100
AcDbLine
 62
7
  6
BYLAYER
 10
716.0662227251
 20
125.3317338736
 11
717.2662227251
 21
125.3317339425
  0
LINE
  5
236
100
AcDbEntity
  8
0
100
AcDbLine
 62
7
  6
BYLAYER
 10
723.8662227251
 20
125.3317339425
 11
725.0662227251
 21
125.3317338735
  0
LINE
  5
237
100
AcDbEntity
  8
0
100
AcDbLine
 62
7
  6
BYLAYER
 10
757.0662227251
 20
125.3317338736
 11
758.2662227222
 21
125.3317339425
  0
LINE
  5
238
100
AcDbEntity
  8
0
100
AcDbLine
 62
7
  6
BYLAYER
 10
764.8662227222
 20
125.3317339425
 11
766.0662227251
 21
125.3317338735
  0
LINE
  5
239
100
AcDbEntity
  8
0
100
AcDbLine
 62
7
  6
BYLAYER
 10
568.9170918366
 20
125.8317339425
 11
575.9170918366
 21
125.8317339425
  0
LINE
  5
23A
100
AcDbEntity
  8
0
100
AcDbLine
 62
7
  6
BYLAYER
 10
610.9170918366
 20
125.8317339425
 11
617.9170918366
 21
125.8317339425
  0
LINE
  5
23B
100
AcDbEntity
  8
0
100
AcDbLine
 62
7
  6
BYLAYER
 10
716.5662227251
 20
125.8317339425
 11
723.5662227251
 21
125.8317339425
  0
LINE
  5
23C
100
AcDbEntity
  8
0
100
AcDbLine
 62
7
  6
BYLAYER
 10
758.5662227251
 20
125.8317339425
 11
765.5662227251
 21
125.8317339425
  0
LINE
  5
23D
100
AcDbEntity
  8
0
100
AcDbLine
 62
7
  6
BYLAYER
 10
766.0662227251
 20
126.3317339425
 11
758.5662227251
 21
126.3317339425
  0
LINE
  5
23E
100
AcDbEntity
  8
0
100
AcDbLine
 62
7
  6
BYLAYER
 10
723.5662227251
 20
126.3317339425
 11
716.0662227251
 21
126.3317339425
  0
LINE
  5
23F
100
AcDbEntity
  8
0
100
AcDbLine
 62
7
  6
BYLAYER
 10
618.4170918366
 20
126.3317339425
 11
610.9170918366
 21
126.3317339425
  0
LINE
  5
240
100
AcDbEntity
  8
0
100
AcDbLine
 62
7
  6
BYLAYER
 10
575.9170918366
 20
126.3317339425
 11
568.4170918366
 21
126.3317339425
  0
LINE
  5
241
100
AcDbEntity
  8
0
100
AcDbLine
 62
7
  6
BYLAYER
 10
568.4170918366
 20
140.8317339425
 11
618.4170918366
 21
140.8317339425
  0
LINE
  5
242
100
AcDbEntity
  8
0
100
AcDbLine
 62
7
  6
BYLAYER
 10
716.0662227251
 20
140.8317339425
 11
766.0662227251
 21
140.8317339425
  0
LINE
  5
243
100
AcDbEntity
  8
3
100
AcDbLine
 62
7
  6
BYLAYER
 10
568.4166167935
 20
140.8318568895
 11
618.4166167935
 21
140.8318568895
  0
LINE
  5
244
100
AcDbEntity
  8
3
100
AcDbLine
 62
7
  6
BYLAYER
 10
716.0657476821
 20
140.8318568895
 11
766.0657476821
 21
140.8318568895
  0
LINE
  5
245
100
AcDbEntity
  8
4
100
AcDbLine
 62
7
  6
BYLAYER
 10
558.2278711101
 20
168.1800192042
 11
603.2278711101
 21
168.1800192042
  0
LINE
  5
246
100
AcDbEntity
  8
3
100
AcDbLine
 62
7
  6
BYLAYER
 10
705.8770019986
 20
168.1800192042
 11
750.8770019986
 21
168.1800192042
  0
LINE
  5
247
100
AcDbEntity
  8
3
100
AcDbLine
 62
7
  6
BYLAYER
 10
708.8770019986
 20
173.1800192042
 11
705.8770019986
 21
173.1800192042
  0
LINE
  5
248
100
AcDbEntity
  8
4
100
AcDbLine
 62
7
  6
BYLAYER
 10
561.2278711101
 20
173.1800192042
 11
558.2278711101
 21
173.1800192042
  0
LINE
  5
249
100
AcDbEntity
  8
3
100
AcDbLine
 62
7
  6
BYLAYER
 10
743.7662227237
 20
173.5034820238
 11
738.3662227237
 21
173.5034820238
  0
LINE
  5
24A
100
AcDbEntity
  8
4
100
AcDbLine
 62
7
  6
BYLAYER
 10
596.1170918352
 20
173.5034820238
 11
590.7170918352
 21
173.5034820238
  0
LINE
  5
24B
100
AcDbEntity
  8
4
100
AcDbLine
 62
7
  6
BYLAYER
 10
586.5278711101
 20
174.9300192042
 11
588.0127823663
 21
174.9300192042
  0
LINE
  5
24C
100
AcDbEntity
  8
4
100
AcDbLine
 62
7
  6
BYLAYER
 10
598.8210637644
 20
174.9300192042
 11
600.0278711101
 21
174.9300192042
  0
LINE
  5
24D
100
AcDbEntity
  8
3
100
AcDbLine
 62
7
  6
BYLAYER
 10
734.1770019986
 20
174.9300192042
 11
735.6619132548
 21
174.9300192042
  0
LINE
  5
24E
100
AcDbEntity
  8
3
100
AcDbLine
 62
7
  6
BYLAYER
 10
746.4701946529
 20
174.9300192042
 11
747.6770019986
 21
174.9300192042
  0
LINE
  5
24F
100
AcDbEntity
  8
3
100
AcDbLine
 62
7
  6
BYLAYER
 10
747.6770019986
 20
181.4300192042
 11
746.4705321925
 21
181.4300192042
  0
LINE
  5
250
100
AcDbEntity
  8
3
100
AcDbLine
 62
7
  6
BYLAYER
 10
735.6622507945
 20
181.4300192042
 11
734.1770019986
 21
181.4300192042
  0
LINE
  5
251
100
AcDbEntity
  8
4
100
AcDbLine
 62
7
  6
BYLAYER
 10
600.0278711101
 20
181.4300192042
 11
598.821401304
 21
181.4300192042
  0
LINE
  5
252
100
AcDbEntity
  8
4
100
AcDbLine
 62
7
  6
BYLAYER
 10
588.0131199059
 20
181.4300192042
 11
586.5278711101
 21
181.4300192042
  0
LINE
  5
253
100
AcDbEntity
  8
4
100
AcDbLine
 62
7
  6
BYLAYER
 10
590.7170918352
 20
182.8565563846
 11
596.1170918352
 21
182.8565563846
  0
LINE
  5
254
100
AcDbEntity
  8
3
100
AcDbLine
 62
7
  6
BYLAYER
 10
738.3662227237
 20
182.8565563846
 11
743.7662227237
 21
182.8565563846
  0
LINE
  5
255
100
AcDbEntity
  8
3
100
AcDbLine
 62
7
  6
BYLAYER
 10
743.7662227237
 20
203.5034820238
 11
738.3662227237
 21
203.5034820238
  0
LINE
  5
256
100
AcDbEntity
  8
4
100
AcDbLine
 62
7
  6
BYLAYER
 10
596.1170918352
 20
203.5034820238
 11
590.7170918352
 21
203.5034820238
  0
LINE
  5
257
100
AcDbEntity
  8
4
100
AcDbLine
 62
7
  6
BYLAYER
 10
586.5278711101
 20
204.9300192042
 11
588.0127823663
 21
204.9300192042
  0
LINE
  5
258
100
AcDbEntity
  8
4
100
AcDbLine
 62
7
  6
BYLAYER
 10
598.8210637644
 20
204.9300192042
 11
600.0278711101
 21
204.9300192042
  0
LINE
  5
259
100
AcDbEntity
  8
3
100
AcDbLine
 62
7
  6
BYLAYER
 10
734.1770019986
 20
204.9300192042
 11
735.6619132548
 21
204.9300192042
  0
LINE
  5
25A
100
AcDbEntity
  8
3
100
AcDbLine
 62
7
  6
BYLAYER
 10
746.4701946529
 20
204.9300192042
 11
747.6770019986
 21
204.9300192042
  0
LINE
  5
25B
100
AcDbEntity
  8
3
100
AcDbLine
 62
7
  6
BYLAYER
 10
747.6770019986
 20
211.4300192042
 11
746.4705321925
 21
211.4300192042
  0
LINE
  5
25C
100
AcDbEntity
  8
3
100
AcDbLine
 62
7
  6
BYLAYER
 10
735.6622507945
 20
211.4300192042
 11
734.1770019986
 21
211.4300192042
  0
LINE
  5
25D
100
AcDbEntity
  8
4
100
AcDbLine
 62
7
  6
BYLAYER
 10
600.0278711101
 20
211.4300192042
 11
598.821401304
 21
211.4300192042
  0
LINE
  5
25E
100
AcDbEntity
  8
4
100
AcDbLine
 62
7
  6
BYLAYER
 10
588.0131199059
 20
211.4300192042
 11
586.5278711101
 21
211.4300192042
  0
LINE
  5
25F
100
AcDbEntity
  8
4
100
AcDbLine
 62
7
  6
BYLAYER
 10
590.7170918352
 20
212.8565563846
 11
596.1170918352
 21
212.8565563846
  0
LINE
  5
260
100
AcDbEntity
  8
3
100
AcDbLine
 62
7
  6
BYLAYER
 10
738.3662227237
 20
212.8565563846
 11
743.7662227237
 21
212.8565563846
  0
LINE
  5
261
100
AcDbEntity
  8
4
100
AcDbLine
 62
7
  6
BYLAYER
 10
558.2278711101
 20
213.1800192042
 11
561.2278711101
 21
213.1800192042
  0
LINE
  5
262
100
AcDbEntity
  8
3
100
AcDbLine
 62
7
  6
BYLAYER
 10
705.8770019986
 20
213.1800192042
 11
708.8770019986
 21
213.1800192042
  0
LINE
  5
263
100
AcDbEntity
  8
4
100
AcDbLine
 62
7
  6
BYLAYER
 10
558.2278711101
 20
218.1800192042
 11
603.2278711101
 21
218.1800192042
  0
LINE
  5
264
100
AcDbEntity
  8
3
100
AcDbLine
 62
7
  6
BYLAYER
 10
705.8770019986
 20
218.1800192042
 11
750.8770019986
 21
218.1800192042
  0
LINE
  5
265
100
AcDbEntity
  8
0
100
AcDbLine
 62
7
  6
BYLAYER
 10
578.916362047
 20
1717.331844081
 11
578.4163640256
 21
1716.8318462395
  0
LINE
  5
266
100
AcDbEntity
  8
0
100
AcDbLine
 62
7
  6
BYLAYER
 10
577.1663640256
 20
1713.331844081
 11
576.6663640256
 21
1712.831844081
  0
LINE
  5
267
100
AcDbEntity
  8
0
100
AcDbLine
 62
7
  6
BYLAYER
 10
595.1663640256
 20
1713.331844081
 11
594.6663640256
 21
1712.831844081
  0
LINE
  5
268
100
AcDbEntity
  8
0
100
AcDbLine
 62
7
  6
BYLAYER
 10
726.5654929355
 20
1717.331844081
 11
726.0654949141
 21
1716.8318462395
  0
LINE
  5
269
100
AcDbEntity
  8
0
100
AcDbLine
 62
7
  6
BYLAYER
 10
724.8154949141
 20
1713.331844081
 11
724.3154949141
 21
1712.831844081
  0
LINE
  5
26A
100
AcDbEntity
  8
0
100
AcDbLine
 62
7
  6
BYLAYER
 10
742.8154949141
 20
1713.331844081
 11
742.3154949141
 21
1712.831844081
  0
LINE
  5
26B
100
AcDbEntity
  8
4
100
AcDbLine
 62
7
  6
BYLAYER
 10
590.7170918352
 20
1659.1914588455
 11
588.0170918352
 21
1654.5149216651
  0
LINE
  5
26C
100
AcDbEntity
  8
4
100
AcDbLine
 62
7
  6
BYLAYER
 10
596.1170918352
 20
1649.8383844846
 11
598.8170918352
 21
1654.5149216651
  0
LINE
  5
26D
100
AcDbEntity
  8
4
100
AcDbLine
 62
7
  6
BYLAYER
 10
588.0170918352
 20
178.1800192042
 11
590.7170918352
 21
173.5034820238
  0
LINE
  5
26E
100
AcDbEntity
  8
4
100
AcDbLine
 62
7
  6
BYLAYER
 10
598.8170918352
 20
178.1800192042
 11
596.1170918352
 21
182.8565563846
  0
LINE
  5
26F
100
AcDbEntity
  8
4
100
AcDbLine
 62
7
  6
BYLAYER
 10
590.7170918352
 20
1629.1914588455
 11
588.0170918352
 21
1624.5149216651
  0
LINE
  5
270
100
AcDbEntity
  8
4
100
AcDbLine
 62
7
  6
BYLAYER
 10
596.1170918352
 20
1619.8383844846
 11
598.8170918352
 21
1624.5149216651
  0
LINE
  5
271
100
AcDbEntity
  8
4
100
AcDbLine
 62
7
  6
BYLAYER
 10
588.0170918352
 20
208.1800192042
 11
590.7170918352
 21
203.5034820238
  0
LINE
  5
272
100
AcDbEntity
  8
4
100
AcDbLine
 62
7
  6
BYLAYER
 10
598.8170918352
 20
208.1800192042
 11
596.1170918352
 21
212.8565563846
  0
LINE
  5
273
100
AcDbEntity
  8
3
100
AcDbLine
 62
7
  6
BYLAYER
 10
738.3662227237
 20
1659.1914588455
 11
735.6662227237
 21
1654.5149216651
  0
LINE
  5
274
100
AcDbEntity
  8
3
100
AcDbLine
 62
7
  6
BYLAYER
 10
743.7662227237
 20
1649.8383844846
 11
746.4662227237
 21
1654.5149216651
  0
LINE
  5
275
100
AcDbEntity
  8
3
100
AcDbLine
 62
7
  6
BYLAYER
 10
738.3662227237
 20
1629.1914588455
 11
735.6662227237
 21
1624.5149216651
  0
LINE
  5
276
100
AcDbEntity
  8
3
100
AcDbLine
 62
7
  6
BYLAYER
 10
743.7662227237
 20
1619.8383844846
 11
746.4662227237
 21
1624.5149216651
  0
LINE
  5
277
100
AcDbEntity
  8
3
100
AcDbLine
 62
7
  6
BYLAYER
 10
735.6662227237
 20
178.1800192042
 11
738.3662227237
 21
173.5034820238
  0
LINE
  5
278
100
AcDbEntity
  8
3
100
AcDbLine
 62
7
  6
BYLAYER
 10
746.4662227237
 20
178.1800192042
 11
743.7662227237
 21
182.8565563846
  0
LINE
  5
279
100
AcDbEntity
  8
3
100
AcDbLine
 62
7
  6
BYLAYER
 10
735.6662227237
 20
208.1800192042
 11
738.3662227237
 21
203.5034820238
  0
LINE
  5
27A
100
AcDbEntity
  8
3
100
AcDbLine
 62
7
  6
BYLAYER
 10
746.4662227237
 20
208.1800192042
 11
743.7662227237
 21
212.8565563846
  0
LINE
  5
27B
100
AcDbEntity
  8
4
100
AcDbLine
 62
7
  6
BYLAYER
 10
558.2278711101
 20
168.1800192042
 11
558.2278711101
 21
218.1800192042
  0
LINE
  5
27C
100
AcDbEntity
  8
4
100
AcDbLine
 62
7
  6
BYLAYER
 10
558.2278711101
 20
890.464160044
 11
558.2278711101
 21
940.464160044
  0
LINE
  5
27D
100
AcDbEntity
  8
4
100
AcDbLine
 62
7
  6
BYLAYER
 10
558.2278711101
 20
1614.5149216651
 11
558.2278711101
 21
1664.5149216651
  0
LINE
  5
27E
100
AcDbEntity
  8
4
100
AcDbLine
 62
7
  6
BYLAYER
 10
561.2278711101
 20
1664.5149216651
 11
561.2278711101
 21
1614.5149216651
  0
LINE
  5
27F
100
AcDbEntity
  8
4
100
AcDbLine
 62
7
  6
BYLAYER
 10
561.2278711101
 20
940.464160044
 11
561.2278711101
 21
890.464160044
  0
LINE
  5
280
100
AcDbEntity
  8
4
100
AcDbLine
 62
7
  6
BYLAYER
 10
561.2278711101
 20
218.1800192042
 11
561.2278711101
 21
168.1800192042
  0
LINE
  5
281
100
AcDbEntity
  8
4
100
AcDbLine
 62
7
  6
BYLAYER
 10
565.2278711101
 20
168.1800192042
 11
565.2278711101
 21
218.1800192042
  0
LINE
  5
282
100
AcDbEntity
  8
4
100
AcDbLine
 62
7
  6
BYLAYER
 10
565.2278711101
 20
890.464160044
 11
565.2278711101
 21
940.464160044
  0
LINE
  5
283
100
AcDbEntity
  8
4
100
AcDbLine
 62
7
  6
BYLAYER
 10
565.2278711101
 20
1614.5149216651
 11
565.2278711101
 21
1664.5149216651
  0
LINE
  5
284
100
AcDbEntity
  8
0
100
AcDbLine
 62
7
  6
BYLAYER
 10
568.4163657499
 20
1704.8318856806
 11
568.4163640245
 21
1704.0331011329
  0
LINE
  5
285
100
AcDbEntity
  8
0
100
AcDbLine
 62
7
  6
BYLAYER
 10
568.4163640256
 20
1705.831844081
 11
568.4163640256
 21
1703.8437777867
  0
LINE
  5
286
100
AcDbEntity
  8
0
100
AcDbLine
 62
7
  6
BYLAYER
 10
568.4163640256
 20
1703.831844081
 11
568.4163640256
 21
1689.331844081
  0
LINE
  5
287
100
AcDbEntity
  8
3
100
AcDbLine
 62
7
  6
BYLAYER
 10
568.4166167935
 20
1689.3318568895
 11
568.4166167935
 21
1664.5149216651
  0
LINE
  5
288
100
AcDbEntity
  8
3
100
AcDbLine
 62
7
  6
BYLAYER
 10
568.4166167935
 20
1614.5149216651
 11
568.4166167935
 21
940.464160044
  0
LINE
  5
289
100
AcDbEntity
  8
3
100
AcDbLine
 62
7
  6
BYLAYER
 10
568.4166167935
 20
890.464160044
 11
568.4166167935
 21
218.1800192042
  0
LINE
  5
28A
100
AcDbEntity
  8
3
100
AcDbLine
 62
7
  6
BYLAYER
 10
568.4166167935
 20
168.1800192042
 11
568.4166167935
 21
140.8318568895
  0
LINE
  5
28B
100
AcDbEntity
  8
0
100
AcDbLine
 62
7
  6
BYLAYER
 10
568.4170918366
 20
124.3317339425
 11
568.4170918366
 21
140.8317339425
  0
LINE
  5
28C
100
AcDbEntity
  8
0
100
AcDbLine
 62
7
  6
BYLAYER
 10
569.4163640239
 20
1704.831844081
 11
569.4163640256
 21
1706.831844081
  0
LINE
  5
28D
100
AcDbEntity
  8
0
100
AcDbLine
 62
7
  6
BYLAYER
 10
569.4170918366
 20
123.3317339425
 11
569.4170918349
 21
125.3317339425
  0
LINE
  5
28E
100
AcDbEntity
  8
0
100
AcDbLine
 62
7
  6
BYLAYER
 10
569.6163640256
 20
1704.331844081
 11
569.6163640256
 21
1705.931844081
  0
LINE
  5
28F
100
AcDbEntity
  8
0
100
AcDbLine
 62
7
  6
BYLAYER
 10
569.6170918366
 20
124.231844081
 11
569.6170918366
 21
125.831844081
  0
LINE
  5
290
100
AcDbEntity
  8
0
100
AcDbLine
 62
7
  6
BYLAYER
 10
572.4163640256
 20
1689.331844081
 11
572.4163640256
 21
1704.331844081
  0
LINE
  5
291
100
AcDbEntity
  8
3
100
AcDbLine
 62
7
  6
BYLAYER
 10
572.4166167935
 20
140.8318568895
 11
572.4166167935
 21
168.1800192042
  0
LINE
  5
292
100
AcDbEntity
  8
3
100
AcDbLine
 62
7
  6
BYLAYER
 10
572.4166167935
 20
218.1800192042
 11
572.4166167935
 21
890.464160044
  0
LINE
  5
293
100
AcDbEntity
  8
3
100
AcDbLine
 62
7
  6
BYLAYER
 10
572.4166167935
 20
940.464160044
 11
572.4166167935
 21
1614.5149216651
  0
LINE
  5
294
100
AcDbEntity
  8
3
100
AcDbLine
 62
7
  6
BYLAYER
 10
572.4166167935
 20
1664.5149216651
 11
572.4166167935
 21
1689.3318568895
  0
LINE
  5
295
100
AcDbEntity
  8
0
100
AcDbLine
 62
7
  6
BYLAYER
 10
572.4170918366
 20
125.8317339425
 11
572.4170918366
 21
140.8317339425
  0
LINE
  5
296
100
AcDbEntity
  8
0
100
AcDbLine
 62
7
  6
BYLAYER
 10
575.9163639527
 20
1704.331844081
 11
575.9163639527
 21
1703.831844081
  0
LINE
  5
297
100
AcDbEntity
  8
0
100
AcDbLine
 62
7
  6
BYLAYER
 10
575.9170917641
 20
126.3317339425
 11
575.9170917641
 21
125.8317339425
  0
LINE
  5
298
100
AcDbEntity
  8
0
100
AcDbLine
 62
7
  6
BYLAYER
 10
576.2163640256
 20
1705.931844081
 11
576.2163640256
 21
1704.4360265158
  0
LINE
  5
299
100
AcDbEntity
  8
0
100
AcDbLine
 62
7
  6
BYLAYER
 10
576.2170918366
 20
125.7276669483
 11
576.2170918366
 21
124.231844081
  0
LINE
  5
29A
100
AcDbEntity
  8
0
100
AcDbLine
 62
7
  6
BYLAYER
 10
576.4163640256
 20
1705.831844081
 11
576.4163640256
 21
1704.831844081
  0
LINE
  5
29B
100
AcDbEntity
  8
0
100
AcDbLine
 62
7
  6
BYLAYER
 10
576.4170918366
 20
125.3317339425
 11
576.4170918366
 21
124.3317339425
  0
LINE
  5
29C
100
AcDbEntity
  8
0
100
AcDbLine
 62
7
  6
BYLAYER
 10
576.6663640256
 20
1706.831844081
 11
576.6663640256
 21
1712.831844081
  0
LINE
  5
29D
100
AcDbEntity
  8
0
100
AcDbLine
 62
7
  6
BYLAYER
 10
577.4163640256
 20
1704.831844081
 11
577.4163640256
 21
1706.831844081
  0
LINE
  5
29E
100
AcDbEntity
  8
0
100
AcDbLine
 62
7
  6
BYLAYER
 10
577.4170918366
 20
123.3317339425
 11
577.4170918366
 21
125.3317339425
  0
LINE
  5
29F
100
AcDbEntity
  8
0
100
AcDbLine
 62
7
  6
BYLAYER
 10
578.4163640256
 20
1713.331844081
 11
578.4163640256
 21
1716.8318431435
  0
LINE
  5
2A0
100
AcDbEntity
  8
0
100
AcDbLine
 62
7
  6
BYLAYER
 10
580.2921440256
 20
1714.531844081
 11
580.2921440256
 21
1713.331844081
  0
LINE
  5
2A1
100
AcDbEntity
  8
0
100
AcDbLine
 62
7
  6
BYLAYER
 10
588.5421440256
 20
1714.531844081
 11
588.5421440256
 21
1713.331844081
  0
LINE
  5
2A2
100
AcDbEntity
  8
0
100
AcDbLine
 62
7
  6
BYLAYER
 10
588.9163640256
 20
1705.831844081
 11
588.9163640256
 21
1689.331844081
  0
LINE
  5
2A3
100
AcDbEntity
  8
3
100
AcDbLine
 62
7
  6
BYLAYER
 10
588.9166167935
 20
1689.3318568895
 11
588.9166167935
 21
1664.5149216651
  0
LINE
  5
2A4
100
AcDbEntity
  8
3
100
AcDbLine
 62
7
  6
BYLAYER
 10
588.9166167935
 20
1614.5149216651
 11
588.9166167935
 21
940.464160044
  0
LINE
  5
2A5
100
AcDbEntity
  8
3
100
AcDbLine
 62
7
  6
BYLAYER
 10
588.9166167935
 20
890.464160044
 11
588.9166167935
 21
218.1800192042
  0
LINE
  5
2A6
100
AcDbEntity
  8
3
100
AcDbLine
 62
7
  6
BYLAYER
 10
588.9166167935
 20
168.1800192042
 11
588.9166167935
 21
140.8318568895
  0
LINE
  5
2A7
100
AcDbEntity
  8
0
100
AcDbLine
 62
7
  6
BYLAYER
 10
588.9170918366
 20
140.8317339425
 11
588.9170918366
 21
124.3317339425
  0
LINE
  5
2A8
100
AcDbEntity
  8
0
100
AcDbLine
 62
7
  6
BYLAYER
 10
589.4163640256
 20
1689.331844081
 11
589.4163640256
 21
1705.8318440809
  0
LINE
  5
2A9
100
AcDbEntity
  8
3
100
AcDbLine
 62
7
  6
BYLAYER
 10
589.4166167935
 20
140.8318568895
 11
589.4166167935
 21
168.1800192042
  0
LINE
  5
2AA
100
AcDbEntity
  8
3
100
AcDbLine
 62
7
  6
BYLAYER
 10
589.4166167935
 20
218.1800192042
 11
589.4166167935
 21
890.464160044
  0
LINE
  5
2AB
100
AcDbEntity
  8
3
100
AcDbLine
 62
7
  6
BYLAYER
 10
589.4166167935
 20
940.464160044
 11
589.4166167935
 21
1614.5149216651
  0
LINE
  5
2AC
100
AcDbEntity
  8
3
100
AcDbLine
 62
7
  6
BYLAYER
 10
589.4166167935
 20
1664.5149216651
 11
589.4166167935
 21
1689.3318568895
  0
LINE
  5
2AD
100
AcDbEntity
  8
0
100
AcDbLine
 62
7
  6
BYLAYER
 10
589.4170918366
 20
124.3317339425
 11
589.4170918366
 21
140.8317339425
  0
LINE
  5
2AE
100
AcDbEntity
  8
0
100
AcDbLine
 62
7
  6
BYLAYER
 10
590.4163640256
 20
1716.8318431435
 11
590.4163640256
 21
1713.331844081
  0
LINE
  5
2AF
100
AcDbEntity
  8
0
100
AcDbLine
 62
7
  6
BYLAYER
 10
592.1663640256
 20
1706.831844081
 11
592.1663640256
 21
1712.831844081
  0
LINE
  5
2B0
100
AcDbEntity
  8
0
100
AcDbLine
 62
7
  6
BYLAYER
 10
594.6663640256
 20
1706.831844081
 11
594.6663640256
 21
1712.831844081
  0
LINE
  5
2B1
100
AcDbEntity
  8
0
100
AcDbLine
 62
7
  6
BYLAYER
 10
597.4163640256
 20
1705.8318440809
 11
597.4163640256
 21
1689.331844081
  0
LINE
  5
2B2
100
AcDbEntity
  8
3
100
AcDbLine
 62
7
  6
BYLAYER
 10
597.4166167935
 20
1689.3318568895
 11
597.4166167935
 21
1664.5149216651
  0
LINE
  5
2B3
100
AcDbEntity
  8
3
100
AcDbLine
 62
7
  6
BYLAYER
 10
597.4166167935
 20
1614.5149216651
 11
597.4166167935
 21
940.464160044
  0
LINE
  5
2B4
100
AcDbEntity
  8
3
100
AcDbLine
 62
7
  6
BYLAYER
 10
597.4166167935
 20
890.464160044
 11
597.4166167935
 21
218.1800192042
  0
LINE
  5
2B5
100
AcDbEntity
  8
3
100
AcDbLine
 62
7
  6
BYLAYER
 10
597.4166167935
 20
168.1800192042
 11
597.4166167935
 21
140.8318568895
  0
LINE
  5
2B6
100
AcDbEntity
  8
0
100
AcDbLine
 62
7
  6
BYLAYER
 10
597.4170918366
 20
140.8317339425
 11
597.4170918366
 21
124.3317339425
  0
LINE
  5
2B7
100
AcDbEntity
  8
0
100
AcDbLine
 62
7
  6
BYLAYER
 10
597.9163640256
 20
1689.331844081
 11
597.9163640256
 21
1705.831844081
  0
LINE
  5
2B8
100
AcDbEntity
  8
3
100
AcDbLine
 62
7
  6
BYLAYER
 10
597.9166167935
 20
140.8318568895
 11
597.9166167935
 21
168.1800192042
  0
LINE
  5
2B9
100
AcDbEntity
  8
3
100
AcDbLine
 62
7
  6
BYLAYER
 10
597.9166167935
 20
218.1800192042
 11
597.9166167935
 21
890.464160044
  0
LINE
  5
2BA
100
AcDbEntity
  8
3
100
AcDbLine
 62
7
  6
BYLAYER
 10
597.9166167935
 20
940.464160044
 11
597.9166167935
 21
1614.5149216651
  0
LINE
  5
2BB
100
AcDbEntity
  8
3
100
AcDbLine
 62
7
  6
BYLAYER
 10
597.9166167935
 20
1664.5149216651
 11
597.9166167935
 21
1689.3318568895
  0
LINE
  5
2BC
100
AcDbEntity
  8
0
100
AcDbLine
 62
7
  6
BYLAYER
 10
597.9170918366
 20
124.3317339425
 11
597.9170918366
 21
140.8317339425
  0
LINE
  5
2BD
100
AcDbEntity
  8
0
100
AcDbLine
 62
7
  6
BYLAYER
 10
598.2931240256
 20
1714.531844081
 11
598.2931240256
 21
1713.331844081
  0
LINE
  5
2BE
100
AcDbEntity
  8
0
100
AcDbLine
 62
7
  6
BYLAYER
 10
606.5431240256
 20
1714.531844081
 11
606.5431240256
 21
1713.331844081
  0
LINE
  5
2BF
100
AcDbEntity
  8
4
100
AcDbLine
 62
7
  6
BYLAYER
 10
608.2278711101
 20
1659.5149216651
 11
608.2278711101
 21
1619.5149216651
  0
LINE
  5
2C0
100
AcDbEntity
  8
4
100
AcDbLine
 62
7
  6
BYLAYER
 10
608.2278711101
 20
935.464160044
 11
608.2278711101
 21
895.464160044
  0
LINE
  5
2C1
100
AcDbEntity
  8
4
100
AcDbLine
 62
7
  6
BYLAYER
 10
608.2278711101
 20
213.1800192042
 11
608.2278711101
 21
173.1800192042
  0
LINE
  5
2C2
100
AcDbEntity
  8
0
100
AcDbLine
 62
7
  6
BYLAYER
 10
609.4163640256
 20
1706.831844081
 11
609.4163640256
 21
1704.831844081
  0
LINE
  5
2C3
100
AcDbEntity
  8
0
100
AcDbLine
 62
7
  6
BYLAYER
 10
609.4170918366
 20
125.3317339425
 11
609.4170918366
 21
123.3317339425
  0
LINE
  5
2C4
100
AcDbEntity
  8
0
100
AcDbLine
 62
7
  6
BYLAYER
 10
610.1663640256
 20
1706.831844081
 11
610.1663640256
 21
1712.831844081
  0
LINE
  5
2C5
100
AcDbEntity
  8
0
100
AcDbLine
 62
7
  6
BYLAYER
 10
610.4163640256
 20
1704.831844081
 11
610.4163640256
 21
1705.831844081
  0
LINE
  5
2C6
100
AcDbEntity
  8
0
100
AcDbLine
 62
7
  6
BYLAYER
 10
610.4170918366
 20
124.3317339425
 11
610.4170918366
 21
125.3317339425
  0
LINE
  5
2C7
100
AcDbEntity
  8
0
100
AcDbLine
 62
7
  6
BYLAYER
 10
610.6163640256
 20
1704.435911075
 11
610.6163640256
 21
1705.931844081
  0
LINE
  5
2C8
100
AcDbEntity
  8
0
100
AcDbLine
 62
7
  6
BYLAYER
 10
610.6170918337
 20
124.231844081
 11
610.6170918337
 21
125.7275515058
  0
LINE
  5
2C9
100
AcDbEntity
  8
0
100
AcDbLine
 62
7
  6
BYLAYER
 10
610.9163640981
 20
1703.831844081
 11
610.9163640981
 21
1704.331844081
  0
LINE
  5
2CA
100
AcDbEntity
  8
0
100
AcDbLine
 62
7
  6
BYLAYER
 10
610.9170919095
 20
125.8317339425
 11
610.9170919095
 21
126.3317339425
  0
LINE
  5
2CB
100
AcDbEntity
  8
0
100
AcDbLine
 62
7
  6
BYLAYER
 10
614.4163640256
 20
1704.331844081
 11
614.4163640256
 21
1689.331844081
  0
LINE
  5
2CC
100
AcDbEntity
  8
3
100
AcDbLine
 62
7
  6
BYLAYER
 10
614.4166167935
 20
1689.3318568895
 11
614.4166167935
 21
140.8318568895
  0
LINE
  5
2CD
100
AcDbEntity
  8
0
100
AcDbLine
 62
7
  6
BYLAYER
 10
614.4170918366
 20
140.8317339425
 11
614.4170918366
 21
125.8317339425
  0
LINE
  5
2CE
100
AcDbEntity
  8
4
100
AcDbLine
 62
7
  6
BYLAYER
 10
590.7170918352
 20
935.1406972244
 11
588.0170918352
 21
930.464160044
  0
LINE
  5
2CF
100
AcDbEntity
  8
4
100
AcDbLine
 62
7
  6
BYLAYER
 10
596.1170918352
 20
925.7876228635
 11
598.8170918352
 21
930.464160044
  0
LINE
  5
2D0
100
AcDbEntity
  8
4
100
AcDbLine
 62
7
  6
BYLAYER
 10
590.7170918352
 20
905.1406972244
 11
588.0170918352
 21
900.464160044
  0
LINE
  5
2D1
100
AcDbEntity
  8
4
100
AcDbLine
 62
7
  6
BYLAYER
 10
588.0170918352
 20
900.464160044
 11
590.7170918352
 21
895.7876228635
  0
LINE
  5
2D2
100
AcDbEntity
  8
4
100
AcDbLine
 62
7
  6
BYLAYER
 10
598.8170918352
 20
900.464160044
 11
596.1170918352
 21
905.1406972244
  0
LINE
  5
2D3
100
AcDbEntity
  8
4
100
AcDbLine
 62
7
  6
BYLAYER
 10
588.0170918352
 20
930.464160044
 11
590.7170918352
 21
925.7876228635
  0
LINE
  5
2D4
100
AcDbEntity
  8
4
100
AcDbLine
 62
7
  6
BYLAYER
 10
598.8170918352
 20
930.464160044
 11
596.1170918352
 21
935.1406972244
  0
LINE
  5
2D5
100
AcDbEntity
  8
0
100
AcDbLine
 62
7
  6
BYLAYER
 10
617.2163640256
 20
1705.931844081
 11
617.2163640256
 21
1704.331844081
  0
LINE
  5
2D6
100
AcDbEntity
  8
0
100
AcDbLine
 62
7
  6
BYLAYER
 10
617.2170918337
 20
125.831844081
 11
617.2170918337
 21
124.231844081
  0
LINE
  5
2D7
100
AcDbEntity
  8
0
100
AcDbLine
 62
7
  6
BYLAYER
 10
617.4163640256
 20
1706.831844081
 11
617.4163640273
 21
1704.831844081
  0
LINE
  5
2D8
100
AcDbEntity
  8
0
100
AcDbLine
 62
7
  6
BYLAYER
 10
617.4170918383
 20
125.3317339425
 11
617.4170918366
 21
123.3317339425
  0
LINE
  5
2D9
100
AcDbEntity
  8
0
100
AcDbLine
 62
7
  6
BYLAYER
 10
618.4163640256
 20
1689.331844081
 11
618.4163640256
 21
1705.831844081
  0
LINE
  5
2DA
100
AcDbEntity
  8
3
100
AcDbLine
 62
7
  6
BYLAYER
 10
618.4166167935
 20
140.8318568895
 11
618.4166167935
 21
1689.3318568895
  0
LINE
  5
2DB
100
AcDbEntity
  8
0
100
AcDbLine
 62
7
  6
BYLAYER
 10
618.4170918366
 20
126.3317339425
 11
618.4170918366
 21
140.8317339425
  0
LINE
  5
2DC
100
AcDbEntity
  8
0
100
AcDbLine
 62
7
  6
BYLAYER
 10
618.4170918366
 20
124.3317339425
 11
618.4170918366
 21
126.3197806911
  0
LINE
  5
2DD
100
AcDbEntity
  8
0
100
AcDbLine
 62
7
  6
BYLAYER
 10
618.4170901136
 20
125.3316924992
 11
618.4170918377
 21
126.1303760448
  0
LINE
  5
2DE
100
AcDbEntity
  8
4
100
AcDbLine
 62
7
  6
BYLAYER
 10
596.1170918352
 20
895.7876228635
 11
598.8170918352
 21
900.464160044
  0
LINE
  5
2DF
100
AcDbEntity
  8
4
100
AcDbLine
 62
7
  6
BYLAYER
 10
558.2278711101
 20
890.464160044
 11
603.2278711101
 21
890.464160044
  0
LINE
  5
2E0
100
AcDbEntity
  8
3
100
AcDbLine
 62
7
  6
BYLAYER
 10
705.8770019986
 20
890.464160044
 11
750.8770019986
 21
890.464160044
  0
LINE
  5
2E1
100
AcDbEntity
  8
3
100
AcDbLine
 62
7
  6
BYLAYER
 10
708.8770019986
 20
895.464160044
 11
705.8770019986
 21
895.464160044
  0
LINE
  5
2E2
100
AcDbEntity
  8
4
100
AcDbLine
 62
7
  6
BYLAYER
 10
561.2278711101
 20
895.464160044
 11
558.2278711101
 21
895.464160044
  0
LINE
  5
2E3
100
AcDbEntity
  8
3
100
AcDbLine
 62
7
  6
BYLAYER
 10
743.7662227237
 20
895.7876228635
 11
738.3662227237
 21
895.7876228635
  0
LINE
  5
2E4
100
AcDbEntity
  8
4
100
AcDbLine
 62
7
  6
BYLAYER
 10
596.1170918352
 20
895.7876228635
 11
590.7170918352
 21
895.7876228635
  0
LINE
  5
2E5
100
AcDbEntity
  8
4
100
AcDbLine
 62
7
  6
BYLAYER
 10
586.5278711101
 20
897.214160044
 11
588.0127823663
 21
897.214160044
  0
LINE
  5
2E6
100
AcDbEntity
  8
4
100
AcDbLine
 62
7
  6
BYLAYER
 10
598.8210637644
 20
897.214160044
 11
600.0278711101
 21
897.214160044
  0
LINE
  5
2E7
100
AcDbEntity
  8
3
100
AcDbLine
 62
7
  6
BYLAYER
 10
734.1770019986
 20
897.214160044
 11
735.6619132548
 21
897.214160044
  0
LINE
  5
2E8
100
AcDbEntity
  8
3
100
AcDbLine
 62
7
  6
BYLAYER
 10
746.4701946529
 20
897.214160044
 11
747.6770019986
 21
897.214160044
  0
LINE
  5
2E9
100
AcDbEntity
  8
3
100
AcDbLine
 62
7
  6
BYLAYER
 10
747.6770019986
 20
903.714160044
 11
746.4705321925
 21
903.714160044
  0
LINE
  5
2EA
100
AcDbEntity
  8
3
100
AcDbLine
 62
7
  6
BYLAYER
 10
735.6622507945
 20
903.714160044
 11
734.1770019986
 21
903.714160044
  0
LINE
  5
2EB
100
AcDbEntity
  8
4
100
AcDbLine
 62
7
  6
BYLAYER
 10
600.0278711101
 20
903.714160044
 11
598.821401304
 21
903.714160044
  0
LINE
  5
2EC
100
AcDbEntity
  8
4
100
AcDbLine
 62
7
  6
BYLAYER
 10
588.0131199059
 20
903.714160044
 11
586.5278711101
 21
903.714160044
  0
LINE
  5
2ED
100
AcDbEntity
  8
4
100
AcDbLine
 62
7
  6
BYLAYER
 10
590.7170918352
 20
905.1406972244
 11
596.1170918352
 21
905.1406972244
  0
LINE
  5
2EE
100
AcDbEntity
  8
3
100
AcDbLine
 62
7
  6
BYLAYER
 10
738.3662227237
 20
905.1406972244
 11
743.7662227237
 21
905.1406972244
  0
LINE
  5
2EF
100
AcDbEntity
  8
3
100
AcDbLine
 62
7
  6
BYLAYER
 10
743.7662227237
 20
925.7876228635
 11
738.3662227237
 21
925.7876228635
  0
LINE
  5
2F0
100
AcDbEntity
  8
4
100
AcDbLine
 62
7
  6
BYLAYER
 10
596.1170918352
 20
925.7876228635
 11
590.7170918352
 21
925.7876228635
  0
LINE
  5
2F1
100
AcDbEntity
  8
4
100
AcDbLine
 62
7
  6
BYLAYER
 10
586.5278711101
 20
927.214160044
 11
588.0127823663
 21
927.214160044
  0
LINE
  5
2F2
100
AcDbEntity
  8
4
100
AcDbLine
 62
7
  6
BYLAYER
 10
598.8210637644
 20
927.214160044
 11
600.0278711101
 21
927.214160044
  0
LINE
  5
2F3
100
AcDbEntity
  8
3
100
AcDbLine
 62
7
  6
BYLAYER
 10
734.1770019986
 20
927.214160044
 11
735.6619132548
 21
927.214160044
  0
LINE
  5
2F4
100
AcDbEntity
  8
3
100
AcDbLine
 62
7
  6
BYLAYER
 10
746.4701946529
 20
927.214160044
 11
747.6770019986
 21
927.214160044
  0
LINE
  5
2F5
100
AcDbEntity
  8
3
100
AcDbLine
 62
7
  6
BYLAYER
 10
705.8770019986
 20
168.1800192042
 11
705.8770019986
 21
218.1800192042
  0
LINE
  5
2F6
100
AcDbEntity
  8
3
100
AcDbLine
 62
7
  6
BYLAYER
 10
705.8770019986
 20
890.464160044
 11
705.8770019986
 21
940.464160044
  0
LINE
  5
2F7
100
AcDbEntity
  8
3
100
AcDbLine
 62
7
  6
BYLAYER
 10
705.8770019986
 20
1614.5149216651
 11
705.8770019986
 21
1664.5149216651
  0
LINE
  5
2F8
100
AcDbEntity
  8
3
100
AcDbLine
 62
7
  6
BYLAYER
 10
708.8770019986
 20
1664.5149216651
 11
708.8770019986
 21
1614.5149216651
  0
LINE
  5
2F9
100
AcDbEntity
  8
3
100
AcDbLine
 62
7
  6
BYLAYER
 10
708.8770019986
 20
940.464160044
 11
708.8770019986
 21
890.464160044
  0
LINE
  5
2FA
100
AcDbEntity
  8
3
100
AcDbLine
 62
7
  6
BYLAYER
 10
708.8770019986
 20
218.1800192042
 11
708.8770019986
 21
168.1800192042
  0
LINE
  5
2FB
100
AcDbEntity
  8
3
100
AcDbLine
 62
7
  6
BYLAYER
 10
712.8770019986
 20
168.1800192042
 11
712.8770019986
 21
218.1800192042
  0
LINE
  5
2FC
100
AcDbEntity
  8
3
100
AcDbLine
 62
7
  6
BYLAYER
 10
712.8770019986
 20
890.464160044
 11
712.8770019986
 21
940.464160044
  0
LINE
  5
2FD
100
AcDbEntity
  8
3
100
AcDbLine
 62
7
  6
BYLAYER
 10
712.8770019986
 20
1614.5149216651
 11
712.8770019986
 21
1664.5149216651
  0
LINE
  5
2FE
100
AcDbEntity
  8
0
100
AcDbLine
 62
7
  6
BYLAYER
 10
716.0654966438
 20
1704.831886347
 11
716.065494913
 21
1704.0326702737
  0
LINE
  5
2FF
100
AcDbEntity
  8
0
100
AcDbLine
 62
7
  6
BYLAYER
 10
716.0654949141
 20
1705.831844081
 11
716.0654949141
 21
1703.8436944124
  0
LINE
  5
300
100
AcDbEntity
  8
0
100
AcDbLine
 62
7
  6
BYLAYER
 10
716.0654949141
 20
1703.831844081
 11
716.0654949141
 21
1689.331844081
  0
LINE
  5
301
100
AcDbEntity
  8
3
100
AcDbLine
 62
7
  6
BYLAYER
 10
716.0657476821
 20
1689.3318568895
 11
716.0657476821
 21
1664.5149216651
  0
LINE
  5
302
100
AcDbEntity
  8
3
100
AcDbLine
 62
7
  6
BYLAYER
 10
716.0657476821
 20
1614.5149216651
 11
716.0657476821
 21
940.464160044
  0
LINE
  5
303
100
AcDbEntity
  8
3
100
AcDbLine
 62
7
  6
BYLAYER
 10
716.0657476821
 20
890.464160044
 11
716.0657476821
 21
218.1800192042
  0
LINE
  5
304
100
AcDbEntity
  8
3
100
AcDbLine
 62
7
  6
BYLAYER
 10
716.0657476821
 20
168.1800192042
 11
716.0657476821
 21
140.8318568895
  0
LINE
  5
305
100
AcDbEntity
  8
0
100
AcDbLine
 62
7
  6
BYLAYER
 10
716.0662227251
 20
124.3317339425
 11
716.0662227251
 21
140.8317339425
  0
LINE
  5
306
100
AcDbEntity
  8
0
100
AcDbLine
 62
7
  6
BYLAYER
 10
717.0654949124
 20
1704.831844081
 11
717.0654949141
 21
1706.831844081
  0
LINE
  5
307
100
AcDbEntity
  8
0
100
AcDbLine
 62
7
  6
BYLAYER
 10
717.0662227251
 20
123.3317339425
 11
717.0662227234
 21
125.3317339425
  0
LINE
  5
308
100
AcDbEntity
  8
0
100
AcDbLine
 62
7
  6
BYLAYER
 10
717.2654949141
 20
1704.331844081
 11
717.2654949141
 21
1705.931844081
  0
LINE
  5
309
100
AcDbEntity
  8
0
100
AcDbLine
 62
7
  6
BYLAYER
 10
717.2662227251
 20
124.231844081
 11
717.2662227251
 21
125.831844081
  0
LINE
  5
30A
100
AcDbEntity
  8
0
100
AcDbLine
 62
7
  6
BYLAYER
 10
720.0654949141
 20
1689.331844081
 11
720.0654949141
 21
1704.331844081
  0
LINE
  5
30B
100
AcDbEntity
  8
3
100
AcDbLine
 62
7
  6
BYLAYER
 10
720.0657476821
 20
140.8318568895
 11
720.0657476821
 21
168.1800192042
  0
LINE
  5
30C
100
AcDbEntity
  8
3
100
AcDbLine
 62
7
  6
BYLAYER
 10
720.0657476821
 20
218.1800192042
 11
720.0657476821
 21
890.464160044
  0
LINE
  5
30D
100
AcDbEntity
  8
3
100
AcDbLine
 62
7
  6
BYLAYER
 10
720.0657476821
 20
940.464160044
 11
720.0657476821
 21
1614.5149216651
  0
LINE
  5
30E
100
AcDbEntity
  8
3
100
AcDbLine
 62
7
  6
BYLAYER
 10
720.0657476821
 20
1664.5149216651
 11
720.0657476821
 21
1689.3318568895
  0
LINE
  5
30F
100
AcDbEntity
  8
0
100
AcDbLine
 62
7
  6
BYLAYER
 10
720.0662227251
 20
125.8317339425
 11
720.0662227251
 21
140.8317339425
  0
LINE
  5
310
100
AcDbEntity
  8
3
100
AcDbLine
 62
7
  6
BYLAYER
 10
738.3662227237
 20
935.1406972244
 11
735.6662227237
 21
930.464160044
  0
LINE
  5
311
100
AcDbEntity
  8
3
100
AcDbLine
 62
7
  6
BYLAYER
 10
747.6770019986
 20
933.714160044
 11
746.4705321925
 21
933.714160044
  0
LINE
  5
312
100
AcDbEntity
  8
3
100
AcDbLine
 62
7
  6
BYLAYER
 10
735.6622507945
 20
933.714160044
 11
734.1770019986
 21
933.714160044
  0
LINE
  5
313
100
AcDbEntity
  8
4
100
AcDbLine
 62
7
  6
BYLAYER
 10
600.0278711101
 20
933.714160044
 11
598.821401304
 21
933.714160044
  0
LINE
  5
314
100
AcDbEntity
  8
4
100
AcDbLine
 62
7
  6
BYLAYER
 10
588.0131199059
 20
933.714160044
 11
586.5278711101
 21
933.714160044
  0
LINE
  5
315
100
AcDbEntity
  8
4
100
AcDbLine
 62
7
  6
BYLAYER
 10
590.7170918352
 20
935.1406972244
 11
596.1170918352
 21
935.1406972244
  0
LINE
  5
316
100
AcDbEntity
  8
3
100
AcDbLine
 62
7
  6
BYLAYER
 10
738.3662227237
 20
935.1406972244
 11
743.7662227237
 21
935.1406972244
  0
LINE
  5
317
100
AcDbEntity
  8
4
100
AcDbLine
 62
7
  6
BYLAYER
 10
558.2278711101
 20
935.464160044
 11
561.2278711101
 21
935.464160044
  0
LINE
  5
318
100
AcDbEntity
  8
3
100
AcDbLine
 62
7
  6
BYLAYER
 10
705.8770019986
 20
935.464160044
 11
708.8770019986
 21
935.464160044
  0
LINE
  5
319
100
AcDbEntity
  8
4
100
AcDbLine
 62
7
  6
BYLAYER
 10
558.2278711101
 20
940.464160044
 11
603.2278711101
 21
940.464160044
  0
LINE
  5
31A
100
AcDbEntity
  8
3
100
AcDbLine
 62
7
  6
BYLAYER
 10
705.8770019986
 20
940.464160044
 11
750.8770019986
 21
940.464160044
  0
LINE
  5
31B
100
AcDbEntity
  8
3
100
AcDbLine
 62
7
  6
BYLAYER
 10
735.6662227237
 20
900.464160044
 11
738.3662227237
 21
895.7876228635
  0
LINE
  5
31C
100
AcDbEntity
  8
0
100
AcDbLine
 62
7
  6
BYLAYER
 10
723.5654948413
 20
1704.331844081
 11
723.5654948413
 21
1703.831844081
  0
LINE
  5
31D
100
AcDbEntity
  8
0
100
AcDbLine
 62
7
  6
BYLAYER
 10
723.5662226526
 20
126.3317339425
 11
723.5662226526
 21
125.8317339425
  0
LINE
  5
31E
100
AcDbEntity
  8
0
100
AcDbLine
 62
7
  6
BYLAYER
 10
723.8654949141
 20
1705.931844081
 11
723.8654949141
 21
1704.4360265158
  0
LINE
  5
31F
100
AcDbEntity
  8
0
100
AcDbLine
 62
7
  6
BYLAYER
 10
723.8662227251
 20
125.7276669483
 11
723.8662227251
 21
124.231844081
  0
LINE
  5
320
100
AcDbEntity
  8
0
100
AcDbLine
 62
7
  6
BYLAYER
 10
724.0654949141
 20
1705.831844081
 11
724.0654949141
 21
1704.831844081
  0
LINE
  5
321
100
AcDbEntity
  8
0
100
AcDbLine
 62
7
  6
BYLAYER
 10
724.0662227251
 20
125.3317339425
 11
724.0662227251
 21
124.3317339425
  0
LINE
  5
322
100
AcDbEntity
  8
0
100
AcDbLine
 62
7
  6
BYLAYER
 10
724.3154949141
 20
1706.831844081
 11
724.3154949141
 21
1712.831844081
  0
LINE
  5
323
100
AcDbEntity
  8
0
100
AcDbLine
 62
7
  6
BYLAYER
 10
725.0654949141
 20
1704.831844081
 11
725.0654949141
 21
1706.831844081
  0
LINE
  5
324
100
AcDbEntity
  8
0
100
AcDbLine
 62
7
  6
BYLAYER
 10
725.0662227251
 20
123.3317339425
 11
725.0662227251
 21
125.3317339425
  0
LINE
  5
325
100
AcDbEntity
  8
0
100
AcDbLine
 62
7
  6
BYLAYER
 10
726.0654949141
 20
1713.331844081
 11
726.0654949141
 21
1716.8318431435
  0
LINE
  5
326
100
AcDbEntity
  8
0
100
AcDbLine
 62
7
  6
BYLAYER
 10
727.9412749141
 20
1714.531844081
 11
727.9412749141
 21
1713.331844081
  0
LINE
  5
327
100
AcDbEntity
  8
0
100
AcDbLine
 62
7
  6
BYLAYER
 10
736.1912749141
 20
1714.531844081
 11
736.1912749141
 21
1713.331844081
  0
LINE
  5
328
100
AcDbEntity
  8
0
100
AcDbLine
 62
7
  6
BYLAYER
 10
736.5654949141
 20
1705.831844081
 11
736.5654949141
 21
1689.331844081
  0
LINE
  5
329
100
AcDbEntity
  8
3
100
AcDbLine
 62
7
  6
BYLAYER
 10
736.5657476821
 20
1689.3318568895
 11
736.5657476821
 21
1664.5149216651
  0
LINE
  5
32A
100
AcDbEntity
  8
3
100
AcDbLine
 62
7
  6
BYLAYER
 10
736.5657476821
 20
1614.5149216651
 11
736.5657476821
 21
940.464160044
  0
LINE
  5
32B
100
AcDbEntity
  8
3
100
AcDbLine
 62
7
  6
BYLAYER
 10
736.5657476821
 20
890.464160044
 11
736.5657476821
 21
218.1800192042
  0
LINE
  5
32C
100
AcDbEntity
  8
3
100
AcDbLine
 62
7
  6
BYLAYER
 10
736.5657476821
 20
168.1800192042
 11
736.5657476821
 21
140.8318568895
  0
LINE
  5
32D
100
AcDbEntity
  8
0
100
AcDbLine
 62
7
  6
BYLAYER
 10
736.5662227251
 20
140.8317339425
 11
736.5662227251
 21
124.3317339425
  0
LINE
  5
32E
100
AcDbEntity
  8
0
100
AcDbLine
 62
7
  6
BYLAYER
 10
737.0654949141
 20
1689.331844081
 11
737.0654949141
 21
1705.8318440809
  0
LINE
  5
32F
100
AcDbEntity
  8
3
100
AcDbLine
 62
7
  6
BYLAYER
 10
737.0657476821
 20
140.8318568895
 11
737.0657476821
 21
168.1800192042
  0
LINE
  5
330
100
AcDbEntity
  8
3
100
AcDbLine
 62
7
  6
BYLAYER
 10
737.0657476821
 20
218.1800192042
 11
737.0657476821
 21
890.464160044
  0
LINE
  5
331
100
AcDbEntity
  8
3
100
AcDbLine
 62
7
  6
BYLAYER
 10
737.0657476821
 20
940.464160044
 11
737.0657476821
 21
1614.5149216651
  0
LINE
  5
332
100
AcDbEntity
  8
3
100
AcDbLine
 62
7
  6
BYLAYER
 10
737.0657476821
 20
1664.5149216651
 11
737.0657476821
 21
1689.3318568895
  0
LINE
  5
333
100
AcDbEntity
  8
0
100
AcDbLine
 62
7
  6
BYLAYER
 10
737.0662227251
 20
124.3317339425
 11
737.0662227251
 21
140.8317339425
  0
LINE
  5
334
100
AcDbEntity
  8
0
100
AcDbLine
 62
7
  6
BYLAYER
 10
738.0654949141
 20
1716.8318431435
 11
738.0654949141
 21
1713.331844081
  0
LINE
  5
335
100
AcDbEntity
  8
0
100
AcDbLine
 62
7
  6
BYLAYER
 10
739.8154949141
 20
1706.831844081
 11
739.8154949141
 21
1712.831844081
  0
LINE
  5
336
100
AcDbEntity
  8
0
100
AcDbLine
 62
7
  6
BYLAYER
 10
742.3154949141
 20
1706.831844081
 11
742.3154949141
 21
1712.831844081
  0
LINE
  5
337
100
AcDbEntity
  8
0
100
AcDbLine
 62
7
  6
BYLAYER
 10
745.0654949141
 20
1705.8318440809
 11
745.0654949141
 21
1689.331844081
  0
LINE
  5
338
100
AcDbEntity
  8
3
100
AcDbLine
 62
7
  6
BYLAYER
 10
745.0657476821
 20
1689.3318568895
 11
745.0657476821
 21
1664.5149216651
  0
LINE
  5
339
100
AcDbEntity
  8
3
100
AcDbLine
 62
7
  6
BYLAYER
 10
745.0657476821
 20
1614.5149216651
 11
745.0657476821
 21
940.464160044
  0
LINE
  5
33A
100
AcDbEntity
  8
3
100
AcDbLine
 62
7
  6
BYLAYER
 10
745.0657476821
 20
890.464160044
 11
745.0657476821
 21
218.1800192042
  0
LINE
  5
33B
100
AcDbEntity
  8
3
100
AcDbLine
 62
7
  6
BYLAYER
 10
745.0657476821
 20
168.1800192042
 11
745.0657476821
 21
140.8318568895
  0
LINE
  5
33C
100
AcDbEntity
  8
0
100
AcDbLine
 62
7
  6
BYLAYER
 10
745.0662227251
 20
140.8317339425
 11
745.0662227251
 21
124.3317339425
  0
LINE
  5
33D
100
AcDbEntity
  8
0
100
AcDbLine
 62
7
  6
BYLAYER
 10
745.5654949141
 20
1689.331844081
 11
745.5654949141
 21
1705.831844081
  0
LINE
  5
33E
100
AcDbEntity
  8
3
100
AcDbLine
 62
7
  6
BYLAYER
 10
745.5657476821
 20
140.8318568895
 11
745.5657476821
 21
168.1800192042
  0
LINE
  5
33F
100
AcDbEntity
  8
3
100
AcDbLine
 62
7
  6
BYLAYER
 10
745.5657476821
 20
218.1800192042
 11
745.5657476821
 21
890.464160044
  0
LINE
  5
340
100
AcDbEntity
  8
3
100
AcDbLine
 62
7
  6
BYLAYER
 10
745.5657476821
 20
940.464160044
 11
745.5657476821
 21
1614.5149216651
  0
LINE
  5
341
100
AcDbEntity
  8
3
100
AcDbLine
 62
7
  6
BYLAYER
 10
745.5657476821
 20
1664.5149216651
 11
745.5657476821
 21
1689.3318568895
  0
LINE
  5
342
100
AcDbEntity
  8
0
100
AcDbLine
 62
7
  6
BYLAYER
 10
745.5662227251
 20
124.3317339425
 11
745.5662227251
 21
140.8317339425
  0
LINE
  5
343
100
AcDbEntity
  8
0
100
AcDbLine
 62
7
  6
BYLAYER
 10
745.9422549141
 20
1714.531844081
 11
745.9422549141
 21
1713.331844081
  0
LINE
  5
344
100
AcDbEntity
  8
0
100
AcDbLine
 62
7
  6
BYLAYER
 10
754.1922549141
 20
1714.531844081
 11
754.1922549141
 21
1713.331844081
  0
LINE
  5
345
100
AcDbEntity
  8
3
100
AcDbLine
 62
7
  6
BYLAYER
 10
755.8770019986
 20
1659.5149216651
 11
755.8770019986
 21
1619.5149216651
  0
LINE
  5
346
100
AcDbEntity
  8
3
100
AcDbLine
 62
7
  6
BYLAYER
 10
755.8770019986
 20
935.464160044
 11
755.8770019986
 21
895.464160044
  0
LINE
  5
347
100
AcDbEntity
  8
3
100
AcDbLine
 62
7
  6
BYLAYER
 10
755.8770019986
 20
213.1800192042
 11
755.8770019986
 21
173.1800192042
  0
LINE
  5
348
100
AcDbEntity
  8
0
100
AcDbLine
 62
7
  6
BYLAYER
 10
757.0654949141
 20
1706.831844081
 11
757.0654949141
 21
1704.831844081
  0
LINE
  5
349
100
AcDbEntity
  8
0
100
AcDbLine
 62
7
  6
BYLAYER
 10
757.0662227251
 20
125.3317339425
 11
757.0662227251
 21
123.3317339425
  0
LINE
  5
34A
100
AcDbEntity
  8
0
100
AcDbLine
 62
7
  6
BYLAYER
 10
757.8154949141
 20
1706.831844081
 11
757.8154949141
 21
1712.831844081
  0
LINE
  5
34B
100
AcDbEntity
  8
0
100
AcDbLine
 62
7
  6
BYLAYER
 10
758.0654949141
 20
1704.831844081
 11
758.0654949141
 21
1705.831844081
  0
LINE
  5
34C
100
AcDbEntity
  8
0
100
AcDbLine
 62
7
  6
BYLAYER
 10
758.0662227251
 20
124.3317339425
 11
758.0662227251
 21
125.3317339425
  0
LINE
  5
34D
100
AcDbEntity
  8
0
100
AcDbLine
 62
7
  6
BYLAYER
 10
758.2654949141
 20
1704.435911075
 11
758.2654949141
 21
1705.931844081
  0
LINE
  5
34E
100
AcDbEntity
  8
0
100
AcDbLine
 62
7
  6
BYLAYER
 10
758.2662227222
 20
124.231844081
 11
758.2662227222
 21
125.7275515058
  0
LINE
  5
34F
100
AcDbEntity
  8
0
100
AcDbLine
 62
7
  6
BYLAYER
 10
758.5654949866
 20
1703.831844081
 11
758.5654949866
 21
1704.331844081
  0
LINE
  5
350
100
AcDbEntity
  8
0
100
AcDbLine
 62
7
  6
BYLAYER
 10
758.566222798
 20
125.8317339425
 11
758.566222798
 21
126.3317339425
  0
LINE
  5
351
100
AcDbEntity
  8
0
100
AcDbLine
 62
7
  6
BYLAYER
 10
762.0654949141
 20
1704.331844081
 11
762.0654949141
 21
1689.331844081
  0
LINE
  5
352
100
AcDbEntity
  8
3
100
AcDbLine
 62
7
  6
BYLAYER
 10
762.0657476821
 20
1689.3318568895
 11
762.0657476821
 21
140.8318568895
  0
LINE
  5
353
100
AcDbEntity
  8
0
100
AcDbLine
 62
7
  6
BYLAYER
 10
762.0662227251
 20
140.8317339425
 11
762.0662227251
 21
125.8317339425
  0
LINE
  5
354
100
AcDbEntity
  8
0
100
AcDbLine
 62
7
  6
BYLAYER
 10
764.8654949141
 20
1705.931844081
 11
764.8654949141
 21
1704.331844081
  0
LINE
  5
355
100
AcDbEntity
  8
0
100
AcDbLine
 62
7
  6
BYLAYER
 10
764.8662227222
 20
125.831844081
 11
764.8662227222
 21
124.231844081
  0
LINE
  5
356
100
AcDbEntity
  8
0
100
AcDbLine
 62
7
  6
BYLAYER
 10
765.0654949141
 20
1706.831844081
 11
765.0654949158
 21
1704.831844081
  0
LINE
  5
357
100
AcDbEntity
  8
0
100
AcDbLine
 62
7
  6
BYLAYER
 10
765.0662227268
 20
125.3317339425
 11
765.0662227251
 21
123.3317339425
  0
LINE
  5
358
100
AcDbEntity
  8
0
100
AcDbLine
 62
7
  6
BYLAYER
 10
766.0654949141
 20
1689.331844081
 11
766.0654949141
 21
1705.831844081
  0
LINE
  5
359
100
AcDbEntity
  8
3
100
AcDbLine
 62
7
  6
BYLAYER
 10
766.0657476821
 20
140.8318568895
 11
766.0657476821
 21
1689.3318568895
  0
LINE
  5
35A
100
AcDbEntity
  8
0
100
AcDbLine
 62
7
  6
BYLAYER
 10
766.0662227251
 20
124.3317339425
 11
766.0662227251
 21
140.8317339425
  0
LINE
  5
35B
100
AcDbEntity
  8
3
100
AcDbLine
 62
7
  6
BYLAYER
 10
743.7662227237
 20
925.7876228635
 11
746.4662227237
 21
930.464160044
  0
LINE
  5
35C
100
AcDbEntity
  8
3
100
AcDbLine
 62
7
  6
BYLAYER
 10
738.3662227237
 20
905.1406972244
 11
735.6662227237
 21
900.464160044
  0
LINE
  5
35D
100
AcDbEntity
  8
3
100
AcDbLine
 62
7
  6
BYLAYER
 10
743.7662227237
 20
895.7876228635
 11
746.4662227237
 21
900.464160044
  0
LINE
  5
35E
100
AcDbEntity
  8
3
100
AcDbLine
 62
7
  6
BYLAYER
 10
746.4662227237
 20
900.464160044
 11
743.7662227237
 21
905.1406972244
  0
LINE
  5
35F
100
AcDbEntity
  8
3
100
AcDbLine
 62
7
  6
BYLAYER
 10
735.6662227237
 20
930.464160044
 11
738.3662227237
 21
925.7876228635
  0
LINE
  5
360
100
AcDbEntity
  8
3
100
AcDbLine
 62
7
  6
BYLAYER
 10
746.4662227237
 20
930.464160044
 11
743.7662227237
 21
935.1406972244
  0
LINE
  5
361
100
AcDbEntity
  8
4
100
AcDbLine
 62
7
  6
BYLAYER
 10
590.7170918352
 20
212.8565563846
 11
588.0170918352
 21
208.1800192042
  0
LINE
  5
362
100
AcDbEntity
  8
4
100
AcDbLine
 62
7
  6
BYLAYER
 10
596.1170918352
 20
203.5034820238
 11
598.8170918352
 21
208.1800192042
  0
LINE
  5
363
100
AcDbEntity
  8
4
100
AcDbLine
 62
7
  6
BYLAYER
 10
590.7170918352
 20
182.8565563846
 11
588.0170918352
 21
178.1800192042
  0
LINE
  5
364
100
AcDbEntity
  8
4
100
AcDbLine
 62
7
  6
BYLAYER
 10
596.1170918352
 20
173.5034820238
 11
598.8170918352
 21
178.1800192042
  0
LINE
  5
365
100
AcDbEntity
  8
4
100
AcDbLine
 62
7
  6
BYLAYER
 10
588.0170918352
 20
1624.5149216651
 11
590.7170918352
 21
1619.8383844846
  0
LINE
  5
366
100
AcDbEntity
  8
4
100
AcDbLine
 62
7
  6
BYLAYER
 10
598.8170918352
 20
1624.5149216651
 11
596.1170918352
 21
1629.1914588455
  0
LINE
  5
367
100
AcDbEntity
  8
4
100
AcDbLine
 62
7
  6
BYLAYER
 10
588.0170918352
 20
1654.5149216651
 11
590.7170918352
 21
1649.8383844846
  0
LINE
  5
368
100
AcDbEntity
  8
4
100
AcDbLine
 62
7
  6
BYLAYER
 10
598.8170918352
 20
1654.5149216651
 11
596.1170918352
 21
1659.1914588455
  0
LINE
  5
369
100
AcDbEntity
  8
3
100
AcDbLine
 62
7
  6
BYLAYER
 10
738.3662227237
 20
212.8565563846
 11
735.6662227237
 21
208.1800192042
  0
LINE
  5
36A
100
AcDbEntity
  8
3
100
AcDbLine
 62
7
  6
BYLAYER
 10
743.7662227237
 20
203.5034820238
 11
746.4662227237
 21
208.1800192042
  0
LINE
  5
36B
100
AcDbEntity
  8
3
100
AcDbLine
 62
7
  6
BYLAYER
 10
738.3662227237
 20
182.8565563846
 11
735.6662227237
 21
178.1800192042
  0
LINE
  5
36C
100
AcDbEntity
  8
3
100
AcDbLine
 62
7
  6
BYLAYER
 10
735.6662227237
 20
1624.5149216651
 11
738.3662227237
 21
1619.8383844846
  0
LINE
  5
36D
100
AcDbEntity
  8
3
100
AcDbLine
 62
7
  6
BYLAYER
 10
746.4662227237
 20
1624.5149216651
 11
743.7662227237
 21
1629.1914588455
  0
LINE
  5
36E
100
AcDbEntity
  8
3
100
AcDbLine
 62
7
  6
BYLAYER
 10
735.6662227237
 20
1654.5149216651
 11
738.3662227237
 21
1649.8383844846
  0
LINE
  5
36F
100
AcDbEntity
  8
3
100
AcDbLine
 62
7
  6
BYLAYER
 10
743.7662227237
 20
173.5034820238
 11
746.4662227237
 21
178.1800192042
  0
LINE
  5
370
100
AcDbEntity
  8
3
100
AcDbLine
 62
7
  6
BYLAYER
 10
746.4662227237
 20
1654.5149216651
 11
743.7662227237
 21
1659.1914588455
  0
LINE
  5
371
100
AcDbEntity
  8
0
100
AcDbLine
 62
7
  6
BYLAYER
 10
591.6663640256
 20
1713.331844081
 11
592.1663640256
 21
1712.831844081
  0
LINE
  5
372
100
AcDbEntity
  8
0
100
AcDbLine
 62
7
  6
BYLAYER
 10
589.9163660042
 20
1717.331844081
 11
590.4163640256
 21
1716.8318462395
  0
LINE
  5
373
100
AcDbEntity
  8
0
100
AcDbLine
 62
7
  6
BYLAYER
 10
609.6663640256
 20
1713.331844081
 11
610.1663640256
 21
1712.831844081
  0
LINE
  5
374
100
AcDbEntity
  8
0
100
AcDbLine
 62
7
  6
BYLAYER
 10
739.3154949141
 20
1713.331844081
 11
739.8154949141
 21
1712.831844081
  0
LINE
  5
375
100
AcDbEntity
  8
0
100
AcDbLine
 62
7
  6
BYLAYER
 10
737.5654968927
 20
1717.331844081
 11
738.0654949141
 21
1716.8318462395
  0
LINE
  5
376
100
AcDbEntity
  8
0
100
AcDbLine
 62
7
  6
BYLAYER
 10
757.3154949141
 20
1713.331844081
 11
757.8154949141
 21
1712.831844081
  0
LINE
  5
377
100
AcDbEntity
  8
4
100
AcDbLine
 62
7
  6
BYLAYER
 10
558.2278711101
 20
1614.5149216651
 11
603.2278711101
 21
1614.5149216651
  0
LINE
  5
378
100
AcDbEntity
  8
3
100
AcDbLine
 62
7
  6
BYLAYER
 10
705.8770019986
 20
1614.5149216651
 11
750.8770019986
 21
1614.5149216651
  0
LINE
  5
379
100
AcDbEntity
  8
3
100
AcDbLine
 62
7
  6
BYLAYER
 10
708.8770019986
 20
1619.5149216651
 11
705.8770019986
 21
1619.5149216651
  0
LINE
  5
37A
100
AcDbEntity
  8
4
100
AcDbLine
 62
7
  6
BYLAYER
 10
561.2278711101
 20
1619.5149216651
 11
558.2278711101
 21
1619.5149216651
  0
LINE
  5
37B
100
AcDbEntity
  8
3
100
AcDbLine
 62
7
  6
BYLAYER
 10
743.7662227237
 20
1619.8383844846
 11
738.3662227237
 21
1619.8383844846
  0
LINE
  5
37C
100
AcDbEntity
  8
4
100
AcDbLine
 62
7
  6
BYLAYER
 10
596.1170918352
 20
1619.8383844846
 11
590.7170918352
 21
1619.8383844846
  0
LINE
  5
37D
100
AcDbEntity
  8
4
100
AcDbLine
 62
7
  6
BYLAYER
 10
586.5278711101
 20
1621.2649216651
 11
588.0127823663
 21
1621.2649216651
  0
LINE
  5
37E
100
AcDbEntity
  8
4
100
AcDbLine
 62
7
  6
BYLAYER
 10
598.8210637644
 20
1621.2649216651
 11
600.0278711101
 21
1621.2649216651
  0
LINE
  5
37F
100
AcDbEntity
  8
3
100
AcDbLine
 62
7
  6
BYLAYER
 10
734.1770019986
 20
1621.2649216651
 11
735.6619132548
 21
1621.2649216651
  0
LINE
  5
380
100
AcDbEntity
  8
3
100
AcDbLine
 62
7
  6
BYLAYER
 10
746.4701946529
 20
1621.2649216651
 11
747.6770019986
 21
1621.2649216651
  0
LINE
  5
381
100
AcDbEntity
  8
3
100
AcDbLine
 62
7
  6
BYLAYER
 10
747.6770019986
 20
1627.7649216651
 11
746.4705321925
 21
1627.7649216651
  0
LINE
  5
382
100
AcDbEntity
  8
3
100
AcDbLine
 62
7
  6
BYLAYER
 10
735.6622507945
 20
1627.7649216651
 11
734.1770019986
 21
1627.7649216651
  0
LINE
  5
383
100
AcDbEntity
  8
4
100
AcDbLine
 62
7
  6
BYLAYER
 10
600.0278711101
 20
1627.7649216651
 11
598.821401304
 21
1627.7649216651
  0
LINE
  5
384
100
AcDbEntity
  8
4
100
AcDbLine
 62
7
  6
BYLAYER
 10
588.0131199059
 20
1627.7649216651
 11
586.5278711101
 21
1627.7649216651
  0
LINE
  5
385
100
AcDbEntity
  8
4
100
AcDbLine
 62
7
  6
BYLAYER
 10
590.7170918352
 20
1629.1914588455
 11
596.1170918352
 21
1629.1914588455
  0
LINE
  5
386
100
AcDbEntity
  8
3
100
AcDbLine
 62
7
  6
BYLAYER
 10
738.3662227237
 20
1629.1914588455
 11
743.7662227237
 21
1629.1914588455
  0
LINE
  5
387
100
AcDbEntity
  8
3
100
AcDbLine
 62
7
  6
BYLAYER
 10
743.7662227237
 20
1649.8383844846
 11
738.3662227237
 21
1649.8383844846
  0
LINE
  5
388
100
AcDbEntity
  8
4
100
AcDbLine
 62
7
  6
BYLAYER
 10
596.1170918352
 20
1649.8383844846
 11
590.7170918352
 21
1649.8383844846
  0
LINE
  5
389
100
AcDbEntity
  8
4
100
AcDbLine
 62
7
  6
BYLAYER
 10
586.5278711101
 20
1651.2649216651
 11
588.0127823663
 21
1651.2649216651
  0
LINE
  5
38A
100
AcDbEntity
  8
4
100
AcDbLine
 62
7
  6
BYLAYER
 10
598.8210637644
 20
1651.2649216651
 11
600.0278711101
 21
1651.2649216651
  0
LINE
  5
38B
100
AcDbEntity
  8
3
100
AcDbLine
 62
7
  6
BYLAYER
 10
734.1770019986
 20
1651.2649216651
 11
735.6619132548
 21
1651.2649216651
  0
LINE
  5
38C
100
AcDbEntity
  8
3
100
AcDbLine
 62
7
  6
BYLAYER
 10
746.4701946529
 20
1651.2649216651
 11
747.6770019986
 21
1651.2649216651
  0
LINE
  5
38D
100
AcDbEntity
  8
3
100
AcDbLine
 62
7
  6
BYLAYER
 10
747.6770019986
 20
1657.7649216651
 11
746.4705321925
 21
1657.7649216651
  0
LINE
  5
38E
100
AcDbEntity
  8
3
100
AcDbLine
 62
7
  6
BYLAYER
 10
735.6622507945
 20
1657.7649216651
 11
734.1770019986
 21
1657.7649216651
  0
LINE
  5
38F
100
AcDbEntity
  8
4
100
AcDbLine
 62
7
  6
BYLAYER
 10
600.0278711101
 20
1657.7649216651
 11
598.821401304
 21
1657.7649216651
  0
LINE
  5
390
100
AcDbEntity
  8
4
100
AcDbLine
 62
7
  6
BYLAYER
 10
588.0131199059
 20
1657.7649216651
 11
586.5278711101
 21
1657.7649216651
  0
LINE
  5
391
100
AcDbEntity
  8
4
100
AcDbLine
 62
7
  6
BYLAYER
 10
590.7170918352
 20
1659.1914588455
 11
596.1170918352
 21
1659.1914588455
  0
LINE
  5
392
100
AcDbEntity
  8
3
100
AcDbLine
 62
7
  6
BYLAYER
 10
738.3662227237
 20
1659.1914588455
 11
743.7662227237
 21
1659.1914588455
  0
LINE
  5
393
100
AcDbEntity
  8
4
100
AcDbLine
 62
7
  6
BYLAYER
 10
558.2278711101
 20
1659.5149216651
 11
561.2278711101
 21
1659.5149216651
  0
LINE
  5
394
100
AcDbEntity
  8
3
100
AcDbLine
 62
7
  6
BYLAYER
 10
705.8770019986
 20
1659.5149216651
 11
708.8770019986
 21
1659.5149216651
  0
LINE
  5
395
100
AcDbEntity
  8
4
100
AcDbLine
 62
7
  6
BYLAYER
 10
558.2278711101
 20
1664.5149216651
 11
603.2278711101
 21
1664.5149216651
  0
LINE
  5
396
100
AcDbEntity
  8
3
100
AcDbLine
 62
7
  6
BYLAYER
 10
705.8770019986
 20
1664.5149216651
 11
750.8770019986
 21
1664.5149216651
  0
LINE
  5
397
100
AcDbEntity
  8
0
100
AcDbLine
 62
7
  6
BYLAYER
 10
568.4163640256
 20
1689.331844081
 11
618.4163640256
 21
1689.331844081
  0
LINE
  5
398
100
AcDbEntity
  8
0
100
AcDbLine
 62
7
  6
BYLAYER
 10
716.0654949141
 20
1689.331844081
 11
766.0654949141
 21
1689.331844081
  0
LINE
  5
399
100
AcDbEntity
  8
3
100
AcDbLine
 62
7
  6
BYLAYER
 10
568.4166167935
 20
1689.3318568895
 11
618.4166167935
 21
1689.3318568895
  0
LINE
  5
39A
100
AcDbEntity
  8
3
100
AcDbLine
 62
7
  6
BYLAYER
 10
716.0657476821
 20
1689.3318568895
 11
766.0657476821
 21
1689.3318568895
  0
LINE
  5
39B
100
AcDbEntity
  8
0
100
AcDbLine
 62
7
  6
BYLAYER
 10
758.0654949141
 20
1702.831844081
 11
742.065511728
 21
1702.831844081
  0
LINE
  5
39C
100
AcDbEntity
  8
0
100
AcDbLine
 62
7
  6
BYLAYER
 10
740.0654949141
 20
1702.831844081
 11
724.065511728
 21
1702.831844081
  0
LINE
  5
39D
100
AcDbEntity
  8
0
100
AcDbLine
 62
7
  6
BYLAYER
 10
610.4163640256
 20
1702.831844081
 11
594.4163808395
 21
1702.831844081
  0
LINE
  5
39E
100
AcDbEntity
  8
0
100
AcDbLine
 62
7
  6
BYLAYER
 10
592.4163640256
 20
1702.831844081
 11
576.4163808395
 21
1702.831844081
  0
LINE
  5
39F
100
AcDbEntity
  8
0
100
AcDbLine
 62
7
  6
BYLAYER
 10
757.9602858852
 20
1702.843038332
 11
742.1707205358
 21
1702.843038332
  0
LINE
  5
3A0
100
AcDbEntity
  8
0
100
AcDbLine
 62
7
  6
BYLAYER
 10
739.9602858852
 20
1702.843038332
 11
724.1707205358
 21
1702.843038332
  0
LINE
  5
3A1
100
AcDbEntity
  8
0
100
AcDbLine
 62
7
  6
BYLAYER
 10
610.3111549967
 20
1702.843038332
 11
594.5215896473
 21
1702.843038332
  0
LINE
  5
3A2
100
AcDbEntity
  8
0
100
AcDbLine
 62
7
  6
BYLAYER
 10
592.3111549967
 20
1702.843038332
 11
576.5215896473
 21
1702.843038332
  0
LINE
  5
3A3
100
AcDbEntity
  8
0
100
AcDbLine
 62
7
  6
BYLAYER
 10
576.3108693654
 20
1703.8205882642
 11
592.5218416501
 21
1703.8205882642
  0
LINE
  5
3A4
100
AcDbEntity
  8
0
100
AcDbLine
 62
7
  6
BYLAYER
 10
594.3110675409
 20
1703.8206309981
 11
610.521643475
 21
1703.8206309981
  0
LINE
  5
3A5
100
AcDbEntity
  8
0
100
AcDbLine
 62
7
  6
BYLAYER
 10
723.9600002539
 20
1703.8205882642
 11
740.1709725386
 21
1703.8205882642
  0
LINE
  5
3A6
100
AcDbEntity
  8
0
100
AcDbLine
 62
7
  6
BYLAYER
 10
741.9601984294
 20
1703.8206309981
 11
758.1707743635
 21
1703.8206309981
  0
LINE
  5
3A7
100
AcDbEntity
  8
0
100
AcDbLine
 62
7
  6
BYLAYER
 10
568.4163640256
 20
1703.831844081
 11
575.9163640256
 21
1703.831844081
  0
LINE
  5
3A8
100
AcDbEntity
  8
0
100
AcDbLine
 62
7
  6
BYLAYER
 10
610.9163640256
 20
1703.831844081
 11
618.4163640256
 21
1703.831844081
  0
LINE
  5
3A9
100
AcDbEntity
  8
0
100
AcDbLine
 62
7
  6
BYLAYER
 10
716.0654949141
 20
1703.831844081
 11
723.5654949141
 21
1703.831844081
  0
LINE
  5
3AA
100
AcDbEntity
  8
0
100
AcDbLine
 62
7
  6
BYLAYER
 10
758.5654949141
 20
1703.831844081
 11
766.0654949141
 21
1703.831844081
  0
LINE
  5
3AB
100
AcDbEntity
  8
0
100
AcDbLine
 62
7
  6
BYLAYER
 10
568.9163640256
 20
1704.331844081
 11
575.9163640256
 21
1704.331844081
  0
LINE
  5
3AC
100
AcDbEntity
  8
0
100
AcDbLine
 62
7
  6
BYLAYER
 10
610.9163640256
 20
1704.331844081
 11
617.9163640256
 21
1704.331844081
  0
LINE
  5
3AD
100
AcDbEntity
  8
0
100
AcDbLine
 62
7
  6
BYLAYER
 10
716.5654949141
 20
1704.331844081
 11
723.5654949141
 21
1704.331844081
  0
LINE
  5
3AE
100
AcDbEntity
  8
0
100
AcDbLine
 62
7
  6
BYLAYER
 10
758.5654949141
 20
1704.331844081
 11
765.5654949141
 21
1704.331844081
  0
LINE
  5
3AF
100
AcDbEntity
  8
0
100
AcDbLine
 62
7
  6
BYLAYER
 10
766.0654949141
 20
1704.8318441499
 11
764.8654949141
 21
1704.831844081
  0
LINE
  5
3B0
100
AcDbEntity
  8
0
100
AcDbLine
 62
7
  6
BYLAYER
 10
758.2654949141
 20
1704.831844081
 11
757.0654949141
 21
1704.8318441499
  0
LINE
  5
3B1
100
AcDbEntity
  8
0
100
AcDbLine
 62
7
  6
BYLAYER
 10
725.0654949141
 20
1704.8318441499
 11
723.8654949141
 21
1704.831844081
  0
LINE
  5
3B2
100
AcDbEntity
  8
0
100
AcDbLine
 62
7
  6
BYLAYER
 10
717.2654949141
 20
1704.831844081
 11
716.0654949141
 21
1704.8318441499
  0
LINE
  5
3B3
100
AcDbEntity
  8
0
100
AcDbLine
 62
7
  6
BYLAYER
 10
618.4163640256
 20
1704.8318441499
 11
617.2163640256
 21
1704.831844081
  0
LINE
  5
3B4
100
AcDbEntity
  8
0
100
AcDbLine
 62
7
  6
BYLAYER
 10
610.6163640256
 20
1704.831844081
 11
609.4163640256
 21
1704.8318441499
  0
LINE
  5
3B5
100
AcDbEntity
  8
0
100
AcDbLine
 62
7
  6
BYLAYER
 10
577.4163640256
 20
1704.8318441499
 11
576.2163640256
 21
1704.831844081
  0
LINE
  5
3B6
100
AcDbEntity
  8
0
100
AcDbLine
 62
7
  6
BYLAYER
 10
569.6163640256
 20
1704.831844081
 11
568.4163640256
 21
1704.8318441499
  0
LINE
  5
3B7
100
AcDbEntity
  8
0
100
AcDbLine
 62
7
  6
BYLAYER
 10
568.4163640256
 20
1705.831844081
 11
569.6163640256
 21
1705.831844081
  0
LINE
  5
3B8
100
AcDbEntity
  8
0
100
AcDbLine
 62
7
  6
BYLAYER
 10
576.2163640256
 20
1705.831844081
 11
589.4163640256
 21
1705.8318440743
  0
LINE
  5
3B9
100
AcDbEntity
  8
0
100
AcDbLine
 62
7
  6
BYLAYER
 10
597.4163640256
 20
1705.8318440809
 11
610.6163640256
 21
1705.831844081
  0
LINE
  5
3BA
100
AcDbEntity
  8
0
100
AcDbLine
 62
7
  6
BYLAYER
 10
617.2163640256
 20
1705.831844081
 11
618.4163640256
 21
1705.831844081
  0
LINE
  5
3BB
100
AcDbEntity
  8
0
100
AcDbLine
 62
7
  6
BYLAYER
 10
716.0654949141
 20
1705.831844081
 11
717.2654949141
 21
1705.831844081
  0
LINE
  5
3BC
100
AcDbEntity
  8
0
100
AcDbLine
 62
7
  6
BYLAYER
 10
723.8654949141
 20
1705.831844081
 11
737.0654949141
 21
1705.8318440743
  0
LINE
  5
3BD
100
AcDbEntity
  8
0
100
AcDbLine
 62
7
  6
BYLAYER
 10
745.0654949141
 20
1705.8318440809
 11
758.2654949141
 21
1705.831844081
  0
LINE
  5
3BE
100
AcDbEntity
  8
0
100
AcDbLine
 62
7
  6
BYLAYER
 10
764.8654949141
 20
1705.831844081
 11
766.0654949141
 21
1705.831844081
  0
LINE
  5
3BF
100
AcDbEntity
  8
0
100
AcDbLine
 62
7
  6
BYLAYER
 10
569.6163640256
 20
1705.931844081
 11
576.2163640256
 21
1705.931844081
  0
LINE
  5
3C0
100
AcDbEntity
  8
0
100
AcDbLine
 62
7
  6
BYLAYER
 10
610.6163640256
 20
1705.931844081
 11
617.2163640256
 21
1705.931844081
  0
LINE
  5
3C1
100
AcDbEntity
  8
0
100
AcDbLine
 62
7
  6
BYLAYER
 10
717.2654949141
 20
1705.931844081
 11
723.8654949141
 21
1705.931844081
  0
LINE
  5
3C2
100
AcDbEntity
  8
0
100
AcDbLine
 62
7
  6
BYLAYER
 10
758.2654949141
 20
1705.931844081
 11
764.8654949141
 21
1705.931844081
  0
LINE
  5
3C3
100
AcDbEntity
  8
0
100
AcDbLine
 62
7
  6
BYLAYER
 10
589.2749158453
 20
1706.331844081
 11
597.5568476798
 21
1706.331844081
  0
LINE
  5
3C4
100
AcDbEntity
  8
0
100
AcDbLine
 62
7
  6
BYLAYER
 10
736.9240467338
 20
1706.331844081
 11
745.2059785683
 21
1706.331844081
  0
LINE
  5
3C5
100
AcDbEntity
  8
0
100
AcDbLine
 62
7
  6
BYLAYER
 10
765.0654949141
 20
1706.831844081
 11
764.2387001176
 21
1706.831844081
  0
LINE
  5
3C6
100
AcDbEntity
  8
0
100
AcDbLine
 62
7
  6
BYLAYER
 10
717.8922897106
 20
1706.831844081
 11
717.0654949141
 21
1706.831844081
  0
LINE
  5
3C7
100
AcDbEntity
  8
0
100
AcDbLine
 62
7
  6
BYLAYER
 10
617.4163640256
 20
1706.831844081
 11
616.5895692291
 21
1706.831844081
  0
LINE
  5
3C8
100
AcDbEntity
  8
0
100
AcDbLine
 62
7
  6
BYLAYER
 10
570.2431588221
 20
1706.831844081
 11
569.4163640256
 21
1706.831844081
  0
LINE
  5
3C9
100
AcDbEntity
  8
0
100
AcDbLine
 62
7
  6
BYLAYER
 10
575.5895692291
 20
1706.831844081
 11
611.2431588221
 21
1706.831844081
  0
LINE
  5
3CA
100
AcDbEntity
  8
0
100
AcDbLine
 62
7
  6
BYLAYER
 10
723.2387001176
 20
1706.831844081
 11
758.8922897106
 21
1706.831844081
  0
LINE
  5
3CB
100
AcDbEntity
  8
0
100
AcDbLine
 62
7
  6
BYLAYER
 10
569.6163642722
 20
1706.931844081
 11
575.2162625995
 21
1706.931844081
  0
LINE
  5
3CC
100
AcDbEntity
  8
0
100
AcDbLine
 62
7
  6
BYLAYER
 10
611.6163642722
 20
1706.931844081
 11
617.2162625995
 21
1706.931844081
  0
LINE
  5
3CD
100
AcDbEntity
  8
0
100
AcDbLine
 62
7
  6
BYLAYER
 10
717.2654951607
 20
1706.931844081
 11
722.8653934881
 21
1706.931844081
  0
LINE
  5
3CE
100
AcDbEntity
  8
0
100
AcDbLine
 62
7
  6
BYLAYER
 10
759.2654951607
 20
1706.931844081
 11
764.8653934881
 21
1706.931844081
  0
LINE
  5
3CF
100
AcDbEntity
  8
0
100
AcDbLine
 62
7
  6
BYLAYER
 10
757.8154949141
 20
1708.331844081
 11
742.3154949141
 21
1708.331844081
  0
LINE
  5
3D0
100
AcDbEntity
  8
0
100
AcDbLine
 62
7
  6
BYLAYER
 10
739.8154949141
 20
1708.331844081
 11
724.3154949141
 21
1708.331844081
  0
LINE
  5
3D1
100
AcDbEntity
  8
0
100
AcDbLine
 62
7
  6
BYLAYER
 10
610.1663640256
 20
1708.331844081
 11
594.6663640256
 21
1708.331844081
  0
LINE
  5
3D2
100
AcDbEntity
  8
0
100
AcDbLine
 62
7
  6
BYLAYER
 10
592.1663640256
 20
1708.331844081
 11
576.6663640256
 21
1708.331844081
  0
LINE
  5
3D3
100
AcDbEntity
  8
0
100
AcDbLine
 62
7
  6
BYLAYER
 10
757.8154906313
 20
1711.331844081
 11
742.3154991969
 21
1711.331844081
  0
LINE
  5
3D4
100
AcDbEntity
  8
0
100
AcDbLine
 62
7
  6
BYLAYER
 10
739.8154906313
 20
1711.331844081
 11
724.3154991969
 21
1711.331844081
  0
LINE
  5
3D5
100
AcDbEntity
  8
0
100
AcDbLine
 62
7
  6
BYLAYER
 10
610.1663597428
 20
1711.331844081
 11
594.6663683084
 21
1711.331844081
  0
LINE
  5
3D6
100
AcDbEntity
  8
0
100
AcDbLine
 62
7
  6
BYLAYER
 10
592.1663597428
 20
1711.331844081
 11
576.6663683084
 21
1711.331844081
  0
LINE
  5
3D7
100
AcDbEntity
  8
0
100
AcDbLine
 62
7
  6
BYLAYER
 10
576.6663640256
 20
1712.831844081
 11
592.1663640256
 21
1712.831844081
  0
LINE
  5
3D8
100
AcDbEntity
  8
0
100
AcDbLine
 62
7
  6
BYLAYER
 10
594.6663640256
 20
1712.831844081
 11
610.1663640256
 21
1712.831844081
  0
LINE
  5
3D9
100
AcDbEntity
  8
0
100
AcDbLine
 62
7
  6
BYLAYER
 10
724.3154949141
 20
1712.831844081
 11
739.8154949141
 21
1712.831844081
  0
LINE
  5
3DA
100
AcDbEntity
  8
0
100
AcDbLine
 62
7
  6
BYLAYER
 10
742.3154949141
 20
1712.831844081
 11
757.8154949141
 21
1712.831844081
  0
LINE
  5
3DB
100
AcDbEntity
  8
0
100
AcDbLine
 62
7
  6
BYLAYER
 10
577.1663680284
 20
1713.331844081
 11
591.6663600228
 21
1713.331844081
  0
LINE
  5
3DC
100
AcDbEntity
  8
0
100
AcDbLine
 62
7
  6
BYLAYER
 10
595.1663680284
 20
1713.331844081
 11
609.6663600228
 21
1713.331844081
  0
LINE
  5
3DD
100
AcDbEntity
  8
0
100
AcDbLine
 62
7
  6
BYLAYER
 10
724.8154989169
 20
1713.331844081
 11
739.3154909113
 21
1713.331844081
  0
LINE
  5
3DE
100
AcDbEntity
  8
0
100
AcDbLine
 62
7
  6
BYLAYER
 10
742.8154989169
 20
1713.331844081
 11
757.3154909113
 21
1713.331844081
  0
LINE
  5
3DF
100
AcDbEntity
  8
0
100
AcDbLine
 62
7
  6
BYLAYER
 10
580.2921440256
 20
1714.531844081
 11
588.5421440256
 21
1714.531844081
  0
LINE
  5
3E0
100
AcDbEntity
  8
0
100
AcDbLine
 62
7
  6
BYLAYER
 10
598.2931240256
 20
1714.531844081
 11
606.5431240256
 21
1714.531844081
  0
LINE
  5
3E1
100
AcDbEntity
  8
0
100
AcDbLine
 62
7
  6
BYLAYER
 10
727.9412749141
 20
1714.531844081
 11
736.1912749141
 21
1714.531844081
  0
LINE
  5
3E2
100
AcDbEntity
  8
0
100
AcDbLine
 62
7
  6
BYLAYER
 10
745.9422549141
 20
1714.531844081
 11
754.1922549141
 21
1714.531844081
  0
LINE
  5
3E3
100
AcDbEntity
  8
0
100
AcDbLine
 62
7
  6
BYLAYER
 10
580.5922315016
 20
1714.831844081
 11
588.2421626427
 21
1714.831844081
  0
LINE
  5
3E4
100
AcDbEntity
  8
0
100
AcDbLine
 62
7
  6
BYLAYER
 10
598.5930636577
 20
1714.831844081
 11
606.2431459169
 21
1714.831844081
  0
LINE
  5
3E5
100
AcDbEntity
  8
0
100
AcDbLine
 62
7
  6
BYLAYER
 10
728.2413623902
 20
1714.831844081
 11
735.8912935312
 21
1714.831844081
  0
LINE
  5
3E6
100
AcDbEntity
  8
0
100
AcDbLine
 62
7
  6
BYLAYER
 10
746.2421945462
 20
1714.831844081
 11
753.8922768054
 21
1714.831844081
  0
LINE
  5
3E7
100
AcDbEntity
  8
0
100
AcDbLine
 62
7
  6
BYLAYER
 10
578.4163640256
 20
1716.8318431435
 11
590.4163640256
 21
1716.8318431435
  0
LINE
  5
3E8
100
AcDbEntity
  8
0
100
AcDbLine
 62
7
  6
BYLAYER
 10
726.0654949141
 20
1716.8318431435
 11
738.0654949141
 21
1716.8318431435
  0
LINE
  5
3E9
100
AcDbEntity
  8
0
100
AcDbLine
 62
7
  6
BYLAYER
 10
578.9163693269
 20
1717.331844081
 11
589.9163645898
 21
1717.331844081
  0
LINE
  5
3EA
100
AcDbEntity
  8
0
100
AcDbLine
 62
7
  6
BYLAYER
 10
726.5655002154
 20
1717.331844081
 11
737.5654954784
 21
1717.331844081
  0
ARC
  5
3EB
100
AcDbEntity
  8
4
100
AcDbCircle
 62
7
  6
BYLAYER
 10
586.5278711101
 20
178.1800192042
 40
3.25
100
AcDbArc
 50
90.0
 51
270.0
  0
ARC
  5
3EC
100
AcDbEntity
  8
4
100
AcDbCircle
 62
7
  6
BYLAYER
 10
586.5278711101
 20
208.1800192042
 40
3.25
100
AcDbArc
 50
90.0
 51
270.0
  0
ARC
  5
3ED
100
AcDbEntity
  8
0
100
AcDbCircle
 62
7
  6
BYLAYER
 10
569.6166167966
 20
124.231844081
 40
1.0
100
AcDbArc
 50
234.2503109337
 51
270.0
  0
ARC
  5
3EE
100
AcDbEntity
  8
0
100
AcDbCircle
 62
7
  6
BYLAYER
 10
575.2170918366
 20
124.231844081
 40
1.0
100
AcDbArc
 50
270.0
 51
360.0
  0
ARC
  5
3EF
100
AcDbEntity
  8
0
100
AcDbCircle
 62
7
  6
BYLAYER
 10
570.6170918366
 20
124.231844081
 40
1.0
100
AcDbArc
 50
180.0
 51
270.0
  0
ARC
  5
3F0
100
AcDbEntity
  8
0
100
AcDbCircle
 62
7
  6
BYLAYER
 10
577.4170918366
 20
124.3317339425
 40
1.0
100
AcDbArc
 50
180.0
 51
270.0
  0
ARC
  5
3F1
100
AcDbEntity
  8
0
100
AcDbCircle
 62
7
  6
BYLAYER
 10
569.4170918366
 20
124.3317339425
 40
1.0
100
AcDbArc
 50
180.0000000001
 51
270.0
  0
ARC
  5
3F2
100
AcDbEntity
  8
0
100
AcDbCircle
 62
7
  6
BYLAYER
 10
588.4170918366
 20
124.3317339425
 40
1.0
100
AcDbArc
 50
270.0
 51
360.0
  0
ARC
  5
3F3
100
AcDbEntity
  8
0
100
AcDbCircle
 62
7
  6
BYLAYER
 10
568.9170918366
 20
126.3317339425
 40
0.5
100
AcDbArc
 50
180.0
 51
270.0
  0
ARC
  5
3F4
100
AcDbEntity
  8
0
100
AcDbCircle
 62
7
  6
BYLAYER
 10
575.9170918366
 20
125.3317339425
 40
0.5
100
AcDbArc
 50
0.0
 51
90.0
  0
ARC
  5
3F5
100
AcDbEntity
  8
4
100
AcDbCircle
 62
7
  6
BYLAYER
 10
586.5278711101
 20
900.464160044
 40
3.25
100
AcDbArc
 50
90.0
 51
270.0
  0
ARC
  5
3F6
100
AcDbEntity
  8
0
100
AcDbCircle
 62
7
  6
BYLAYER
 10
598.4170918366
 20
124.3317339425
 40
1.0
100
AcDbArc
 50
179.9999999984
 51
270.0
  0
CIRCLE
  5
3F7
100
AcDbEntity
  8
4
100
AcDbCircle
 62
7
  6
BYLAYER
 10
593.4170918352
 20
208.1800192042
 40
6.3525
  0
CIRCLE
  5
3F8
100
AcDbEntity
  8
4
100
AcDbCircle
 62
7
  6
BYLAYER
 10
593.4170918352
 20
178.1800192042
 40
6.3525
  0
ARC
  5
3F9
100
AcDbEntity
  8
4
100
AcDbCircle
 62
7
  6
BYLAYER
 10
603.2278711101
 20
173.1800192042
 40
5.0
100
AcDbArc
 50
270.0
 51
360.0
  0
ARC
  5
3FA
100
AcDbEntity
  8
4
100
AcDbCircle
 62
7
  6
BYLAYER
 10
603.2278711101
 20
213.1800192042
 40
5.0
100
AcDbArc
 50
0.0
 51
90.0
  0
ARC
  5
3FB
100
AcDbEntity
  8
4
100
AcDbCircle
 62
7
  6
BYLAYER
 10
600.0278711101
 20
178.1800192042
 40
3.25
100
AcDbArc
 50
270.0
 51
90.0
  0
ARC
  5
3FC
100
AcDbEntity
  8
4
100
AcDbCircle
 62
7
  6
BYLAYER
 10
600.0278711101
 20
208.1800192042
 40
3.25
100
AcDbArc
 50
270.0
 51
90.0
  0
CIRCLE
  5
3FD
100
AcDbEntity
  8
4
100
AcDbCircle
 62
7
  6
BYLAYER
 10
593.4170918352
 20
178.1800192042
 40
3.0
  0
CIRCLE
  5
3FE
100
AcDbEntity
  8
4
100
AcDbCircle
 62
7
  6
BYLAYER
 10
593.4170918352
 20
208.1800192042
 40
3.0
  0
ARC
  5
3FF
100
AcDbEntity
  8
0
100
AcDbCircle
 62
7
  6
BYLAYER
 10
617.2166167936
 20
124.231844081
 40
1.0
100
AcDbArc
 50
270.0
 51
305.7190868301
  0
ARC
  5
400
100
AcDbEntity
  8
0
100
AcDbCircle
 62
7
  6
BYLAYER
 10
616.2170918337
 20
124.231844081
 40
1.0
100
AcDbArc
 50
270.0
 51
360.0
  0
ARC
  5
401
100
AcDbEntity
  8
0
100
AcDbCircle
 62
7
  6
BYLAYER
 10
611.6170918337
 20
124.231844081
 40
1.0
100
AcDbArc
 50
180.0
 51
270.0
  0
ARC
  5
402
100
AcDbEntity
  8
0
100
AcDbCircle
 62
7
  6
BYLAYER
 10
609.4170918366
 20
124.3317339425
 40
1.0
100
AcDbArc
 50
270.0
 51
360.0
  0
ARC
  5
403
100
AcDbEntity
  8
0
100
AcDbCircle
 62
7
  6
BYLAYER
 10
617.4170918366
 20
124.3317339425
 40
1.0
100
AcDbArc
 50
270.0
 51
360.0
  0
ARC
  5
404
100
AcDbEntity
  8
0
100
AcDbCircle
 62
7
  6
BYLAYER
 10
610.9170918366
 20
125.3317339425
 40
0.5
100
AcDbArc
 50
90.0
 51
180.0
  0
ARC
  5
405
100
AcDbEntity
  8
0
100
AcDbCircle
 62
7
  6
BYLAYER
 10
617.9170918366
 20
126.3317339425
 40
0.5
100
AcDbArc
 50
270.0
 51
360.0
  0
CIRCLE
  5
406
100
AcDbEntity
  8
4
100
AcDbCircle
 62
7
  6
BYLAYER
 10
593.4170918352
 20
900.464160044
 40
6.3525
  0
ARC
  5
407
100
AcDbEntity
  8
4
100
AcDbCircle
 62
7
  6
BYLAYER
 10
603.2278711101
 20
895.464160044
 40
5.0
100
AcDbArc
 50
270.0
 51
360.0
  0
ARC
  5
408
100
AcDbEntity
  8
4
100
AcDbCircle
 62
7
  6
BYLAYER
 10
600.0278711101
 20
900.464160044
 40
3.25
100
AcDbArc
 50
270.0
 51
90.0
  0
CIRCLE
  5
409
100
AcDbEntity
  8
4
100
AcDbCircle
 62
7
  6
BYLAYER
 10
593.4170918352
 20
900.464160044
 40
3.0
  0
ARC
  5
40A
100
AcDbEntity
  8
4
100
AcDbCircle
 62
7
  6
BYLAYER
 10
586.5278711101
 20
930.464160044
 40
3.25
100
AcDbArc
 50
90.0
 51
270.0
  0
ARC
  5
40B
100
AcDbEntity
  8
0
100
AcDbCircle
 62
7
  6
BYLAYER
 10
569.6163640256
 20
1705.931844081
 40
1.0
100
AcDbArc
 50
90.0
 51
125.746880854
  0
ARC
  5
40C
100
AcDbEntity
  8
0
100
AcDbCircle
 62
7
  6
BYLAYER
 10
570.6163640256
 20
1705.931844081
 40
1.0
100
AcDbArc
 50
90.0
 51
180.0
  0
ARC
  5
40D
100
AcDbEntity
  8
0
100
AcDbCircle
 62
7
  6
BYLAYER
 10
575.2163640256
 20
1705.931844081
 40
1.0
100
AcDbArc
 50
0.0
 51
90.0
  0
ARC
  5
40E
100
AcDbEntity
  8
0
100
AcDbCircle
 62
7
  6
BYLAYER
 10
569.4163640256
 20
1705.831844081
 40
1.0
100
AcDbArc
 50
90.0
 51
180.0
  0
ARC
  5
40F
100
AcDbEntity
  8
0
100
AcDbCircle
 62
7
  6
BYLAYER
 10
577.4163640256
 20
1705.831844081
 40
1.0
100
AcDbArc
 50
90.0
 51
180.0
  0
ARC
  5
410
100
AcDbEntity
  8
0
100
AcDbCircle
 62
7
  6
BYLAYER
 10
575.9163640256
 20
1704.831844081
 40
0.5
100
AcDbArc
 50
270.0
 51
360.0
  0
ARC
  5
411
100
AcDbEntity
  8
0
100
AcDbCircle
 62
7
  6
BYLAYER
 10
568.9163640256
 20
1703.831844081
 40
0.5
100
AcDbArc
 50
90.0
 51
180.0
  0
ARC
  5
412
100
AcDbEntity
  8
0
100
AcDbCircle
 62
7
  6
BYLAYER
 10
576.4163816875
 20
1703.331844264
 40
0.4999999532
100
AcDbArc
 50
102.1804098124
 51
282.180210997
  0
ARC
  5
413
100
AcDbEntity
  8
0
100
AcDbCircle
 62
7
  6
BYLAYER
 10
580.5921440256
 20
1714.531844081
 40
0.3
100
AcDbArc
 50
90.0
 51
180.0
  0
ARC
  5
414
100
AcDbEntity
  8
4
100
AcDbCircle
 62
7
  6
BYLAYER
 10
586.5278711101
 20
1624.5149216651
 40
3.25
100
AcDbArc
 50
90.0
 51
270.0
  0
ARC
  5
415
100
AcDbEntity
  8
4
100
AcDbCircle
 62
7
  6
BYLAYER
 10
586.5278711101
 20
1654.5149216651
 40
3.25
100
AcDbArc
 50
90.0
 51
270.0
  0
ARC
  5
416
100
AcDbEntity
  8
0
100
AcDbCircle
 62
7
  6
BYLAYER
 10
588.4163640256
 20
1705.831844081
 40
1.0
100
AcDbArc
 50
0.0
 51
90.0
  0
ARC
  5
417
100
AcDbEntity
  8
0
100
AcDbCircle
 62
7
  6
BYLAYER
 10
592.4163463637
 20
1703.331844264
 40
0.4999999532
100
AcDbArc
 50
257.819789003
 51
77.8195901877
  0
ARC
  5
418
100
AcDbEntity
  8
0
100
AcDbCircle
 62
7
  6
BYLAYER
 10
588.2421440256
 20
1714.531844081
 40
0.3
100
AcDbArc
 50
0.0
 51
90.0
  0
CIRCLE
  5
419
100
AcDbEntity
  8
4
100
AcDbCircle
 62
7
  6
BYLAYER
 10
593.4170918352
 20
930.464160044
 40
6.3525
  0
ARC
  5
41A
100
AcDbEntity
  8
4
100
AcDbCircle
 62
7
  6
BYLAYER
 10
603.2278711101
 20
935.464160044
 40
5.0
100
AcDbArc
 50
0.0
 51
90.0
  0
ARC
  5
41B
100
AcDbEntity
  8
4
100
AcDbCircle
 62
7
  6
BYLAYER
 10
600.0278711101
 20
930.464160044
 40
3.25
100
AcDbArc
 50
270.0
 51
90.0
  0
CIRCLE
  5
41C
100
AcDbEntity
  8
4
100
AcDbCircle
 62
7
  6
BYLAYER
 10
593.4170918352
 20
930.464160044
 40
3.0
  0
CIRCLE
  5
41D
100
AcDbEntity
  8
4
100
AcDbCircle
 62
7
  6
BYLAYER
 10
593.4170918352
 20
1624.5149216651
 40
6.3525
  0
CIRCLE
  5
41E
100
AcDbEntity
  8
4
100
AcDbCircle
 62
7
  6
BYLAYER
 10
593.4170918352
 20
1654.5149216651
 40
6.3525
  0
ARC
  5
41F
100
AcDbEntity
  8
4
100
AcDbCircle
 62
7
  6
BYLAYER
 10
603.2278711101
 20
1619.5149216651
 40
5.0
100
AcDbArc
 50
270.0
 51
360.0
  0
ARC
  5
420
100
AcDbEntity
  8
4
100
AcDbCircle
 62
7
  6
BYLAYER
 10
603.2278711101
 20
1659.5149216651
 40
5.0
100
AcDbArc
 50
0.0
 51
90.0
  0
ARC
  5
421
100
AcDbEntity
  8
4
100
AcDbCircle
 62
7
  6
BYLAYER
 10
600.0278711101
 20
1624.5149216651
 40
3.25
100
AcDbArc
 50
270.0
 51
90.0
  0
ARC
  5
422
100
AcDbEntity
  8
4
100
AcDbCircle
 62
7
  6
BYLAYER
 10
600.0278711101
 20
1654.5149216651
 40
3.25
100
AcDbArc
 50
270.0
 51
90.0
  0
CIRCLE
  5
423
100
AcDbEntity
  8
4
100
AcDbCircle
 62
7
  6
BYLAYER
 10
593.4170918352
 20
1624.5149216651
 40
3.0
  0
CIRCLE
  5
424
100
AcDbEntity
  8
4
100
AcDbCircle
 62
7
  6
BYLAYER
 10
593.4170918352
 20
1654.5149216651
 40
3.0
  0
ARC
  5
425
100
AcDbEntity
  8
0
100
AcDbCircle
 62
7
  6
BYLAYER
 10
598.4163640256
 20
1705.831844081
 40
1.0
100
AcDbArc
 50
90.0
 51
180.0000000008
  0
ARC
  5
426
100
AcDbEntity
  8
0
100
AcDbCircle
 62
7
  6
BYLAYER
 10
594.416381688
 20
1703.3318442638
 40
0.4999999534
100
AcDbArc
 50
102.1571786862
 51
282.1569797606
  0
ARC
  5
427
100
AcDbEntity
  8
0
100
AcDbCircle
 62
7
  6
BYLAYER
 10
598.5931240256
 20
1714.531844081
 40
0.3
100
AcDbArc
 50
90.0
 51
180.0
  0
ARC
  5
428
100
AcDbEntity
  8
0
100
AcDbCircle
 62
7
  6
BYLAYER
 10
617.2163640256
 20
1705.931844081
 40
1.0
100
AcDbArc
 50
54.2529864704
 51
90.0
  0
ARC
  5
429
100
AcDbEntity
  8
0
100
AcDbCircle
 62
7
  6
BYLAYER
 10
611.6163640256
 20
1705.931844081
 40
1.0
100
AcDbArc
 50
90.0
 51
180.0
  0
ARC
  5
42A
100
AcDbEntity
  8
0
100
AcDbCircle
 62
7
  6
BYLAYER
 10
616.2163640256
 20
1705.931844081
 40
1.0
100
AcDbArc
 50
0.0
 51
90.0
  0
ARC
  5
42B
100
AcDbEntity
  8
0
100
AcDbCircle
 62
7
  6
BYLAYER
 10
609.4163640256
 20
1705.831844081
 40
1.0
100
AcDbArc
 50
0.0
 51
90.0
  0
ARC
  5
42C
100
AcDbEntity
  8
0
100
AcDbCircle
 62
7
  6
BYLAYER
 10
617.4163640256
 20
1705.831844081
 40
1.0
100
AcDbArc
 50
0.0
 51
90.0
  0
ARC
  5
42D
100
AcDbEntity
  8
0
100
AcDbCircle
 62
7
  6
BYLAYER
 10
617.9163640256
 20
1703.831844081
 40
0.5
100
AcDbArc
 50
0.0
 51
90.0
  0
ARC
  5
42E
100
AcDbEntity
  8
0
100
AcDbCircle
 62
7
  6
BYLAYER
 10
610.9163640256
 20
1704.831844081
 40
0.5
100
AcDbArc
 50
180.0
 51
270.0
  0
ARC
  5
42F
100
AcDbEntity
  8
0
100
AcDbCircle
 62
7
  6
BYLAYER
 10
610.4163463631
 20
1703.3318442638
 40
0.4999999534
100
AcDbArc
 50
257.8430202394
 51
77.8428213138
  0
ARC
  5
430
100
AcDbEntity
  8
0
100
AcDbCircle
 62
7
  6
BYLAYER
 10
606.2431240256
 20
1714.531844081
 40
0.3
100
AcDbArc
 50
0.0
 51
90.0
  0
ARC
  5
431
100
AcDbEntity
  8
3
100
AcDbCircle
 62
7
  6
BYLAYER
 10
734.1770019986
 20
178.1800192042
 40
3.25
100
AcDbArc
 50
90.0
 51
270.0
  0
ARC
  5
432
100
AcDbEntity
  8
3
100
AcDbCircle
 62
7
  6
BYLAYER
 10
734.1770019986
 20
208.1800192042
 40
3.25
100
AcDbArc
 50
90.0
 51
270.0
  0
ARC
  5
433
100
AcDbEntity
  8
0
100
AcDbCircle
 62
7
  6
BYLAYER
 10
717.2657476852
 20
124.231844081
 40
1.0
100
AcDbArc
 50
234.2503109337
 51
270.0
  0
ARC
  5
434
100
AcDbEntity
  8
0
100
AcDbCircle
 62
7
  6
BYLAYER
 10
722.8662227251
 20
124.231844081
 40
1.0
100
AcDbArc
 50
270.0
 51
360.0
  0
ARC
  5
435
100
AcDbEntity
  8
0
100
AcDbCircle
 62
7
  6
BYLAYER
 10
718.2662227251
 20
124.231844081
 40
1.0
100
AcDbArc
 50
180.0
 51
270.0
  0
ARC
  5
436
100
AcDbEntity
  8
0
100
AcDbCircle
 62
7
  6
BYLAYER
 10
725.0662227251
 20
124.3317339425
 40
1.0
100
AcDbArc
 50
180.0
 51
270.0
  0
ARC
  5
437
100
AcDbEntity
  8
0
100
AcDbCircle
 62
7
  6
BYLAYER
 10
717.0662227251
 20
124.3317339425
 40
1.0
100
AcDbArc
 50
180.0000000001
 51
270.0
  0
ARC
  5
438
100
AcDbEntity
  8
0
100
AcDbCircle
 62
7
  6
BYLAYER
 10
736.0662227251
 20
124.3317339425
 40
1.0
100
AcDbArc
 50
270.0
 51
360.0
  0
ARC
  5
439
100
AcDbEntity
  8
0
100
AcDbCircle
 62
7
  6
BYLAYER
 10
716.5662227251
 20
126.3317339425
 40
0.5
100
AcDbArc
 50
180.0
 51
270.0
  0
ARC
  5
43A
100
AcDbEntity
  8
0
100
AcDbCircle
 62
7
  6
BYLAYER
 10
723.5662227251
 20
125.3317339425
 40
0.5
100
AcDbArc
 50
0.0
 51
90.0
  0
ARC
  5
43B
100
AcDbEntity
  8
3
100
AcDbCircle
 62
7
  6
BYLAYER
 10
734.1770019986
 20
900.464160044
 40
3.25
100
AcDbArc
 50
90.0
 51
270.0
  0
ARC
  5
43C
100
AcDbEntity
  8
0
100
AcDbCircle
 62
7
  6
BYLAYER
 10
746.0662227251
 20
124.3317339425
 40
1.0
100
AcDbArc
 50
179.9999999984
 51
270.0
  0
CIRCLE
  5
43D
100
AcDbEntity
  8
3
100
AcDbCircle
 62
7
  6
BYLAYER
 10
741.0662227237
 20
208.1800192042
 40
6.3525
  0
CIRCLE
  5
43E
100
AcDbEntity
  8
3
100
AcDbCircle
 62
7
  6
BYLAYER
 10
741.0662227237
 20
178.1800192042
 40
6.3525
  0
ARC
  5
43F
100
AcDbEntity
  8
3
100
AcDbCircle
 62
7
  6
BYLAYER
 10
750.8770019986
 20
173.1800192042
 40
5.0
100
AcDbArc
 50
270.0
 51
360.0
  0
ARC
  5
440
100
AcDbEntity
  8
3
100
AcDbCircle
 62
7
  6
BYLAYER
 10
750.8770019986
 20
213.1800192042
 40
5.0
100
AcDbArc
 50
0.0
 51
90.0
  0
ARC
  5
441
100
AcDbEntity
  8
3
100
AcDbCircle
 62
7
  6
BYLAYER
 10
747.6770019986
 20
178.1800192042
 40
3.25
100
AcDbArc
 50
270.0
 51
90.0
  0
ARC
  5
442
100
AcDbEntity
  8
3
100
AcDbCircle
 62
7
  6
BYLAYER
 10
747.6770019986
 20
208.1800192042
 40
3.25
100
AcDbArc
 50
270.0
 51
90.0
  0
CIRCLE
  5
443
100
AcDbEntity
  8
3
100
AcDbCircle
 62
7
  6
BYLAYER
 10
741.0662227237
 20
178.1800192042
 40
3.0
  0
CIRCLE
  5
444
100
AcDbEntity
  8
3
100
AcDbCircle
 62
7
  6
BYLAYER
 10
741.0662227237
 20
208.1800192042
 40
3.0
  0
ARC
  5
445
100
AcDbEntity
  8
0
100
AcDbCircle
 62
7
  6
BYLAYER
 10
764.8657476821
 20
124.231844081
 40
1.0
100
AcDbArc
 50
270.0
 51
305.71908683
  0
ARC
  5
446
100
AcDbEntity
  8
0
100
AcDbCircle
 62
7
  6
BYLAYER
 10
763.8662227222
 20
124.231844081
 40
1.0
100
AcDbArc
 50
270.0
 51
360.0
  0
ARC
  5
447
100
AcDbEntity
  8
0
100
AcDbCircle
 62
7
  6
BYLAYER
 10
759.2662227222
 20
124.231844081
 40
1.0
100
AcDbArc
 50
180.0
 51
270.0
  0
ARC
  5
448
100
AcDbEntity
  8
0
100
AcDbCircle
 62
7
  6
BYLAYER
 10
757.0662227251
 20
124.3317339425
 40
1.0
100
AcDbArc
 50
270.0
 51
360.0
  0
ARC
  5
449
100
AcDbEntity
  8
0
100
AcDbCircle
 62
7
  6
BYLAYER
 10
765.0662227251
 20
124.3317339425
 40
1.0
100
AcDbArc
 50
270.0
 51
360.0
  0
ARC
  5
44A
100
AcDbEntity
  8
0
100
AcDbCircle
 62
7
  6
BYLAYER
 10
758.5662227251
 20
125.3317339425
 40
0.5
100
AcDbArc
 50
90.0
 51
180.0
  0
ARC
  5
44B
100
AcDbEntity
  8
0
100
AcDbCircle
 62
7
  6
BYLAYER
 10
765.5662227251
 20
126.3317339425
 40
0.5
100
AcDbArc
 50
270.0
 51
360.0
  0
CIRCLE
  5
44C
100
AcDbEntity
  8
3
100
AcDbCircle
 62
7
  6
BYLAYER
 10
741.0662227237
 20
900.464160044
 40
6.3525
  0
ARC
  5
44D
100
AcDbEntity
  8
3
100
AcDbCircle
 62
7
  6
BYLAYER
 10
750.8770019986
 20
895.464160044
 40
5.0
100
AcDbArc
 50
270.0
 51
360.0
  0
ARC
  5
44E
100
AcDbEntity
  8
3
100
AcDbCircle
 62
7
  6
BYLAYER
 10
747.6770019986
 20
900.464160044
 40
3.25
100
AcDbArc
 50
270.0
 51
90.0
  0
CIRCLE
  5
44F
100
AcDbEntity
  8
3
100
AcDbCircle
 62
7
  6
BYLAYER
 10
741.0662227237
 20
900.464160044
 40
3.0
  0
ARC
  5
450
100
AcDbEntity
  8
3
100
AcDbCircle
 62
7
  6
BYLAYER
 10
734.1770019986
 20
930.464160044
 40
3.25
100
AcDbArc
 50
90.0
 51
270.0
  0
ARC
  5
451
100
AcDbEntity
  8
0
100
AcDbCircle
 62
7
  6
BYLAYER
 10
717.2654949141
 20
1705.931844081
 40
1.0
100
AcDbArc
 50
90.0
 51
125.746880854
  0
ARC
  5
452
100
AcDbEntity
  8
0
100
AcDbCircle
 62
7
  6
BYLAYER
 10
718.2654949141
 20
1705.931844081
 40
1.0
100
AcDbArc
 50
90.0
 51
180.0
  0
ARC
  5
453
100
AcDbEntity
  8
0
100
AcDbCircle
 62
7
  6
BYLAYER
 10
722.8654949141
 20
1705.931844081
 40
1.0
100
AcDbArc
 50
0.0
 51
90.0
  0
ARC
  5
454
100
AcDbEntity
  8
0
100
AcDbCircle
 62
7
  6
BYLAYER
 10
717.0654949141
 20
1705.831844081
 40
1.0
100
AcDbArc
 50
90.0
 51
180.0
  0
ARC
  5
455
100
AcDbEntity
  8
0
100
AcDbCircle
 62
7
  6
BYLAYER
 10
725.0654949141
 20
1705.831844081
 40
1.0
100
AcDbArc
 50
90.0
 51
180.0
  0
ARC
  5
456
100
AcDbEntity
  8
0
100
AcDbCircle
 62
7
  6
BYLAYER
 10
723.5654949141
 20
1704.831844081
 40
0.5
100
AcDbArc
 50
270.0
 51
360.0
  0
ARC
  5
457
100
AcDbEntity
  8
0
100
AcDbCircle
 62
7
  6
BYLAYER
 10
716.5654949141
 20
1703.831844081
 40
0.5
100
AcDbArc
 50
90.0
 51
180.0
  0
ARC
  5
458
100
AcDbEntity
  8
0
100
AcDbCircle
 62
7
  6
BYLAYER
 10
724.065512576
 20
1703.331844264
 40
0.4999999532
100
AcDbArc
 50
102.1804098124
 51
282.180210997
  0
ARC
  5
459
100
AcDbEntity
  8
0
100
AcDbCircle
 62
7
  6
BYLAYER
 10
728.2412749141
 20
1714.531844081
 40
0.3
100
AcDbArc
 50
90.0
 51
180.0
  0
ARC
  5
45A
100
AcDbEntity
  8
3
100
AcDbCircle
 62
7
  6
BYLAYER
 10
734.1770019986
 20
1624.5149216651
 40
3.25
100
AcDbArc
 50
90.0
 51
270.0
  0
ARC
  5
45B
100
AcDbEntity
  8
3
100
AcDbCircle
 62
7
  6
BYLAYER
 10
734.1770019986
 20
1654.5149216651
 40
3.25
100
AcDbArc
 50
90.0
 51
270.0
  0
ARC
  5
45C
100
AcDbEntity
  8
0
100
AcDbCircle
 62
7
  6
BYLAYER
 10
736.0654949141
 20
1705.831844081
 40
1.0
100
AcDbArc
 50
0.0
 51
90.0
  0
ARC
  5
45D
100
AcDbEntity
  8
0
100
AcDbCircle
 62
7
  6
BYLAYER
 10
740.0654772522
 20
1703.331844264
 40
0.4999999532
100
AcDbArc
 50
257.819789003
 51
77.8195901876
  0
ARC
  5
45E
100
AcDbEntity
  8
0
100
AcDbCircle
 62
7
  6
BYLAYER
 10
735.8912749141
 20
1714.531844081
 40
0.3
100
AcDbArc
 50
0.0
 51
90.0
  0
CIRCLE
  5
45F
100
AcDbEntity
  8
3
100
AcDbCircle
 62
7
  6
BYLAYER
 10
741.0662227237
 20
930.464160044
 40
6.3525
  0
ARC
  5
460
100
AcDbEntity
  8
3
100
AcDbCircle
 62
7
  6
BYLAYER
 10
750.8770019986
 20
935.464160044
 40
5.0
100
AcDbArc
 50
0.0
 51
90.0
  0
ARC
  5
461
100
AcDbEntity
  8
3
100
AcDbCircle
 62
7
  6
BYLAYER
 10
747.6770019986
 20
930.464160044
 40
3.25
100
AcDbArc
 50
270.0
 51
90.0
  0
CIRCLE
  5
462
100
AcDbEntity
  8
3
100
AcDbCircle
 62
7
  6
BYLAYER
 10
741.0662227237
 20
930.464160044
 40
3.0
  0
CIRCLE
  5
463
100
AcDbEntity
  8
3
100
AcDbCircle
 62
7
  6
BYLAYER
 10
741.0662227237
 20
1624.5149216651
 40
6.3525
  0
CIRCLE
  5
464
100
AcDbEntity
  8
3
100
AcDbCircle
 62
7
  6
BYLAYER
 10
741.0662227237
 20
1654.5149216651
 40
6.3525
  0
ARC
  5
465
100
AcDbEntity
  8
3
100
AcDbCircle
 62
7
  6
BYLAYER
 10
750.8770019986
 20
1619.5149216651
 40
5.0
100
AcDbArc
 50
270.0
 51
360.0
  0
ARC
  5
466
100
AcDbEntity
  8
3
100
AcDbCircle
 62
7
  6
BYLAYER
 10
750.8770019986
 20
1659.5149216651
 40
5.0
100
AcDbArc
 50
0.0
 51
90.0
  0
ARC
  5
467
100
AcDbEntity
  8
3
100
AcDbCircle
 62
7
  6
BYLAYER
 10
747.6770019986
 20
1624.5149216651
 40
3.25
100
AcDbArc
 50
270.0
 51
90.0
  0
ARC
  5
468
100
AcDbEntity
  8
3
100
AcDbCircle
 62
7
  6
BYLAYER
 10
747.6770019986
 20
1654.5149216651
 40
3.25
100
AcDbArc
 50
270.0
 51
90.0
  0
CIRCLE
  5
469
100
AcDbEntity
  8
3
100
AcDbCircle
 62
7
  6
BYLAYER
 10
741.0662227237
 20
1624.5149216651
 40
3.0
  0
CIRCLE
  5
46A
100
AcDbEntity
  8
3
100
AcDbCircle
 62
7
  6
BYLAYER
 10
741.0662227237
 20
1654.5149216651
 40
3.0
  0
ARC
  5
46B
100
AcDbEntity
  8
0
100
AcDbCircle
 62
7
  6
BYLAYER
 10
746.0654949141
 20
1705.831844081
 40
1.0
100
AcDbArc
 50
90.0
 51
180.0000000008
  0
ARC
  5
46C
100
AcDbEntity
  8
0
100
AcDbCircle
 62
7
  6
BYLAYER
 10
742.0655125765
 20
1703.3318442638
 40
0.4999999534
100
AcDbArc
 50
102.1571786862
 51
282.1569797606
  0
ARC
  5
46D
100
AcDbEntity
  8
0
100
AcDbCircle
 62
7
  6
BYLAYER
 10
746.2422549141
 20
1714.531844081
 40
0.3
100
AcDbArc
 50
90.0
 51
180.0
  0
ARC
  5
46E
100
AcDbEntity
  8
0
100
AcDbCircle
 62
7
  6
BYLAYER
 10
764.8654949141
 20
1705.931844081
 40
1.0
100
AcDbArc
 50
54.2529864704
 51
90.0
  0
ARC
  5
46F
100
AcDbEntity
  8
0
100
AcDbCircle
 62
7
  6
BYLAYER
 10
759.2654949141
 20
1705.931844081
 40
1.0
100
AcDbArc
 50
90.0
 51
180.0
  0
ARC
  5
470
100
AcDbEntity
  8
0
100
AcDbCircle
 62
7
  6
BYLAYER
 10
763.8654949141
 20
1705.931844081
 40
1.0
100
AcDbArc
 50
0.0
 51
90.0
  0
ARC
  5
471
100
AcDbEntity
  8
0
100
AcDbCircle
 62
7
  6
BYLAYER
 10
757.0654949141
 20
1705.831844081
 40
1.0
100
AcDbArc
 50
0.0
 51
90.0
  0
ARC
  5
472
100
AcDbEntity
  8
0
100
AcDbCircle
 62
7
  6
BYLAYER
 10
765.0654949141
 20
1705.831844081
 40
1.0
100
AcDbArc
 50
0.0
 51
90.0
  0
ARC
  5
473
100
AcDbEntity
  8
0
100
AcDbCircle
 62
7
  6
BYLAYER
 10
765.5654949141
 20
1703.831844081
 40
0.5
100
AcDbArc
 50
0.0
 51
90.0
  0
ARC
  5
474
100
AcDbEntity
  8
0
100
AcDbCircle
 62
7
  6
BYLAYER
 10
758.5654949141
 20
1704.831844081
 40
0.5
100
AcDbArc
 50
180.0
 51
270.0
  0
ARC
  5
475
100
AcDbEntity
  8
0
100
AcDbCircle
 62
7
  6
BYLAYER
 10
758.0654772517
 20
1703.3318442638
 40
0.4999999534
100
AcDbArc
 50
257.8430202394
 51
77.8428213138
  0
ARC
  5
476
100
AcDbEntity
  8
0
100
AcDbCircle
 62
7
  6
BYLAYER
 10
753.8922549141
 20
1714.531844081
 40
0.3
100
AcDbArc
 50
0.0
 51
90.0
  0
SPLINE
  5
477
100
AcDbEntity
  8
0
100
AcDbSpline
 62
7
  6
BYLAYER
 70
0
 71
3
 72
11
 73
7
 74
0
 42
0.0000001
 43
0.0000001
 44
0.0000000001
 40
0.0
 40
0.0
 40
0.0
 40
0.0
 40
0.1598605771
 40
0.3733762137
 40
0.6595504004
 40
1.0
 40
1.0
 40
1.0
 40
1.0
 10
746.0654969483
 20
1706.8318440813
 30
0.0
 10
746.0013528672
 20
1706.8318309501
 30
0.0
 10
745.8525894577
 20
1706.7662618732
 30
0.0
 10
745.6981101434
 20
1706.5433632011
 30
0.0
 10
745.5903575342
 20
1706.2210994956
 30
0.0
 10
745.5654960999
 20
1705.9684495381
 30
0.0
 10
745.5654954549
 20
1705.831844081
 30
0.0
  0
SPLINE
  5
478
100
AcDbEntity
  8
0
100
AcDbSpline
 62
7
  6
BYLAYER
 70
0
 71
3
 72
11
 73
7
 74
0
 42
0.0000001
 43
0.0000001
 44
0.0000000001
 40
0.0
 40
0.0
 40
0.0
 40
0.0
 40
0.2478327053
 40
0.4979558062
 40
0.7486361583
 40
1.0
 40
1.0
 40
1.0
 40
1.0
 10
725.0654949141
 20
1704.831844081
 30
0.0
 10
725.0654944785
 20
1704.6677224655
 30
0.0
 10
724.9333350004
 20
1704.3376437516
 30
0.0
 10
724.5458178872
 20
1704.0111155746
 30
0.0
 10
724.067251897
 20
1703.8383698545
 30
0.0
 10
723.7319549449
 20
1703.8318440396
 30
0.0
 10
723.5654949141
 20
1703.831844081
 30
0.0
  0
SPLINE
  5
479
100
AcDbEntity
  8
0
100
AcDbSpline
 62
7
  6
BYLAYER
 70
0
 71
3
 72
15
 73
11
 74
0
 42
0.0000001
 43
0.0000001
 44
0.0000000001
 40
0.0
 40
0.0
 40
0.0
 40
0.0
 40
0.2636784781
 40
0.5741051372
 40
0.7239517191
 40
0.8562958621
 40
0.9120219732
 40
0.9572544159
 40
0.9883481867
 40
1.0
 40
1.0
 40
1.0
 40
1.0
 10
717.0654949258
 20
1704.831844081
 30
0.0
 10
717.0654947709
 20
1704.7685500663
 30
0.0
 10
716.9711778344
 20
1704.6462554423
 30
0.0
 10
716.8441938821
 20
1704.5360538016
 30
0.0
 10
716.7327655703
 20
1704.4463867174
 30
0.0
 10
716.6677459326
 20
1704.3980126687
 30
0.0
 10
716.6220031824
 20
1704.3657481152
 30
0.0
 10
716.5947053192
 20
1704.3493384778
 30
0.0
 10
716.5779509563
 20
1704.3368680807
 30
0.0
 10
716.567231845
 20
1704.334036323
 30
0.0
 10
716.5654949224
 20
1704.3318440838
 30
0.0
  0
SPLINE
  5
47A
100
AcDbEntity
  8
0
100
AcDbSpline
 62
7
  6
BYLAYER
 70
0
 71
3
 72
15
 73
11
 74
0
 42
0.0000001
 43
0.0000001
 44
0.0000000001
 40
0.0
 40
0.0
 40
0.0
 40
0.0
 40
0.0116518133
 40
0.0427455841
 40
0.0879780268
 40
0.143704138
 40
0.2760482811
 40
0.4258948631
 40
0.7363215223
 40
1.0
 40
1.0
 40
1.0
 40
1.0
 10
765.5654949067
 20
1704.3318440838
 30
0.0
 10
765.5637588582
 20
1704.3340370154
 30
0.0
 10
765.5530377588
 20
1704.3368671984
 30
0.0
 10
765.5362851128
 20
1704.3493389552
 30
0.0
 10
765.5089864185
 20
1704.3657479345
 30
0.0
 10
765.4632440677
 20
1704.3980128044
 30
0.0
 10
765.398224191
 20
1704.4463866638
 30
0.0
 10
765.2867959903
 20
1704.5360538359
 30
0.0
 10
765.1598119821
 20
1704.6462554322
 30
0.0
 10
765.0654950591
 20
1704.7685500664
 30
0.0
 10
765.0654949042
 20
1704.831844081
 30
0.0
  0
SPLINE
  5
47B
100
AcDbEntity
  8
0
100
AcDbSpline
 62
7
  6
BYLAYER
 70
0
 71
3
 72
11
 73
7
 74
0
 42
0.0000001
 43
0.0000001
 44
0.0000000001
 40
0.0
 40
0.0
 40
0.0
 40
0.0
 40
0.3404385698
 40
0.6266185405
 40
0.8401374976
 40
1.0
 40
1.0
 40
1.0
 40
1.0
 10
736.5654934909
 20
1705.831844081
 30
0.0
 10
736.5654934905
 20
1705.9684450991
 30
0.0
 10
736.5406319766
 20
1706.2210928892
 30
0.0
 10
736.4328824063
 20
1706.5433562171
 30
0.0
 10
736.2784021414
 20
1706.7662609263
 30
0.0
 10
736.1296368204
 20
1706.8318295877
 30
0.0
 10
736.0654919733
 20
1706.8318440814
 30
0.0
  0
SPLINE
  5
47C
100
AcDbEntity
  8
0
100
AcDbSpline
 62
7
  6
BYLAYER
 70
0
 71
3
 72
11
 73
7
 74
0
 42
0.0000001
 43
0.0000001
 44
0.0000000001
 40
0.0
 40
0.0
 40
0.0
 40
0.0
 40
0.2478325037
 40
0.497955658
 40
0.7486362695
 40
1.0
 40
1.0
 40
1.0
 40
1.0
 10
757.0654949141
 20
1704.831844081
 30
0.0
 10
757.0654953498
 20
1704.6677225987
 30
0.0
 10
757.1976546761
 20
1704.3376439788
 30
0.0
 10
757.5851717667
 20
1704.0111156164
 30
0.0
 10
758.0637379148
 20
1703.8383698791
 30
0.0
 10
758.3990349567
 20
1703.8318440396
 30
0.0
 10
758.5654949141
 20
1703.831844081
 30
0.0
  0
SPLINE
  5
47D
100
AcDbEntity
  8
0
100
AcDbSpline
 62
7
  6
BYLAYER
 70
0
 71
3
 72
11
 73
7
 74
0
 42
0.0000001
 43
0.0000001
 44
0.0000000001
 40
0.0
 40
0.0
 40
0.0
 40
0.0
 40
0.1598605771
 40
0.3733762137
 40
0.6595504004
 40
1.0
 40
1.0
 40
1.0
 40
1.0
 10
598.4163660598
 20
1706.8318440813
 30
0.0
 10
598.3522219787
 20
1706.8318309501
 30
0.0
 10
598.2034585691
 20
1706.7662618732
 30
0.0
 10
598.0489792549
 20
1706.5433632011
 30
0.0
 10
597.9412266457
 20
1706.2210994956
 30
0.0
 10
597.9163652114
 20
1705.9684495381
 30
0.0
 10
597.9163645664
 20
1705.831844081
 30
0.0
  0
SPLINE
  5
47E
100
AcDbEntity
  8
0
100
AcDbSpline
 62
7
  6
BYLAYER
 70
0
 71
3
 72
11
 73
7
 74
0
 42
0.0000001
 43
0.0000001
 44
0.0000000001
 40
0.0
 40
0.0
 40
0.0
 40
0.0
 40
0.2478327053
 40
0.4979558062
 40
0.7486361583
 40
1.0
 40
1.0
 40
1.0
 40
1.0
 10
577.4163640256
 20
1704.831844081
 30
0.0
 10
577.41636359
 20
1704.6677224655
 30
0.0
 10
577.2842041118
 20
1704.3376437516
 30
0.0
 10
576.8966869987
 20
1704.0111155746
 30
0.0
 10
576.4181210085
 20
1703.8383698545
 30
0.0
 10
576.0828240564
 20
1703.8318440396
 30
0.0
 10
575.9163640256
 20
1703.831844081
 30
0.0
  0
SPLINE
  5
47F
100
AcDbEntity
  8
0
100
AcDbSpline
 62
7
  6
BYLAYER
 70
0
 71
3
 72
15
 73
11
 74
0
 42
0.0000001
 43
0.0000001
 44
0.0000000001
 40
0.0
 40
0.0
 40
0.0
 40
0.0
 40
0.2636784781
 40
0.5741051372
 40
0.7239517191
 40
0.8562958621
 40
0.9120219732
 40
0.9572544159
 40
0.9883481867
 40
1.0
 40
1.0
 40
1.0
 40
1.0
 10
569.4163640372
 20
1704.831844081
 30
0.0
 10
569.4163638823
 20
1704.7685500663
 30
0.0
 10
569.3220469456
 20
1704.6462554426
 30
0.0
 10
569.1950629945
 20
1704.5360538009
 30
0.0
 10
569.0836346804
 20
1704.4463867185
 30
0.0
 10
569.0186150476
 20
1704.398012666
 30
0.0
 10
568.9728722892
 20
1704.3657481189
 30
0.0
 10
568.945574443
 20
1704.3493384679
 30
0.0
 10
568.9288200449
 20
1704.3368680988
 30
0.0
 10
568.9181009745
 20
1704.3340363088
 30
0.0
 10
568.9163640339
 20
1704.3318440838
 30
0.0
  0
SPLINE
  5
480
100
AcDbEntity
  8
0
100
AcDbSpline
 62
7
  6
BYLAYER
 70
0
 71
3
 72
15
 73
11
 74
0
 42
0.0000001
 43
0.0000001
 44
0.0000000001
 40
0.0
 40
0.0
 40
0.0
 40
0.0
 40
0.0116518133
 40
0.0427455841
 40
0.0879780268
 40
0.143704138
 40
0.2760482811
 40
0.4258948631
 40
0.7363215223
 40
1.0
 40
1.0
 40
1.0
 40
1.0
 10
617.9163640182
 20
1704.3318440838
 30
0.0
 10
617.9146279697
 20
1704.3340370154
 30
0.0
 10
617.9039068703
 20
1704.3368671984
 30
0.0
 10
617.8871542242
 20
1704.3493389552
 30
0.0
 10
617.8598555299
 20
1704.3657479345
 30
0.0
 10
617.8141131792
 20
1704.3980128044
 30
0.0
 10
617.7490933025
 20
1704.4463866638
 30
0.0
 10
617.6376651017
 20
1704.5360538359
 30
0.0
 10
617.5106810935
 20
1704.6462554322
 30
0.0
 10
617.4163641705
 20
1704.7685500664
 30
0.0
 10
617.4163640157
 20
1704.831844081
 30
0.0
  0
SPLINE
  5
481
100
AcDbEntity
  8
0
100
AcDbSpline
 62
7
  6
BYLAYER
 70
0
 71
3
 72
11
 73
7
 74
0
 42
0.0000001
 43
0.0000001
 44
0.0000000001
 40
0.0
 40
0.0
 40
0.0
 40
0.0
 40
0.3404385698
 40
0.6266185405
 40
0.8401374976
 40
1.0
 40
1.0
 40
1.0
 40
1.0
 10
588.9163626024
 20
1705.831844081
 30
0.0
 10
588.916362602
 20
1705.9684450991
 30
0.0
 10
588.891501088
 20
1706.2210928892
 30
0.0
 10
588.7837515178
 20
1706.5433562171
 30
0.0
 10
588.6292712528
 20
1706.7662609263
 30
0.0
 10
588.4805059319
 20
1706.8318295877
 30
0.0
 10
588.4163610847
 20
1706.8318440814
 30
0.0
  0
SPLINE
  5
482
100
AcDbEntity
  8
0
100
AcDbSpline
 62
7
  6
BYLAYER
 70
0
 71
3
 72
11
 73
7
 74
0
 42
0.0000001
 43
0.0000001
 44
0.0000000001
 40
0.0
 40
0.0
 40
0.0
 40
0.0
 40
0.2478325037
 40
0.497955658
 40
0.7486362695
 40
1.0
 40
1.0
 40
1.0
 40
1.0
 10
609.4163640256
 20
1704.831844081
 30
0.0
 10
609.4163644612
 20
1704.6677225987
 30
0.0
 10
609.5485237876
 20
1704.3376439788
 30
0.0
 10
609.9360408781
 20
1704.0111156164
 30
0.0
 10
610.4146070263
 20
1703.8383698791
 30
0.0
 10
610.7499040682
 20
1703.8318440396
 30
0.0
 10
610.9163640256
 20
1703.831844081
 30
0.0
  0
SPLINE
  5
483
100
AcDbEntity
  8
0
100
AcDbSpline
 62
7
  6
BYLAYER
 70
0
 71
3
 72
11
 73
7
 74
0
 42
0.0000001
 43
0.0000001
 44
0.0000000001
 40
0.0
 40
0.0
 40
0.0
 40
0.0
 40
0.3404385698
 40
0.6266185405
 40
0.8401374976
 40
1.0
 40
1.0
 40
1.0
 40
1.0
 10
745.5662241483
 20
124.3317339425
 30
0.0
 10
745.5662241487
 20
124.1951329244
 30
0.0
 10
745.5910856627
 20
123.9424851343
 30
0.0
 10
745.6988352329
 20
123.6202218063
 30
0.0
 10
745.8533154979
 20
123.3973170971
 30
0.0
 10
746.0020808188
 20
123.3317484358
 30
0.0
 10
746.066225666
 20
123.331733942
 30
0.0
  0
SPLINE
  5
484
100
AcDbEntity
  8
0
100
AcDbSpline
 62
7
  6
BYLAYER
 70
0
 71
3
 72
11
 73
7
 74
0
 42
0.0000001
 43
0.0000001
 44
0.0000000001
 40
0.0
 40
0.0
 40
0.0
 40
0.0
 40
0.1598605678
 40
0.3733761936
 40
0.6595503807
 40
1.0
 40
1.0
 40
1.0
 40
1.0
 10
736.0662207832
 20
123.3317339422
 30
0.0
 10
736.1303648617
 20
123.3317470664
 30
0.0
 10
736.2791282726
 20
123.3973161289
 30
0.0
 10
736.4336075935
 20
123.6202147932
 30
0.0
 10
736.5413602107
 20
123.9424785057
 30
0.0
 10
736.5662216482
 20
124.1951284753
 30
0.0
 10
736.5662222931
 20
124.3317339424
 30
0.0
  0
SPLINE
  5
485
100
AcDbEntity
  8
0
100
AcDbSpline
 62
7
  6
BYLAYER
 70
0
 71
3
 72
15
 73
11
 74
0
 42
0.0000001
 43
0.0000001
 44
0.0000000001
 40
0.0
 40
0.0
 40
0.0
 40
0.0
 40
0.0116518133
 40
0.0427455841
 40
0.0879780268
 40
0.143704138
 40
0.2760482811
 40
0.4258948631
 40
0.7363215223
 40
1.0
 40
1.0
 40
1.0
 40
1.0
 10
716.5662227325
 20
125.8317339396
 30
0.0
 10
716.5679587819
 20
125.8295410088
 30
0.0
 10
716.5786798792
 20
125.8267108241
 30
0.0
 10
716.5954325271
 20
125.8142390688
 30
0.0
 10
716.6227312205
 20
125.7978300888
 30
0.0
 10
716.6684735717
 20
125.7655652192
 30
0.0
 10
716.7334934481
 20
125.7171913596
 30
0.0
 10
716.844921649
 20
125.6275241876
 30
0.0
 10
716.9719056571
 20
125.5173225913
 30
0.0
 10
717.0662225802
 20
125.395027957
 30
0.0
 10
717.0662227351
 20
125.3317339425
 30
0.0
  0
SPLINE
  5
486
100
AcDbEntity
  8
0
100
AcDbSpline
 62
7
  6
BYLAYER
 70
0
 71
3
 72
11
 73
7
 74
0
 42
0.0000001
 43
0.0000001
 44
0.0000000001
 40
0.0
 40
0.0
 40
0.0
 40
0.0
 40
0.2478325037
 40
0.497955658
 40
0.7486362695
 40
1.0
 40
1.0
 40
1.0
 40
1.0
 10
725.0662227251
 20
125.3317339425
 30
0.0
 10
725.0662222895
 20
125.4958554247
 30
0.0
 10
724.9340629631
 20
125.8259340446
 30
0.0
 10
724.5465458726
 20
126.1524624071
 30
0.0
 10
724.0679797244
 20
126.3252081444
 30
0.0
 10
723.7326826825
 20
126.3317339838
 30
0.0
 10
723.5662227251
 20
126.3317339425
 30
0.0
  0
SPLINE
  5
487
100
AcDbEntity
  8
0
100
AcDbSpline
 62
7
  6
BYLAYER
 70
0
 71
3
 72
11
 73
7
 74
0
 42
0.0000001
 43
0.0000001
 44
0.0000000001
 40
0.0
 40
0.0
 40
0.0
 40
0.0
 40
0.2478327053
 40
0.4979558062
 40
0.7486361583
 40
1.0
 40
1.0
 40
1.0
 40
1.0
 10
757.0662227251
 20
125.3317339425
 30
0.0
 10
757.0662231607
 20
125.495855558
 30
0.0
 10
757.1983826389
 20
125.8259342719
 30
0.0
 10
757.585899752
 20
126.1524624489
 30
0.0
 10
758.0644657422
 20
126.325208169
 30
0.0
 10
758.3997626943
 20
126.3317339838
 30
0.0
 10
758.5662227251
 20
126.3317339425
 30
0.0
  0
SPLINE
  5
488
100
AcDbEntity
  8
0
100
AcDbSpline
 62
7
  6
BYLAYER
 70
0
 71
3
 72
15
 73
11
 74
0
 42
0.0000001
 43
0.0000001
 44
0.0000000001
 40
0.0
 40
0.0
 40
0.0
 40
0.0
 40
0.2636784781
 40
0.5741051372
 40
0.7239517191
 40
0.8562958621
 40
0.9120219732
 40
0.9572544159
 40
0.9883481867
 40
1.0
 40
1.0
 40
1.0
 40
1.0
 10
765.0662227135
 20
125.3317339425
 30
0.0
 10
765.0662228684
 20
125.3950279572
 30
0.0
 10
765.1605398091
 20
125.5173225777
 30
0.0
 10
765.2875237431
 20
125.627524233
 30
0.0
 10
765.398952091
 20
125.7171912885
 30
0.0
 10
765.4639716509
 20
125.7655653989
 30
0.0
 10
765.5097145312
 20
125.7978298493
 30
0.0
 10
765.5370121237
 20
125.8142397013
 30
0.0
 10
765.5537670458
 20
125.8267096553
 30
0.0
 10
765.5644855095
 20
125.829541926
 30
0.0
 10
765.5662227168
 20
125.8317339396
 30
0.0
  0
SPLINE
  5
489
100
AcDbEntity
  8
0
100
AcDbSpline
 62
7
  6
BYLAYER
 70
0
 71
3
 72
11
 73
7
 74
0
 42
0.0000001
 43
0.0000001
 44
0.0000000001
 40
0.0
 40
0.0
 40
0.0
 40
0.0
 40
0.3404385698
 40
0.6266185405
 40
0.8401374976
 40
1.0
 40
1.0
 40
1.0
 40
1.0
 10
597.9170932598
 20
124.3317339425
 30
0.0
 10
597.9170932602
 20
124.1951329244
 30
0.0
 10
597.9419547742
 20
123.9424851343
 30
0.0
 10
598.0497043443
 20
123.6202218063
 30
0.0
 10
598.2041846094
 20
123.3973170971
 30
0.0
 10
598.3529499303
 20
123.3317484358
 30
0.0
 10
598.4170947774
 20
123.331733942
 30
0.0
  0
SPLINE
  5
48A
100
AcDbEntity
  8
0
100
AcDbSpline
 62
7
  6
BYLAYER
 70
0
 71
3
 72
11
 73
7
 74
0
 42
0.0000001
 43
0.0000001
 44
0.0000000001
 40
0.0
 40
0.0
 40
0.0
 40
0.0
 40
0.1598605678
 40
0.3733761936
 40
0.6595503807
 40
1.0
 40
1.0
 40
1.0
 40
1.0
 10
588.4170898947
 20
123.3317339422
 30
0.0
 10
588.4812339731
 20
123.3317470664
 30
0.0
 10
588.6299973841
 20
123.3973161289
 30
0.0
 10
588.784476705
 20
123.6202147932
 30
0.0
 10
588.8922293222
 20
123.9424785057
 30
0.0
 10
588.9170907597
 20
124.1951284753
 30
0.0
 10
588.9170914046
 20
124.3317339424
 30
0.0
  0
SPLINE
  5
48B
100
AcDbEntity
  8
0
100
AcDbSpline
 62
7
  6
BYLAYER
 70
0
 71
3
 72
15
 73
11
 74
0
 42
0.0000001
 43
0.0000001
 44
0.0000000001
 40
0.0
 40
0.0
 40
0.0
 40
0.0
 40
0.0116518133
 40
0.0427455841
 40
0.0879780268
 40
0.143704138
 40
0.2760482811
 40
0.4258948631
 40
0.7363215223
 40
1.0
 40
1.0
 40
1.0
 40
1.0
 10
568.917091844
 20
125.8317339396
 30
0.0
 10
568.9188279104
 20
125.8295410223
 30
0.0
 10
568.929548969
 20
125.8267108069
 30
0.0
 10
568.9463016504
 20
125.8142390781
 30
0.0
 10
568.9736003275
 20
125.7978300852
 30
0.0
 10
569.0193426865
 20
125.7655652219
 30
0.0
 10
569.0843625583
 20
125.7171913585
 30
0.0
 10
569.1957907613
 20
125.6275241883
 30
0.0
 10
569.3227747684
 20
125.5173225911
 30
0.0
 10
569.4170916916
 20
125.395027957
 30
0.0
 10
569.4170918465
 20
125.3317339425
 30
0.0
  0
SPLINE
  5
48C
100
AcDbEntity
  8
0
100
AcDbSpline
 62
7
  6
BYLAYER
 70
0
 71
3
 72
11
 73
7
 74
0
 42
0.0000001
 43
0.0000001
 44
0.0000000001
 40
0.0
 40
0.0
 40
0.0
 40
0.0
 40
0.2478325037
 40
0.497955658
 40
0.7486362695
 40
1.0
 40
1.0
 40
1.0
 40
1.0
 10
577.4170918366
 20
125.3317339425
 30
0.0
 10
577.4170914009
 20
125.4958554247
 30
0.0
 10
577.2849320746
 20
125.8259340446
 30
0.0
 10
576.897414984
 20
126.1524624071
 30
0.0
 10
576.4188488359
 20
126.3252081444
 30
0.0
 10
576.083551794
 20
126.3317339838
 30
0.0
 10
575.9170918366
 20
126.3317339425
 30
0.0
  0
SPLINE
  5
48D
100
AcDbEntity
  8
0
100
AcDbSpline
 62
7
  6
BYLAYER
 70
0
 71
3
 72
11
 73
7
 74
0
 42
0.0000001
 43
0.0000001
 44
0.0000000001
 40
0.0
 40
0.0
 40
0.0
 40
0.0
 40
0.2478327053
 40
0.4979558062
 40
0.7486361583
 40
1.0
 40
1.0
 40
1.0
 40
1.0
 10
609.4170918366
 20
125.3317339425
 30
0.0
 10
609.4170922722
 20
125.495855558
 30
0.0
 10
609.5492517503
 20
125.8259342719
 30
0.0
 10
609.9367688635
 20
126.1524624489
 30
0.0
 10
610.4153348537
 20
126.325208169
 30
0.0
 10
610.7506318058
 20
126.3317339838
 30
0.0
 10
610.9170918366
 20
126.3317339425
 30
0.0
  0
SPLINE
  5
48E
100
AcDbEntity
  8
0
100
AcDbSpline
 62
7
  6
BYLAYER
 70
0
 71
3
 72
15
 73
11
 74
0
 42
0.0000001
 43
0.0000001
 44
0.0000000001
 40
0.0
 40
0.0
 40
0.0
 40
0.0
 40
0.2636784781
 40
0.5741051372
 40
0.7239517191
 40
0.8562958621
 40
0.9120219732
 40
0.9572544159
 40
0.9883481867
 40
1.0
 40
1.0
 40
1.0
 40
1.0
 10
617.4170918249
 20
125.3317339425
 30
0.0
 10
617.4170919798
 20
125.3950279572
 30
0.0
 10
617.5114089172
 20
125.5173225804
 30
0.0
 10
617.6383928658
 20
125.6275242241
 30
0.0
 10
617.7498211848
 20
125.7171913026
 30
0.0
 10
617.814840807
 20
125.7655653635
 30
0.0
 10
617.8605835832
 20
125.7978298965
 30
0.0
 10
617.8878813923
 20
125.8142395768
 30
0.0
 10
617.904635867
 20
125.8267098853
 30
0.0
 10
617.9153548487
 20
125.8295417455
 30
0.0
 10
617.9170918283
 20
125.8317339396
 30
0.0
  0
ENDSEC
  0
SECTION
  2
OBJECTS
  0
DICTIONARY
  5
C
100
AcDbDictionary
280
0
281
1
  3
ACAD_GROUP
350
D
  3
ACAD_MLINESTYLE
350
17
  3
ACAD_LAYOUT
350
1A
  3
ACAD_PLOTSETTINGS
350
19
  3
ACAD_PLOTSTYLENAME
350
E
  0
DICTIONARY
  5
D
102
{ACAD_REACTORS
330
C
102
}
100
AcDbDictionary
280
0
281
1
  0
ACDBDICTIONARYWDFLT
  5
E
102
{ACAD_REACTORS
330
C
102
}
100
AcDbDictionary
281
1
  3
Normal
350
F
100
AcDbDictionaryWithDefault
340
F
  0
DICTIONARY
  5
17
102
{ACAD_REACTORS
330
C
102
}
100
AcDbDictionary
280
0
281
1
  3
Standard
350
18
  0
DICTIONARY
  5
19
102
{ACAD_REACTORS
330
C
102
}
100
AcDbDictionary
281
1
  0
DICTIONARY
  5
1A
102
{ACAD_REACTORS
330
C
102
}
100
AcDbDictionary
281
1
  3
Model
350
48F
  3
Layout1
350
490
  0
ACDBPLACEHOLDER
  5
F
102
{ACAD_REACTORS
330
E
102
}
  0
MLINESTYLE
  5
18
102
{ACAD_REACTORS
330
17
102
}
100
AcDbMlineStyle
  2
STANDARD
 70
0
  3

 62
256
 51
90.0
 52
90.0
 71
2
 49
0.5
 62
256
  6
BYLAYER
 49
-0.5
 62
256
  6
BYLAYER
  0
LAYOUT
  5
48F
102
{ACAD_REACTORS
330
1A
102
}
100
AcDbPlotSettings
  1

  2
none_device
  4

  6

 40
0.0
 41
0.0
 42
0.0
 43
0.0
 44
210.0
 45
297.0
 46
0.0
 47
0.0
 48
0.0
 49
0.0
140
0.0
141
0.0
142
1.0
143
1.0
 70
1024
 72
1
 73
0
 74
0
  7

 75
0
147
1.0
148
0.0
149
0.0
100
AcDbLayout
  1
Model
 70
0
 71
0
 10
0.0
 20
0.0
 11
210.0
 21
297.0
 12
0.0
 22
0.0
 32
0.0
 14
0.0
 24
0.0
 34
0.0
 15
0.0
 25
0.0
 35
0.0
146
0.0
 13
0.0
 23
0.0
 33
0.0
 16
1.0
 26
0.0
 36
0.0
 17
0.0
 27
1.0
 37
0.0
 76
0
330
212
345
0
346
0
  0
LAYOUT
  5
490
102
{ACAD_REACTORS
330
1A
102
}
100
AcDbPlotSettings
  1

  2
none_device
  4

  6

 40
0.0
 41
0.0
 42
0.0
 43
0.0
 44
210.0
 45
297.0
 46
0.0
 47
0.0
 48
0.0
 49
0.0
140
0.0
141
0.0
142
1.0
143
1.0
 70
0
 72
1
 73
0
 74
0
  7

 75
0
147
1.0
148
0.0
149
0.0
100
AcDbLayout
  1
Layout1
 70
0
 71
1
 10
0.0
 20
0.0
 11
210.0
 21
297.0
 12
0.0
 22
0.0
 32
0.0
 14
0.0
 24
0.0
 34
0.0
 15
0.0
 25
0.0
 35
0.0
146
0.0
 13
0.0
 23
0.0
 33
0.0
 16
1.0
 26
0.0
 36
0.0
 17
0.0
 27
1.0
 37
0.0
 76
0
330
213
345
0
346
0
  0
ENDSEC
  0
EOF
