999
DXF file: C:\Users\sesa63760\Dev\_Creo\CAD\MCADPD0003959_3D-CAD\drw0001_3.dxf
999
Pro/ENGINEER 2019471 by Parametric Technology Corporation
  0
SECTION
  2
HEADER
  9
$ACADVER
  1
AC1024
  9
$DWGCODEPAGE
  3
ANSI_1252
  9
$EXTMAX
 10
57.1356452932
 20
80.8061269147
 30
0.0
  9
$EXTMIN
 10
0.0
 20
0.0
 30
0.0
  9
$LIMMIN
 10
0.0
 20
0.0
  9
$LIMMAX
 10
57.1356452932
 20
80.8061269147
  9
$VIEWCTR
 10
28.5678226466
 20
40.4030634573
  9
$VIEWSIZE
 40
80.8061269147
  9
$CLAYER
  8
0
  9
$LTSCALE
 40
5.267362347
  9
$CELTYPE
  6
BYLAYER
  9
$DIMSCALE
 40
1.0
  9
$DIMASZ
 40
0.6801862535
  9
$DIMEXO
 40
1.0
  9
$DIMDLI
 40
3.6392685307
  9
$DIMEXE
 40
1.0
  9
$DIMCEN
 40
0.8619320204
  9
$DIMLFAC
 40
1.0
  9
$DIMBLK
  1
_FILLED
  9
$DIMALT
 70
0
  9
$DIMALTF
 40
0.0393700787
  9
$DIMTXT
 40
0.9522607549
  9
$DIMTOL
 70
1
  9
$DIMLIM
 70
0
  9
$DIMTFAC
 40
1.0
  9
$DIMTP
 40
0.01
  9
$DIMTM
 40
0.01
  9
$DIMGAP
 40
0.625
  9
$DIMDSEP
 70
46
  9
$AUNITS
 70
0
  9
$PDMODE
 70
3
  9
$PDSIZE
 40
0.3125
  9
$HANDSEED
  5
26D
  9
$TILEMODE
 70
1
  9
$MEASUREMENT
 70
1
  9
$INSUNITS
 70
4
  0
ENDSEC
  0
SECTION
  2
CLASSES
  0
CLASS
  1
ACDBDICTIONARYWDFLT
  2
AcDbDictionaryWithDefault
  3
AutoCAD 2000
 90
0
 91
1
280
0
281
0
  0
CLASS
  1
ACDBPLACEHOLDER
  2
AcDbPlaceHolder
  3
AutoCAD 2000
 90
0
 91
1
280
0
281
0
  0
CLASS
  1
LAYOUT
  2
AcDbLayout
  3
AutoCAD 2000
 90
0
 91
0
280
0
281
0
  0
ENDSEC
  0
SECTION
  2
TABLES
  0
TABLE
  2
VPORT
  5
8
100
AcDbSymbolTable
 70
2
  0
VPORT
  5
1F4
100
AcDbSymbolTableRecord
100
AcDbViewportTableRecord
  2
*ACTIVE
 70
0
 10
0.0
 20
0.0
 11
1.0
 21
1.0
 12
28.5678226466
 22
40.4030634573
 13
0.0
 23
0.0
 14
1.0
 24
1.0
 15
0.0
 25
0.0
 16
0.0
 26
0.0
 36
1.0
 17
0.0
 27
0.0
 37
0.0
 40
80.8061269147
 41
0.7070707071
 42
50.0
 43
0.0
 44
0.0
 50
0.0
 51
0.0
 71
0
 72
100
 73
1
 74
1
 75
0
 76
0
 77
0
 78
0
  0
ENDTAB
  0
TABLE
  2
LTYPE
  5
5
100
AcDbSymbolTable
 70
6
  0
LTYPE
  5
14
100
AcDbSymbolTableRecord
100
AcDbLinetypeTableRecord
  2
BYBLOCK
 70
0
  3

 72
65
 73
0
 40
0.0
  0
LTYPE
  5
15
100
AcDbSymbolTableRecord
100
AcDbLinetypeTableRecord
  2
BYLAYER
 70
0
  3

 72
65
 73
0
 40
0.0
  0
LTYPE
  5
16
100
AcDbSymbolTableRecord
100
AcDbLinetypeTableRecord
  2
CONTINUOUS
 70
64
  3
Solid line
 72
65
 73
0
 40
0.0
  0
LTYPE
  5
1F5
100
AcDbSymbolTableRecord
100
AcDbLinetypeTableRecord
  2
CENTER
 70
64
  3
____ _ ____ _ ____ _ ____ _ ____ _ ____ _ ____
 72
65
 73
4
 40
0.6
 49
0.375
 74
0
 49
-0.075
 74
0
 49
0.075
 74
0
 49
-0.075
 74
0
  0
LTYPE
  5
1F6
100
AcDbSymbolTableRecord
100
AcDbLinetypeTableRecord
  2
HIDDEN
 70
64
  3
- - - - - - - - - - - - - - - - - - - -
 72
65
 73
2
 40
0.2
 49
0.1
 74
0
 49
-0.1
 74
0
  0
LTYPE
  5
1F7
100
AcDbSymbolTableRecord
100
AcDbLinetypeTableRecord
  2
PHANTOM
 70
64
  3
_____ _ _ _____ _ _ _____ _ _ _____
 72
65
 73
6
 40
0.8
 49
0.45
 74
0
 49
-0.05
 74
0
 49
0.1
 74
0
 49
-0.05
 74
0
 49
0.1
 74
0
 49
-0.05
 74
0
  0
LTYPE
  5
1F8
100
AcDbSymbolTableRecord
100
AcDbLinetypeTableRecord
  2
DOT
 70
64
  3
. . . . . . . . . . . . . . . . . . . .
 72
65
 73
2
 40
0.2
 49
0.1
 74
0
 49
-0.1
 74
0
  0
LTYPE
  5
1F9
100
AcDbSymbolTableRecord
100
AcDbLinetypeTableRecord
  2
DASHED
 70
64
  3
- - - - - - - - - - - - - - - - - - - -
 72
65
 73
2
 40
0.2
 49
0.1
 74
0
 49
-0.1
 74
0
  0
ENDTAB
  0
TABLE
  2
LAYER
  5
2
100
AcDbSymbolTable
 70
36
  0
LAYER
  5
10
100
AcDbSymbolTableRecord
100
AcDbLayerTableRecord
  2
0
 70
0
 62
7
  6
CONTINUOUS
370
-3
390
F
  0
LAYER
  5
1FA
100
AcDbSymbolTableRecord
100
AcDbLayerTableRecord
  2
DEFAULT_1
 70
0
 62
7
  6
CENTER
370
-3
390
F
  0
LAYER
  5
1FB
100
AcDbSymbolTableRecord
100
AcDbLayerTableRecord
  2
DEFAULT_2
 70
0
 62
7
  6
HIDDEN
370
-3
390
F
  0
LAYER
  5
1FC
100
AcDbSymbolTableRecord
100
AcDbLayerTableRecord
  2
DEFAULT_3
 70
0
 62
7
  6
PHANTOM
370
-3
390
F
  0
LAYER
  5
1FD
100
AcDbSymbolTableRecord
100
AcDbLayerTableRecord
  2
00_COMPONENTS
 70
0
 62
7
  6
CONTINUOUS
370
-3
390
F
  0
LAYER
  5
1FE
100
AcDbSymbolTableRecord
100
AcDbLayerTableRecord
  2
01_1_DEFAULT_DATUMS
 70
0
 62
7
  6
CONTINUOUS
370
-3
390
F
  0
LAYER
  5
1FF
100
AcDbSymbolTableRecord
100
AcDbLayerTableRecord
  2
01_PLANES
 70
0
 62
7
  6
CONTINUOUS
370
-3
390
F
  0
LAYER
  5
200
100
AcDbSymbolTableRecord
100
AcDbLayerTableRecord
  2
02_COORD_SYS
 70
0
 62
7
  6
CONTINUOUS
370
-3
390
F
  0
LAYER
  5
201
100
AcDbSymbolTableRecord
100
AcDbLayerTableRecord
  2
03_AXES
 70
0
 62
7
  6
CONTINUOUS
370
-3
390
F
  0
LAYER
  5
202
100
AcDbSymbolTableRecord
100
AcDbLayerTableRecord
  2
04_POINTS
 70
0
 62
7
  6
CONTINUOUS
370
-3
390
F
  0
LAYER
  5
203
100
AcDbSymbolTableRecord
100
AcDbLayerTableRecord
  2
05_CURVES
 70
0
 62
7
  6
CONTINUOUS
370
-3
390
F
  0
LAYER
  5
204
100
AcDbSymbolTableRecord
100
AcDbLayerTableRecord
  2
06_SURFS
 70
0
 62
7
  6
CONTINUOUS
370
-3
390
F
  0
LAYER
  5
205
100
AcDbSymbolTableRecord
100
AcDbLayerTableRecord
  2
07_COSMETICS
 70
0
 62
7
  6
CONTINUOUS
370
-3
390
F
  0
LAYER
  5
206
100
AcDbSymbolTableRecord
100
AcDbLayerTableRecord
  2
10_NOTES
 70
0
 62
7
  6
CONTINUOUS
370
-3
390
F
  0
LAYER
  5
207
100
AcDbSymbolTableRecord
100
AcDbLayerTableRecord
  2
11_NOTES_PUB
 70
0
 62
7
  6
CONTINUOUS
370
-3
390
F
  0
LAYER
  5
208
100
AcDbSymbolTableRecord
100
AcDbLayerTableRecord
  2
13_REF_GTOL
 70
0
 62
7
  6
CONTINUOUS
370
-3
390
F
  0
LAYER
  5
209
100
AcDbSymbolTableRecord
100
AcDbLayerTableRecord
  2
16_MISC
 70
0
 62
7
  6
CONTINUOUS
370
-3
390
F
  0
LAYER
  5
20A
100
AcDbSymbolTableRecord
100
AcDbLayerTableRecord
  2
17_NO_PRINT
 70
0
 62
7
  6
CONTINUOUS
370
-3
390
F
  0
LAYER
  5
20B
100
AcDbSymbolTableRecord
100
AcDbLayerTableRecord
  2
18_DATUM_CAMS_JOINTS
 70
0
 62
7
  6
CONTINUOUS
370
-3
390
F
  0
LAYER
  5
20C
100
AcDbSymbolTableRecord
100
AcDbLayerTableRecord
  2
19_DATUM_FUNCTIONAL
 70
0
 62
7
  6
CONTINUOUS
370
-3
390
F
  0
LAYER
  5
20D
100
AcDbSymbolTableRecord
100
AcDbLayerTableRecord
  2
20_DATUM_KINEMATIC_SCHEME
 70
0
 62
7
  6
CONTINUOUS
370
-3
390
F
  0
ENDTAB
  0
TABLE
  2
STYLE
  5
3
100
AcDbSymbolTable
 70
1
  0
STYLE
  5
11
100
AcDbSymbolTableRecord
100
AcDbTextStyleTableRecord
  2
STANDARD
 70
0
 40
0.0
 41
1.0
 50
0.0
 71
0
 42
0.2
  3
ARIAL.TTF
  4

  0
STYLE
  5
20E
100
AcDbSymbolTableRecord
100
AcDbTextStyleTableRecord
  2
TEXTSTYLE_1
 70
0
 40
0.0
 41
0.8
 50
0.0
 71
0
 42
0.2
  3
gdt
  4

  0
ENDTAB
  0
TABLE
  2
VIEW
  5
6
100
AcDbSymbolTable
 70
0
  0
ENDTAB
  0
TABLE
  2
UCS
  5
7
100
AcDbSymbolTable
 70
0
  0
ENDTAB
  0
TABLE
  2
APPID
  5
9
100
AcDbSymbolTable
 70
1
  0
APPID
  5
20F
100
AcDbSymbolTableRecord
100
AcDbRegAppTableRecord
  2
ACAD
 70
0
  0
ENDTAB
  0
TABLE
  2
BLOCK_RECORD
  5
1
100
AcDbSymbolTable
 70
0
  0
BLOCK_RECORD
  5
210
100
AcDbSymbolTableRecord
100
AcDbBlockTableRecord
  2
*Model_Space
  0
BLOCK_RECORD
  5
211
100
AcDbSymbolTableRecord
100
AcDbBlockTableRecord
  2
*Paper_Space
  0
BLOCK_RECORD
  5
212
100
AcDbSymbolTableRecord
100
AcDbBlockTableRecord
  2
_FILLED
  0
ENDTAB
  0
TABLE
  2
DIMSTYLE
  5
A
100
AcDbSymbolTable
 70
1
100
AcDbDimStyleTable
 71
0
  0
DIMSTYLE
105
213
100
AcDbSymbolTableRecord
100
AcDbDimStyleTableRecord
  2
STANDARD
 70
0
  3

  4

 40
1.0
 41
0.6801862535
 42
1.0
 43
0.38
 44
1.0
 45
0.0
 46
0.0
 47
0.01
 48
0.01
140
0.9522607549
141
0.09
142
0.0
143
25.4
144
1.0
145
0.0
146
1.0
147
0.625
 71
1
 72
0
 73
0
 74
0
 75
0
 76
0
 77
1
 78
8
 79
2
170
0
171
1
172
0
173
0
174
0
175
0
176
0
177
0
178
0
270
2
179
2
271
2
272
2
273
2
274
2
275
0
280
0
281
0
282
0
283
1
284
8
285
0
286
0
287
3
288
0
340
11
278
46
341
212
342
212
343
212
344
212
  0
ENDTAB
  0
ENDSEC
  0
SECTION
  2
BLOCKS
  0
BLOCK
  5
20
100
AcDbEntity
  8
0
100
AcDbBlockBegin
  2
*Model_Space
 70
0
 10
0.0
 20
0.0
 30
0.0
  3
*Model_Space
  1

  0
ENDBLK
  5
21
100
AcDbEntity
  8
0
100
AcDbBlockEnd
  0
BLOCK
  5
1C
100
AcDbEntity
  8
0
100
AcDbBlockBegin
  2
*Paper_Space
 70
0
 10
0.0
 20
0.0
 30
0.0
  3
*Paper_Space
  1

  0
ENDBLK
  5
1D
100
AcDbEntity
  8
0
100
AcDbBlockEnd
  0
BLOCK
  5
214
100
AcDbEntity
  8
0
100
AcDbBlockBegin
  2
_FILLED
 70
64
 10
0.0
 20
0.0
  3
_FILLED
  1

  0
SOLID
  5
215
100
AcDbEntity
  8
0
  6
BYBLOCK
 62
0
100
AcDbTrace
 10
0.0
 20
0.0
 11
-1.0
 21
0.25
 12
-1.0
 22
-0.25
 13
-1.0
 23
-0.25
  0
ENDBLK
  5
216
100
AcDbEntity
  8
0
  6
BYBLOCK
 62
0
100
AcDbBlockEnd
  0
ENDSEC
  0
SECTION
  2
ENTITIES
  0
LINE
  5
217
100
AcDbEntity
  8
0
100
AcDbLine
 62
7
  6
BYLAYER
 10
6.7590699114
 20
19.6377106418
 11
6.7590699114
 21
38.8140399053
  0
LINE
  5
218
100
AcDbEntity
  8
0
100
AcDbLine
 62
7
  6
BYLAYER
 10
6.9590699114
 20
38.8140399053
 11
6.9590699114
 21
61.5640399053
  0
LINE
  5
219
100
AcDbEntity
  8
0
100
AcDbLine
 62
7
  6
BYLAYER
 10
39.9590699114
 20
19.6377106418
 11
36.7590699114
 21
19.6377106418
  0
LINE
  5
21A
100
AcDbEntity
  8
0
100
AcDbLine
 62
7
  6
BYLAYER
 10
24.9590699114
 20
19.6377106418
 11
21.7590699114
 21
19.6377106418
  0
LINE
  5
21B
100
AcDbEntity
  8
0
100
AcDbLine
 62
7
  6
BYLAYER
 10
9.9590699114
 20
19.6377106418
 11
6.7590699114
 21
19.6377106418
  0
LINE
  5
21C
100
AcDbEntity
  8
0
100
AcDbLine
 62
7
  6
BYLAYER
 10
9.9590699114
 20
19.6377106418
 11
9.9590699114
 21
37.3140399053
  0
LINE
  5
21D
100
AcDbEntity
  8
0
100
AcDbLine
 62
7
  6
BYLAYER
 10
9.9800499656
 20
22.8977168825
 11
9.9800499656
 21
35.6934755909
  0
LINE
  5
21E
100
AcDbEntity
  8
0
100
AcDbLine
 62
7
  6
BYLAYER
 10
10.6590699114
 20
51.7640399053
 11
10.6590699114
 21
47.5640399053
  0
LINE
  5
21F
100
AcDbEntity
  8
0
100
AcDbLine
 62
7
  6
BYLAYER
 10
11.459098351
 20
20.9998067747
 11
21.7590699114
 21
20.9998067599
  0
LINE
  5
220
100
AcDbEntity
  8
0
100
AcDbLine
 62
7
  6
BYLAYER
 10
26.459098351
 20
20.9998067747
 11
36.7590699114
 21
20.9998067599
  0
LINE
  5
221
100
AcDbEntity
  8
0
100
AcDbLine
 62
7
  6
BYLAYER
 10
41.4590983511
 20
20.9998067747
 11
51.9590699114
 21
20.9998067596
  0
LINE
  5
222
100
AcDbEntity
  8
0
100
AcDbLine
 62
7
  6
BYLAYER
 10
11.459098351
 20
20.9998064563
 11
11.4591339009
 21
38.2845798316
  0
LINE
  5
223
100
AcDbEntity
  8
0
100
AcDbLine
 62
7
  6
BYLAYER
 10
11.5590699114
 20
47.5640399053
 11
11.5590699114
 21
50.3640399053
  0
LINE
  5
224
100
AcDbEntity
  8
0
100
AcDbLine
 62
7
  6
BYLAYER
 10
9.9590699114
 20
22.8977168825
 11
9.9800499656
 21
22.8977168825
  0
LINE
  5
225
100
AcDbEntity
  8
0
100
AcDbLine
 62
7
  6
BYLAYER
 10
24.9590699114
 20
22.8977168825
 11
24.9800499656
 21
22.8977168825
  0
LINE
  5
226
100
AcDbEntity
  8
0
100
AcDbLine
 62
7
  6
BYLAYER
 10
39.9590699114
 20
22.8977168825
 11
39.9800499656
 21
22.8977168825
  0
LINE
  5
227
100
AcDbEntity
  8
0
100
AcDbLine
 62
7
  6
BYLAYER
 10
39.9590699114
 20
23.0604399053
 11
36.7590699114
 21
23.0604399053
  0
LINE
  5
228
100
AcDbEntity
  8
0
100
AcDbLine
 62
7
  6
BYLAYER
 10
24.9590699114
 20
23.0604399053
 11
21.7590699114
 21
23.0604399053
  0
LINE
  5
229
100
AcDbEntity
  8
0
100
AcDbLine
 62
7
  6
BYLAYER
 10
9.9590699114
 20
23.0604399053
 11
6.7590699114
 21
23.0604399053
  0
LINE
  5
22A
100
AcDbEntity
  8
0
100
AcDbLine
 62
7
  6
BYLAYER
 10
39.9590699114
 20
23.6604399053
 11
36.7590699114
 21
23.6604399053
  0
LINE
  5
22B
100
AcDbEntity
  8
0
100
AcDbLine
 62
7
  6
BYLAYER
 10
24.9590699114
 20
23.6604399053
 11
21.7590699114
 21
23.6604399053
  0
LINE
  5
22C
100
AcDbEntity
  8
0
100
AcDbLine
 62
7
  6
BYLAYER
 10
9.9590699114
 20
23.6604399053
 11
6.7590699114
 21
23.6604399053
  0
LINE
  5
22D
100
AcDbEntity
  8
0
100
AcDbLine
 62
7
  6
BYLAYER
 10
13.2590699114
 20
47.5640399053
 11
13.2590699114
 21
51.7640399053
  0
LINE
  5
22E
100
AcDbEntity
  8
0
100
AcDbLine
 62
7
  6
BYLAYER
 10
21.7590699114
 20
19.6377106418
 11
21.7590699114
 21
38.8140399053
  0
LINE
  5
22F
100
AcDbEntity
  8
0
100
AcDbLine
 62
7
  6
BYLAYER
 10
24.9590699114
 20
19.6377106418
 11
24.9590699114
 21
37.3140399053
  0
LINE
  5
230
100
AcDbEntity
  8
0
100
AcDbLine
 62
7
  6
BYLAYER
 10
24.9800499656
 20
22.8977168825
 11
24.9800499656
 21
35.6934755909
  0
LINE
  5
231
100
AcDbEntity
  8
0
100
AcDbLine
 62
7
  6
BYLAYER
 10
39.9590699114
 20
34.9640399053
 11
36.7590699114
 21
34.9640399053
  0
LINE
  5
232
100
AcDbEntity
  8
0
100
AcDbLine
 62
7
  6
BYLAYER
 10
24.9590699114
 20
34.9640399053
 11
21.7590699114
 21
34.9640399053
  0
LINE
  5
233
100
AcDbEntity
  8
0
100
AcDbLine
 62
7
  6
BYLAYER
 10
9.9590699114
 20
34.9640399053
 11
6.7590699114
 21
34.9640399053
  0
LINE
  5
234
100
AcDbEntity
  8
0
100
AcDbLine
 62
7
  6
BYLAYER
 10
39.9590699114
 20
35.5640399053
 11
36.7590699114
 21
35.5640399053
  0
LINE
  5
235
100
AcDbEntity
  8
0
100
AcDbLine
 62
7
  6
BYLAYER
 10
24.9590699114
 20
35.5640399053
 11
21.7590699114
 21
35.5640399053
  0
LINE
  5
236
100
AcDbEntity
  8
0
100
AcDbLine
 62
7
  6
BYLAYER
 10
9.9590699114
 20
35.5640399053
 11
6.7590699114
 21
35.5640399053
  0
LINE
  5
237
100
AcDbEntity
  8
0
100
AcDbLine
 62
7
  6
BYLAYER
 10
39.9800499656
 20
35.6934755909
 11
39.9590699114
 21
35.6934755909
  0
LINE
  5
238
100
AcDbEntity
  8
0
100
AcDbLine
 62
7
  6
BYLAYER
 10
24.9800499656
 20
35.6934755909
 11
24.9590699114
 21
35.6934755909
  0
LINE
  5
239
100
AcDbEntity
  8
0
100
AcDbLine
 62
7
  6
BYLAYER
 10
9.9800499656
 20
35.6934755909
 11
9.9590699114
 21
35.6934755909
  0
LINE
  5
23A
100
AcDbEntity
  8
0
100
AcDbLine
 62
7
  6
BYLAYER
 10
25.6590699114
 20
51.7640399053
 11
25.6590699114
 21
47.5640399053
  0
LINE
  5
23B
100
AcDbEntity
  8
0
100
AcDbLine
 62
7
  6
BYLAYER
 10
26.459098351
 20
20.9998064563
 11
26.4591339009
 21
38.2845798316
  0
LINE
  5
23C
100
AcDbEntity
  8
0
100
AcDbLine
 62
7
  6
BYLAYER
 10
26.5590699114
 20
47.5640399053
 11
26.5590699114
 21
50.3640399053
  0
LINE
  5
23D
100
AcDbEntity
  8
0
100
AcDbLine
 62
7
  6
BYLAYER
 10
11.4591339009
 20
38.2845798316
 11
21.7590699114
 21
38.28457938
  0
LINE
  5
23E
100
AcDbEntity
  8
0
100
AcDbLine
 62
7
  6
BYLAYER
 10
26.4591339009
 20
38.2845798316
 11
36.7590699114
 21
38.28457938
  0
LINE
  5
23F
100
AcDbEntity
  8
0
100
AcDbLine
 62
7
  6
BYLAYER
 10
41.4591339009
 20
38.2845798316
 11
51.9590699114
 21
38.28457938
  0
LINE
  5
240
100
AcDbEntity
  8
0
100
AcDbLine
 62
7
  6
BYLAYER
 10
6.9590699114
 20
38.8140399053
 11
6.7590699114
 21
38.8140399053
  0
LINE
  5
241
100
AcDbEntity
  8
0
100
AcDbLine
 62
7
  6
BYLAYER
 10
11.4590699155
 20
38.8140399053
 11
21.7590699114
 21
38.8140399053
  0
LINE
  5
242
100
AcDbEntity
  8
0
100
AcDbLine
 62
7
  6
BYLAYER
 10
26.4590699155
 20
38.8140399053
 11
36.7590699114
 21
38.8140399053
  0
LINE
  5
243
100
AcDbEntity
  8
0
100
AcDbLine
 62
7
  6
BYLAYER
 10
41.4590699155
 20
38.8140399053
 11
51.9590699114
 21
38.8140399053
  0
LINE
  5
244
100
AcDbEntity
  8
0
100
AcDbLine
 62
7
  6
BYLAYER
 10
28.2590699114
 20
47.5640399053
 11
28.2590699114
 21
51.7640399053
  0
LINE
  5
245
100
AcDbEntity
  8
0
100
AcDbLine
 62
7
  6
BYLAYER
 10
36.7590699114
 20
19.6377106418
 11
36.7590699114
 21
38.8140399053
  0
LINE
  5
246
100
AcDbEntity
  8
0
100
AcDbLine
 62
7
  6
BYLAYER
 10
6.9590699114
 20
47.5640399053
 11
51.9590699114
 21
47.5640399053
  0
LINE
  5
247
100
AcDbEntity
  8
0
100
AcDbLine
 62
7
  6
BYLAYER
 10
10.6590699114
 20
48.9640399053
 11
11.5590699114
 21
48.9640399053
  0
LINE
  5
248
100
AcDbEntity
  8
0
100
AcDbLine
 62
7
  6
BYLAYER
 10
25.6590699114
 20
48.9640399053
 11
26.5590699114
 21
48.9640399053
  0
LINE
  5
249
100
AcDbEntity
  8
0
100
AcDbLine
 62
7
  6
BYLAYER
 10
40.6590699114
 20
48.9640399053
 11
41.5590699114
 21
48.9640399053
  0
LINE
  5
24A
100
AcDbEntity
  8
0
100
AcDbLine
 62
7
  6
BYLAYER
 10
43.2590699114
 20
50.3640399053
 11
41.5590699114
 21
50.3640399053
  0
LINE
  5
24B
100
AcDbEntity
  8
0
100
AcDbLine
 62
7
  6
BYLAYER
 10
28.2590699114
 20
50.3640399053
 11
26.5590699114
 21
50.3640399053
  0
LINE
  5
24C
100
AcDbEntity
  8
0
100
AcDbLine
 62
7
  6
BYLAYER
 10
13.2590699114
 20
50.3640399053
 11
11.5590699114
 21
50.3640399053
  0
LINE
  5
24D
100
AcDbEntity
  8
0
100
AcDbLine
 62
7
  6
BYLAYER
 10
39.9590699114
 20
19.6377106418
 11
39.9590699114
 21
37.3140399053
  0
LINE
  5
24E
100
AcDbEntity
  8
0
100
AcDbLine
 62
7
  6
BYLAYER
 10
39.9800499656
 20
22.8977168825
 11
39.9800499656
 21
35.6934755909
  0
LINE
  5
24F
100
AcDbEntity
  8
0
100
AcDbLine
 62
7
  6
BYLAYER
 10
40.6590699114
 20
51.7640399053
 11
40.6590699114
 21
47.5640399053
  0
LINE
  5
250
100
AcDbEntity
  8
0
100
AcDbLine
 62
7
  6
BYLAYER
 10
41.459098351
 20
20.9998064563
 11
41.4591339009
 21
38.2845798316
  0
LINE
  5
251
100
AcDbEntity
  8
0
100
AcDbLine
 62
7
  6
BYLAYER
 10
41.5590699114
 20
47.5640399053
 11
41.5590699114
 21
50.3640399053
  0
LINE
  5
252
100
AcDbEntity
  8
0
100
AcDbLine
 62
7
  6
BYLAYER
 10
43.2590699114
 20
51.2640399053
 11
40.6590699114
 21
51.2640399053
  0
LINE
  5
253
100
AcDbEntity
  8
0
100
AcDbLine
 62
7
  6
BYLAYER
 10
28.2590699114
 20
51.2640399053
 11
25.6590699114
 21
51.2640399053
  0
LINE
  5
254
100
AcDbEntity
  8
0
100
AcDbLine
 62
7
  6
BYLAYER
 10
13.2590699114
 20
51.2640399053
 11
10.6590699114
 21
51.2640399053
  0
LINE
  5
255
100
AcDbEntity
  8
0
100
AcDbLine
 62
7
  6
BYLAYER
 10
43.2590699114
 20
51.7640399053
 11
40.6590699114
 21
51.7640399053
  0
LINE
  5
256
100
AcDbEntity
  8
0
100
AcDbLine
 62
7
  6
BYLAYER
 10
28.2590699114
 20
51.7640399053
 11
25.6590699114
 21
51.7640399053
  0
LINE
  5
257
100
AcDbEntity
  8
0
100
AcDbLine
 62
7
  6
BYLAYER
 10
13.2590699114
 20
51.7640399053
 11
10.6590699114
 21
51.7640399053
  0
LINE
  5
258
100
AcDbEntity
  8
0
100
AcDbLine
 62
7
  6
BYLAYER
 10
43.2590699114
 20
47.5640399053
 11
43.2590699114
 21
51.7640399053
  0
LINE
  5
259
100
AcDbEntity
  8
0
100
AcDbLine
 62
7
  6
BYLAYER
 10
51.9590699114
 20
60.5640399053
 11
6.9590699114
 21
60.5640399053
  0
LINE
  5
25A
100
AcDbEntity
  8
0
100
AcDbLine
 62
7
  6
BYLAYER
 10
51.9590699114
 20
20.9998067596
 11
51.9590699114
 21
61.5640399053
  0
LINE
  5
25B
100
AcDbEntity
  8
0
100
AcDbLine
 62
7
  6
BYLAYER
 10
6.9590699114
 20
61.5640399053
 11
51.9590699114
 21
61.5640399053
  0
ARC
  5
25C
100
AcDbEntity
  8
0
100
AcDbCircle
 62
7
  6
BYLAYER
 10
41.4590699114
 20
37.3140399053
 40
1.5
100
AcDbArc
 50
90.0
 51
180.0
  0
ARC
  5
25D
100
AcDbEntity
  8
0
100
AcDbCircle
 62
7
  6
BYLAYER
 10
26.4590699114
 20
37.3140399053
 40
1.5
100
AcDbArc
 50
90.0
 51
180.0
  0
ARC
  5
25E
100
AcDbEntity
  8
0
100
AcDbCircle
 62
7
  6
BYLAYER
 10
11.4590699114
 20
37.3140399053
 40
1.5
100
AcDbArc
 50
90.0
 51
180.0
  0
SPLINE
  5
25F
100
AcDbEntity
  8
0
100
AcDbSpline
 62
7
  6
BYLAYER
 70
0
 71
3
 72
19
 73
15
 74
0
 42
0.0000001
 43
0.0000001
 44
0.0000000001
 40
0.0
 40
0.0
 40
0.0
 40
0.0
 40
0.1971693125
 40
0.3854285687
 40
0.5564793258
 40
0.704103193
 40
0.7676301725
 40
0.8237587501
 40
0.8721668713
 40
0.9126828771
 40
0.9452915385
 40
0.9586781527
 40
0.9701861999
 40
1.0
 40
1.0
 40
1.0
 40
1.0
 10
41.4590983511
 20
20.9998067747
 30
0.0
 10
41.3581688396
 20
20.9998071808
 30
0.0
 10
41.1608609183
 20
20.9972249557
 30
0.0
 10
40.8761931455
 20
20.9858095053
 30
0.0
 10
40.6173013648
 20
20.9675405547
 30
0.0
 10
40.4226979397
 20
20.9466720856
 30
0.0
 10
40.2873296413
 20
20.926697281
 30
0.0
 10
40.2026372387
 20
20.91145832
 30
0.0
 10
40.1301290866
 20
20.8954056438
 30
0.0
 10
40.070138279
 20
20.8786259443
 30
0.0
 10
40.028541747
 20
20.8635463553
 30
0.0
 10
40.0018270714
 20
20.8506227019
 30
0.0
 10
39.9783152425
 20
20.8368313423
 30
0.0
 10
39.9590699114
 20
20.81916754
 30
0.0
 10
39.9590699114
 20
20.8039060765
 30
0.0
  0
SPLINE
  5
260
100
AcDbEntity
  8
0
100
AcDbSpline
 62
7
  6
BYLAYER
 70
0
 71
3
 72
19
 73
15
 74
0
 42
0.0000001
 43
0.0000001
 44
0.0000000001
 40
0.0
 40
0.0
 40
0.0
 40
0.0
 40
0.1971693125
 40
0.3854285687
 40
0.5564793258
 40
0.704103193
 40
0.7676301725
 40
0.8237587501
 40
0.8721668713
 40
0.9126828771
 40
0.9452915385
 40
0.9586781527
 40
0.9701861999
 40
1.0
 40
1.0
 40
1.0
 40
1.0
 10
26.459098351
 20
20.9998067747
 30
0.0
 10
26.3581688396
 20
20.9998071808
 30
0.0
 10
26.1608609183
 20
20.9972249557
 30
0.0
 10
25.8761931455
 20
20.9858095053
 30
0.0
 10
25.6173013648
 20
20.9675405547
 30
0.0
 10
25.4226979397
 20
20.9466720856
 30
0.0
 10
25.2873296413
 20
20.926697281
 30
0.0
 10
25.2026372387
 20
20.91145832
 30
0.0
 10
25.1301290866
 20
20.8954056438
 30
0.0
 10
25.070138279
 20
20.8786259443
 30
0.0
 10
25.028541747
 20
20.8635463553
 30
0.0
 10
25.0018270714
 20
20.8506227019
 30
0.0
 10
24.9783152425
 20
20.8368313423
 30
0.0
 10
24.9590699114
 20
20.81916754
 30
0.0
 10
24.9590699114
 20
20.8039060765
 30
0.0
  0
SPLINE
  5
261
100
AcDbEntity
  8
0
100
AcDbSpline
 62
7
  6
BYLAYER
 70
0
 71
3
 72
19
 73
15
 74
0
 42
0.0000001
 43
0.0000001
 44
0.0000000001
 40
0.0
 40
0.0
 40
0.0
 40
0.0
 40
0.1971693125
 40
0.3854285687
 40
0.5564793258
 40
0.704103193
 40
0.7676301725
 40
0.8237587501
 40
0.8721668713
 40
0.9126828771
 40
0.9452915385
 40
0.9586781527
 40
0.9701861999
 40
1.0
 40
1.0
 40
1.0
 40
1.0
 10
11.459098351
 20
20.9998067747
 30
0.0
 10
11.3581688396
 20
20.9998071808
 30
0.0
 10
11.1608609183
 20
20.9972249557
 30
0.0
 10
10.8761931455
 20
20.9858095053
 30
0.0
 10
10.6173013648
 20
20.9675405547
 30
0.0
 10
10.4226979397
 20
20.9466720856
 30
0.0
 10
10.2873296413
 20
20.926697281
 30
0.0
 10
10.2026372387
 20
20.91145832
 30
0.0
 10
10.1301290866
 20
20.8954056438
 30
0.0
 10
10.070138279
 20
20.8786259443
 30
0.0
 10
10.028541747
 20
20.8635463553
 30
0.0
 10
10.0018270714
 20
20.8506227019
 30
0.0
 10
9.9783152425
 20
20.8368313423
 30
0.0
 10
9.9590699114
 20
20.81916754
 30
0.0
 10
9.9590699114
 20
20.8039060765
 30
0.0
  0
SPLINE
  5
262
100
AcDbEntity
  8
0
100
AcDbSpline
 62
7
  6
BYLAYER
 70
0
 71
3
 72
14
 73
10
 74
0
 42
0.0000001
 43
0.0000001
 44
0.0000000001
 40
0.0
 40
0.0
 40
0.0
 40
0.0
 40
0.0968852229
 40
0.1986023333
 40
0.3089616144
 40
0.4297750755
 40
0.561173798
 40
0.7018604085
 40
1.0
 40
1.0
 40
1.0
 40
1.0
 10
9.9590699114
 20
37.3140399053
 30
0.0
 10
9.9590699114
 20
37.3772806694
 30
0.0
 10
9.9792070166
 20
37.5076698988
 30
0.0
 10
10.0670416536
 20
37.6918397703
 30
0.0
 10
10.2075090498
 20
37.8601550591
 30
0.0
 10
10.3950172239
 20
38.0069488522
 30
0.0
 10
10.623030557
 20
38.1269907763
 30
0.0
 10
10.9758750739
 20
38.2485205717
 30
0.0
 10
11.2645089967
 20
38.2842926266
 30
0.0
 10
11.459116126
 20
38.2845794149
 30
0.0
  0
SPLINE
  5
263
100
AcDbEntity
  8
0
100
AcDbSpline
 62
7
  6
BYLAYER
 70
0
 71
3
 72
14
 73
10
 74
0
 42
0.0000001
 43
0.0000001
 44
0.0000000001
 40
0.0
 40
0.0
 40
0.0
 40
0.0
 40
0.0968852229
 40
0.1986023333
 40
0.3089616144
 40
0.4297750755
 40
0.561173798
 40
0.7018604085
 40
1.0
 40
1.0
 40
1.0
 40
1.0
 10
39.9590699114
 20
37.3140399053
 30
0.0
 10
39.9590699114
 20
37.3772806694
 30
0.0
 10
39.9792070166
 20
37.5076698988
 30
0.0
 10
40.0670416536
 20
37.6918397703
 30
0.0
 10
40.2075090498
 20
37.8601550591
 30
0.0
 10
40.3950172239
 20
38.0069488522
 30
0.0
 10
40.623030557
 20
38.1269907763
 30
0.0
 10
40.9758750739
 20
38.2485205717
 30
0.0
 10
41.2645089967
 20
38.2842926266
 30
0.0
 10
41.459116126
 20
38.2845794149
 30
0.0
  0
SPLINE
  5
264
100
AcDbEntity
  8
0
100
AcDbSpline
 62
7
  6
BYLAYER
 70
0
 71
3
 72
25
 73
21
 74
0
 42
0.0000001
 43
0.0000001
 44
0.0000000001
 40
0.0
 40
0.0
 40
0.0
 40
0.0
 40
0.216144381
 40
0.4126078517
 40
0.5851586336
 40
0.6615029036
 40
0.7307728378
 40
0.792645426
 40
0.846866286
 40
0.8931981759
 40
0.9314039717
 40
0.9473889663
 40
0.9612738395
 40
0.973049214
 40
0.9827057979
 40
0.9902344843
 40
0.9956266518
 40
0.9988754579
 40
0.9996971859
 40
1.0
 40
1.0
 40
1.0
 40
1.0
 10
11.4591339006
 20
38.2845796058
 30
0.0
 10
11.4591895715
 20
38.3227285336
 30
0.0
 10
11.459296617
 20
38.3955527568
 30
0.0
 10
11.4594222619
 20
38.4988317931
 30
0.0
 10
11.459458325
 20
38.5774365055
 30
0.0
 10
11.4594985031
 20
38.6335918554
 30
0.0
 10
11.4595465464
 20
38.6702127492
 30
0.0
 10
11.4596281793
 20
38.7029288665
 30
0.0
 10
11.4597160223
 20
38.7315963611
 30
0.0
 10
11.4597805366
 20
38.7560869949
 30
0.0
 10
11.4597938627
 20
38.773828625
 30
0.0
 10
11.4597569204
 20
38.7858444705
 30
0.0
 10
11.4597105861
 20
38.7931930035
 30
0.0
 10
11.4596479407
 20
38.7994308023
 30
0.0
 10
11.4595643372
 20
38.8045284639
 30
0.0
 10
11.4594787954
 20
38.8085463081
 30
0.0
 10
11.459354092
 20
38.8113211788
 30
0.0
 10
11.4592846345
 20
38.8131207761
 30
0.0
 10
11.4591576053
 20
38.8137577814
 30
0.0
 10
11.4591233665
 20
38.8140398711
 30
0.0
 10
11.4590699205
 20
38.8140399052
 30
0.0
  0
SPLINE
  5
265
100
AcDbEntity
  8
0
100
AcDbSpline
 62
7
  6
BYLAYER
 70
0
 71
3
 72
10
 73
6
 74
0
 42
0.0000001
 43
0.0000001
 44
0.0000000001
 40
0.0
 40
0.0
 40
0.0
 40
0.0
 40
0.5044617091
 40
0.7622848301
 40
1.0
 40
1.0
 40
1.0
 40
1.0
 10
9.9800499656
 20
22.8977168825
 30
0.0
 10
9.9800499656
 20
22.8136098005
 30
0.0
 10
9.9730422091
 20
22.6865860345
 30
0.0
 10
9.9622958361
 20
22.5202455246
 30
0.0
 10
9.9590699114
 20
22.4376397142
 30
0.0
 10
9.9590699114
 20
22.398006321
 30
0.0
  0
SPLINE
  5
266
100
AcDbEntity
  8
0
100
AcDbSpline
 62
7
  6
BYLAYER
 70
0
 71
3
 72
10
 73
6
 74
0
 42
0.0000001
 43
0.0000001
 44
0.0000000001
 40
0.0
 40
0.0
 40
0.0
 40
0.0
 40
0.5044617091
 40
0.7622848301
 40
1.0
 40
1.0
 40
1.0
 40
1.0
 10
24.9800499656
 20
22.8977168825
 30
0.0
 10
24.9800499656
 20
22.8136098005
 30
0.0
 10
24.9730422091
 20
22.6865860345
 30
0.0
 10
24.9622958361
 20
22.5202455246
 30
0.0
 10
24.9590699114
 20
22.4376397142
 30
0.0
 10
24.9590699114
 20
22.398006321
 30
0.0
  0
SPLINE
  5
267
100
AcDbEntity
  8
0
100
AcDbSpline
 62
7
  6
BYLAYER
 70
0
 71
3
 72
25
 73
21
 74
0
 42
0.0000001
 43
0.0000001
 44
0.0000000001
 40
0.0
 40
0.0
 40
0.0
 40
0.0
 40
0.216144381
 40
0.4126078517
 40
0.5851586335
 40
0.6615029036
 40
0.7307728378
 40
0.792645426
 40
0.846866286
 40
0.8931981759
 40
0.9314039717
 40
0.9473889663
 40
0.9612738395
 40
0.973049214
 40
0.9827057979
 40
0.9902344843
 40
0.9956266518
 40
0.9988754579
 40
0.9996971859
 40
1.0
 40
1.0
 40
1.0
 40
1.0
 10
41.4591339006
 20
38.2845796058
 30
0.0
 10
41.4591895716
 20
38.3227285336
 30
0.0
 10
41.459296617
 20
38.3955527568
 30
0.0
 10
41.4594222619
 20
38.4988317931
 30
0.0
 10
41.459458325
 20
38.5774365055
 30
0.0
 10
41.459498503
 20
38.6335918554
 30
0.0
 10
41.4595465464
 20
38.6702127492
 30
0.0
 10
41.4596281793
 20
38.7029288665
 30
0.0
 10
41.4597160223
 20
38.7315963611
 30
0.0
 10
41.4597805366
 20
38.7560869949
 30
0.0
 10
41.4597938627
 20
38.773828625
 30
0.0
 10
41.4597569204
 20
38.7858444705
 30
0.0
 10
41.4597105861
 20
38.7931930035
 30
0.0
 10
41.4596479407
 20
38.7994308023
 30
0.0
 10
41.4595643372
 20
38.8045284639
 30
0.0
 10
41.4594787954
 20
38.8085463081
 30
0.0
 10
41.459354092
 20
38.8113211788
 30
0.0
 10
41.4592846345
 20
38.8131207761
 30
0.0
 10
41.4591576053
 20
38.8137577814
 30
0.0
 10
41.4591233665
 20
38.8140398711
 30
0.0
 10
41.4590699205
 20
38.8140399052
 30
0.0
  0
SPLINE
  5
268
100
AcDbEntity
  8
0
100
AcDbSpline
 62
7
  6
BYLAYER
 70
0
 71
3
 72
10
 73
6
 74
0
 42
0.0000001
 43
0.0000001
 44
0.0000000001
 40
0.0
 40
0.0
 40
0.0
 40
0.0
 40
0.5044617091
 40
0.7622848301
 40
1.0
 40
1.0
 40
1.0
 40
1.0
 10
39.9800499656
 20
22.8977168825
 30
0.0
 10
39.9800499656
 20
22.8136098005
 30
0.0
 10
39.9730422091
 20
22.6865860345
 30
0.0
 10
39.9622958361
 20
22.5202455246
 30
0.0
 10
39.9590699114
 20
22.4376397142
 30
0.0
 10
39.9590699114
 20
22.398006321
 30
0.0
  0
SPLINE
  5
269
100
AcDbEntity
  8
0
100
AcDbSpline
 62
7
  6
BYLAYER
 70
0
 71
3
 72
25
 73
21
 74
0
 42
0.0000001
 43
0.0000001
 44
0.0000000001
 40
0.0
 40
0.0
 40
0.0
 40
0.0
 40
0.216144381
 40
0.4126078517
 40
0.5851586335
 40
0.6615029036
 40
0.7307728378
 40
0.792645426
 40
0.846866286
 40
0.8931981759
 40
0.9314039717
 40
0.9473889663
 40
0.9612738395
 40
0.973049214
 40
0.9827057979
 40
0.9902344843
 40
0.9956266518
 40
0.9988754579
 40
0.9996971859
 40
1.0
 40
1.0
 40
1.0
 40
1.0
 10
26.4591339006
 20
38.2845796058
 30
0.0
 10
26.4591895716
 20
38.3227285336
 30
0.0
 10
26.459296617
 20
38.3955527568
 30
0.0
 10
26.4594222619
 20
38.4988317931
 30
0.0
 10
26.459458325
 20
38.5774365055
 30
0.0
 10
26.459498503
 20
38.6335918554
 30
0.0
 10
26.4595465464
 20
38.6702127492
 30
0.0
 10
26.4596281793
 20
38.7029288665
 30
0.0
 10
26.4597160223
 20
38.7315963611
 30
0.0
 10
26.4597805366
 20
38.7560869949
 30
0.0
 10
26.4597938627
 20
38.773828625
 30
0.0
 10
26.4597569204
 20
38.7858444705
 30
0.0
 10
26.4597105861
 20
38.7931930035
 30
0.0
 10
26.4596479407
 20
38.7994308023
 30
0.0
 10
26.4595643372
 20
38.8045284639
 30
0.0
 10
26.4594787954
 20
38.8085463081
 30
0.0
 10
26.459354092
 20
38.8113211788
 30
0.0
 10
26.4592846345
 20
38.8131207761
 30
0.0
 10
26.4591576053
 20
38.8137577814
 30
0.0
 10
26.4591233665
 20
38.8140398711
 30
0.0
 10
26.4590699205
 20
38.8140399052
 30
0.0
  0
SPLINE
  5
26A
100
AcDbEntity
  8
0
100
AcDbSpline
 62
7
  6
BYLAYER
 70
0
 71
3
 72
14
 73
10
 74
0
 42
0.0000001
 43
0.0000001
 44
0.0000000001
 40
0.0
 40
0.0
 40
0.0
 40
0.0
 40
0.0968852229
 40
0.1986023333
 40
0.3089616144
 40
0.4297750755
 40
0.561173798
 40
0.7018604085
 40
1.0
 40
1.0
 40
1.0
 40
1.0
 10
24.9590699114
 20
37.3140399053
 30
0.0
 10
24.9590699114
 20
37.3772806694
 30
0.0
 10
24.9792070166
 20
37.5076698988
 30
0.0
 10
25.0670416536
 20
37.6918397703
 30
0.0
 10
25.2075090498
 20
37.8601550591
 30
0.0
 10
25.3950172239
 20
38.0069488522
 30
0.0
 10
25.623030557
 20
38.1269907763
 30
0.0
 10
25.9758750739
 20
38.2485205717
 30
0.0
 10
26.2645089967
 20
38.2842926266
 30
0.0
 10
26.459116126
 20
38.2845794149
 30
0.0
  0
ENDSEC
  0
SECTION
  2
OBJECTS
  0
DICTIONARY
  5
C
100
AcDbDictionary
280
0
281
1
  3
ACAD_GROUP
350
D
  3
ACAD_MLINESTYLE
350
17
  3
ACAD_LAYOUT
350
1A
  3
ACAD_PLOTSETTINGS
350
19
  3
ACAD_PLOTSTYLENAME
350
E
  0
DICTIONARY
  5
D
102
{ACAD_REACTORS
330
C
102
}
100
AcDbDictionary
280
0
281
1
  0
ACDBDICTIONARYWDFLT
  5
E
102
{ACAD_REACTORS
330
C
102
}
100
AcDbDictionary
281
1
  3
Normal
350
F
100
AcDbDictionaryWithDefault
340
F
  0
DICTIONARY
  5
17
102
{ACAD_REACTORS
330
C
102
}
100
AcDbDictionary
280
0
281
1
  3
Standard
350
18
  0
DICTIONARY
  5
19
102
{ACAD_REACTORS
330
C
102
}
100
AcDbDictionary
281
1
  0
DICTIONARY
  5
1A
102
{ACAD_REACTORS
330
C
102
}
100
AcDbDictionary
281
1
  3
Model
350
26B
  3
Layout1
350
26C
  0
ACDBPLACEHOLDER
  5
F
102
{ACAD_REACTORS
330
E
102
}
  0
MLINESTYLE
  5
18
102
{ACAD_REACTORS
330
17
102
}
100
AcDbMlineStyle
  2
STANDARD
 70
0
  3

 62
256
 51
90.0
 52
90.0
 71
2
 49
0.5
 62
256
  6
BYLAYER
 49
-0.5
 62
256
  6
BYLAYER
  0
LAYOUT
  5
26B
102
{ACAD_REACTORS
330
1A
102
}
100
AcDbPlotSettings
  1

  2
none_device
  4

  6

 40
0.0
 41
0.0
 42
0.0
 43
0.0
 44
210.0
 45
297.0
 46
0.0
 47
0.0
 48
0.0
 49
0.0
140
0.0
141
0.0
142
1.0
143
1.0
 70
1024
 72
1
 73
0
 74
0
  7

 75
0
147
1.0
148
0.0
149
0.0
100
AcDbLayout
  1
Model
 70
0
 71
0
 10
0.0
 20
0.0
 11
210.0
 21
297.0
 12
0.0
 22
0.0
 32
0.0
 14
0.0
 24
0.0
 34
0.0
 15
0.0
 25
0.0
 35
0.0
146
0.0
 13
0.0
 23
0.0
 33
0.0
 16
1.0
 26
0.0
 36
0.0
 17
0.0
 27
1.0
 37
0.0
 76
0
330
210
345
0
346
0
  0
LAYOUT
  5
26C
102
{ACAD_REACTORS
330
1A
102
}
100
AcDbPlotSettings
  1

  2
none_device
  4

  6

 40
0.0
 41
0.0
 42
0.0
 43
0.0
 44
210.0
 45
297.0
 46
0.0
 47
0.0
 48
0.0
 49
0.0
140
0.0
141
0.0
142
1.0
143
1.0
 70
0
 72
1
 73
0
 74
0
  7

 75
0
147
1.0
148
0.0
149
0.0
100
AcDbLayout
  1
Layout1
 70
0
 71
1
 10
0.0
 20
0.0
 11
210.0
 21
297.0
 12
0.0
 22
0.0
 32
0.0
 14
0.0
 24
0.0
 34
0.0
 15
0.0
 25
0.0
 35
0.0
146
0.0
 13
0.0
 23
0.0
 33
0.0
 16
1.0
 26
0.0
 36
0.0
 17
0.0
 27
1.0
 37
0.0
 76
0
330
211
345
0
346
0
  0
ENDSEC
  0
EOF
