999
DXF file: C:\Users\sesa63760\Dev\_Creo\CAD\MCADID0004243_3D-CAD\drw0001_2.dxf
999
Pro/ENGINEER 2019471 by Parametric Technology Corporation
  0
SECTION
  2
HEADER
  9
$ACADVER
  1
AC1024
  9
$DWGCODEPAGE
  3
ANSI_1252
  9
$EXTMAX
 10
814.5652135667
 20
1152.0279449015
 30
0.0
  9
$EXTMIN
 10
0.0
 20
0.0
 30
0.0
  9
$LIMMIN
 10
0.0
 20
0.0
  9
$LIMMAX
 10
814.5652135667
 20
1152.0279449015
  9
$VIEWCTR
 10
407.2826067833
 20
576.0139724507
  9
$VIEWSIZE
 40
1152.0279449015
  9
$CLAYER
  8
0
  9
$LTSCALE
 40
75.0951549269
  9
$CELTYPE
  6
BYLAYER
  9
$DIMSCALE
 40
1.0
  9
$DIMASZ
 40
9.6972049234
  9
$DIMEXO
 40
1.0
  9
$DIMDLI
 40
51.8839252222
  9
$DIMEXE
 40
1.0
  9
$DIMCEN
 40
12.2882980789
  9
$DIMLFAC
 40
1.0
  9
$DIMBLK
  1
_FILLED
  9
$DIMALT
 70
0
  9
$DIMALTF
 40
0.0393700787
  9
$DIMTXT
 40
13.5760868928
  9
$DIMTOL
 70
1
  9
$DIMLIM
 70
0
  9
$DIMTFAC
 40
1.0
  9
$DIMTP
 40
0.01
  9
$DIMTM
 40
0.01
  9
$DIMGAP
 40
0.625
  9
$DIMDSEP
 70
46
  9
$AUNITS
 70
0
  9
$PDMODE
 70
3
  9
$PDSIZE
 40
0.3125
  9
$HANDSEED
  5
435
  9
$TILEMODE
 70
1
  9
$MEASUREMENT
 70
1
  9
$INSUNITS
 70
4
  0
ENDSEC
  0
SECTION
  2
CLASSES
  0
CLASS
  1
ACDBDICTIONARYWDFLT
  2
AcDbDictionaryWithDefault
  3
AutoCAD 2000
 90
0
 91
1
280
0
281
0
  0
CLASS
  1
ACDBPLACEHOLDER
  2
AcDbPlaceHolder
  3
AutoCAD 2000
 90
0
 91
1
280
0
281
0
  0
CLASS
  1
LAYOUT
  2
AcDbLayout
  3
AutoCAD 2000
 90
0
 91
0
280
0
281
0
  0
ENDSEC
  0
SECTION
  2
TABLES
  0
TABLE
  2
VPORT
  5
8
100
AcDbSymbolTable
 70
2
  0
VPORT
  5
1F4
100
AcDbSymbolTableRecord
100
AcDbViewportTableRecord
  2
*ACTIVE
 70
0
 10
0.0
 20
0.0
 11
1.0
 21
1.0
 12
407.2826067833
 22
576.0139724507
 13
0.0
 23
0.0
 14
1.0
 24
1.0
 15
0.0
 25
0.0
 16
0.0
 26
0.0
 36
1.0
 17
0.0
 27
0.0
 37
0.0
 40
1152.0279449015
 41
0.7070707071
 42
50.0
 43
0.0
 44
0.0
 50
0.0
 51
0.0
 71
0
 72
100
 73
1
 74
1
 75
0
 76
0
 77
0
 78
0
  0
ENDTAB
  0
TABLE
  2
LTYPE
  5
5
100
AcDbSymbolTable
 70
6
  0
LTYPE
  5
14
100
AcDbSymbolTableRecord
100
AcDbLinetypeTableRecord
  2
BYBLOCK
 70
0
  3

 72
65
 73
0
 40
0.0
  0
LTYPE
  5
15
100
AcDbSymbolTableRecord
100
AcDbLinetypeTableRecord
  2
BYLAYER
 70
0
  3

 72
65
 73
0
 40
0.0
  0
LTYPE
  5
16
100
AcDbSymbolTableRecord
100
AcDbLinetypeTableRecord
  2
CONTINUOUS
 70
64
  3
Solid line
 72
65
 73
0
 40
0.0
  0
LTYPE
  5
1F5
100
AcDbSymbolTableRecord
100
AcDbLinetypeTableRecord
  2
CENTER
 70
64
  3
____ _ ____ _ ____ _ ____ _ ____ _ ____ _ ____
 72
65
 73
4
 40
0.6
 49
0.375
 74
0
 49
-0.075
 74
0
 49
0.075
 74
0
 49
-0.075
 74
0
  0
LTYPE
  5
1F6
100
AcDbSymbolTableRecord
100
AcDbLinetypeTableRecord
  2
HIDDEN
 70
64
  3
- - - - - - - - - - - - - - - - - - - -
 72
65
 73
2
 40
0.2
 49
0.1
 74
0
 49
-0.1
 74
0
  0
LTYPE
  5
1F7
100
AcDbSymbolTableRecord
100
AcDbLinetypeTableRecord
  2
PHANTOM
 70
64
  3
_____ _ _ _____ _ _ _____ _ _ _____
 72
65
 73
6
 40
0.8
 49
0.45
 74
0
 49
-0.05
 74
0
 49
0.1
 74
0
 49
-0.05
 74
0
 49
0.1
 74
0
 49
-0.05
 74
0
  0
LTYPE
  5
1F8
100
AcDbSymbolTableRecord
100
AcDbLinetypeTableRecord
  2
DOT
 70
64
  3
. . . . . . . . . . . . . . . . . . . .
 72
65
 73
2
 40
0.2
 49
0.1
 74
0
 49
-0.1
 74
0
  0
LTYPE
  5
1F9
100
AcDbSymbolTableRecord
100
AcDbLinetypeTableRecord
  2
DASHED
 70
64
  3
- - - - - - - - - - - - - - - - - - - -
 72
65
 73
2
 40
0.2
 49
0.1
 74
0
 49
-0.1
 74
0
  0
ENDTAB
  0
TABLE
  2
LAYER
  5
2
100
AcDbSymbolTable
 70
36
  0
LAYER
  5
10
100
AcDbSymbolTableRecord
100
AcDbLayerTableRecord
  2
0
 70
0
 62
7
  6
CONTINUOUS
370
-3
390
F
  0
LAYER
  5
1FA
100
AcDbSymbolTableRecord
100
AcDbLayerTableRecord
  2
DEFAULT_1
 70
0
 62
7
  6
CENTER
370
-3
390
F
  0
LAYER
  5
1FB
100
AcDbSymbolTableRecord
100
AcDbLayerTableRecord
  2
DEFAULT_2
 70
0
 62
7
  6
HIDDEN
370
-3
390
F
  0
LAYER
  5
1FC
100
AcDbSymbolTableRecord
100
AcDbLayerTableRecord
  2
DEFAULT_3
 70
0
 62
7
  6
PHANTOM
370
-3
390
F
  0
LAYER
  5
1FD
100
AcDbSymbolTableRecord
100
AcDbLayerTableRecord
  2
00_COMPONENTS
 70
0
 62
7
  6
CONTINUOUS
370
-3
390
F
  0
LAYER
  5
1FE
100
AcDbSymbolTableRecord
100
AcDbLayerTableRecord
  2
01_1_DEFAULT_DATUMS
 70
0
 62
7
  6
CONTINUOUS
370
-3
390
F
  0
LAYER
  5
1FF
100
AcDbSymbolTableRecord
100
AcDbLayerTableRecord
  2
01_PLANES
 70
0
 62
7
  6
CONTINUOUS
370
-3
390
F
  0
LAYER
  5
200
100
AcDbSymbolTableRecord
100
AcDbLayerTableRecord
  2
02_COORD_SYS
 70
0
 62
7
  6
CONTINUOUS
370
-3
390
F
  0
LAYER
  5
201
100
AcDbSymbolTableRecord
100
AcDbLayerTableRecord
  2
03_AXES
 70
0
 62
7
  6
CONTINUOUS
370
-3
390
F
  0
LAYER
  5
202
100
AcDbSymbolTableRecord
100
AcDbLayerTableRecord
  2
04_POINTS
 70
0
 62
7
  6
CONTINUOUS
370
-3
390
F
  0
LAYER
  5
203
100
AcDbSymbolTableRecord
100
AcDbLayerTableRecord
  2
05_CURVES
 70
0
 62
7
  6
CONTINUOUS
370
-3
390
F
  0
LAYER
  5
204
100
AcDbSymbolTableRecord
100
AcDbLayerTableRecord
  2
06_SURFS
 70
0
 62
7
  6
CONTINUOUS
370
-3
390
F
  0
LAYER
  5
205
100
AcDbSymbolTableRecord
100
AcDbLayerTableRecord
  2
07_COSMETICS
 70
0
 62
7
  6
CONTINUOUS
370
-3
390
F
  0
LAYER
  5
206
100
AcDbSymbolTableRecord
100
AcDbLayerTableRecord
  2
10_NOTES
 70
0
 62
7
  6
CONTINUOUS
370
-3
390
F
  0
LAYER
  5
207
100
AcDbSymbolTableRecord
100
AcDbLayerTableRecord
  2
11_NOTES_PUB
 70
0
 62
7
  6
CONTINUOUS
370
-3
390
F
  0
LAYER
  5
208
100
AcDbSymbolTableRecord
100
AcDbLayerTableRecord
  2
13_REF_GTOL
 70
0
 62
7
  6
CONTINUOUS
370
-3
390
F
  0
LAYER
  5
209
100
AcDbSymbolTableRecord
100
AcDbLayerTableRecord
  2
16_MISC
 70
0
 62
7
  6
CONTINUOUS
370
-3
390
F
  0
LAYER
  5
20A
100
AcDbSymbolTableRecord
100
AcDbLayerTableRecord
  2
17_NO_PRINT
 70
0
 62
7
  6
CONTINUOUS
370
-3
390
F
  0
LAYER
  5
20B
100
AcDbSymbolTableRecord
100
AcDbLayerTableRecord
  2
18_DATUM_CAMS_JOINTS
 70
0
 62
7
  6
CONTINUOUS
370
-3
390
F
  0
LAYER
  5
20C
100
AcDbSymbolTableRecord
100
AcDbLayerTableRecord
  2
19_DATUM_FUNCTIONAL
 70
0
 62
7
  6
CONTINUOUS
370
-3
390
F
  0
LAYER
  5
20D
100
AcDbSymbolTableRecord
100
AcDbLayerTableRecord
  2
20_DATUM_KINEMATIC_SCHEME
 70
0
 62
7
  6
CONTINUOUS
370
-3
390
F
  0
LAYER
  5
20E
100
AcDbSymbolTableRecord
100
AcDbLayerTableRecord
  2
3
 70
0
 62
7
  6
CONTINUOUS
370
-3
390
F
  0
LAYER
  5
20F
100
AcDbSymbolTableRecord
100
AcDbLayerTableRecord
  2
4
 70
0
 62
7
  6
CONTINUOUS
370
-3
390
F
  0
ENDTAB
  0
TABLE
  2
STYLE
  5
3
100
AcDbSymbolTable
 70
1
  0
STYLE
  5
11
100
AcDbSymbolTableRecord
100
AcDbTextStyleTableRecord
  2
STANDARD
 70
0
 40
0.0
 41
1.0
 50
0.0
 71
0
 42
0.2
  3
ARIAL.TTF
  4

  0
STYLE
  5
210
100
AcDbSymbolTableRecord
100
AcDbTextStyleTableRecord
  2
TEXTSTYLE_1
 70
0
 40
0.0
 41
0.8
 50
0.0
 71
0
 42
0.2
  3
gdt
  4

  0
ENDTAB
  0
TABLE
  2
VIEW
  5
6
100
AcDbSymbolTable
 70
0
  0
ENDTAB
  0
TABLE
  2
UCS
  5
7
100
AcDbSymbolTable
 70
0
  0
ENDTAB
  0
TABLE
  2
APPID
  5
9
100
AcDbSymbolTable
 70
1
  0
APPID
  5
211
100
AcDbSymbolTableRecord
100
AcDbRegAppTableRecord
  2
ACAD
 70
0
  0
ENDTAB
  0
TABLE
  2
BLOCK_RECORD
  5
1
100
AcDbSymbolTable
 70
0
  0
BLOCK_RECORD
  5
212
100
AcDbSymbolTableRecord
100
AcDbBlockTableRecord
  2
*Model_Space
  0
BLOCK_RECORD
  5
213
100
AcDbSymbolTableRecord
100
AcDbBlockTableRecord
  2
*Paper_Space
  0
BLOCK_RECORD
  5
214
100
AcDbSymbolTableRecord
100
AcDbBlockTableRecord
  2
_FILLED
  0
ENDTAB
  0
TABLE
  2
DIMSTYLE
  5
A
100
AcDbSymbolTable
 70
1
100
AcDbDimStyleTable
 71
0
  0
DIMSTYLE
105
215
100
AcDbSymbolTableRecord
100
AcDbDimStyleTableRecord
  2
STANDARD
 70
0
  3

  4

 40
1.0
 41
9.6972049234
 42
1.0
 43
0.38
 44
1.0
 45
0.0
 46
0.0
 47
0.01
 48
0.01
140
13.5760868928
141
0.09
142
0.0
143
25.4
144
1.0
145
0.0
146
1.0
147
0.625
 71
1
 72
0
 73
0
 74
0
 75
0
 76
0
 77
1
 78
8
 79
2
170
0
171
1
172
0
173
0
174
0
175
0
176
0
177
0
178
0
270
2
179
2
271
2
272
2
273
2
274
2
275
0
280
0
281
0
282
0
283
1
284
8
285
0
286
0
287
3
288
0
340
11
278
46
341
214
342
214
343
214
344
214
  0
ENDTAB
  0
ENDSEC
  0
SECTION
  2
BLOCKS
  0
BLOCK
  5
20
100
AcDbEntity
  8
0
100
AcDbBlockBegin
  2
*Model_Space
 70
0
 10
0.0
 20
0.0
 30
0.0
  3
*Model_Space
  1

  0
ENDBLK
  5
21
100
AcDbEntity
  8
0
100
AcDbBlockEnd
  0
BLOCK
  5
1C
100
AcDbEntity
  8
0
100
AcDbBlockBegin
  2
*Paper_Space
 70
0
 10
0.0
 20
0.0
 30
0.0
  3
*Paper_Space
  1

  0
ENDBLK
  5
1D
100
AcDbEntity
  8
0
100
AcDbBlockEnd
  0
BLOCK
  5
216
100
AcDbEntity
  8
0
100
AcDbBlockBegin
  2
_FILLED
 70
64
 10
0.0
 20
0.0
  3
_FILLED
  1

  0
SOLID
  5
217
100
AcDbEntity
  8
0
  6
BYBLOCK
 62
0
100
AcDbTrace
 10
0.0
 20
0.0
 11
-1.0
 21
0.25
 12
-1.0
 22
-0.25
 13
-1.0
 23
-0.25
  0
ENDBLK
  5
218
100
AcDbEntity
  8
0
  6
BYBLOCK
 62
0
100
AcDbBlockEnd
  0
ENDSEC
  0
SECTION
  2
ENTITIES
  0
LINE
  5
219
100
AcDbEntity
  8
0
100
AcDbLine
 62
7
  6
BYLAYER
 10
515.6415909773
 20
76.8488653576
 11
510.0421676901
 21
76.8488653576
  0
LINE
  5
21A
100
AcDbEntity
  8
0
100
AcDbLine
 62
7
  6
BYLAYER
 10
473.6420660203
 20
76.8488653576
 11
468.041692653
 21
76.8488653576
  0
LINE
  5
21B
100
AcDbEntity
  8
0
100
AcDbLine
 62
7
  6
BYLAYER
 10
367.9924600888
 20
76.8488653576
 11
362.3930368015
 21
76.8488653576
  0
LINE
  5
21C
100
AcDbEntity
  8
0
100
AcDbLine
 62
7
  6
BYLAYER
 10
325.9929351318
 20
76.8488653576
 11
320.3925617645
 21
76.8488653576
  0
LINE
  5
21D
100
AcDbEntity
  8
0
100
AcDbLine
 62
7
  6
BYLAYER
 10
320.1929353784
 20
76.9487552191
 11
321.0201412174
 21
76.9487552191
  0
LINE
  5
21E
100
AcDbEntity
  8
0
100
AcDbLine
 62
7
  6
BYLAYER
 10
326.3657295394
 20
76.9487552191
 11
362.0201412145
 21
76.9487552191
  0
LINE
  5
21F
100
AcDbEntity
  8
0
100
AcDbLine
 62
7
  6
BYLAYER
 10
367.3657295365
 20
76.9487552191
 11
368.1929353784
 21
76.9487552191
  0
LINE
  5
220
100
AcDbEntity
  8
0
100
AcDbLine
 62
7
  6
BYLAYER
 10
467.8420662669
 20
76.9487552191
 11
468.669272106
 21
76.9487552191
  0
LINE
  5
221
100
AcDbEntity
  8
0
100
AcDbLine
 62
7
  6
BYLAYER
 10
474.0148604279
 20
76.9487552191
 11
509.6692721031
 21
76.9487552191
  0
LINE
  5
222
100
AcDbEntity
  8
0
100
AcDbLine
 62
7
  6
BYLAYER
 10
515.014860425
 20
76.9487552191
 11
515.8420662669
 21
76.9487552191
  0
LINE
  5
223
100
AcDbEntity
  8
0
100
AcDbLine
 62
7
  6
BYLAYER
 10
495.9835144472
 20
77.4487552191
 11
487.7015826127
 21
77.4487552191
  0
LINE
  5
224
100
AcDbEntity
  8
0
100
AcDbLine
 62
7
  6
BYLAYER
 10
348.3343835587
 20
77.4487552191
 11
340.0524517242
 21
77.4487552191
  0
LINE
  5
225
100
AcDbEntity
  8
0
100
AcDbLine
 62
7
  6
BYLAYER
 10
515.642066264
 20
77.8488653576
 11
509.042066264
 21
77.8488653576
  0
LINE
  5
226
100
AcDbEntity
  8
0
100
AcDbLine
 62
7
  6
BYLAYER
 10
474.6420662669
 20
77.8488653576
 11
468.0420662669
 21
77.8488653576
  0
LINE
  5
227
100
AcDbEntity
  8
0
100
AcDbLine
 62
7
  6
BYLAYER
 10
367.9929353755
 20
77.8488653576
 11
361.3929353755
 21
77.8488653576
  0
LINE
  5
228
100
AcDbEntity
  8
0
100
AcDbLine
 62
7
  6
BYLAYER
 10
326.9929353784
 20
77.8488653576
 11
320.3929353784
 21
77.8488653576
  0
LINE
  5
229
100
AcDbEntity
  8
0
100
AcDbLine
 62
7
  6
BYLAYER
 10
516.8420662669
 20
77.9487552191
 11
515.642066264
 21
77.9487552191
  0
LINE
  5
22A
100
AcDbEntity
  8
0
100
AcDbLine
 62
7
  6
BYLAYER
 10
509.042066264
 20
77.9487552191
 11
495.8420662669
 21
77.9487552257
  0
LINE
  5
22B
100
AcDbEntity
  8
0
100
AcDbLine
 62
7
  6
BYLAYER
 10
487.8420662669
 20
77.9487552191
 11
474.6420662669
 21
77.9487552191
  0
LINE
  5
22C
100
AcDbEntity
  8
0
100
AcDbLine
 62
7
  6
BYLAYER
 10
468.0420662669
 20
77.9487552191
 11
466.8420662669
 21
77.9487552191
  0
LINE
  5
22D
100
AcDbEntity
  8
0
100
AcDbLine
 62
7
  6
BYLAYER
 10
369.1929353784
 20
77.9487552191
 11
367.9929353755
 21
77.9487552191
  0
LINE
  5
22E
100
AcDbEntity
  8
0
100
AcDbLine
 62
7
  6
BYLAYER
 10
361.3929353755
 20
77.9487552191
 11
348.1929353784
 21
77.9487552257
  0
LINE
  5
22F
100
AcDbEntity
  8
0
100
AcDbLine
 62
7
  6
BYLAYER
 10
340.1929353784
 20
77.9487552191
 11
326.9929353784
 21
77.9487552191
  0
LINE
  5
230
100
AcDbEntity
  8
0
100
AcDbLine
 62
7
  6
BYLAYER
 10
320.3929353784
 20
77.9487552191
 11
319.1929353784
 21
77.9487552191
  0
LINE
  5
231
100
AcDbEntity
  8
0
100
AcDbLine
 62
7
  6
BYLAYER
 10
319.1929353784
 20
78.9487551502
 11
320.3929353784
 21
78.9487552191
  0
LINE
  5
232
100
AcDbEntity
  8
0
100
AcDbLine
 62
7
  6
BYLAYER
 10
326.9929353784
 20
78.9487552191
 11
328.1929353784
 21
78.9487551501
  0
LINE
  5
233
100
AcDbEntity
  8
0
100
AcDbLine
 62
7
  6
BYLAYER
 10
360.1929353784
 20
78.9487551502
 11
361.3929353755
 21
78.9487552191
  0
LINE
  5
234
100
AcDbEntity
  8
0
100
AcDbLine
 62
7
  6
BYLAYER
 10
367.9929353755
 20
78.9487552191
 11
369.1929353784
 21
78.9487551501
  0
LINE
  5
235
100
AcDbEntity
  8
0
100
AcDbLine
 62
7
  6
BYLAYER
 10
466.8420662669
 20
78.9487551502
 11
468.0420662669
 21
78.9487552191
  0
LINE
  5
236
100
AcDbEntity
  8
0
100
AcDbLine
 62
7
  6
BYLAYER
 10
474.6420662669
 20
78.9487552191
 11
475.8420662669
 21
78.9487551501
  0
LINE
  5
237
100
AcDbEntity
  8
0
100
AcDbLine
 62
7
  6
BYLAYER
 10
507.8420662669
 20
78.9487551502
 11
509.042066264
 21
78.9487552191
  0
LINE
  5
238
100
AcDbEntity
  8
0
100
AcDbLine
 62
7
  6
BYLAYER
 10
515.642066264
 20
78.9487552191
 11
516.8420662669
 21
78.9487551501
  0
LINE
  5
239
100
AcDbEntity
  8
0
100
AcDbLine
 62
7
  6
BYLAYER
 10
319.6929353784
 20
79.4487552191
 11
326.6929353784
 21
79.4487552191
  0
LINE
  5
23A
100
AcDbEntity
  8
0
100
AcDbLine
 62
7
  6
BYLAYER
 10
361.6929353784
 20
79.4487552191
 11
368.6929353784
 21
79.4487552191
  0
LINE
  5
23B
100
AcDbEntity
  8
0
100
AcDbLine
 62
7
  6
BYLAYER
 10
467.3420662669
 20
79.4487552191
 11
474.3420662669
 21
79.4487552191
  0
LINE
  5
23C
100
AcDbEntity
  8
0
100
AcDbLine
 62
7
  6
BYLAYER
 10
509.3420662669
 20
79.4487552191
 11
516.3420662669
 21
79.4487552191
  0
LINE
  5
23D
100
AcDbEntity
  8
0
100
AcDbLine
 62
7
  6
BYLAYER
 10
516.8420662669
 20
79.9487552191
 11
509.3420662669
 21
79.9487552191
  0
LINE
  5
23E
100
AcDbEntity
  8
0
100
AcDbLine
 62
7
  6
BYLAYER
 10
474.3420662669
 20
79.9487552191
 11
466.8420662669
 21
79.9487552191
  0
LINE
  5
23F
100
AcDbEntity
  8
0
100
AcDbLine
 62
7
  6
BYLAYER
 10
369.1929353784
 20
79.9487552191
 11
361.6929353784
 21
79.9487552191
  0
LINE
  5
240
100
AcDbEntity
  8
0
100
AcDbLine
 62
7
  6
BYLAYER
 10
326.6929353784
 20
79.9487552191
 11
319.1929353784
 21
79.9487552191
  0
LINE
  5
241
100
AcDbEntity
  8
0
100
AcDbLine
 62
7
  6
BYLAYER
 10
319.1929353784
 20
94.4487552191
 11
369.1929353784
 21
94.4487552191
  0
LINE
  5
242
100
AcDbEntity
  8
0
100
AcDbLine
 62
7
  6
BYLAYER
 10
466.8420662669
 20
94.4487552191
 11
516.8420662669
 21
94.4487552191
  0
LINE
  5
243
100
AcDbEntity
  8
3
100
AcDbLine
 62
7
  6
BYLAYER
 10
319.1924603354
 20
94.4488781661
 11
369.1924603354
 21
94.4488781661
  0
LINE
  5
244
100
AcDbEntity
  8
3
100
AcDbLine
 62
7
  6
BYLAYER
 10
466.8415912239
 20
94.4488781661
 11
516.8415912239
 21
94.4488781661
  0
LINE
  5
245
100
AcDbEntity
  8
4
100
AcDbLine
 62
7
  6
BYLAYER
 10
309.0037146519
 20
121.7970404808
 11
354.0037146519
 21
121.7970404808
  0
LINE
  5
246
100
AcDbEntity
  8
3
100
AcDbLine
 62
7
  6
BYLAYER
 10
456.6528455404
 20
121.7970404808
 11
501.6528455404
 21
121.7970404808
  0
LINE
  5
247
100
AcDbEntity
  8
3
100
AcDbLine
 62
7
  6
BYLAYER
 10
459.6528455404
 20
126.7970404808
 11
456.6528455404
 21
126.7970404808
  0
LINE
  5
248
100
AcDbEntity
  8
4
100
AcDbLine
 62
7
  6
BYLAYER
 10
312.0037146519
 20
126.7970404808
 11
309.0037146519
 21
126.7970404808
  0
LINE
  5
249
100
AcDbEntity
  8
3
100
AcDbLine
 62
7
  6
BYLAYER
 10
494.5420662655
 20
127.1205033004
 11
489.1420662655
 21
127.1205033004
  0
LINE
  5
24A
100
AcDbEntity
  8
4
100
AcDbLine
 62
7
  6
BYLAYER
 10
346.892935377
 20
127.1205033004
 11
341.492935377
 21
127.1205033004
  0
LINE
  5
24B
100
AcDbEntity
  8
4
100
AcDbLine
 62
7
  6
BYLAYER
 10
337.3037146519
 20
128.5470404808
 11
338.7886259081
 21
128.5470404808
  0
LINE
  5
24C
100
AcDbEntity
  8
4
100
AcDbLine
 62
7
  6
BYLAYER
 10
349.5969073062
 20
128.5470404808
 11
350.8037146519
 21
128.5470404808
  0
LINE
  5
24D
100
AcDbEntity
  8
3
100
AcDbLine
 62
7
  6
BYLAYER
 10
484.9528455404
 20
128.5470404808
 11
486.4377567966
 21
128.5470404808
  0
LINE
  5
24E
100
AcDbEntity
  8
3
100
AcDbLine
 62
7
  6
BYLAYER
 10
497.2460381947
 20
128.5470404808
 11
498.4528455404
 21
128.5470404808
  0
LINE
  5
24F
100
AcDbEntity
  8
3
100
AcDbLine
 62
7
  6
BYLAYER
 10
498.4528455404
 20
135.0470404808
 11
497.2463757343
 21
135.0470404808
  0
LINE
  5
250
100
AcDbEntity
  8
3
100
AcDbLine
 62
7
  6
BYLAYER
 10
486.4380943363
 20
135.0470404808
 11
484.9528455404
 21
135.0470404808
  0
LINE
  5
251
100
AcDbEntity
  8
4
100
AcDbLine
 62
7
  6
BYLAYER
 10
350.8037146519
 20
135.0470404808
 11
349.5972448458
 21
135.0470404808
  0
LINE
  5
252
100
AcDbEntity
  8
4
100
AcDbLine
 62
7
  6
BYLAYER
 10
338.7889634477
 20
135.0470404808
 11
337.3037146519
 21
135.0470404808
  0
LINE
  5
253
100
AcDbEntity
  8
4
100
AcDbLine
 62
7
  6
BYLAYER
 10
341.492935377
 20
136.4735776612
 11
346.892935377
 21
136.4735776612
  0
LINE
  5
254
100
AcDbEntity
  8
3
100
AcDbLine
 62
7
  6
BYLAYER
 10
489.1420662655
 20
136.4735776612
 11
494.5420662655
 21
136.4735776612
  0
LINE
  5
255
100
AcDbEntity
  8
0
100
AcDbLine
 62
7
  6
BYLAYER
 10
329.6922055888
 20
1070.9488653576
 11
329.1922075674
 21
1070.4488675161
  0
LINE
  5
256
100
AcDbEntity
  8
0
100
AcDbLine
 62
7
  6
BYLAYER
 10
327.9422075674
 20
1066.9488653576
 11
327.4422075674
 21
1066.4488653576
  0
LINE
  5
257
100
AcDbEntity
  8
3
100
AcDbLine
 62
7
  6
BYLAYER
 10
494.5420662655
 20
157.1205033004
 11
489.1420662655
 21
157.1205033004
  0
LINE
  5
258
100
AcDbEntity
  8
4
100
AcDbLine
 62
7
  6
BYLAYER
 10
346.892935377
 20
157.1205033004
 11
341.492935377
 21
157.1205033004
  0
LINE
  5
259
100
AcDbEntity
  8
4
100
AcDbLine
 62
7
  6
BYLAYER
 10
337.3037146519
 20
158.5470404808
 11
338.7886259081
 21
158.5470404808
  0
LINE
  5
25A
100
AcDbEntity
  8
4
100
AcDbLine
 62
7
  6
BYLAYER
 10
349.5969073062
 20
158.5470404808
 11
350.8037146519
 21
158.5470404808
  0
LINE
  5
25B
100
AcDbEntity
  8
3
100
AcDbLine
 62
7
  6
BYLAYER
 10
484.9528455404
 20
158.5470404808
 11
486.4377567966
 21
158.5470404808
  0
LINE
  5
25C
100
AcDbEntity
  8
3
100
AcDbLine
 62
7
  6
BYLAYER
 10
497.2460381947
 20
158.5470404808
 11
498.4528455404
 21
158.5470404808
  0
LINE
  5
25D
100
AcDbEntity
  8
3
100
AcDbLine
 62
7
  6
BYLAYER
 10
498.4528455404
 20
165.0470404808
 11
497.2463757343
 21
165.0470404808
  0
LINE
  5
25E
100
AcDbEntity
  8
3
100
AcDbLine
 62
7
  6
BYLAYER
 10
486.4380943363
 20
165.0470404808
 11
484.9528455404
 21
165.0470404808
  0
LINE
  5
25F
100
AcDbEntity
  8
4
100
AcDbLine
 62
7
  6
BYLAYER
 10
350.8037146519
 20
165.0470404808
 11
349.5972448458
 21
165.0470404808
  0
LINE
  5
260
100
AcDbEntity
  8
4
100
AcDbLine
 62
7
  6
BYLAYER
 10
338.7889634477
 20
165.0470404808
 11
337.3037146519
 21
165.0470404808
  0
LINE
  5
261
100
AcDbEntity
  8
4
100
AcDbLine
 62
7
  6
BYLAYER
 10
341.492935377
 20
166.4735776612
 11
346.892935377
 21
166.4735776612
  0
LINE
  5
262
100
AcDbEntity
  8
3
100
AcDbLine
 62
7
  6
BYLAYER
 10
489.1420662655
 20
166.4735776612
 11
494.5420662655
 21
166.4735776612
  0
LINE
  5
263
100
AcDbEntity
  8
4
100
AcDbLine
 62
7
  6
BYLAYER
 10
309.0037146519
 20
166.7970404808
 11
312.0037146519
 21
166.7970404808
  0
LINE
  5
264
100
AcDbEntity
  8
3
100
AcDbLine
 62
7
  6
BYLAYER
 10
456.6528455404
 20
166.7970404808
 11
459.6528455404
 21
166.7970404808
  0
LINE
  5
265
100
AcDbEntity
  8
4
100
AcDbLine
 62
7
  6
BYLAYER
 10
309.0037146519
 20
171.7970404808
 11
354.0037146519
 21
171.7970404808
  0
LINE
  5
266
100
AcDbEntity
  8
3
100
AcDbLine
 62
7
  6
BYLAYER
 10
456.6528455404
 20
171.7970404808
 11
501.6528455404
 21
171.7970404808
  0
LINE
  5
267
100
AcDbEntity
  8
0
100
AcDbLine
 62
7
  6
BYLAYER
 10
345.9422075674
 20
1066.9488653576
 11
345.4422075674
 21
1066.4488653576
  0
LINE
  5
268
100
AcDbEntity
  8
0
100
AcDbLine
 62
7
  6
BYLAYER
 10
477.3413364773
 20
1070.9488653576
 11
476.8413384559
 21
1070.4488675161
  0
LINE
  5
269
100
AcDbEntity
  8
0
100
AcDbLine
 62
7
  6
BYLAYER
 10
475.5913384559
 20
1066.9488653576
 11
475.0913384559
 21
1066.4488653576
  0
LINE
  5
26A
100
AcDbEntity
  8
4
100
AcDbLine
 62
7
  6
BYLAYER
 10
341.492935377
 20
1012.8084801221
 11
338.792935377
 21
1008.1319429416
  0
LINE
  5
26B
100
AcDbEntity
  8
4
100
AcDbLine
 62
7
  6
BYLAYER
 10
346.892935377
 20
1003.4554057612
 11
349.592935377
 21
1008.1319429417
  0
LINE
  5
26C
100
AcDbEntity
  8
4
100
AcDbLine
 62
7
  6
BYLAYER
 10
341.492935377
 20
982.8084801221
 11
338.792935377
 21
978.1319429416
  0
LINE
  5
26D
100
AcDbEntity
  8
0
100
AcDbLine
 62
7
  6
BYLAYER
 10
493.5913384559
 20
1066.9488653576
 11
493.0913384559
 21
1066.4488653576
  0
LINE
  5
26E
100
AcDbEntity
  8
4
100
AcDbLine
 62
7
  6
BYLAYER
 10
338.792935377
 20
131.7970404808
 11
341.492935377
 21
127.1205033004
  0
LINE
  5
26F
100
AcDbEntity
  8
4
100
AcDbLine
 62
7
  6
BYLAYER
 10
349.592935377
 20
131.7970404808
 11
346.892935377
 21
136.4735776612
  0
LINE
  5
270
100
AcDbEntity
  8
4
100
AcDbLine
 62
7
  6
BYLAYER
 10
338.792935377
 20
161.7970404808
 11
341.492935377
 21
157.1205033004
  0
LINE
  5
271
100
AcDbEntity
  8
4
100
AcDbLine
 62
7
  6
BYLAYER
 10
346.892935377
 20
973.4554057612
 11
349.592935377
 21
978.1319429417
  0
LINE
  5
272
100
AcDbEntity
  8
4
100
AcDbLine
 62
7
  6
BYLAYER
 10
349.592935377
 20
161.7970404808
 11
346.892935377
 21
166.4735776612
  0
LINE
  5
273
100
AcDbEntity
  8
3
100
AcDbLine
 62
7
  6
BYLAYER
 10
489.1420662655
 20
1012.8084801221
 11
486.4420662655
 21
1008.1319429416
  0
LINE
  5
274
100
AcDbEntity
  8
3
100
AcDbLine
 62
7
  6
BYLAYER
 10
494.5420662655
 20
1003.4554057612
 11
497.2420662655
 21
1008.1319429416
  0
LINE
  5
275
100
AcDbEntity
  8
3
100
AcDbLine
 62
7
  6
BYLAYER
 10
489.1420662655
 20
982.8084801221
 11
486.4420662655
 21
978.1319429416
  0
LINE
  5
276
100
AcDbEntity
  8
3
100
AcDbLine
 62
7
  6
BYLAYER
 10
486.4420662655
 20
131.7970404808
 11
489.1420662655
 21
127.1205033004
  0
LINE
  5
277
100
AcDbEntity
  8
3
100
AcDbLine
 62
7
  6
BYLAYER
 10
497.2420662655
 20
131.7970404808
 11
494.5420662655
 21
136.4735776612
  0
LINE
  5
278
100
AcDbEntity
  8
3
100
AcDbLine
 62
7
  6
BYLAYER
 10
486.4420662655
 20
161.7970404808
 11
489.1420662655
 21
157.1205033004
  0
LINE
  5
279
100
AcDbEntity
  8
3
100
AcDbLine
 62
7
  6
BYLAYER
 10
497.2420662655
 20
161.7970404808
 11
494.5420662655
 21
166.4735776612
  0
LINE
  5
27A
100
AcDbEntity
  8
4
100
AcDbLine
 62
7
  6
BYLAYER
 10
309.0037146519
 20
121.7970404808
 11
309.0037146519
 21
171.7970404808
  0
LINE
  5
27B
100
AcDbEntity
  8
4
100
AcDbLine
 62
7
  6
BYLAYER
 10
309.0037146519
 20
968.1319429416
 11
309.0037146519
 21
1018.1319429416
  0
LINE
  5
27C
100
AcDbEntity
  8
4
100
AcDbLine
 62
7
  6
BYLAYER
 10
312.0037146519
 20
1018.1319429416
 11
312.0037146519
 21
968.1319429416
  0
LINE
  5
27D
100
AcDbEntity
  8
4
100
AcDbLine
 62
7
  6
BYLAYER
 10
312.0037146519
 20
171.7970404808
 11
312.0037146519
 21
121.7970404808
  0
LINE
  5
27E
100
AcDbEntity
  8
3
100
AcDbLine
 62
7
  6
BYLAYER
 10
494.5420662655
 20
973.4554057612
 11
497.2420662655
 21
978.1319429416
  0
LINE
  5
27F
100
AcDbEntity
  8
4
100
AcDbLine
 62
7
  6
BYLAYER
 10
316.0037146519
 20
121.7970404808
 11
316.0037146519
 21
171.7970404808
  0
LINE
  5
280
100
AcDbEntity
  8
4
100
AcDbLine
 62
7
  6
BYLAYER
 10
316.0037146519
 20
968.1319429416
 11
316.0037146519
 21
1018.1319429416
  0
LINE
  5
281
100
AcDbEntity
  8
0
100
AcDbLine
 62
7
  6
BYLAYER
 10
319.1922075674
 20
1059.4488653576
 11
319.1922075674
 21
1057.4607990633
  0
LINE
  5
282
100
AcDbEntity
  8
0
100
AcDbLine
 62
7
  6
BYLAYER
 10
319.1922075674
 20
1057.4488653576
 11
319.1922075674
 21
1042.9488653576
  0
LINE
  5
283
100
AcDbEntity
  8
3
100
AcDbLine
 62
7
  6
BYLAYER
 10
319.1924603354
 20
1042.9488781661
 11
319.1924603354
 21
1018.1319429416
  0
LINE
  5
284
100
AcDbEntity
  8
3
100
AcDbLine
 62
7
  6
BYLAYER
 10
319.1924603354
 20
968.1319429417
 11
319.1924603354
 21
171.7970404808
  0
LINE
  5
285
100
AcDbEntity
  8
3
100
AcDbLine
 62
7
  6
BYLAYER
 10
319.1924603354
 20
121.7970404808
 11
319.1924603354
 21
94.4488781661
  0
LINE
  5
286
100
AcDbEntity
  8
0
100
AcDbLine
 62
7
  6
BYLAYER
 10
319.1929353784
 20
77.9487552191
 11
319.1929353784
 21
94.4487552191
  0
LINE
  5
287
100
AcDbEntity
  8
0
100
AcDbLine
 62
7
  6
BYLAYER
 10
320.1922075657
 20
1058.4488653576
 11
320.1922075674
 21
1060.4488653576
  0
LINE
  5
288
100
AcDbEntity
  8
0
100
AcDbLine
 62
7
  6
BYLAYER
 10
320.1929353784
 20
76.9487552191
 11
320.1929353767
 21
78.9487552191
  0
LINE
  5
289
100
AcDbEntity
  8
0
100
AcDbLine
 62
7
  6
BYLAYER
 10
320.3922075674
 20
1057.9488653576
 11
320.3922075674
 21
1059.5488653576
  0
LINE
  5
28A
100
AcDbEntity
  8
0
100
AcDbLine
 62
7
  6
BYLAYER
 10
320.3929353784
 20
77.8488653576
 11
320.3929353784
 21
79.4488653576
  0
LINE
  5
28B
100
AcDbEntity
  8
0
100
AcDbLine
 62
7
  6
BYLAYER
 10
323.1922075674
 20
1042.9488653576
 11
323.1922075674
 21
1057.9488653576
  0
LINE
  5
28C
100
AcDbEntity
  8
3
100
AcDbLine
 62
7
  6
BYLAYER
 10
323.1924603354
 20
94.4488781661
 11
323.1924603354
 21
121.7970404808
  0
LINE
  5
28D
100
AcDbEntity
  8
3
100
AcDbLine
 62
7
  6
BYLAYER
 10
323.1924603354
 20
171.7970404808
 11
323.1924603354
 21
968.1319429417
  0
LINE
  5
28E
100
AcDbEntity
  8
3
100
AcDbLine
 62
7
  6
BYLAYER
 10
323.1924603354
 20
1018.1319429416
 11
323.1924603354
 21
1042.9488781661
  0
LINE
  5
28F
100
AcDbEntity
  8
0
100
AcDbLine
 62
7
  6
BYLAYER
 10
323.1929353784
 20
79.4487552191
 11
323.1929353784
 21
94.4487552191
  0
LINE
  5
290
100
AcDbEntity
  8
0
100
AcDbLine
 62
7
  6
BYLAYER
 10
326.6922074945
 20
1057.9488653576
 11
326.6922074945
 21
1057.4488653576
  0
LINE
  5
291
100
AcDbEntity
  8
0
100
AcDbLine
 62
7
  6
BYLAYER
 10
326.6929353059
 20
79.9487552191
 11
326.6929353059
 21
79.4487552191
  0
LINE
  5
292
100
AcDbEntity
  8
0
100
AcDbLine
 62
7
  6
BYLAYER
 10
326.9922075674
 20
1059.5488653576
 11
326.9922075674
 21
1058.0530477924
  0
LINE
  5
293
100
AcDbEntity
  8
0
100
AcDbLine
 62
7
  6
BYLAYER
 10
326.9929353784
 20
79.3446882249
 11
326.9929353784
 21
77.8488653576
  0
LINE
  5
294
100
AcDbEntity
  8
0
100
AcDbLine
 62
7
  6
BYLAYER
 10
327.1922075674
 20
1059.4488653576
 11
327.1922075674
 21
1058.4488653576
  0
LINE
  5
295
100
AcDbEntity
  8
0
100
AcDbLine
 62
7
  6
BYLAYER
 10
327.1929353784
 20
78.9487552191
 11
327.1929353784
 21
77.9487552191
  0
LINE
  5
296
100
AcDbEntity
  8
0
100
AcDbLine
 62
7
  6
BYLAYER
 10
327.4422075674
 20
1060.4488653576
 11
327.4422075674
 21
1066.4488653576
  0
LINE
  5
297
100
AcDbEntity
  8
0
100
AcDbLine
 62
7
  6
BYLAYER
 10
328.1922075674
 20
1058.4488653576
 11
328.1922075674
 21
1060.4488653576
  0
LINE
  5
298
100
AcDbEntity
  8
0
100
AcDbLine
 62
7
  6
BYLAYER
 10
328.1929353784
 20
76.9487552191
 11
328.1929353784
 21
78.9487552191
  0
LINE
  5
299
100
AcDbEntity
  8
0
100
AcDbLine
 62
7
  6
BYLAYER
 10
329.1922075674
 20
1066.9488653576
 11
329.1922075674
 21
1070.4488644201
  0
LINE
  5
29A
100
AcDbEntity
  8
0
100
AcDbLine
 62
7
  6
BYLAYER
 10
331.0679875674
 20
1068.1488653576
 11
331.0679875674
 21
1066.9488653576
  0
LINE
  5
29B
100
AcDbEntity
  8
0
100
AcDbLine
 62
7
  6
BYLAYER
 10
339.3179875674
 20
1068.1488653576
 11
339.3179875674
 21
1066.9488653576
  0
LINE
  5
29C
100
AcDbEntity
  8
0
100
AcDbLine
 62
7
  6
BYLAYER
 10
339.6922075674
 20
1059.4488653576
 11
339.6922075674
 21
1042.9488653576
  0
LINE
  5
29D
100
AcDbEntity
  8
3
100
AcDbLine
 62
7
  6
BYLAYER
 10
339.6924603354
 20
1042.9488781661
 11
339.6924603354
 21
1018.1319429416
  0
LINE
  5
29E
100
AcDbEntity
  8
3
100
AcDbLine
 62
7
  6
BYLAYER
 10
339.6924603354
 20
968.1319429417
 11
339.6924603354
 21
171.7970404808
  0
LINE
  5
29F
100
AcDbEntity
  8
3
100
AcDbLine
 62
7
  6
BYLAYER
 10
339.6924603354
 20
121.7970404808
 11
339.6924603354
 21
94.4488781661
  0
LINE
  5
2A0
100
AcDbEntity
  8
0
100
AcDbLine
 62
7
  6
BYLAYER
 10
339.6929353784
 20
94.4487552191
 11
339.6929353784
 21
77.9487552191
  0
LINE
  5
2A1
100
AcDbEntity
  8
0
100
AcDbLine
 62
7
  6
BYLAYER
 10
340.1922075674
 20
1042.9488653576
 11
340.1922075674
 21
1059.4488653575
  0
LINE
  5
2A2
100
AcDbEntity
  8
3
100
AcDbLine
 62
7
  6
BYLAYER
 10
340.1924603354
 20
94.4488781661
 11
340.1924603354
 21
121.7970404808
  0
LINE
  5
2A3
100
AcDbEntity
  8
3
100
AcDbLine
 62
7
  6
BYLAYER
 10
340.1924603354
 20
171.7970404808
 11
340.1924603354
 21
968.1319429417
  0
LINE
  5
2A4
100
AcDbEntity
  8
3
100
AcDbLine
 62
7
  6
BYLAYER
 10
340.1924603354
 20
1018.1319429416
 11
340.1924603354
 21
1042.9488781661
  0
LINE
  5
2A5
100
AcDbEntity
  8
0
100
AcDbLine
 62
7
  6
BYLAYER
 10
340.1929353784
 20
77.9487552191
 11
340.1929353784
 21
94.4487552191
  0
LINE
  5
2A6
100
AcDbEntity
  8
0
100
AcDbLine
 62
7
  6
BYLAYER
 10
341.1922075674
 20
1070.4488644201
 11
341.1922075674
 21
1066.9488653576
  0
LINE
  5
2A7
100
AcDbEntity
  8
0
100
AcDbLine
 62
7
  6
BYLAYER
 10
342.9422075674
 20
1060.4488653576
 11
342.9422075674
 21
1066.4488653576
  0
LINE
  5
2A8
100
AcDbEntity
  8
0
100
AcDbLine
 62
7
  6
BYLAYER
 10
345.4422075674
 20
1060.4488653576
 11
345.4422075674
 21
1066.4488653576
  0
LINE
  5
2A9
100
AcDbEntity
  8
0
100
AcDbLine
 62
7
  6
BYLAYER
 10
348.1922075674
 20
1059.4488653575
 11
348.1922075674
 21
1042.9488653576
  0
LINE
  5
2AA
100
AcDbEntity
  8
3
100
AcDbLine
 62
7
  6
BYLAYER
 10
348.1924603354
 20
1042.9488781661
 11
348.1924603354
 21
1018.1319429416
  0
LINE
  5
2AB
100
AcDbEntity
  8
3
100
AcDbLine
 62
7
  6
BYLAYER
 10
348.1924603354
 20
968.1319429417
 11
348.1924603354
 21
171.7970404808
  0
LINE
  5
2AC
100
AcDbEntity
  8
3
100
AcDbLine
 62
7
  6
BYLAYER
 10
348.1924603354
 20
121.7970404808
 11
348.1924603354
 21
94.4488781661
  0
LINE
  5
2AD
100
AcDbEntity
  8
0
100
AcDbLine
 62
7
  6
BYLAYER
 10
348.1929353784
 20
94.4487552191
 11
348.1929353784
 21
77.9487552191
  0
LINE
  5
2AE
100
AcDbEntity
  8
0
100
AcDbLine
 62
7
  6
BYLAYER
 10
348.6922075674
 20
1042.9488653576
 11
348.6922075674
 21
1059.4488653576
  0
LINE
  5
2AF
100
AcDbEntity
  8
3
100
AcDbLine
 62
7
  6
BYLAYER
 10
348.6924603354
 20
94.4488781661
 11
348.6924603354
 21
121.7970404808
  0
LINE
  5
2B0
100
AcDbEntity
  8
3
100
AcDbLine
 62
7
  6
BYLAYER
 10
348.6924603354
 20
171.7970404808
 11
348.6924603354
 21
968.1319429417
  0
LINE
  5
2B1
100
AcDbEntity
  8
3
100
AcDbLine
 62
7
  6
BYLAYER
 10
348.6924603354
 20
1018.1319429416
 11
348.6924603354
 21
1042.9488781661
  0
LINE
  5
2B2
100
AcDbEntity
  8
0
100
AcDbLine
 62
7
  6
BYLAYER
 10
348.6929353784
 20
77.9487552191
 11
348.6929353784
 21
94.4487552191
  0
LINE
  5
2B3
100
AcDbEntity
  8
0
100
AcDbLine
 62
7
  6
BYLAYER
 10
349.0689675674
 20
1068.1488653576
 11
349.0689675674
 21
1066.9488653576
  0
LINE
  5
2B4
100
AcDbEntity
  8
0
100
AcDbLine
 62
7
  6
BYLAYER
 10
357.3189675674
 20
1068.1488653576
 11
357.3189675674
 21
1066.9488653576
  0
LINE
  5
2B5
100
AcDbEntity
  8
4
100
AcDbLine
 62
7
  6
BYLAYER
 10
359.0037146519
 20
1013.1319429416
 11
359.0037146519
 21
973.1319429416
  0
LINE
  5
2B6
100
AcDbEntity
  8
4
100
AcDbLine
 62
7
  6
BYLAYER
 10
359.0037146519
 20
166.7970404808
 11
359.0037146519
 21
126.7970404808
  0
LINE
  5
2B7
100
AcDbEntity
  8
0
100
AcDbLine
 62
7
  6
BYLAYER
 10
360.1922075674
 20
1060.4488653576
 11
360.1922075674
 21
1058.4488653576
  0
LINE
  5
2B8
100
AcDbEntity
  8
0
100
AcDbLine
 62
7
  6
BYLAYER
 10
360.1929353784
 20
78.9487552191
 11
360.1929353784
 21
76.9487552191
  0
LINE
  5
2B9
100
AcDbEntity
  8
0
100
AcDbLine
 62
7
  6
BYLAYER
 10
360.9422075674
 20
1060.4488653576
 11
360.9422075674
 21
1066.4488653576
  0
LINE
  5
2BA
100
AcDbEntity
  8
0
100
AcDbLine
 62
7
  6
BYLAYER
 10
361.1922075674
 20
1058.4488653576
 11
361.1922075674
 21
1059.4488653576
  0
LINE
  5
2BB
100
AcDbEntity
  8
0
100
AcDbLine
 62
7
  6
BYLAYER
 10
361.1929353784
 20
77.9487552191
 11
361.1929353784
 21
78.9487552191
  0
LINE
  5
2BC
100
AcDbEntity
  8
0
100
AcDbLine
 62
7
  6
BYLAYER
 10
361.3922075674
 20
1058.0529323516
 11
361.3922075674
 21
1059.5488653576
  0
LINE
  5
2BD
100
AcDbEntity
  8
0
100
AcDbLine
 62
7
  6
BYLAYER
 10
361.3929353755
 20
77.8488653576
 11
361.3929353755
 21
79.3445727824
  0
LINE
  5
2BE
100
AcDbEntity
  8
0
100
AcDbLine
 62
7
  6
BYLAYER
 10
361.6922076399
 20
1057.4488653576
 11
361.6922076399
 21
1057.9488653576
  0
LINE
  5
2BF
100
AcDbEntity
  8
0
100
AcDbLine
 62
7
  6
BYLAYER
 10
361.6929354513
 20
79.4487552191
 11
361.6929354513
 21
79.9487552191
  0
LINE
  5
2C0
100
AcDbEntity
  8
0
100
AcDbLine
 62
7
  6
BYLAYER
 10
365.1922075674
 20
1057.9488653576
 11
365.1922075674
 21
1042.9488653576
  0
LINE
  5
2C1
100
AcDbEntity
  8
3
100
AcDbLine
 62
7
  6
BYLAYER
 10
365.1924603354
 20
1042.9488781661
 11
365.1924603354
 21
94.4488781661
  0
LINE
  5
2C2
100
AcDbEntity
  8
0
100
AcDbLine
 62
7
  6
BYLAYER
 10
365.1929353784
 20
94.4487552191
 11
365.1929353784
 21
79.4487552191
  0
LINE
  5
2C3
100
AcDbEntity
  8
0
100
AcDbLine
 62
7
  6
BYLAYER
 10
367.9922075674
 20
1059.5488653576
 11
367.9922075674
 21
1057.9488653576
  0
LINE
  5
2C4
100
AcDbEntity
  8
0
100
AcDbLine
 62
7
  6
BYLAYER
 10
367.9929353755
 20
79.4488653576
 11
367.9929353755
 21
77.8488653576
  0
LINE
  5
2C5
100
AcDbEntity
  8
0
100
AcDbLine
 62
7
  6
BYLAYER
 10
368.1922075674
 20
1060.4488653576
 11
368.1922075691
 21
1058.4488653576
  0
LINE
  5
2C6
100
AcDbEntity
  8
0
100
AcDbLine
 62
7
  6
BYLAYER
 10
368.1929353801
 20
78.9487552191
 11
368.1929353784
 21
76.9487552191
  0
LINE
  5
2C7
100
AcDbEntity
  8
0
100
AcDbLine
 62
7
  6
BYLAYER
 10
369.1922075674
 20
1042.9488653576
 11
369.1922075674
 21
1059.4488653576
  0
LINE
  5
2C8
100
AcDbEntity
  8
3
100
AcDbLine
 62
7
  6
BYLAYER
 10
369.1924603354
 20
94.4488781661
 11
369.1924603354
 21
1042.9488781661
  0
LINE
  5
2C9
100
AcDbEntity
  8
0
100
AcDbLine
 62
7
  6
BYLAYER
 10
369.1929353784
 20
77.9487552191
 11
369.1929353784
 21
94.4487552191
  0
LINE
  5
2CA
100
AcDbEntity
  8
3
100
AcDbLine
 62
7
  6
BYLAYER
 10
456.6528455404
 20
121.7970404808
 11
456.6528455404
 21
171.7970404808
  0
LINE
  5
2CB
100
AcDbEntity
  8
3
100
AcDbLine
 62
7
  6
BYLAYER
 10
456.6528455404
 20
968.1319429416
 11
456.6528455404
 21
1018.1319429416
  0
LINE
  5
2CC
100
AcDbEntity
  8
3
100
AcDbLine
 62
7
  6
BYLAYER
 10
459.6528455404
 20
1018.1319429416
 11
459.6528455404
 21
968.1319429416
  0
LINE
  5
2CD
100
AcDbEntity
  8
3
100
AcDbLine
 62
7
  6
BYLAYER
 10
459.6528455404
 20
171.7970404808
 11
459.6528455404
 21
121.7970404808
  0
LINE
  5
2CE
100
AcDbEntity
  8
3
100
AcDbLine
 62
7
  6
BYLAYER
 10
463.6528455404
 20
121.7970404808
 11
463.6528455404
 21
171.7970404808
  0
LINE
  5
2CF
100
AcDbEntity
  8
3
100
AcDbLine
 62
7
  6
BYLAYER
 10
463.6528455404
 20
968.1319429416
 11
463.6528455404
 21
1018.1319429416
  0
LINE
  5
2D0
100
AcDbEntity
  8
0
100
AcDbLine
 62
7
  6
BYLAYER
 10
466.8413384559
 20
1059.4488653576
 11
466.8413384559
 21
1057.460715689
  0
LINE
  5
2D1
100
AcDbEntity
  8
0
100
AcDbLine
 62
7
  6
BYLAYER
 10
466.8413384559
 20
1057.4488653576
 11
466.8413384559
 21
1042.9488653576
  0
LINE
  5
2D2
100
AcDbEntity
  8
3
100
AcDbLine
 62
7
  6
BYLAYER
 10
466.8415912239
 20
1042.9488781661
 11
466.8415912239
 21
1018.1319429416
  0
LINE
  5
2D3
100
AcDbEntity
  8
3
100
AcDbLine
 62
7
  6
BYLAYER
 10
466.8415912239
 20
968.1319429417
 11
466.8415912239
 21
171.7970404808
  0
LINE
  5
2D4
100
AcDbEntity
  8
3
100
AcDbLine
 62
7
  6
BYLAYER
 10
466.8415912239
 20
121.7970404808
 11
466.8415912239
 21
94.4488781661
  0
LINE
  5
2D5
100
AcDbEntity
  8
0
100
AcDbLine
 62
7
  6
BYLAYER
 10
466.8420662669
 20
77.9487552191
 11
466.8420662669
 21
94.4487552191
  0
LINE
  5
2D6
100
AcDbEntity
  8
0
100
AcDbLine
 62
7
  6
BYLAYER
 10
467.8413384542
 20
1058.4488653576
 11
467.8413384559
 21
1060.4488653576
  0
LINE
  5
2D7
100
AcDbEntity
  8
0
100
AcDbLine
 62
7
  6
BYLAYER
 10
467.8420662669
 20
76.9487552191
 11
467.8420662652
 21
78.9487552191
  0
LINE
  5
2D8
100
AcDbEntity
  8
0
100
AcDbLine
 62
7
  6
BYLAYER
 10
468.0413384559
 20
1057.9488653576
 11
468.0413384559
 21
1059.5488653576
  0
LINE
  5
2D9
100
AcDbEntity
  8
0
100
AcDbLine
 62
7
  6
BYLAYER
 10
468.0420662669
 20
77.8488653576
 11
468.0420662669
 21
79.4488653576
  0
LINE
  5
2DA
100
AcDbEntity
  8
0
100
AcDbLine
 62
7
  6
BYLAYER
 10
470.8413384559
 20
1042.9488653576
 11
470.8413384559
 21
1057.9488653576
  0
LINE
  5
2DB
100
AcDbEntity
  8
3
100
AcDbLine
 62
7
  6
BYLAYER
 10
470.8415912239
 20
94.4488781661
 11
470.8415912239
 21
121.7970404808
  0
LINE
  5
2DC
100
AcDbEntity
  8
3
100
AcDbLine
 62
7
  6
BYLAYER
 10
470.8415912239
 20
171.7970404808
 11
470.8415912239
 21
968.1319429417
  0
LINE
  5
2DD
100
AcDbEntity
  8
3
100
AcDbLine
 62
7
  6
BYLAYER
 10
470.8415912239
 20
1018.1319429416
 11
470.8415912239
 21
1042.9488781661
  0
LINE
  5
2DE
100
AcDbEntity
  8
0
100
AcDbLine
 62
7
  6
BYLAYER
 10
470.8420662669
 20
79.4487552191
 11
470.8420662669
 21
94.4487552191
  0
LINE
  5
2DF
100
AcDbEntity
  8
0
100
AcDbLine
 62
7
  6
BYLAYER
 10
474.3413383831
 20
1057.9488653576
 11
474.3413383831
 21
1057.4488653576
  0
LINE
  5
2E0
100
AcDbEntity
  8
0
100
AcDbLine
 62
7
  6
BYLAYER
 10
474.3420661944
 20
79.9487552191
 11
474.3420661944
 21
79.4487552191
  0
LINE
  5
2E1
100
AcDbEntity
  8
0
100
AcDbLine
 62
7
  6
BYLAYER
 10
474.6413384559
 20
1059.5488653576
 11
474.6413384559
 21
1058.0530477924
  0
LINE
  5
2E2
100
AcDbEntity
  8
0
100
AcDbLine
 62
7
  6
BYLAYER
 10
474.6420662669
 20
79.3446882249
 11
474.6420662669
 21
77.8488653576
  0
LINE
  5
2E3
100
AcDbEntity
  8
0
100
AcDbLine
 62
7
  6
BYLAYER
 10
474.8413384559
 20
1059.4488653576
 11
474.8413384559
 21
1058.4488653576
  0
LINE
  5
2E4
100
AcDbEntity
  8
0
100
AcDbLine
 62
7
  6
BYLAYER
 10
474.8420662669
 20
78.9487552191
 11
474.8420662669
 21
77.9487552191
  0
LINE
  5
2E5
100
AcDbEntity
  8
0
100
AcDbLine
 62
7
  6
BYLAYER
 10
475.0913384559
 20
1060.4488653576
 11
475.0913384559
 21
1066.4488653576
  0
LINE
  5
2E6
100
AcDbEntity
  8
0
100
AcDbLine
 62
7
  6
BYLAYER
 10
475.8413384559
 20
1058.4488653576
 11
475.8413384559
 21
1060.4488653576
  0
LINE
  5
2E7
100
AcDbEntity
  8
0
100
AcDbLine
 62
7
  6
BYLAYER
 10
475.8420662669
 20
76.9487552191
 11
475.8420662669
 21
78.9487552191
  0
LINE
  5
2E8
100
AcDbEntity
  8
0
100
AcDbLine
 62
7
  6
BYLAYER
 10
476.8413384559
 20
1066.9488653576
 11
476.8413384559
 21
1070.4488644201
  0
LINE
  5
2E9
100
AcDbEntity
  8
0
100
AcDbLine
 62
7
  6
BYLAYER
 10
478.7171184559
 20
1068.1488653576
 11
478.7171184559
 21
1066.9488653576
  0
LINE
  5
2EA
100
AcDbEntity
  8
0
100
AcDbLine
 62
7
  6
BYLAYER
 10
486.9671184559
 20
1068.1488653576
 11
486.9671184559
 21
1066.9488653576
  0
LINE
  5
2EB
100
AcDbEntity
  8
0
100
AcDbLine
 62
7
  6
BYLAYER
 10
487.3413384559
 20
1059.4488653576
 11
487.3413384559
 21
1042.9488653576
  0
LINE
  5
2EC
100
AcDbEntity
  8
3
100
AcDbLine
 62
7
  6
BYLAYER
 10
487.3415912239
 20
1042.9488781661
 11
487.3415912239
 21
1018.1319429416
  0
LINE
  5
2ED
100
AcDbEntity
  8
3
100
AcDbLine
 62
7
  6
BYLAYER
 10
487.3415912239
 20
968.1319429417
 11
487.3415912239
 21
171.7970404808
  0
LINE
  5
2EE
100
AcDbEntity
  8
3
100
AcDbLine
 62
7
  6
BYLAYER
 10
487.3415912239
 20
121.7970404808
 11
487.3415912239
 21
94.4488781661
  0
LINE
  5
2EF
100
AcDbEntity
  8
0
100
AcDbLine
 62
7
  6
BYLAYER
 10
487.3420662669
 20
94.4487552191
 11
487.3420662669
 21
77.9487552191
  0
LINE
  5
2F0
100
AcDbEntity
  8
0
100
AcDbLine
 62
7
  6
BYLAYER
 10
487.8413384559
 20
1042.9488653576
 11
487.8413384559
 21
1059.4488653575
  0
LINE
  5
2F1
100
AcDbEntity
  8
3
100
AcDbLine
 62
7
  6
BYLAYER
 10
487.8415912239
 20
94.4488781661
 11
487.8415912239
 21
121.7970404808
  0
LINE
  5
2F2
100
AcDbEntity
  8
3
100
AcDbLine
 62
7
  6
BYLAYER
 10
487.8415912239
 20
171.7970404808
 11
487.8415912239
 21
968.1319429417
  0
LINE
  5
2F3
100
AcDbEntity
  8
3
100
AcDbLine
 62
7
  6
BYLAYER
 10
487.8415912239
 20
1018.1319429416
 11
487.8415912239
 21
1042.9488781661
  0
LINE
  5
2F4
100
AcDbEntity
  8
0
100
AcDbLine
 62
7
  6
BYLAYER
 10
487.8420662669
 20
77.9487552191
 11
487.8420662669
 21
94.4487552191
  0
LINE
  5
2F5
100
AcDbEntity
  8
0
100
AcDbLine
 62
7
  6
BYLAYER
 10
488.8413384559
 20
1070.4488644201
 11
488.8413384559
 21
1066.9488653576
  0
LINE
  5
2F6
100
AcDbEntity
  8
0
100
AcDbLine
 62
7
  6
BYLAYER
 10
490.5913384559
 20
1060.4488653576
 11
490.5913384559
 21
1066.4488653576
  0
LINE
  5
2F7
100
AcDbEntity
  8
0
100
AcDbLine
 62
7
  6
BYLAYER
 10
493.0913384559
 20
1060.4488653576
 11
493.0913384559
 21
1066.4488653576
  0
LINE
  5
2F8
100
AcDbEntity
  8
0
100
AcDbLine
 62
7
  6
BYLAYER
 10
495.8413384559
 20
1059.4488653575
 11
495.8413384559
 21
1042.9488653576
  0
LINE
  5
2F9
100
AcDbEntity
  8
3
100
AcDbLine
 62
7
  6
BYLAYER
 10
495.8415912239
 20
1042.9488781661
 11
495.8415912239
 21
1018.1319429416
  0
LINE
  5
2FA
100
AcDbEntity
  8
3
100
AcDbLine
 62
7
  6
BYLAYER
 10
495.8415912239
 20
968.1319429417
 11
495.8415912239
 21
171.7970404808
  0
LINE
  5
2FB
100
AcDbEntity
  8
3
100
AcDbLine
 62
7
  6
BYLAYER
 10
495.8415912239
 20
121.7970404808
 11
495.8415912239
 21
94.4488781661
  0
LINE
  5
2FC
100
AcDbEntity
  8
0
100
AcDbLine
 62
7
  6
BYLAYER
 10
495.8420662669
 20
94.4487552191
 11
495.8420662669
 21
77.9487552191
  0
LINE
  5
2FD
100
AcDbEntity
  8
0
100
AcDbLine
 62
7
  6
BYLAYER
 10
496.3413384559
 20
1042.9488653576
 11
496.3413384559
 21
1059.4488653576
  0
LINE
  5
2FE
100
AcDbEntity
  8
3
100
AcDbLine
 62
7
  6
BYLAYER
 10
496.3415912239
 20
94.4488781661
 11
496.3415912239
 21
121.7970404808
  0
LINE
  5
2FF
100
AcDbEntity
  8
3
100
AcDbLine
 62
7
  6
BYLAYER
 10
496.3415912239
 20
171.7970404808
 11
496.3415912239
 21
968.1319429417
  0
LINE
  5
300
100
AcDbEntity
  8
3
100
AcDbLine
 62
7
  6
BYLAYER
 10
496.3415912239
 20
1018.1319429416
 11
496.3415912239
 21
1042.9488781661
  0
LINE
  5
301
100
AcDbEntity
  8
0
100
AcDbLine
 62
7
  6
BYLAYER
 10
496.3420662669
 20
77.9487552191
 11
496.3420662669
 21
94.4487552191
  0
LINE
  5
302
100
AcDbEntity
  8
0
100
AcDbLine
 62
7
  6
BYLAYER
 10
496.7180984559
 20
1068.1488653576
 11
496.7180984559
 21
1066.9488653576
  0
LINE
  5
303
100
AcDbEntity
  8
0
100
AcDbLine
 62
7
  6
BYLAYER
 10
504.9680984559
 20
1068.1488653576
 11
504.9680984559
 21
1066.9488653576
  0
LINE
  5
304
100
AcDbEntity
  8
3
100
AcDbLine
 62
7
  6
BYLAYER
 10
506.6528455404
 20
1013.1319429416
 11
506.6528455404
 21
973.1319429416
  0
LINE
  5
305
100
AcDbEntity
  8
3
100
AcDbLine
 62
7
  6
BYLAYER
 10
506.6528455404
 20
166.7970404808
 11
506.6528455404
 21
126.7970404808
  0
LINE
  5
306
100
AcDbEntity
  8
0
100
AcDbLine
 62
7
  6
BYLAYER
 10
507.8413384559
 20
1060.4488653576
 11
507.8413384559
 21
1058.4488653576
  0
LINE
  5
307
100
AcDbEntity
  8
0
100
AcDbLine
 62
7
  6
BYLAYER
 10
507.8420662669
 20
78.9487552191
 11
507.8420662669
 21
76.9487552191
  0
LINE
  5
308
100
AcDbEntity
  8
0
100
AcDbLine
 62
7
  6
BYLAYER
 10
508.5913384559
 20
1060.4488653576
 11
508.5913384559
 21
1066.4488653576
  0
LINE
  5
309
100
AcDbEntity
  8
0
100
AcDbLine
 62
7
  6
BYLAYER
 10
508.8413384559
 20
1058.4488653576
 11
508.8413384559
 21
1059.4488653576
  0
LINE
  5
30A
100
AcDbEntity
  8
0
100
AcDbLine
 62
7
  6
BYLAYER
 10
508.8420662669
 20
77.9487552191
 11
508.8420662669
 21
78.9487552191
  0
LINE
  5
30B
100
AcDbEntity
  8
0
100
AcDbLine
 62
7
  6
BYLAYER
 10
509.0413384559
 20
1058.0529323516
 11
509.0413384559
 21
1059.5488653576
  0
LINE
  5
30C
100
AcDbEntity
  8
0
100
AcDbLine
 62
7
  6
BYLAYER
 10
509.042066264
 20
77.8488653576
 11
509.042066264
 21
79.3445727824
  0
LINE
  5
30D
100
AcDbEntity
  8
0
100
AcDbLine
 62
7
  6
BYLAYER
 10
509.3413385284
 20
1057.4488653576
 11
509.3413385284
 21
1057.9488653576
  0
LINE
  5
30E
100
AcDbEntity
  8
0
100
AcDbLine
 62
7
  6
BYLAYER
 10
509.3420663398
 20
79.4487552191
 11
509.3420663398
 21
79.9487552191
  0
LINE
  5
30F
100
AcDbEntity
  8
0
100
AcDbLine
 62
7
  6
BYLAYER
 10
512.8413384559
 20
1057.9488653576
 11
512.8413384559
 21
1042.9488653576
  0
LINE
  5
310
100
AcDbEntity
  8
3
100
AcDbLine
 62
7
  6
BYLAYER
 10
512.8415912239
 20
1042.9488781661
 11
512.8415912239
 21
94.4488781661
  0
LINE
  5
311
100
AcDbEntity
  8
0
100
AcDbLine
 62
7
  6
BYLAYER
 10
512.8420662669
 20
94.4487552191
 11
512.8420662669
 21
79.4487552191
  0
LINE
  5
312
100
AcDbEntity
  8
0
100
AcDbLine
 62
7
  6
BYLAYER
 10
515.6413384559
 20
1059.5488653576
 11
515.6413384559
 21
1057.9488653576
  0
LINE
  5
313
100
AcDbEntity
  8
0
100
AcDbLine
 62
7
  6
BYLAYER
 10
515.642066264
 20
79.4488653576
 11
515.642066264
 21
77.8488653576
  0
LINE
  5
314
100
AcDbEntity
  8
0
100
AcDbLine
 62
7
  6
BYLAYER
 10
515.8413384559
 20
1060.4488653576
 11
515.8413384576
 21
1058.4488653576
  0
LINE
  5
315
100
AcDbEntity
  8
0
100
AcDbLine
 62
7
  6
BYLAYER
 10
515.8420662686
 20
78.9487552191
 11
515.8420662669
 21
76.9487552191
  0
LINE
  5
316
100
AcDbEntity
  8
0
100
AcDbLine
 62
7
  6
BYLAYER
 10
516.8413384559
 20
1042.9488653576
 11
516.8413384559
 21
1059.4488653576
  0
LINE
  5
317
100
AcDbEntity
  8
3
100
AcDbLine
 62
7
  6
BYLAYER
 10
516.8415912239
 20
94.4488781661
 11
516.8415912239
 21
1042.9488781661
  0
LINE
  5
318
100
AcDbEntity
  8
0
100
AcDbLine
 62
7
  6
BYLAYER
 10
516.8420662669
 20
77.9487552191
 11
516.8420662669
 21
94.4487552191
  0
LINE
  5
319
100
AcDbEntity
  8
4
100
AcDbLine
 62
7
  6
BYLAYER
 10
338.792935377
 20
978.1319429416
 11
341.492935377
 21
973.4554057612
  0
LINE
  5
31A
100
AcDbEntity
  8
4
100
AcDbLine
 62
7
  6
BYLAYER
 10
341.492935377
 20
166.4735776612
 11
338.792935377
 21
161.7970404808
  0
LINE
  5
31B
100
AcDbEntity
  8
4
100
AcDbLine
 62
7
  6
BYLAYER
 10
346.892935377
 20
157.1205033004
 11
349.592935377
 21
161.7970404808
  0
LINE
  5
31C
100
AcDbEntity
  8
4
100
AcDbLine
 62
7
  6
BYLAYER
 10
341.492935377
 20
136.4735776612
 11
338.792935377
 21
131.7970404808
  0
LINE
  5
31D
100
AcDbEntity
  8
4
100
AcDbLine
 62
7
  6
BYLAYER
 10
346.892935377
 20
127.1205033004
 11
349.592935377
 21
131.7970404808
  0
LINE
  5
31E
100
AcDbEntity
  8
4
100
AcDbLine
 62
7
  6
BYLAYER
 10
349.592935377
 20
978.1319429417
 11
346.892935377
 21
982.8084801221
  0
LINE
  5
31F
100
AcDbEntity
  8
4
100
AcDbLine
 62
7
  6
BYLAYER
 10
338.792935377
 20
1008.1319429416
 11
341.492935377
 21
1003.4554057612
  0
LINE
  5
320
100
AcDbEntity
  8
4
100
AcDbLine
 62
7
  6
BYLAYER
 10
349.592935377
 20
1008.1319429417
 11
346.892935377
 21
1012.8084801221
  0
LINE
  5
321
100
AcDbEntity
  8
3
100
AcDbLine
 62
7
  6
BYLAYER
 10
489.1420662655
 20
166.4735776612
 11
486.4420662655
 21
161.7970404808
  0
LINE
  5
322
100
AcDbEntity
  8
3
100
AcDbLine
 62
7
  6
BYLAYER
 10
486.4420662655
 20
978.1319429416
 11
489.1420662655
 21
973.4554057612
  0
LINE
  5
323
100
AcDbEntity
  8
3
100
AcDbLine
 62
7
  6
BYLAYER
 10
497.2420662655
 20
978.1319429416
 11
494.5420662655
 21
982.8084801221
  0
LINE
  5
324
100
AcDbEntity
  8
3
100
AcDbLine
 62
7
  6
BYLAYER
 10
494.5420662655
 20
157.1205033004
 11
497.2420662655
 21
161.7970404808
  0
LINE
  5
325
100
AcDbEntity
  8
3
100
AcDbLine
 62
7
  6
BYLAYER
 10
489.1420662655
 20
136.4735776612
 11
486.4420662655
 21
131.7970404808
  0
LINE
  5
326
100
AcDbEntity
  8
3
100
AcDbLine
 62
7
  6
BYLAYER
 10
494.5420662655
 20
127.1205033004
 11
497.2420662655
 21
131.7970404808
  0
LINE
  5
327
100
AcDbEntity
  8
0
100
AcDbLine
 62
7
  6
BYLAYER
 10
342.4422075674
 20
1066.9488653576
 11
342.9422075674
 21
1066.4488653576
  0
LINE
  5
328
100
AcDbEntity
  8
0
100
AcDbLine
 62
7
  6
BYLAYER
 10
340.692209546
 20
1070.9488653576
 11
341.1922075674
 21
1070.4488675161
  0
LINE
  5
329
100
AcDbEntity
  8
3
100
AcDbLine
 62
7
  6
BYLAYER
 10
486.4420662655
 20
1008.1319429416
 11
489.1420662655
 21
1003.4554057612
  0
LINE
  5
32A
100
AcDbEntity
  8
3
100
AcDbLine
 62
7
  6
BYLAYER
 10
497.2420662655
 20
1008.1319429416
 11
494.5420662655
 21
1012.8084801221
  0
LINE
  5
32B
100
AcDbEntity
  8
0
100
AcDbLine
 62
7
  6
BYLAYER
 10
360.4422075674
 20
1066.9488653576
 11
360.9422075674
 21
1066.4488653576
  0
LINE
  5
32C
100
AcDbEntity
  8
4
100
AcDbLine
 62
7
  6
BYLAYER
 10
309.0037146519
 20
968.1319429416
 11
354.0037146519
 21
968.1319429416
  0
LINE
  5
32D
100
AcDbEntity
  8
3
100
AcDbLine
 62
7
  6
BYLAYER
 10
456.6528455404
 20
968.1319429416
 11
501.6528455404
 21
968.1319429416
  0
LINE
  5
32E
100
AcDbEntity
  8
3
100
AcDbLine
 62
7
  6
BYLAYER
 10
459.6528455404
 20
973.1319429416
 11
456.6528455404
 21
973.1319429416
  0
LINE
  5
32F
100
AcDbEntity
  8
4
100
AcDbLine
 62
7
  6
BYLAYER
 10
312.0037146519
 20
973.1319429416
 11
309.0037146519
 21
973.1319429416
  0
LINE
  5
330
100
AcDbEntity
  8
3
100
AcDbLine
 62
7
  6
BYLAYER
 10
494.5420662655
 20
973.4554057612
 11
489.1420662655
 21
973.4554057612
  0
LINE
  5
331
100
AcDbEntity
  8
4
100
AcDbLine
 62
7
  6
BYLAYER
 10
346.892935377
 20
973.4554057612
 11
341.492935377
 21
973.4554057612
  0
LINE
  5
332
100
AcDbEntity
  8
4
100
AcDbLine
 62
7
  6
BYLAYER
 10
337.3037146519
 20
974.8819429416
 11
338.7886259081
 21
974.8819429416
  0
LINE
  5
333
100
AcDbEntity
  8
4
100
AcDbLine
 62
7
  6
BYLAYER
 10
349.5969073062
 20
974.8819429416
 11
350.8037146519
 21
974.8819429416
  0
LINE
  5
334
100
AcDbEntity
  8
3
100
AcDbLine
 62
7
  6
BYLAYER
 10
484.9528455404
 20
974.8819429416
 11
486.4377567966
 21
974.8819429416
  0
LINE
  5
335
100
AcDbEntity
  8
3
100
AcDbLine
 62
7
  6
BYLAYER
 10
497.2460381947
 20
974.8819429416
 11
498.4528455404
 21
974.8819429416
  0
LINE
  5
336
100
AcDbEntity
  8
3
100
AcDbLine
 62
7
  6
BYLAYER
 10
498.4528455404
 20
981.3819429416
 11
497.2463757343
 21
981.3819429416
  0
LINE
  5
337
100
AcDbEntity
  8
3
100
AcDbLine
 62
7
  6
BYLAYER
 10
486.4380943363
 20
981.3819429416
 11
484.9528455404
 21
981.3819429416
  0
LINE
  5
338
100
AcDbEntity
  8
4
100
AcDbLine
 62
7
  6
BYLAYER
 10
350.8037146519
 20
981.3819429416
 11
349.5972448458
 21
981.3819429416
  0
LINE
  5
339
100
AcDbEntity
  8
4
100
AcDbLine
 62
7
  6
BYLAYER
 10
338.7889634477
 20
981.3819429416
 11
337.3037146519
 21
981.3819429416
  0
LINE
  5
33A
100
AcDbEntity
  8
4
100
AcDbLine
 62
7
  6
BYLAYER
 10
341.492935377
 20
982.8084801221
 11
346.892935377
 21
982.8084801221
  0
LINE
  5
33B
100
AcDbEntity
  8
3
100
AcDbLine
 62
7
  6
BYLAYER
 10
489.1420662655
 20
982.8084801221
 11
494.5420662655
 21
982.8084801221
  0
LINE
  5
33C
100
AcDbEntity
  8
0
100
AcDbLine
 62
7
  6
BYLAYER
 10
490.0913384559
 20
1066.9488653576
 11
490.5913384559
 21
1066.4488653576
  0
LINE
  5
33D
100
AcDbEntity
  8
0
100
AcDbLine
 62
7
  6
BYLAYER
 10
488.3413404345
 20
1070.9488653576
 11
488.8413384559
 21
1070.4488675161
  0
LINE
  5
33E
100
AcDbEntity
  8
3
100
AcDbLine
 62
7
  6
BYLAYER
 10
494.5420662655
 20
1003.4554057612
 11
489.1420662655
 21
1003.4554057612
  0
LINE
  5
33F
100
AcDbEntity
  8
4
100
AcDbLine
 62
7
  6
BYLAYER
 10
346.892935377
 20
1003.4554057612
 11
341.492935377
 21
1003.4554057612
  0
LINE
  5
340
100
AcDbEntity
  8
4
100
AcDbLine
 62
7
  6
BYLAYER
 10
337.3037146519
 20
1004.8819429416
 11
338.7886259081
 21
1004.8819429416
  0
LINE
  5
341
100
AcDbEntity
  8
4
100
AcDbLine
 62
7
  6
BYLAYER
 10
349.5969073062
 20
1004.8819429416
 11
350.8037146519
 21
1004.8819429416
  0
LINE
  5
342
100
AcDbEntity
  8
3
100
AcDbLine
 62
7
  6
BYLAYER
 10
484.9528455404
 20
1004.8819429416
 11
486.4377567966
 21
1004.8819429416
  0
LINE
  5
343
100
AcDbEntity
  8
3
100
AcDbLine
 62
7
  6
BYLAYER
 10
497.2460381947
 20
1004.8819429416
 11
498.4528455404
 21
1004.8819429416
  0
LINE
  5
344
100
AcDbEntity
  8
3
100
AcDbLine
 62
7
  6
BYLAYER
 10
498.4528455404
 20
1011.3819429416
 11
497.2463757343
 21
1011.3819429416
  0
LINE
  5
345
100
AcDbEntity
  8
3
100
AcDbLine
 62
7
  6
BYLAYER
 10
486.4380943363
 20
1011.3819429416
 11
484.9528455404
 21
1011.3819429416
  0
LINE
  5
346
100
AcDbEntity
  8
4
100
AcDbLine
 62
7
  6
BYLAYER
 10
350.8037146519
 20
1011.3819429416
 11
349.5972448458
 21
1011.3819429416
  0
LINE
  5
347
100
AcDbEntity
  8
4
100
AcDbLine
 62
7
  6
BYLAYER
 10
338.7889634477
 20
1011.3819429416
 11
337.3037146519
 21
1011.3819429416
  0
LINE
  5
348
100
AcDbEntity
  8
4
100
AcDbLine
 62
7
  6
BYLAYER
 10
341.492935377
 20
1012.8084801221
 11
346.892935377
 21
1012.8084801221
  0
LINE
  5
349
100
AcDbEntity
  8
3
100
AcDbLine
 62
7
  6
BYLAYER
 10
489.1420662655
 20
1012.8084801221
 11
494.5420662655
 21
1012.8084801221
  0
LINE
  5
34A
100
AcDbEntity
  8
4
100
AcDbLine
 62
7
  6
BYLAYER
 10
309.0037146519
 20
1013.1319429416
 11
312.0037146519
 21
1013.1319429416
  0
LINE
  5
34B
100
AcDbEntity
  8
3
100
AcDbLine
 62
7
  6
BYLAYER
 10
456.6528455404
 20
1013.1319429416
 11
459.6528455404
 21
1013.1319429416
  0
LINE
  5
34C
100
AcDbEntity
  8
4
100
AcDbLine
 62
7
  6
BYLAYER
 10
309.0037146519
 20
1018.1319429416
 11
354.0037146519
 21
1018.1319429416
  0
LINE
  5
34D
100
AcDbEntity
  8
3
100
AcDbLine
 62
7
  6
BYLAYER
 10
456.6528455404
 20
1018.1319429416
 11
501.6528455404
 21
1018.1319429416
  0
LINE
  5
34E
100
AcDbEntity
  8
0
100
AcDbLine
 62
7
  6
BYLAYER
 10
508.0913384559
 20
1066.9488653576
 11
508.5913384559
 21
1066.4488653576
  0
LINE
  5
34F
100
AcDbEntity
  8
0
100
AcDbLine
 62
7
  6
BYLAYER
 10
319.1922075674
 20
1042.9488653576
 11
369.1922075674
 21
1042.9488653576
  0
LINE
  5
350
100
AcDbEntity
  8
3
100
AcDbLine
 62
7
  6
BYLAYER
 10
319.1924603354
 20
1042.9488781661
 11
369.1924603354
 21
1042.9488781661
  0
LINE
  5
351
100
AcDbEntity
  8
0
100
AcDbLine
 62
7
  6
BYLAYER
 10
466.8413384559
 20
1042.9488653576
 11
516.8413384559
 21
1042.9488653576
  0
LINE
  5
352
100
AcDbEntity
  8
3
100
AcDbLine
 62
7
  6
BYLAYER
 10
466.8415912239
 20
1042.9488781661
 11
516.8415912239
 21
1042.9488781661
  0
LINE
  5
353
100
AcDbEntity
  8
0
100
AcDbLine
 62
7
  6
BYLAYER
 10
508.8413384559
 20
1056.4488653576
 11
492.8413552698
 21
1056.4488653576
  0
LINE
  5
354
100
AcDbEntity
  8
0
100
AcDbLine
 62
7
  6
BYLAYER
 10
490.8413384559
 20
1056.4488653576
 11
474.8413552698
 21
1056.4488653576
  0
LINE
  5
355
100
AcDbEntity
  8
0
100
AcDbLine
 62
7
  6
BYLAYER
 10
361.1922075674
 20
1056.4488653576
 11
345.1922243813
 21
1056.4488653576
  0
LINE
  5
356
100
AcDbEntity
  8
0
100
AcDbLine
 62
7
  6
BYLAYER
 10
343.1922075674
 20
1056.4488653576
 11
327.1922243813
 21
1056.4488653576
  0
LINE
  5
357
100
AcDbEntity
  8
0
100
AcDbLine
 62
7
  6
BYLAYER
 10
508.736129427
 20
1056.4600596086
 11
492.9465640776
 21
1056.4600596086
  0
LINE
  5
358
100
AcDbEntity
  8
0
100
AcDbLine
 62
7
  6
BYLAYER
 10
490.736129427
 20
1056.4600596086
 11
474.9465640776
 21
1056.4600596086
  0
LINE
  5
359
100
AcDbEntity
  8
0
100
AcDbLine
 62
7
  6
BYLAYER
 10
361.0869985385
 20
1056.4600596086
 11
345.2974331891
 21
1056.4600596086
  0
LINE
  5
35A
100
AcDbEntity
  8
0
100
AcDbLine
 62
7
  6
BYLAYER
 10
343.0869985385
 20
1056.4600596086
 11
327.2974331891
 21
1056.4600596086
  0
LINE
  5
35B
100
AcDbEntity
  8
0
100
AcDbLine
 62
7
  6
BYLAYER
 10
327.0867129072
 20
1057.4376095408
 11
343.2976851919
 21
1057.4376095408
  0
LINE
  5
35C
100
AcDbEntity
  8
0
100
AcDbLine
 62
7
  6
BYLAYER
 10
474.7358437957
 20
1057.4376095408
 11
490.9468160805
 21
1057.4376095408
  0
LINE
  5
35D
100
AcDbEntity
  8
0
100
AcDbLine
 62
7
  6
BYLAYER
 10
345.0869110827
 20
1057.4376522747
 11
361.2974870168
 21
1057.4376522747
  0
LINE
  5
35E
100
AcDbEntity
  8
0
100
AcDbLine
 62
7
  6
BYLAYER
 10
492.7360419712
 20
1057.4376522747
 11
508.9466179053
 21
1057.4376522747
  0
LINE
  5
35F
100
AcDbEntity
  8
0
100
AcDbLine
 62
7
  6
BYLAYER
 10
319.1922075674
 20
1057.4488653576
 11
326.6922075674
 21
1057.4488653576
  0
LINE
  5
360
100
AcDbEntity
  8
0
100
AcDbLine
 62
7
  6
BYLAYER
 10
361.6922075674
 20
1057.4488653576
 11
369.1922075674
 21
1057.4488653576
  0
LINE
  5
361
100
AcDbEntity
  8
0
100
AcDbLine
 62
7
  6
BYLAYER
 10
466.8413384559
 20
1057.4488653576
 11
474.3413384559
 21
1057.4488653576
  0
LINE
  5
362
100
AcDbEntity
  8
0
100
AcDbLine
 62
7
  6
BYLAYER
 10
509.3413384559
 20
1057.4488653576
 11
516.8413384559
 21
1057.4488653576
  0
LINE
  5
363
100
AcDbEntity
  8
0
100
AcDbLine
 62
7
  6
BYLAYER
 10
319.6922075674
 20
1057.9488653576
 11
326.6922075674
 21
1057.9488653576
  0
LINE
  5
364
100
AcDbEntity
  8
0
100
AcDbLine
 62
7
  6
BYLAYER
 10
361.6922075674
 20
1057.9488653576
 11
368.6922075674
 21
1057.9488653576
  0
LINE
  5
365
100
AcDbEntity
  8
0
100
AcDbLine
 62
7
  6
BYLAYER
 10
467.3413384559
 20
1057.9488653576
 11
474.3413384559
 21
1057.9488653576
  0
LINE
  5
366
100
AcDbEntity
  8
0
100
AcDbLine
 62
7
  6
BYLAYER
 10
509.3413384559
 20
1057.9488653576
 11
516.3413384559
 21
1057.9488653576
  0
LINE
  5
367
100
AcDbEntity
  8
0
100
AcDbLine
 62
7
  6
BYLAYER
 10
516.8413384559
 20
1058.4488654265
 11
515.6413384559
 21
1058.4488653576
  0
LINE
  5
368
100
AcDbEntity
  8
0
100
AcDbLine
 62
7
  6
BYLAYER
 10
509.0413384559
 20
1058.4488653576
 11
507.8413384559
 21
1058.4488654265
  0
LINE
  5
369
100
AcDbEntity
  8
0
100
AcDbLine
 62
7
  6
BYLAYER
 10
475.8413384559
 20
1058.4488654265
 11
474.6413384559
 21
1058.4488653576
  0
LINE
  5
36A
100
AcDbEntity
  8
0
100
AcDbLine
 62
7
  6
BYLAYER
 10
468.0413384559
 20
1058.4488653576
 11
466.8413384559
 21
1058.4488654265
  0
LINE
  5
36B
100
AcDbEntity
  8
0
100
AcDbLine
 62
7
  6
BYLAYER
 10
369.1922075674
 20
1058.4488654265
 11
367.9922075674
 21
1058.4488653576
  0
LINE
  5
36C
100
AcDbEntity
  8
0
100
AcDbLine
 62
7
  6
BYLAYER
 10
361.3922075674
 20
1058.4488653576
 11
360.1922075674
 21
1058.4488654265
  0
LINE
  5
36D
100
AcDbEntity
  8
0
100
AcDbLine
 62
7
  6
BYLAYER
 10
328.1922075674
 20
1058.4488654265
 11
326.9922075674
 21
1058.4488653576
  0
LINE
  5
36E
100
AcDbEntity
  8
0
100
AcDbLine
 62
7
  6
BYLAYER
 10
320.3922075674
 20
1058.4488653576
 11
319.1922075674
 21
1058.4488654265
  0
LINE
  5
36F
100
AcDbEntity
  8
0
100
AcDbLine
 62
7
  6
BYLAYER
 10
319.1922075674
 20
1059.4488653576
 11
320.3922075674
 21
1059.4488653576
  0
LINE
  5
370
100
AcDbEntity
  8
0
100
AcDbLine
 62
7
  6
BYLAYER
 10
326.9922075674
 20
1059.4488653576
 11
340.1922075674
 21
1059.4488653509
  0
LINE
  5
371
100
AcDbEntity
  8
0
100
AcDbLine
 62
7
  6
BYLAYER
 10
348.1922075674
 20
1059.4488653575
 11
361.3922075674
 21
1059.4488653576
  0
LINE
  5
372
100
AcDbEntity
  8
0
100
AcDbLine
 62
7
  6
BYLAYER
 10
367.9922075674
 20
1059.4488653576
 11
369.1922075674
 21
1059.4488653576
  0
LINE
  5
373
100
AcDbEntity
  8
0
100
AcDbLine
 62
7
  6
BYLAYER
 10
466.8413384559
 20
1059.4488653576
 11
468.0413384559
 21
1059.4488653576
  0
LINE
  5
374
100
AcDbEntity
  8
0
100
AcDbLine
 62
7
  6
BYLAYER
 10
474.6413384559
 20
1059.4488653576
 11
487.8413384559
 21
1059.4488653509
  0
LINE
  5
375
100
AcDbEntity
  8
0
100
AcDbLine
 62
7
  6
BYLAYER
 10
495.8413384559
 20
1059.4488653575
 11
509.0413384559
 21
1059.4488653576
  0
LINE
  5
376
100
AcDbEntity
  8
0
100
AcDbLine
 62
7
  6
BYLAYER
 10
515.6413384559
 20
1059.4488653576
 11
516.8413384559
 21
1059.4488653576
  0
LINE
  5
377
100
AcDbEntity
  8
0
100
AcDbLine
 62
7
  6
BYLAYER
 10
320.3922075674
 20
1059.5488653576
 11
326.9922075674
 21
1059.5488653576
  0
LINE
  5
378
100
AcDbEntity
  8
0
100
AcDbLine
 62
7
  6
BYLAYER
 10
361.3922075674
 20
1059.5488653576
 11
367.9922075674
 21
1059.5488653576
  0
LINE
  5
379
100
AcDbEntity
  8
0
100
AcDbLine
 62
7
  6
BYLAYER
 10
468.0413384559
 20
1059.5488653576
 11
474.6413384559
 21
1059.5488653576
  0
LINE
  5
37A
100
AcDbEntity
  8
0
100
AcDbLine
 62
7
  6
BYLAYER
 10
509.0413384559
 20
1059.5488653576
 11
515.6413384559
 21
1059.5488653576
  0
LINE
  5
37B
100
AcDbEntity
  8
0
100
AcDbLine
 62
7
  6
BYLAYER
 10
340.0507593871
 20
1059.9488653576
 11
348.3326912216
 21
1059.9488653576
  0
LINE
  5
37C
100
AcDbEntity
  8
0
100
AcDbLine
 62
7
  6
BYLAYER
 10
487.6998902756
 20
1059.9488653576
 11
495.9818221101
 21
1059.9488653576
  0
LINE
  5
37D
100
AcDbEntity
  8
0
100
AcDbLine
 62
7
  6
BYLAYER
 10
515.8413384559
 20
1060.4488653576
 11
515.0145436594
 21
1060.4488653576
  0
LINE
  5
37E
100
AcDbEntity
  8
0
100
AcDbLine
 62
7
  6
BYLAYER
 10
468.6681332524
 20
1060.4488653576
 11
467.8413384559
 21
1060.4488653576
  0
LINE
  5
37F
100
AcDbEntity
  8
0
100
AcDbLine
 62
7
  6
BYLAYER
 10
368.1922075674
 20
1060.4488653576
 11
367.3654127709
 21
1060.4488653576
  0
LINE
  5
380
100
AcDbEntity
  8
0
100
AcDbLine
 62
7
  6
BYLAYER
 10
321.0190023639
 20
1060.4488653576
 11
320.1922075674
 21
1060.4488653576
  0
LINE
  5
381
100
AcDbEntity
  8
0
100
AcDbLine
 62
7
  6
BYLAYER
 10
326.3654127709
 20
1060.4488653576
 11
362.0190023639
 21
1060.4488653576
  0
LINE
  5
382
100
AcDbEntity
  8
0
100
AcDbLine
 62
7
  6
BYLAYER
 10
474.0145436594
 20
1060.4488653576
 11
509.6681332524
 21
1060.4488653576
  0
LINE
  5
383
100
AcDbEntity
  8
0
100
AcDbLine
 62
7
  6
BYLAYER
 10
320.392207814
 20
1060.5488653576
 11
325.9921061413
 21
1060.5488653576
  0
LINE
  5
384
100
AcDbEntity
  8
0
100
AcDbLine
 62
7
  6
BYLAYER
 10
362.392207814
 20
1060.5488653576
 11
367.9921061414
 21
1060.5488653576
  0
LINE
  5
385
100
AcDbEntity
  8
0
100
AcDbLine
 62
7
  6
BYLAYER
 10
468.0413387025
 20
1060.5488653576
 11
473.6412370299
 21
1060.5488653576
  0
LINE
  5
386
100
AcDbEntity
  8
0
100
AcDbLine
 62
7
  6
BYLAYER
 10
510.0413387025
 20
1060.5488653576
 11
515.6412370299
 21
1060.5488653576
  0
LINE
  5
387
100
AcDbEntity
  8
0
100
AcDbLine
 62
7
  6
BYLAYER
 10
508.5913384559
 20
1061.9488653576
 11
493.0913384559
 21
1061.9488653576
  0
LINE
  5
388
100
AcDbEntity
  8
0
100
AcDbLine
 62
7
  6
BYLAYER
 10
490.5913384559
 20
1061.9488653576
 11
475.0913384559
 21
1061.9488653576
  0
LINE
  5
389
100
AcDbEntity
  8
0
100
AcDbLine
 62
7
  6
BYLAYER
 10
360.9422075674
 20
1061.9488653576
 11
345.4422075674
 21
1061.9488653576
  0
LINE
  5
38A
100
AcDbEntity
  8
0
100
AcDbLine
 62
7
  6
BYLAYER
 10
342.9422075674
 20
1061.9488653576
 11
327.4422075674
 21
1061.9488653576
  0
LINE
  5
38B
100
AcDbEntity
  8
0
100
AcDbLine
 62
7
  6
BYLAYER
 10
508.5913341731
 20
1064.9488653576
 11
493.0913427387
 21
1064.9488653576
  0
LINE
  5
38C
100
AcDbEntity
  8
0
100
AcDbLine
 62
7
  6
BYLAYER
 10
490.5913341731
 20
1064.9488653576
 11
475.0913427387
 21
1064.9488653576
  0
LINE
  5
38D
100
AcDbEntity
  8
0
100
AcDbLine
 62
7
  6
BYLAYER
 10
360.9422032846
 20
1064.9488653576
 11
345.4422118502
 21
1064.9488653576
  0
LINE
  5
38E
100
AcDbEntity
  8
0
100
AcDbLine
 62
7
  6
BYLAYER
 10
342.9422032846
 20
1064.9488653576
 11
327.4422118502
 21
1064.9488653576
  0
LINE
  5
38F
100
AcDbEntity
  8
0
100
AcDbLine
 62
7
  6
BYLAYER
 10
327.4422075674
 20
1066.4488653576
 11
342.9422075674
 21
1066.4488653576
  0
LINE
  5
390
100
AcDbEntity
  8
0
100
AcDbLine
 62
7
  6
BYLAYER
 10
345.4422075674
 20
1066.4488653576
 11
360.9422075674
 21
1066.4488653576
  0
LINE
  5
391
100
AcDbEntity
  8
0
100
AcDbLine
 62
7
  6
BYLAYER
 10
475.0913384559
 20
1066.4488653576
 11
490.5913384559
 21
1066.4488653576
  0
LINE
  5
392
100
AcDbEntity
  8
0
100
AcDbLine
 62
7
  6
BYLAYER
 10
493.0913384559
 20
1066.4488653576
 11
508.5913384559
 21
1066.4488653576
  0
LINE
  5
393
100
AcDbEntity
  8
0
100
AcDbLine
 62
7
  6
BYLAYER
 10
327.9422115702
 20
1066.9488653576
 11
342.4422035646
 21
1066.9488653576
  0
LINE
  5
394
100
AcDbEntity
  8
0
100
AcDbLine
 62
7
  6
BYLAYER
 10
345.9422115702
 20
1066.9488653576
 11
360.4422035646
 21
1066.9488653576
  0
LINE
  5
395
100
AcDbEntity
  8
0
100
AcDbLine
 62
7
  6
BYLAYER
 10
475.5913424587
 20
1066.9488653576
 11
490.0913344531
 21
1066.9488653576
  0
LINE
  5
396
100
AcDbEntity
  8
0
100
AcDbLine
 62
7
  6
BYLAYER
 10
493.5913424587
 20
1066.9488653576
 11
508.0913344531
 21
1066.9488653576
  0
LINE
  5
397
100
AcDbEntity
  8
0
100
AcDbLine
 62
7
  6
BYLAYER
 10
331.0679875674
 20
1068.1488653576
 11
339.3179875674
 21
1068.1488653576
  0
LINE
  5
398
100
AcDbEntity
  8
0
100
AcDbLine
 62
7
  6
BYLAYER
 10
349.0689675674
 20
1068.1488653576
 11
357.3189675674
 21
1068.1488653576
  0
LINE
  5
399
100
AcDbEntity
  8
0
100
AcDbLine
 62
7
  6
BYLAYER
 10
478.7171184559
 20
1068.1488653576
 11
486.9671184559
 21
1068.1488653576
  0
LINE
  5
39A
100
AcDbEntity
  8
0
100
AcDbLine
 62
7
  6
BYLAYER
 10
496.7180984559
 20
1068.1488653576
 11
504.9680984559
 21
1068.1488653576
  0
LINE
  5
39B
100
AcDbEntity
  8
0
100
AcDbLine
 62
7
  6
BYLAYER
 10
331.3680750434
 20
1068.4488653576
 11
339.0180061845
 21
1068.4488653576
  0
LINE
  5
39C
100
AcDbEntity
  8
0
100
AcDbLine
 62
7
  6
BYLAYER
 10
349.3689071995
 20
1068.4488653576
 11
357.0189894587
 21
1068.4488653576
  0
LINE
  5
39D
100
AcDbEntity
  8
0
100
AcDbLine
 62
7
  6
BYLAYER
 10
479.017205932
 20
1068.4488653576
 11
486.667137073
 21
1068.4488653576
  0
LINE
  5
39E
100
AcDbEntity
  8
0
100
AcDbLine
 62
7
  6
BYLAYER
 10
497.018038088
 20
1068.4488653576
 11
504.6681203472
 21
1068.4488653576
  0
LINE
  5
39F
100
AcDbEntity
  8
0
100
AcDbLine
 62
7
  6
BYLAYER
 10
329.1922075674
 20
1070.4488644201
 11
341.1922075674
 21
1070.4488644201
  0
LINE
  5
3A0
100
AcDbEntity
  8
0
100
AcDbLine
 62
7
  6
BYLAYER
 10
476.8413384559
 20
1070.4488644201
 11
488.8413384559
 21
1070.4488644201
  0
LINE
  5
3A1
100
AcDbEntity
  8
0
100
AcDbLine
 62
7
  6
BYLAYER
 10
329.6922128687
 20
1070.9488653576
 11
340.6922081316
 21
1070.9488653576
  0
LINE
  5
3A2
100
AcDbEntity
  8
0
100
AcDbLine
 62
7
  6
BYLAYER
 10
477.3413437572
 20
1070.9488653576
 11
488.3413390202
 21
1070.9488653576
  0
ARC
  5
3A3
100
AcDbEntity
  8
0
100
AcDbCircle
 62
7
  6
BYLAYER
 10
320.3924603384
 20
77.8488653576
 40
1.0
100
AcDbArc
 50
234.2503109333
 51
270.0
  0
ARC
  5
3A4
100
AcDbEntity
  8
0
100
AcDbCircle
 62
7
  6
BYLAYER
 10
325.9929353784
 20
77.8488653576
 40
1.0
100
AcDbArc
 50
270.0
 51
360.0
  0
ARC
  5
3A5
100
AcDbEntity
  8
0
100
AcDbCircle
 62
7
  6
BYLAYER
 10
321.3929353784
 20
77.8488653576
 40
1.0
100
AcDbArc
 50
180.0
 51
270.0
  0
ARC
  5
3A6
100
AcDbEntity
  8
0
100
AcDbCircle
 62
7
  6
BYLAYER
 10
328.1929353784
 20
77.9487552191
 40
1.0
100
AcDbArc
 50
180.0
 51
270.0
  0
ARC
  5
3A7
100
AcDbEntity
  8
0
100
AcDbCircle
 62
7
  6
BYLAYER
 10
320.1929353784
 20
77.9487552191
 40
1.0
100
AcDbArc
 50
180.0
 51
270.0
  0
ARC
  5
3A8
100
AcDbEntity
  8
0
100
AcDbCircle
 62
7
  6
BYLAYER
 10
339.1929353784
 20
77.9487552191
 40
1.0
100
AcDbArc
 50
270.0
 51
360.0
  0
ARC
  5
3A9
100
AcDbEntity
  8
0
100
AcDbCircle
 62
7
  6
BYLAYER
 10
319.6929353784
 20
79.9487552191
 40
0.5
100
AcDbArc
 50
180.0
 51
270.0
  0
ARC
  5
3AA
100
AcDbEntity
  8
0
100
AcDbCircle
 62
7
  6
BYLAYER
 10
326.6929353784
 20
78.9487552191
 40
0.5
100
AcDbArc
 50
0.0
 51
90.0
  0
ARC
  5
3AB
100
AcDbEntity
  8
4
100
AcDbCircle
 62
7
  6
BYLAYER
 10
337.3037146519
 20
131.7970404808
 40
3.25
100
AcDbArc
 50
90.0
 51
270.0
  0
ARC
  5
3AC
100
AcDbEntity
  8
4
100
AcDbCircle
 62
7
  6
BYLAYER
 10
337.3037146519
 20
161.7970404808
 40
3.25
100
AcDbArc
 50
90.0
 51
270.0
  0
ARC
  5
3AD
100
AcDbEntity
  8
0
100
AcDbCircle
 62
7
  6
BYLAYER
 10
367.9924603354
 20
77.8488653576
 40
1.0
100
AcDbArc
 50
270.0
 51
305.7190868305
  0
ARC
  5
3AE
100
AcDbEntity
  8
0
100
AcDbCircle
 62
7
  6
BYLAYER
 10
366.9929353755
 20
77.8488653576
 40
1.0
100
AcDbArc
 50
270.0
 51
360.0
  0
ARC
  5
3AF
100
AcDbEntity
  8
0
100
AcDbCircle
 62
7
  6
BYLAYER
 10
362.3929353755
 20
77.8488653576
 40
1.0
100
AcDbArc
 50
180.0
 51
270.0
  0
ARC
  5
3B0
100
AcDbEntity
  8
0
100
AcDbCircle
 62
7
  6
BYLAYER
 10
349.1929353784
 20
77.9487552191
 40
1.0
100
AcDbArc
 50
179.9999999984
 51
270.0
  0
ARC
  5
3B1
100
AcDbEntity
  8
0
100
AcDbCircle
 62
7
  6
BYLAYER
 10
360.1929353784
 20
77.9487552191
 40
1.0
100
AcDbArc
 50
270.0
 51
360.0
  0
ARC
  5
3B2
100
AcDbEntity
  8
0
100
AcDbCircle
 62
7
  6
BYLAYER
 10
368.1929353784
 20
77.9487552191
 40
1.0
100
AcDbArc
 50
270.0
 51
360.0
  0
ARC
  5
3B3
100
AcDbEntity
  8
0
100
AcDbCircle
 62
7
  6
BYLAYER
 10
361.6929353784
 20
78.9487552191
 40
0.5
100
AcDbArc
 50
90.0
 51
180.0
  0
ARC
  5
3B4
100
AcDbEntity
  8
0
100
AcDbCircle
 62
7
  6
BYLAYER
 10
368.6929353784
 20
79.9487552191
 40
0.5
100
AcDbArc
 50
270.0
 51
360.0
  0
CIRCLE
  5
3B5
100
AcDbEntity
  8
4
100
AcDbCircle
 62
7
  6
BYLAYER
 10
344.192935377
 20
161.7970404808
 40
6.3525
  0
CIRCLE
  5
3B6
100
AcDbEntity
  8
4
100
AcDbCircle
 62
7
  6
BYLAYER
 10
344.192935377
 20
131.7970404808
 40
6.3525
  0
ARC
  5
3B7
100
AcDbEntity
  8
4
100
AcDbCircle
 62
7
  6
BYLAYER
 10
354.0037146519
 20
126.7970404808
 40
5.0
100
AcDbArc
 50
270.0
 51
360.0
  0
ARC
  5
3B8
100
AcDbEntity
  8
4
100
AcDbCircle
 62
7
  6
BYLAYER
 10
354.0037146519
 20
166.7970404808
 40
5.0
100
AcDbArc
 50
0.0
 51
90.0
  0
ARC
  5
3B9
100
AcDbEntity
  8
4
100
AcDbCircle
 62
7
  6
BYLAYER
 10
350.8037146519
 20
131.7970404808
 40
3.25
100
AcDbArc
 50
270.0
 51
90.0
  0
ARC
  5
3BA
100
AcDbEntity
  8
4
100
AcDbCircle
 62
7
  6
BYLAYER
 10
350.8037146519
 20
161.7970404808
 40
3.25
100
AcDbArc
 50
270.0
 51
90.0
  0
CIRCLE
  5
3BB
100
AcDbEntity
  8
4
100
AcDbCircle
 62
7
  6
BYLAYER
 10
344.192935377
 20
131.7970404808
 40
3.0
  0
CIRCLE
  5
3BC
100
AcDbEntity
  8
4
100
AcDbCircle
 62
7
  6
BYLAYER
 10
344.192935377
 20
161.7970404808
 40
3.0
  0
ARC
  5
3BD
100
AcDbEntity
  8
4
100
AcDbCircle
 62
7
  6
BYLAYER
 10
337.3037146519
 20
978.1319429416
 40
3.25
100
AcDbArc
 50
90.0
 51
270.0
  0
ARC
  5
3BE
100
AcDbEntity
  8
4
100
AcDbCircle
 62
7
  6
BYLAYER
 10
337.3037146519
 20
1008.1319429416
 40
3.25
100
AcDbArc
 50
90.0
 51
270.0
  0
ARC
  5
3BF
100
AcDbEntity
  8
0
100
AcDbCircle
 62
7
  6
BYLAYER
 10
320.3922075674
 20
1059.5488653576
 40
1.0
100
AcDbArc
 50
90.0
 51
125.746880854
  0
ARC
  5
3C0
100
AcDbEntity
  8
0
100
AcDbCircle
 62
7
  6
BYLAYER
 10
321.3922075674
 20
1059.5488653576
 40
1.0
100
AcDbArc
 50
90.0
 51
180.0
  0
ARC
  5
3C1
100
AcDbEntity
  8
0
100
AcDbCircle
 62
7
  6
BYLAYER
 10
325.9922075674
 20
1059.5488653576
 40
1.0
100
AcDbArc
 50
0.0
 51
90.0
  0
ARC
  5
3C2
100
AcDbEntity
  8
0
100
AcDbCircle
 62
7
  6
BYLAYER
 10
320.1922075674
 20
1059.4488653576
 40
1.0
100
AcDbArc
 50
90.0
 51
180.0
  0
ARC
  5
3C3
100
AcDbEntity
  8
0
100
AcDbCircle
 62
7
  6
BYLAYER
 10
328.1922075674
 20
1059.4488653576
 40
1.0
100
AcDbArc
 50
90.0
 51
180.0
  0
ARC
  5
3C4
100
AcDbEntity
  8
0
100
AcDbCircle
 62
7
  6
BYLAYER
 10
326.6922075674
 20
1058.4488653576
 40
0.5
100
AcDbArc
 50
270.0
 51
360.0
  0
ARC
  5
3C5
100
AcDbEntity
  8
0
100
AcDbCircle
 62
7
  6
BYLAYER
 10
319.6922075674
 20
1057.4488653576
 40
0.5
100
AcDbArc
 50
90.0
 51
180.0
  0
ARC
  5
3C6
100
AcDbEntity
  8
0
100
AcDbCircle
 62
7
  6
BYLAYER
 10
327.1922252293
 20
1056.9488655406
 40
0.4999999532
100
AcDbArc
 50
102.1804098124
 51
282.180210997
  0
ARC
  5
3C7
100
AcDbEntity
  8
0
100
AcDbCircle
 62
7
  6
BYLAYER
 10
331.3679875674
 20
1068.1488653576
 40
0.3
100
AcDbArc
 50
90.0
 51
180.0
  0
ARC
  5
3C8
100
AcDbEntity
  8
0
100
AcDbCircle
 62
7
  6
BYLAYER
 10
339.1922075674
 20
1059.4488653576
 40
1.0
100
AcDbArc
 50
0.0
 51
90.0
  0
ARC
  5
3C9
100
AcDbEntity
  8
0
100
AcDbCircle
 62
7
  6
BYLAYER
 10
343.1921899055
 20
1056.9488655406
 40
0.4999999532
100
AcDbArc
 50
257.819789003
 51
77.8195901876
  0
ARC
  5
3CA
100
AcDbEntity
  8
0
100
AcDbCircle
 62
7
  6
BYLAYER
 10
339.0179875674
 20
1068.1488653576
 40
0.3
100
AcDbArc
 50
0.0
 51
90.0
  0
CIRCLE
  5
3CB
100
AcDbEntity
  8
4
100
AcDbCircle
 62
7
  6
BYLAYER
 10
344.192935377
 20
978.1319429416
 40
6.3525
  0
CIRCLE
  5
3CC
100
AcDbEntity
  8
4
100
AcDbCircle
 62
7
  6
BYLAYER
 10
344.192935377
 20
1008.1319429416
 40
6.3525
  0
ARC
  5
3CD
100
AcDbEntity
  8
4
100
AcDbCircle
 62
7
  6
BYLAYER
 10
354.0037146519
 20
973.1319429416
 40
5.0
100
AcDbArc
 50
270.0
 51
360.0
  0
ARC
  5
3CE
100
AcDbEntity
  8
4
100
AcDbCircle
 62
7
  6
BYLAYER
 10
354.0037146519
 20
1013.1319429416
 40
5.0
100
AcDbArc
 50
0.0
 51
90.0
  0
ARC
  5
3CF
100
AcDbEntity
  8
4
100
AcDbCircle
 62
7
  6
BYLAYER
 10
350.8037146519
 20
978.1319429416
 40
3.25
100
AcDbArc
 50
270.0
 51
90.0
  0
ARC
  5
3D0
100
AcDbEntity
  8
4
100
AcDbCircle
 62
7
  6
BYLAYER
 10
350.8037146519
 20
1008.1319429416
 40
3.25
100
AcDbArc
 50
270.0
 51
90.0
  0
CIRCLE
  5
3D1
100
AcDbEntity
  8
4
100
AcDbCircle
 62
7
  6
BYLAYER
 10
344.192935377
 20
978.1319429416
 40
3.0
  0
CIRCLE
  5
3D2
100
AcDbEntity
  8
4
100
AcDbCircle
 62
7
  6
BYLAYER
 10
344.192935377
 20
1008.1319429416
 40
3.0
  0
ARC
  5
3D3
100
AcDbEntity
  8
0
100
AcDbCircle
 62
7
  6
BYLAYER
 10
367.9922075674
 20
1059.5488653576
 40
1.0
100
AcDbArc
 50
54.2529864704
 51
90.0
  0
ARC
  5
3D4
100
AcDbEntity
  8
0
100
AcDbCircle
 62
7
  6
BYLAYER
 10
362.3922075674
 20
1059.5488653576
 40
1.0
100
AcDbArc
 50
90.0
 51
180.0
  0
ARC
  5
3D5
100
AcDbEntity
  8
0
100
AcDbCircle
 62
7
  6
BYLAYER
 10
366.9922075674
 20
1059.5488653576
 40
1.0
100
AcDbArc
 50
0.0
 51
90.0
  0
ARC
  5
3D6
100
AcDbEntity
  8
0
100
AcDbCircle
 62
7
  6
BYLAYER
 10
360.1922075674
 20
1059.4488653576
 40
1.0
100
AcDbArc
 50
0.0
 51
90.0
  0
ARC
  5
3D7
100
AcDbEntity
  8
0
100
AcDbCircle
 62
7
  6
BYLAYER
 10
349.1922075674
 20
1059.4488653576
 40
1.0
100
AcDbArc
 50
90.0
 51
180.0000000008
  0
ARC
  5
3D8
100
AcDbEntity
  8
0
100
AcDbCircle
 62
7
  6
BYLAYER
 10
368.1922075674
 20
1059.4488653576
 40
1.0
100
AcDbArc
 50
0.0000000001
 51
90.0
  0
ARC
  5
3D9
100
AcDbEntity
  8
0
100
AcDbCircle
 62
7
  6
BYLAYER
 10
368.6922075674
 20
1057.4488653576
 40
0.5
100
AcDbArc
 50
0.0
 51
90.0
  0
ARC
  5
3DA
100
AcDbEntity
  8
0
100
AcDbCircle
 62
7
  6
BYLAYER
 10
361.6922075674
 20
1058.4488653576
 40
0.5
100
AcDbArc
 50
180.0
 51
270.0
  0
ARC
  5
3DB
100
AcDbEntity
  8
0
100
AcDbCircle
 62
7
  6
BYLAYER
 10
361.1921899049
 20
1056.9488655404
 40
0.4999999534
100
AcDbArc
 50
257.8430202394
 51
77.8428213138
  0
ARC
  5
3DC
100
AcDbEntity
  8
0
100
AcDbCircle
 62
7
  6
BYLAYER
 10
345.1922252298
 20
1056.9488655404
 40
0.4999999534
100
AcDbArc
 50
102.1571786862
 51
282.1569797606
  0
ARC
  5
3DD
100
AcDbEntity
  8
0
100
AcDbCircle
 62
7
  6
BYLAYER
 10
349.3689675674
 20
1068.1488653576
 40
0.3
100
AcDbArc
 50
90.0
 51
180.0
  0
ARC
  5
3DE
100
AcDbEntity
  8
0
100
AcDbCircle
 62
7
  6
BYLAYER
 10
357.0189675674
 20
1068.1488653576
 40
0.3
100
AcDbArc
 50
0.0
 51
90.0
  0
ARC
  5
3DF
100
AcDbEntity
  8
0
100
AcDbCircle
 62
7
  6
BYLAYER
 10
468.041591227
 20
77.8488653576
 40
1.0
100
AcDbArc
 50
234.2503109333
 51
270.0
  0
ARC
  5
3E0
100
AcDbEntity
  8
0
100
AcDbCircle
 62
7
  6
BYLAYER
 10
473.6420662669
 20
77.8488653576
 40
1.0
100
AcDbArc
 50
270.0
 51
360.0
  0
ARC
  5
3E1
100
AcDbEntity
  8
0
100
AcDbCircle
 62
7
  6
BYLAYER
 10
469.0420662669
 20
77.8488653576
 40
1.0
100
AcDbArc
 50
180.0
 51
270.0
  0
ARC
  5
3E2
100
AcDbEntity
  8
0
100
AcDbCircle
 62
7
  6
BYLAYER
 10
475.8420662669
 20
77.9487552191
 40
1.0
100
AcDbArc
 50
180.0
 51
270.0
  0
ARC
  5
3E3
100
AcDbEntity
  8
0
100
AcDbCircle
 62
7
  6
BYLAYER
 10
467.8420662669
 20
77.9487552191
 40
1.0
100
AcDbArc
 50
180.0
 51
270.0
  0
ARC
  5
3E4
100
AcDbEntity
  8
0
100
AcDbCircle
 62
7
  6
BYLAYER
 10
486.8420662669
 20
77.9487552191
 40
1.0
100
AcDbArc
 50
270.0
 51
360.0
  0
ARC
  5
3E5
100
AcDbEntity
  8
0
100
AcDbCircle
 62
7
  6
BYLAYER
 10
467.3420662669
 20
79.9487552191
 40
0.5
100
AcDbArc
 50
180.0
 51
270.0
  0
ARC
  5
3E6
100
AcDbEntity
  8
0
100
AcDbCircle
 62
7
  6
BYLAYER
 10
474.3420662669
 20
78.9487552191
 40
0.5
100
AcDbArc
 50
0.0
 51
90.0
  0
ARC
  5
3E7
100
AcDbEntity
  8
3
100
AcDbCircle
 62
7
  6
BYLAYER
 10
484.9528455404
 20
131.7970404808
 40
3.25
100
AcDbArc
 50
90.0
 51
270.0
  0
ARC
  5
3E8
100
AcDbEntity
  8
3
100
AcDbCircle
 62
7
  6
BYLAYER
 10
484.9528455404
 20
161.7970404808
 40
3.25
100
AcDbArc
 50
90.0
 51
270.0
  0
ARC
  5
3E9
100
AcDbEntity
  8
0
100
AcDbCircle
 62
7
  6
BYLAYER
 10
515.6415912239
 20
77.8488653576
 40
1.0
100
AcDbArc
 50
270.0
 51
305.7190868305
  0
ARC
  5
3EA
100
AcDbEntity
  8
0
100
AcDbCircle
 62
7
  6
BYLAYER
 10
514.642066264
 20
77.8488653576
 40
1.0
100
AcDbArc
 50
270.0
 51
360.0
  0
ARC
  5
3EB
100
AcDbEntity
  8
0
100
AcDbCircle
 62
7
  6
BYLAYER
 10
510.042066264
 20
77.8488653576
 40
1.0
100
AcDbArc
 50
180.0
 51
270.0
  0
ARC
  5
3EC
100
AcDbEntity
  8
0
100
AcDbCircle
 62
7
  6
BYLAYER
 10
496.8420662669
 20
77.9487552191
 40
1.0
100
AcDbArc
 50
179.9999999984
 51
270.0
  0
ARC
  5
3ED
100
AcDbEntity
  8
0
100
AcDbCircle
 62
7
  6
BYLAYER
 10
507.8420662669
 20
77.9487552191
 40
1.0
100
AcDbArc
 50
270.0
 51
360.0
  0
ARC
  5
3EE
100
AcDbEntity
  8
0
100
AcDbCircle
 62
7
  6
BYLAYER
 10
515.8420662669
 20
77.9487552191
 40
1.0
100
AcDbArc
 50
270.0
 51
360.0
  0
ARC
  5
3EF
100
AcDbEntity
  8
0
100
AcDbCircle
 62
7
  6
BYLAYER
 10
509.3420662669
 20
78.9487552191
 40
0.5
100
AcDbArc
 50
90.0
 51
180.0
  0
ARC
  5
3F0
100
AcDbEntity
  8
0
100
AcDbCircle
 62
7
  6
BYLAYER
 10
516.3420662669
 20
79.9487552191
 40
0.5
100
AcDbArc
 50
270.0
 51
360.0
  0
CIRCLE
  5
3F1
100
AcDbEntity
  8
3
100
AcDbCircle
 62
7
  6
BYLAYER
 10
491.8420662655
 20
161.7970404808
 40
6.3525
  0
CIRCLE
  5
3F2
100
AcDbEntity
  8
3
100
AcDbCircle
 62
7
  6
BYLAYER
 10
491.8420662655
 20
131.7970404808
 40
6.3525
  0
ARC
  5
3F3
100
AcDbEntity
  8
3
100
AcDbCircle
 62
7
  6
BYLAYER
 10
501.6528455404
 20
126.7970404808
 40
5.0
100
AcDbArc
 50
270.0
 51
360.0
  0
ARC
  5
3F4
100
AcDbEntity
  8
3
100
AcDbCircle
 62
7
  6
BYLAYER
 10
501.6528455404
 20
166.7970404808
 40
5.0
100
AcDbArc
 50
0.0
 51
90.0
  0
ARC
  5
3F5
100
AcDbEntity
  8
3
100
AcDbCircle
 62
7
  6
BYLAYER
 10
498.4528455404
 20
131.7970404808
 40
3.25
100
AcDbArc
 50
270.0
 51
90.0
  0
ARC
  5
3F6
100
AcDbEntity
  8
3
100
AcDbCircle
 62
7
  6
BYLAYER
 10
498.4528455404
 20
161.7970404808
 40
3.25
100
AcDbArc
 50
270.0
 51
90.0
  0
CIRCLE
  5
3F7
100
AcDbEntity
  8
3
100
AcDbCircle
 62
7
  6
BYLAYER
 10
491.8420662655
 20
131.7970404808
 40
3.0
  0
CIRCLE
  5
3F8
100
AcDbEntity
  8
3
100
AcDbCircle
 62
7
  6
BYLAYER
 10
491.8420662655
 20
161.7970404808
 40
3.0
  0
ARC
  5
3F9
100
AcDbEntity
  8
3
100
AcDbCircle
 62
7
  6
BYLAYER
 10
484.9528455404
 20
978.1319429416
 40
3.25
100
AcDbArc
 50
90.0
 51
270.0
  0
ARC
  5
3FA
100
AcDbEntity
  8
3
100
AcDbCircle
 62
7
  6
BYLAYER
 10
484.9528455404
 20
1008.1319429416
 40
3.25
100
AcDbArc
 50
90.0
 51
270.0
  0
ARC
  5
3FB
100
AcDbEntity
  8
0
100
AcDbCircle
 62
7
  6
BYLAYER
 10
468.0413384559
 20
1059.5488653576
 40
1.0
100
AcDbArc
 50
90.0
 51
125.746880854
  0
ARC
  5
3FC
100
AcDbEntity
  8
0
100
AcDbCircle
 62
7
  6
BYLAYER
 10
469.0413384559
 20
1059.5488653576
 40
1.0
100
AcDbArc
 50
90.0
 51
180.0
  0
ARC
  5
3FD
100
AcDbEntity
  8
0
100
AcDbCircle
 62
7
  6
BYLAYER
 10
473.6413384559
 20
1059.5488653576
 40
1.0
100
AcDbArc
 50
0.0
 51
90.0
  0
ARC
  5
3FE
100
AcDbEntity
  8
0
100
AcDbCircle
 62
7
  6
BYLAYER
 10
486.8413384559
 20
1059.4488653576
 40
1.0
100
AcDbArc
 50
0.0
 51
90.0
  0
ARC
  5
3FF
100
AcDbEntity
  8
0
100
AcDbCircle
 62
7
  6
BYLAYER
 10
467.8413384559
 20
1059.4488653576
 40
1.0
100
AcDbArc
 50
90.0
 51
180.0
  0
ARC
  5
400
100
AcDbEntity
  8
0
100
AcDbCircle
 62
7
  6
BYLAYER
 10
475.8413384559
 20
1059.4488653576
 40
1.0
100
AcDbArc
 50
90.0
 51
180.0
  0
ARC
  5
401
100
AcDbEntity
  8
0
100
AcDbCircle
 62
7
  6
BYLAYER
 10
474.3413384559
 20
1058.4488653576
 40
0.5
100
AcDbArc
 50
270.0
 51
360.0
  0
ARC
  5
402
100
AcDbEntity
  8
0
100
AcDbCircle
 62
7
  6
BYLAYER
 10
467.3413384559
 20
1057.4488653576
 40
0.5
100
AcDbArc
 50
90.0
 51
180.0
  0
ARC
  5
403
100
AcDbEntity
  8
0
100
AcDbCircle
 62
7
  6
BYLAYER
 10
490.841320794
 20
1056.9488655406
 40
0.4999999532
100
AcDbArc
 50
257.819789003
 51
77.8195901877
  0
ARC
  5
404
100
AcDbEntity
  8
0
100
AcDbCircle
 62
7
  6
BYLAYER
 10
474.8413561178
 20
1056.9488655406
 40
0.4999999532
100
AcDbArc
 50
102.1804098124
 51
282.180210997
  0
ARC
  5
405
100
AcDbEntity
  8
0
100
AcDbCircle
 62
7
  6
BYLAYER
 10
479.0171184559
 20
1068.1488653576
 40
0.3
100
AcDbArc
 50
90.0
 51
180.0
  0
ARC
  5
406
100
AcDbEntity
  8
0
100
AcDbCircle
 62
7
  6
BYLAYER
 10
486.6671184559
 20
1068.1488653576
 40
0.3
100
AcDbArc
 50
0.0
 51
90.0
  0
CIRCLE
  5
407
100
AcDbEntity
  8
3
100
AcDbCircle
 62
7
  6
BYLAYER
 10
491.8420662655
 20
978.1319429416
 40
6.3525
  0
CIRCLE
  5
408
100
AcDbEntity
  8
3
100
AcDbCircle
 62
7
  6
BYLAYER
 10
491.8420662655
 20
1008.1319429416
 40
6.3525
  0
ARC
  5
409
100
AcDbEntity
  8
3
100
AcDbCircle
 62
7
  6
BYLAYER
 10
501.6528455404
 20
973.1319429416
 40
5.0
100
AcDbArc
 50
270.0
 51
360.0
  0
ARC
  5
40A
100
AcDbEntity
  8
3
100
AcDbCircle
 62
7
  6
BYLAYER
 10
501.6528455404
 20
1013.1319429416
 40
5.0
100
AcDbArc
 50
0.0
 51
90.0
  0
ARC
  5
40B
100
AcDbEntity
  8
3
100
AcDbCircle
 62
7
  6
BYLAYER
 10
498.4528455404
 20
978.1319429416
 40
3.25
100
AcDbArc
 50
270.0
 51
90.0
  0
ARC
  5
40C
100
AcDbEntity
  8
3
100
AcDbCircle
 62
7
  6
BYLAYER
 10
498.4528455404
 20
1008.1319429416
 40
3.25
100
AcDbArc
 50
270.0
 51
90.0
  0
CIRCLE
  5
40D
100
AcDbEntity
  8
3
100
AcDbCircle
 62
7
  6
BYLAYER
 10
491.8420662655
 20
978.1319429416
 40
3.0
  0
CIRCLE
  5
40E
100
AcDbEntity
  8
3
100
AcDbCircle
 62
7
  6
BYLAYER
 10
491.8420662655
 20
1008.1319429416
 40
3.0
  0
ARC
  5
40F
100
AcDbEntity
  8
0
100
AcDbCircle
 62
7
  6
BYLAYER
 10
515.6413384559
 20
1059.5488653576
 40
1.0
100
AcDbArc
 50
54.2529864704
 51
90.0
  0
ARC
  5
410
100
AcDbEntity
  8
0
100
AcDbCircle
 62
7
  6
BYLAYER
 10
510.0413384559
 20
1059.5488653576
 40
1.0
100
AcDbArc
 50
90.0
 51
180.0
  0
ARC
  5
411
100
AcDbEntity
  8
0
100
AcDbCircle
 62
7
  6
BYLAYER
 10
514.6413384559
 20
1059.5488653576
 40
1.0
100
AcDbArc
 50
0.0
 51
90.0
  0
ARC
  5
412
100
AcDbEntity
  8
0
100
AcDbCircle
 62
7
  6
BYLAYER
 10
507.8413384559
 20
1059.4488653576
 40
1.0
100
AcDbArc
 50
0.0
 51
90.0
  0
ARC
  5
413
100
AcDbEntity
  8
0
100
AcDbCircle
 62
7
  6
BYLAYER
 10
496.8413384559
 20
1059.4488653576
 40
1.0
100
AcDbArc
 50
90.0
 51
180.0000000008
  0
ARC
  5
414
100
AcDbEntity
  8
0
100
AcDbCircle
 62
7
  6
BYLAYER
 10
515.8413384559
 20
1059.4488653576
 40
1.0
100
AcDbArc
 50
0.0000000001
 51
90.0
  0
ARC
  5
415
100
AcDbEntity
  8
0
100
AcDbCircle
 62
7
  6
BYLAYER
 10
516.3413384559
 20
1057.4488653576
 40
0.5
100
AcDbArc
 50
0.0
 51
90.0
  0
ARC
  5
416
100
AcDbEntity
  8
0
100
AcDbCircle
 62
7
  6
BYLAYER
 10
509.3413384559
 20
1058.4488653576
 40
0.5
100
AcDbArc
 50
180.0
 51
270.0
  0
ARC
  5
417
100
AcDbEntity
  8
0
100
AcDbCircle
 62
7
  6
BYLAYER
 10
508.8413207935
 20
1056.9488655404
 40
0.4999999534
100
AcDbArc
 50
257.8430202394
 51
77.8428213138
  0
ARC
  5
418
100
AcDbEntity
  8
0
100
AcDbCircle
 62
7
  6
BYLAYER
 10
492.8413561183
 20
1056.9488655404
 40
0.4999999534
100
AcDbArc
 50
102.1571786862
 51
282.1569797606
  0
ARC
  5
419
100
AcDbEntity
  8
0
100
AcDbCircle
 62
7
  6
BYLAYER
 10
497.0180984559
 20
1068.1488653576
 40
0.3
100
AcDbArc
 50
90.0
 51
180.0
  0
ARC
  5
41A
100
AcDbEntity
  8
0
100
AcDbCircle
 62
7
  6
BYLAYER
 10
504.6680984559
 20
1068.1488653576
 40
0.3
100
AcDbArc
 50
0.0
 51
90.0
  0
SPLINE
  5
41B
100
AcDbEntity
  8
0
100
AcDbSpline
 62
7
  6
BYLAYER
 70
0
 71
3
 72
12
 73
8
 74
0
 42
0.0000001
 43
0.0000001
 44
0.0000000001
 40
0.0
 40
0.0
 40
0.0
 40
0.0
 40
0.1596770904
 40
0.2582781683
 40
0.3740954473
 40
0.6599411656
 40
1.0
 40
1.0
 40
1.0
 40
1.0
 10
496.8413404901
 20
1060.4488653579
 30
0.0
 10
496.777196409
 20
1060.4488522267
 30
0.0
 10
496.6733197284
 20
1060.4037422657
 30
0.0
 10
496.5694515907
 20
1060.2948970313
 30
0.0
 10
496.4606179166
 20
1060.1243365563
 30
0.0
 10
496.3665788297
 20
1059.8374885522
 30
0.0
 10
496.3413396417
 20
1059.5854708147
 30
0.0
 10
496.3413389967
 20
1059.4488653576
 30
0.0
  0
SPLINE
  5
41C
100
AcDbEntity
  8
0
100
AcDbSpline
 62
7
  6
BYLAYER
 70
0
 71
3
 72
12
 73
8
 74
0
 42
0.0000001
 43
0.0000001
 44
0.0000000001
 40
0.0
 40
0.0
 40
0.0
 40
0.0
 40
0.1249612752
 40
0.2501494132
 40
0.4995021241
 40
0.7494103699
 40
1.0
 40
1.0
 40
1.0
 40
1.0
 10
475.8413384559
 20
1058.4488653576
 30
0.0
 10
475.8413382356
 20
1058.3658569038
 30
0.0
 10
475.8091917523
 20
1058.1985944913
 30
0.0
 10
475.6463025024
 20
1057.9053584851
 30
0.0
 10
475.321521821
 20
1057.6267632121
 30
0.0
 10
474.8431354815
 20
1057.4557851213
 30
0.0
 10
474.5077984867
 20
1057.4488653162
 30
0.0
 10
474.3413384559
 20
1057.4488653576
 30
0.0
  0
SPLINE
  5
41D
100
AcDbEntity
  8
0
100
AcDbSpline
 62
7
  6
BYLAYER
 70
0
 71
3
 72
16
 73
12
 74
0
 42
0.0000001
 43
0.0000001
 44
0.0000000001
 40
0.0
 40
0.0
 40
0.0
 40
0.0
 40
0.2636273647
 40
0.4178764038
 40
0.5741876959
 40
0.7240052304
 40
0.8563237188
 40
0.9120390276
 40
0.957262702
 40
0.9883504454
 40
1.0
 40
1.0
 40
1.0
 40
1.0
 10
467.8413384676
 20
1058.4488653576
 30
0.0
 10
467.8413383127
 20
1058.3855713428
 30
0.0
 10
467.7717921323
 20
1058.2956457618
 30
0.0
 10
467.675424695
 20
1058.2013918551
 30
0.0
 10
467.5906395243
 20
1058.1293267833
 30
0.0
 10
467.5087095477
 20
1058.0635104306
 30
0.0
 10
467.4435796174
 20
1058.0150238919
 30
0.0
 10
467.3978480593
 20
1057.9827707536
 30
0.0
 10
467.370548638
 20
1057.9663595267
 30
0.0
 10
467.3537945164
 20
1057.9538893764
 30
0.0
 10
467.343075387
 20
1057.9510575995
 30
0.0
 10
467.3413384642
 20
1057.9488653604
 30
0.0
  0
SPLINE
  5
41E
100
AcDbEntity
  8
0
100
AcDbSpline
 62
7
  6
BYLAYER
 70
0
 71
3
 72
16
 73
12
 74
0
 42
0.0000001
 43
0.0000001
 44
0.0000000001
 40
0.0
 40
0.0
 40
0.0
 40
0.0
 40
0.0116495546
 40
0.042737298
 40
0.0879609725
 40
0.1436762813
 40
0.2759947698
 40
0.4258123044
 40
0.5821235967
 40
0.7363726357
 40
1.0
 40
1.0
 40
1.0
 40
1.0
 10
516.3413384485
 20
1057.9488653604
 30
0.0
 10
516.3396023997
 20
1057.9510582917
 30
0.0
 10
516.3288812825
 20
1057.9538884943
 30
0.0
 10
516.3121288774
 20
1057.9663600041
 30
0.0
 10
516.2848286252
 20
1057.9827705729
 30
0.0
 10
516.2390974666
 20
1058.0150240276
 30
0.0
 10
516.1739672958
 20
1058.0635103759
 30
0.0
 10
516.0920374092
 20
1058.1293267998
 30
0.0
 10
516.0072522127
 20
1058.2013918512
 30
0.0
 10
515.9108847838
 20
1058.2956457643
 30
0.0
 10
515.8413386009
 20
1058.385571343
 30
0.0
 10
515.841338446
 20
1058.4488653576
 30
0.0
  0
SPLINE
  5
41F
100
AcDbEntity
  8
0
100
AcDbSpline
 62
7
  6
BYLAYER
 70
0
 71
3
 72
12
 73
8
 74
0
 42
0.0000001
 43
0.0000001
 44
0.0000000001
 40
0.0
 40
0.0
 40
0.0
 40
0.0
 40
0.340047804
 40
0.6258992885
 40
0.7417192497
 40
0.8403209927
 40
1.0
 40
1.0
 40
1.0
 40
1.0
 10
487.3413370327
 20
1059.4488653576
 30
0.0
 10
487.3413370323
 20
1059.5854663757
 30
0.0
 10
487.3160977889
 20
1059.8374818263
 30
0.0
 10
487.2220614663
 20
1060.1243296249
 30
0.0
 10
487.1132270605
 20
1060.2948939054
 30
0.0
 10
487.0093579554
 20
1060.4037415446
 30
0.0
 10
486.9054803622
 20
1060.4488508643
 30
0.0
 10
486.8413355151
 20
1060.448865358
 30
0.0
  0
SPLINE
  5
420
100
AcDbEntity
  8
0
100
AcDbSpline
 62
7
  6
BYLAYER
 70
0
 71
3
 72
12
 73
8
 74
0
 42
0.0000001
 43
0.0000001
 44
0.0000000001
 40
0.0
 40
0.0
 40
0.0
 40
0.0
 40
0.1249608927
 40
0.2501492077
 40
0.4995019733
 40
0.7494104792
 40
1.0
 40
1.0
 40
1.0
 40
1.0
 10
507.8413384559
 20
1058.4488653576
 30
0.0
 10
507.8413386762
 20
1058.3658571583
 30
0.0
 10
507.8734850342
 20
1058.1985948904
 30
0.0
 10
508.0363740488
 20
1057.9053588458
 30
0.0
 10
508.3611549166
 20
1057.6267632562
 30
0.0
 10
508.8395414139
 20
1057.4557851447
 30
0.0
 10
509.1748784985
 20
1057.4488653162
 30
0.0
 10
509.3413384559
 20
1057.4488653576
 30
0.0
  0
SPLINE
  5
421
100
AcDbEntity
  8
0
100
AcDbSpline
 62
7
  6
BYLAYER
 70
0
 71
3
 72
12
 73
8
 74
0
 42
0.0000001
 43
0.0000001
 44
0.0000000001
 40
0.0
 40
0.0
 40
0.0
 40
0.0
 40
0.1596770904
 40
0.2582781683
 40
0.3740954473
 40
0.6599411656
 40
1.0
 40
1.0
 40
1.0
 40
1.0
 10
349.1922096016
 20
1060.4488653579
 30
0.0
 10
349.1280655205
 20
1060.4488522267
 30
0.0
 10
349.0241888399
 20
1060.4037422657
 30
0.0
 10
348.9203207022
 20
1060.2948970313
 30
0.0
 10
348.8114870281
 20
1060.1243365563
 30
0.0
 10
348.7174479411
 20
1059.8374885522
 30
0.0
 10
348.6922087532
 20
1059.5854708147
 30
0.0
 10
348.6922081082
 20
1059.4488653576
 30
0.0
  0
SPLINE
  5
422
100
AcDbEntity
  8
0
100
AcDbSpline
 62
7
  6
BYLAYER
 70
0
 71
3
 72
12
 73
8
 74
0
 42
0.0000001
 43
0.0000001
 44
0.0000000001
 40
0.0
 40
0.0
 40
0.0
 40
0.0
 40
0.1249612752
 40
0.2501494132
 40
0.4995021241
 40
0.7494103699
 40
1.0
 40
1.0
 40
1.0
 40
1.0
 10
328.1922075674
 20
1058.4488653576
 30
0.0
 10
328.1922073471
 20
1058.3658569038
 30
0.0
 10
328.1600608638
 20
1058.1985944913
 30
0.0
 10
327.9971716139
 20
1057.9053584851
 30
0.0
 10
327.6723909325
 20
1057.6267632121
 30
0.0
 10
327.194004593
 20
1057.4557851213
 30
0.0
 10
326.8586675982
 20
1057.4488653162
 30
0.0
 10
326.6922075674
 20
1057.4488653576
 30
0.0
  0
SPLINE
  5
423
100
AcDbEntity
  8
0
100
AcDbSpline
 62
7
  6
BYLAYER
 70
0
 71
3
 72
16
 73
12
 74
0
 42
0.0000001
 43
0.0000001
 44
0.0000000001
 40
0.0
 40
0.0
 40
0.0
 40
0.0
 40
0.2636273647
 40
0.4178764038
 40
0.5741876959
 40
0.7240052304
 40
0.8563237188
 40
0.9120390276
 40
0.957262702
 40
0.9883504454
 40
1.0
 40
1.0
 40
1.0
 40
1.0
 10
320.192207579
 20
1058.4488653576
 30
0.0
 10
320.1922074241
 20
1058.3855713428
 30
0.0
 10
320.1226612439
 20
1058.2956457617
 30
0.0
 10
320.0262938064
 20
1058.2013918552
 30
0.0
 10
319.9415086362
 20
1058.129326783
 30
0.0
 10
319.8595786578
 20
1058.0635104318
 30
0.0
 10
319.7944487324
 20
1058.0150238891
 30
0.0
 10
319.7487171661
 20
1057.9827707573
 30
0.0
 10
319.7214177619
 20
1057.9663595169
 30
0.0
 10
319.704663605
 20
1057.9538893945
 30
0.0
 10
319.6939445165
 20
1057.9510575853
 30
0.0
 10
319.6922075757
 20
1057.9488653604
 30
0.0
  0
SPLINE
  5
424
100
AcDbEntity
  8
0
100
AcDbSpline
 62
7
  6
BYLAYER
 70
0
 71
3
 72
16
 73
12
 74
0
 42
0.0000001
 43
0.0000001
 44
0.0000000001
 40
0.0
 40
0.0
 40
0.0
 40
0.0
 40
0.0116495546
 40
0.042737298
 40
0.0879609725
 40
0.1436762813
 40
0.2759947698
 40
0.4258123044
 40
0.5821235967
 40
0.7363726357
 40
1.0
 40
1.0
 40
1.0
 40
1.0
 10
368.69220756
 20
1057.9488653604
 30
0.0
 10
368.6904715112
 20
1057.9510582917
 30
0.0
 10
368.679750394
 20
1057.9538884943
 30
0.0
 10
368.6629979889
 20
1057.9663600041
 30
0.0
 10
368.6356977367
 20
1057.9827705729
 30
0.0
 10
368.5899665781
 20
1058.0150240276
 30
0.0
 10
368.5248364072
 20
1058.0635103759
 30
0.0
 10
368.4429065206
 20
1058.1293267998
 30
0.0
 10
368.3581213242
 20
1058.2013918512
 30
0.0
 10
368.2617538953
 20
1058.2956457643
 30
0.0
 10
368.1922077123
 20
1058.385571343
 30
0.0
 10
368.1922075575
 20
1058.4488653576
 30
0.0
  0
SPLINE
  5
425
100
AcDbEntity
  8
0
100
AcDbSpline
 62
7
  6
BYLAYER
 70
0
 71
3
 72
12
 73
8
 74
0
 42
0.0000001
 43
0.0000001
 44
0.0000000001
 40
0.0
 40
0.0
 40
0.0
 40
0.0
 40
0.3400478061
 40
0.6258992925
 40
0.741719214
 40
0.8403209917
 40
1.0
 40
1.0
 40
1.0
 40
1.0
 10
339.6922061442
 20
1059.4488653576
 30
0.0
 10
339.6922061438
 20
1059.5854663757
 30
0.0
 10
339.6669668831
 20
1059.8374818136
 30
0.0
 10
339.5729306203
 20
1060.124329637
 30
0.0
 10
339.4640961344
 20
1060.2948938541
 30
0.0
 10
339.3602271
 20
1060.4037415571
 30
0.0
 10
339.2563494737
 20
1060.4488508643
 30
0.0
 10
339.1922046265
 20
1060.448865358
 30
0.0
  0
SPLINE
  5
426
100
AcDbEntity
  8
0
100
AcDbSpline
 62
7
  6
BYLAYER
 70
0
 71
3
 72
12
 73
8
 74
0
 42
0.0000001
 43
0.0000001
 44
0.0000000001
 40
0.0
 40
0.0
 40
0.0
 40
0.0
 40
0.1249608927
 40
0.2501492077
 40
0.4995019733
 40
0.7494104792
 40
1.0
 40
1.0
 40
1.0
 40
1.0
 10
360.1922075674
 20
1058.4488653576
 30
0.0
 10
360.1922077877
 20
1058.3658571583
 30
0.0
 10
360.2243541457
 20
1058.1985948904
 30
0.0
 10
360.3872431603
 20
1057.9053588458
 30
0.0
 10
360.712024028
 20
1057.6267632562
 30
0.0
 10
361.1904105254
 20
1057.4557851447
 30
0.0
 10
361.52574761
 20
1057.4488653162
 30
0.0
 10
361.6922075674
 20
1057.4488653576
 30
0.0
  0
SPLINE
  5
427
100
AcDbEntity
  8
0
100
AcDbSpline
 62
7
  6
BYLAYER
 70
0
 71
3
 72
12
 73
8
 74
0
 42
0.0000001
 43
0.0000001
 44
0.0000000001
 40
0.0
 40
0.0
 40
0.0
 40
0.0
 40
0.3400478039
 40
0.6258992883
 40
0.7417192516
 40
0.8403209928
 40
1.0
 40
1.0
 40
1.0
 40
1.0
 10
348.6929368016
 20
77.9487552191
 30
0.0
 10
348.692936802
 20
77.8121542009
 30
0.0
 10
348.7181760445
 20
77.5601387496
 30
0.0
 10
348.8122123704
 20
77.2732909524
 30
0.0
 10
348.9210467717
 20
77.1027266685
 30
0.0
 10
349.0249158807
 20
76.9938790328
 30
0.0
 10
349.1287934721
 20
76.9487697124
 30
0.0
 10
349.1929383192
 20
76.9487552186
 30
0.0
  0
SPLINE
  5
428
100
AcDbEntity
  8
0
100
AcDbSpline
 62
7
  6
BYLAYER
 70
0
 71
3
 72
12
 73
8
 74
0
 42
0.0000001
 43
0.0000001
 44
0.0000000001
 40
0.0
 40
0.0
 40
0.0
 40
0.0
 40
0.1596770812
 40
0.2582781532
 40
0.3740954272
 40
0.6599411459
 40
1.0
 40
1.0
 40
1.0
 40
1.0
 10
339.1929334365
 20
76.9487552187
 30
0.0
 10
339.2570775149
 20
76.948768343
 30
0.0
 10
339.3609541961
 20
76.9938782937
 30
0.0
 10
339.4648223355
 20
77.1027235187
 30
0.0
 10
339.5736560154
 20
77.2732839889
 30
0.0
 10
339.6676951103
 20
77.5601320024
 30
0.0
 10
339.6929343015
 20
77.8121497519
 30
0.0
 10
339.6929349464
 20
77.948755219
 30
0.0
  0
SPLINE
  5
429
100
AcDbEntity
  8
0
100
AcDbSpline
 62
7
  6
BYLAYER
 70
0
 71
3
 72
16
 73
12
 74
0
 42
0.0000001
 43
0.0000001
 44
0.0000000001
 40
0.0
 40
0.0
 40
0.0
 40
0.0
 40
0.0116495546
 40
0.042737298
 40
0.0879609725
 40
0.1436762813
 40
0.2759947698
 40
0.4258123044
 40
0.5821235967
 40
0.7363726357
 40
1.0
 40
1.0
 40
1.0
 40
1.0
 10
319.6929353858
 20
79.4487552162
 30
0.0
 10
319.6946714526
 20
79.4465622992
 30
0.0
 10
319.7053925288
 20
79.4437320642
 30
0.0
 10
319.7221449693
 20
79.4312605824
 30
0.0
 10
319.7494452044
 20
79.41485
 30
0.0
 10
319.7951763712
 20
79.3825965518
 30
0.0
 10
319.8603065371
 20
79.3341101996
 30
0.0
 10
319.9422364256
 20
79.2682937771
 30
0.0
 10
320.0270216215
 20
79.1962287254
 30
0.0
 10
320.1233890506
 20
79.1019748124
 30
0.0
 10
320.1929352334
 20
79.0120492336
 30
0.0
 10
320.1929353883
 20
78.9487552191
 30
0.0
  0
SPLINE
  5
42A
100
AcDbEntity
  8
0
100
AcDbSpline
 62
7
  6
BYLAYER
 70
0
 71
3
 72
12
 73
8
 74
0
 42
0.0000001
 43
0.0000001
 44
0.0000000001
 40
0.0
 40
0.0
 40
0.0
 40
0.0
 40
0.1249608927
 40
0.2501492077
 40
0.4995019733
 40
0.7494104792
 40
1.0
 40
1.0
 40
1.0
 40
1.0
 10
328.1929353784
 20
78.9487552191
 30
0.0
 10
328.1929351581
 20
79.0317634183
 30
0.0
 10
328.1607888001
 20
79.1990256863
 30
0.0
 10
327.9978997855
 20
79.4922617309
 30
0.0
 10
327.6731189177
 20
79.7708573205
 30
0.0
 10
327.1947324204
 20
79.9418354319
 30
0.0
 10
326.8593953358
 20
79.9487552604
 30
0.0
 10
326.6929353784
 20
79.9487552191
 30
0.0
  0
SPLINE
  5
42B
100
AcDbEntity
  8
0
100
AcDbSpline
 62
7
  6
BYLAYER
 70
0
 71
3
 72
12
 73
8
 74
0
 42
0.0000001
 43
0.0000001
 44
0.0000000001
 40
0.0
 40
0.0
 40
0.0
 40
0.0
 40
0.1249612752
 40
0.2501494132
 40
0.4995021241
 40
0.7494103699
 40
1.0
 40
1.0
 40
1.0
 40
1.0
 10
360.1929353784
 20
78.9487552191
 30
0.0
 10
360.1929355987
 20
79.0317636728
 30
0.0
 10
360.225082082
 20
79.1990260853
 30
0.0
 10
360.3879713319
 20
79.4922620916
 30
0.0
 10
360.7127520133
 20
79.7708573646
 30
0.0
 10
361.1911383528
 20
79.9418354553
 30
0.0
 10
361.5264753476
 20
79.9487552604
 30
0.0
 10
361.6929353784
 20
79.9487552191
 30
0.0
  0
SPLINE
  5
42C
100
AcDbEntity
  8
0
100
AcDbSpline
 62
7
  6
BYLAYER
 70
0
 71
3
 72
16
 73
12
 74
0
 42
0.0000001
 43
0.0000001
 44
0.0000000001
 40
0.0
 40
0.0
 40
0.0
 40
0.0
 40
0.2636273647
 40
0.4178764038
 40
0.5741876959
 40
0.7240052304
 40
0.8563237188
 40
0.9120390276
 40
0.957262702
 40
0.9883504454
 40
1.0
 40
1.0
 40
1.0
 40
1.0
 10
368.1929353667
 20
78.9487552191
 30
0.0
 10
368.1929355216
 20
79.0120492338
 30
0.0
 10
368.2624817018
 20
79.101974815
 30
0.0
 10
368.3588491397
 20
79.1962287213
 30
0.0
 10
368.4436343087
 20
79.2682937944
 30
0.0
 10
368.525564291
 20
79.3341101425
 30
0.0
 10
368.5906942059
 20
79.3825966935
 30
0.0
 10
368.6364257897
 20
79.4148498114
 30
0.0
 10
368.6637251575
 20
79.4312610807
 30
0.0
 10
368.6804793897
 20
79.4437311434
 30
0.0
 10
368.6911983909
 20
79.4465630218
 30
0.0
 10
368.6929353701
 20
79.4487552162
 30
0.0
  0
SPLINE
  5
42D
100
AcDbEntity
  8
0
100
AcDbSpline
 62
7
  6
BYLAYER
 70
0
 71
3
 72
12
 73
8
 74
0
 42
0.0000001
 43
0.0000001
 44
0.0000000001
 40
0.0
 40
0.0
 40
0.0
 40
0.0
 40
0.3400478026
 40
0.625899286
 40
0.7417192724
 40
0.8403209934
 40
1.0
 40
1.0
 40
1.0
 40
1.0
 10
496.3420676901
 20
77.9487552191
 30
0.0
 10
496.3420676905
 20
77.8121542009
 30
0.0
 10
496.3673069229
 20
77.5601387422
 30
0.0
 10
496.4613432838
 20
77.2732909595
 30
0.0
 10
496.5701776382
 20
77.1027266385
 30
0.0
 10
496.6740467885
 20
76.9938790401
 30
0.0
 10
496.7779243606
 20
76.9487697124
 30
0.0
 10
496.8420692078
 20
76.9487552186
 30
0.0
  0
SPLINE
  5
42E
100
AcDbEntity
  8
0
100
AcDbSpline
 62
7
  6
BYLAYER
 70
0
 71
3
 72
12
 73
8
 74
0
 42
0.0000001
 43
0.0000001
 44
0.0000000001
 40
0.0
 40
0.0
 40
0.0
 40
0.0
 40
0.1596770812
 40
0.2582781532
 40
0.3740954272
 40
0.6599411459
 40
1.0
 40
1.0
 40
1.0
 40
1.0
 10
486.842064325
 20
76.9487552187
 30
0.0
 10
486.9062084035
 20
76.948768343
 30
0.0
 10
487.0100850846
 20
76.9938782937
 30
0.0
 10
487.1139532241
 20
77.1027235187
 30
0.0
 10
487.2227869039
 20
77.273283989
 30
0.0
 10
487.3168259988
 20
77.5601320024
 30
0.0
 10
487.34206519
 20
77.8121497519
 30
0.0
 10
487.3420658349
 20
77.948755219
 30
0.0
  0
SPLINE
  5
42F
100
AcDbEntity
  8
0
100
AcDbSpline
 62
7
  6
BYLAYER
 70
0
 71
3
 72
16
 73
12
 74
0
 42
0.0000001
 43
0.0000001
 44
0.0000000001
 40
0.0
 40
0.0
 40
0.0
 40
0.0
 40
0.0116495546
 40
0.042737298
 40
0.0879609725
 40
0.1436762813
 40
0.2759947698
 40
0.4258123044
 40
0.5821235967
 40
0.7363726357
 40
1.0
 40
1.0
 40
1.0
 40
1.0
 10
467.3420662743
 20
79.4487552162
 30
0.0
 10
467.3438023226
 20
79.4465622845
 30
0.0
 10
467.354523441
 20
79.443732083
 30
0.0
 10
467.371275845
 20
79.4312605723
 30
0.0
 10
467.3985760978
 20
79.4148500039
 30
0.0
 10
467.4443072561
 20
79.3825965489
 30
0.0
 10
467.5094374271
 20
79.3341102008
 30
0.0
 10
467.5913673137
 20
79.2682937768
 30
0.0
 10
467.6761525101
 20
79.1962287255
 30
0.0
 10
467.772519939
 20
79.1019748124
 30
0.0
 10
467.842066122
 20
79.0120492336
 30
0.0
 10
467.8420662769
 20
78.9487552191
 30
0.0
  0
SPLINE
  5
430
100
AcDbEntity
  8
0
100
AcDbSpline
 62
7
  6
BYLAYER
 70
0
 71
3
 72
12
 73
8
 74
0
 42
0.0000001
 43
0.0000001
 44
0.0000000001
 40
0.0
 40
0.0
 40
0.0
 40
0.0
 40
0.1249608927
 40
0.2501492077
 40
0.4995019733
 40
0.7494104792
 40
1.0
 40
1.0
 40
1.0
 40
1.0
 10
475.8420662669
 20
78.9487552191
 30
0.0
 10
475.8420660466
 20
79.0317634183
 30
0.0
 10
475.8099196887
 20
79.1990256863
 30
0.0
 10
475.647030674
 20
79.4922617309
 30
0.0
 10
475.3222498063
 20
79.7708573205
 30
0.0
 10
474.8438633089
 20
79.9418354319
 30
0.0
 10
474.5085262243
 20
79.9487552604
 30
0.0
 10
474.3420662669
 20
79.9487552191
 30
0.0
  0
SPLINE
  5
431
100
AcDbEntity
  8
0
100
AcDbSpline
 62
7
  6
BYLAYER
 70
0
 71
3
 72
12
 73
8
 74
0
 42
0.0000001
 43
0.0000001
 44
0.0000000001
 40
0.0
 40
0.0
 40
0.0
 40
0.0
 40
0.1249612752
 40
0.2501494132
 40
0.4995021241
 40
0.7494103699
 40
1.0
 40
1.0
 40
1.0
 40
1.0
 10
507.8420662669
 20
78.9487552191
 30
0.0
 10
507.8420664872
 20
79.0317636728
 30
0.0
 10
507.8742129705
 20
79.1990260853
 30
0.0
 10
508.0371022204
 20
79.4922620916
 30
0.0
 10
508.3618829018
 20
79.7708573646
 30
0.0
 10
508.8402692414
 20
79.9418354553
 30
0.0
 10
509.1756062361
 20
79.9487552604
 30
0.0
 10
509.3420662669
 20
79.9487552191
 30
0.0
  0
SPLINE
  5
432
100
AcDbEntity
  8
0
100
AcDbSpline
 62
7
  6
BYLAYER
 70
0
 71
3
 72
16
 73
12
 74
0
 42
0.0000001
 43
0.0000001
 44
0.0000000001
 40
0.0
 40
0.0
 40
0.0
 40
0.0
 40
0.2636273647
 40
0.4178764038
 40
0.5741876959
 40
0.7240052304
 40
0.8563237188
 40
0.9120390276
 40
0.957262702
 40
0.9883504454
 40
1.0
 40
1.0
 40
1.0
 40
1.0
 10
515.8420662553
 20
78.9487552191
 30
0.0
 10
515.8420664102
 20
79.0120492338
 30
0.0
 10
515.9116125903
 20
79.101974815
 30
0.0
 10
516.0079800282
 20
79.1962287213
 30
0.0
 10
516.0927651972
 20
79.2682937944
 30
0.0
 10
516.1746951796
 20
79.3341101424
 30
0.0
 10
516.2398250943
 20
79.3825966936
 30
0.0
 10
516.2855566784
 20
79.4148498113
 30
0.0
 10
516.3128560456
 20
79.431261081
 30
0.0
 10
516.329610279
 20
79.4437311428
 30
0.0
 10
516.3403292789
 20
79.4465630223
 30
0.0
 10
516.3420662586
 20
79.4487552162
 30
0.0
  0
ENDSEC
  0
SECTION
  2
OBJECTS
  0
DICTIONARY
  5
C
100
AcDbDictionary
280
0
281
1
  3
ACAD_GROUP
350
D
  3
ACAD_MLINESTYLE
350
17
  3
ACAD_LAYOUT
350
1A
  3
ACAD_PLOTSETTINGS
350
19
  3
ACAD_PLOTSTYLENAME
350
E
  0
DICTIONARY
  5
D
102
{ACAD_REACTORS
330
C
102
}
100
AcDbDictionary
280
0
281
1
  0
ACDBDICTIONARYWDFLT
  5
E
102
{ACAD_REACTORS
330
C
102
}
100
AcDbDictionary
281
1
  3
Normal
350
F
100
AcDbDictionaryWithDefault
340
F
  0
DICTIONARY
  5
17
102
{ACAD_REACTORS
330
C
102
}
100
AcDbDictionary
280
0
281
1
  3
Standard
350
18
  0
DICTIONARY
  5
19
102
{ACAD_REACTORS
330
C
102
}
100
AcDbDictionary
281
1
  0
DICTIONARY
  5
1A
102
{ACAD_REACTORS
330
C
102
}
100
AcDbDictionary
281
1
  3
Model
350
433
  3
Layout1
350
434
  0
ACDBPLACEHOLDER
  5
F
102
{ACAD_REACTORS
330
E
102
}
  0
MLINESTYLE
  5
18
102
{ACAD_REACTORS
330
17
102
}
100
AcDbMlineStyle
  2
STANDARD
 70
0
  3

 62
256
 51
90.0
 52
90.0
 71
2
 49
0.5
 62
256
  6
BYLAYER
 49
-0.5
 62
256
  6
BYLAYER
  0
LAYOUT
  5
433
102
{ACAD_REACTORS
330
1A
102
}
100
AcDbPlotSettings
  1

  2
none_device
  4

  6

 40
0.0
 41
0.0
 42
0.0
 43
0.0
 44
210.0
 45
297.0
 46
0.0
 47
0.0
 48
0.0
 49
0.0
140
0.0
141
0.0
142
1.0
143
1.0
 70
1024
 72
1
 73
0
 74
0
  7

 75
0
147
1.0
148
0.0
149
0.0
100
AcDbLayout
  1
Model
 70
0
 71
0
 10
0.0
 20
0.0
 11
210.0
 21
297.0
 12
0.0
 22
0.0
 32
0.0
 14
0.0
 24
0.0
 34
0.0
 15
0.0
 25
0.0
 35
0.0
146
0.0
 13
0.0
 23
0.0
 33
0.0
 16
1.0
 26
0.0
 36
0.0
 17
0.0
 27
1.0
 37
0.0
 76
0
330
212
345
0
346
0
  0
LAYOUT
  5
434
102
{ACAD_REACTORS
330
1A
102
}
100
AcDbPlotSettings
  1

  2
none_device
  4

  6

 40
0.0
 41
0.0
 42
0.0
 43
0.0
 44
210.0
 45
297.0
 46
0.0
 47
0.0
 48
0.0
 49
0.0
140
0.0
141
0.0
142
1.0
143
1.0
 70
0
 72
1
 73
0
 74
0
  7

 75
0
147
1.0
148
0.0
149
0.0
100
AcDbLayout
  1
Layout1
 70
0
 71
1
 10
0.0
 20
0.0
 11
210.0
 21
297.0
 12
0.0
 22
0.0
 32
0.0
 14
0.0
 24
0.0
 34
0.0
 15
0.0
 25
0.0
 35
0.0
146
0.0
 13
0.0
 23
0.0
 33
0.0
 16
1.0
 26
0.0
 36
0.0
 17
0.0
 27
1.0
 37
0.0
 76
0
330
213
345
0
346
0
  0
ENDSEC
  0
EOF
