999
DXF file: C:\Users\sesa63760\Dev\_Creo\CAD\MCADID0004248_3D-CAD\drw0001_5.dxf
999
Pro/ENGINEER 2019471 by Parametric Technology Corporation
  0
SECTION
  2
HEADER
  9
$ACADVER
  1
AC1024
  9
$DWGCODEPAGE
  3
ANSI_1252
  9
$EXTMAX
 10
828.705113539
 20
1172.0258034337
 30
0.0
  9
$EXTMIN
 10
0.0
 20
0.0
 30
0.0
  9
$LIMMIN
 10
0.0
 20
0.0
  9
$LIMMAX
 10
828.705113539
 20
1172.0258034337
  9
$VIEWCTR
 10
414.3525567695
 20
586.0129017169
  9
$VIEWSIZE
 40
1172.0258034337
  9
$CLAYER
  8
0
  9
$LTSCALE
 40
76.3987190386
  9
$CELTYPE
  6
BYLAYER
  9
$DIMSCALE
 40
1.0
  9
$DIMASZ
 40
9.8655370659
  9
$DIMEXO
 40
1.0
  9
$DIMDLI
 40
52.7845695176
  9
$DIMEXE
 40
1.0
  9
$DIMCEN
 40
12.50160857
  9
$DIMLFAC
 40
1.0
  9
$DIMBLK
  1
_FILLED
  9
$DIMALT
 70
0
  9
$DIMALTF
 40
0.0393700787
  9
$DIMTXT
 40
13.8117518923
  9
$DIMTOL
 70
1
  9
$DIMLIM
 70
0
  9
$DIMTFAC
 40
1.0
  9
$DIMTP
 40
0.01
  9
$DIMTM
 40
0.01
  9
$DIMGAP
 40
0.625
  9
$DIMDSEP
 70
46
  9
$AUNITS
 70
0
  9
$PDMODE
 70
3
  9
$PDSIZE
 40
0.3125
  9
$HANDSEED
  5
367
  9
$TILEMODE
 70
1
  9
$MEASUREMENT
 70
1
  9
$INSUNITS
 70
4
  0
ENDSEC
  0
SECTION
  2
CLASSES
  0
CLASS
  1
ACDBDICTIONARYWDFLT
  2
AcDbDictionaryWithDefault
  3
AutoCAD 2000
 90
0
 91
1
280
0
281
0
  0
CLASS
  1
ACDBPLACEHOLDER
  2
AcDbPlaceHolder
  3
AutoCAD 2000
 90
0
 91
1
280
0
281
0
  0
CLASS
  1
LAYOUT
  2
AcDbLayout
  3
AutoCAD 2000
 90
0
 91
0
280
0
281
0
  0
ENDSEC
  0
SECTION
  2
TABLES
  0
TABLE
  2
VPORT
  5
8
100
AcDbSymbolTable
 70
2
  0
VPORT
  5
1F4
100
AcDbSymbolTableRecord
100
AcDbViewportTableRecord
  2
*ACTIVE
 70
0
 10
0.0
 20
0.0
 11
1.0
 21
1.0
 12
414.3525567695
 22
586.0129017169
 13
0.0
 23
0.0
 14
1.0
 24
1.0
 15
0.0
 25
0.0
 16
0.0
 26
0.0
 36
1.0
 17
0.0
 27
0.0
 37
0.0
 40
1172.0258034337
 41
0.7070707071
 42
50.0
 43
0.0
 44
0.0
 50
0.0
 51
0.0
 71
0
 72
100
 73
1
 74
1
 75
0
 76
0
 77
0
 78
0
  0
ENDTAB
  0
TABLE
  2
LTYPE
  5
5
100
AcDbSymbolTable
 70
6
  0
LTYPE
  5
14
100
AcDbSymbolTableRecord
100
AcDbLinetypeTableRecord
  2
BYBLOCK
 70
0
  3

 72
65
 73
0
 40
0.0
  0
LTYPE
  5
15
100
AcDbSymbolTableRecord
100
AcDbLinetypeTableRecord
  2
BYLAYER
 70
0
  3

 72
65
 73
0
 40
0.0
  0
LTYPE
  5
16
100
AcDbSymbolTableRecord
100
AcDbLinetypeTableRecord
  2
CONTINUOUS
 70
64
  3
Solid line
 72
65
 73
0
 40
0.0
  0
LTYPE
  5
1F5
100
AcDbSymbolTableRecord
100
AcDbLinetypeTableRecord
  2
CENTER
 70
64
  3
____ _ ____ _ ____ _ ____ _ ____ _ ____ _ ____
 72
65
 73
4
 40
0.6
 49
0.375
 74
0
 49
-0.075
 74
0
 49
0.075
 74
0
 49
-0.075
 74
0
  0
LTYPE
  5
1F6
100
AcDbSymbolTableRecord
100
AcDbLinetypeTableRecord
  2
HIDDEN
 70
64
  3
- - - - - - - - - - - - - - - - - - - -
 72
65
 73
2
 40
0.2
 49
0.1
 74
0
 49
-0.1
 74
0
  0
LTYPE
  5
1F7
100
AcDbSymbolTableRecord
100
AcDbLinetypeTableRecord
  2
PHANTOM
 70
64
  3
_____ _ _ _____ _ _ _____ _ _ _____
 72
65
 73
6
 40
0.8
 49
0.45
 74
0
 49
-0.05
 74
0
 49
0.1
 74
0
 49
-0.05
 74
0
 49
0.1
 74
0
 49
-0.05
 74
0
  0
LTYPE
  5
1F8
100
AcDbSymbolTableRecord
100
AcDbLinetypeTableRecord
  2
DOT
 70
64
  3
. . . . . . . . . . . . . . . . . . . .
 72
65
 73
2
 40
0.2
 49
0.1
 74
0
 49
-0.1
 74
0
  0
LTYPE
  5
1F9
100
AcDbSymbolTableRecord
100
AcDbLinetypeTableRecord
  2
DASHED
 70
64
  3
- - - - - - - - - - - - - - - - - - - -
 72
65
 73
2
 40
0.2
 49
0.1
 74
0
 49
-0.1
 74
0
  0
ENDTAB
  0
TABLE
  2
LAYER
  5
2
100
AcDbSymbolTable
 70
36
  0
LAYER
  5
10
100
AcDbSymbolTableRecord
100
AcDbLayerTableRecord
  2
0
 70
0
 62
7
  6
CONTINUOUS
370
-3
390
F
  0
LAYER
  5
1FA
100
AcDbSymbolTableRecord
100
AcDbLayerTableRecord
  2
DEFAULT_1
 70
0
 62
7
  6
CENTER
370
-3
390
F
  0
LAYER
  5
1FB
100
AcDbSymbolTableRecord
100
AcDbLayerTableRecord
  2
DEFAULT_2
 70
0
 62
7
  6
HIDDEN
370
-3
390
F
  0
LAYER
  5
1FC
100
AcDbSymbolTableRecord
100
AcDbLayerTableRecord
  2
DEFAULT_3
 70
0
 62
7
  6
PHANTOM
370
-3
390
F
  0
LAYER
  5
1FD
100
AcDbSymbolTableRecord
100
AcDbLayerTableRecord
  2
00_COMPONENTS
 70
0
 62
7
  6
CONTINUOUS
370
-3
390
F
  0
LAYER
  5
1FE
100
AcDbSymbolTableRecord
100
AcDbLayerTableRecord
  2
01_1_DEFAULT_DATUMS
 70
0
 62
7
  6
CONTINUOUS
370
-3
390
F
  0
LAYER
  5
1FF
100
AcDbSymbolTableRecord
100
AcDbLayerTableRecord
  2
01_PLANES
 70
0
 62
7
  6
CONTINUOUS
370
-3
390
F
  0
LAYER
  5
200
100
AcDbSymbolTableRecord
100
AcDbLayerTableRecord
  2
02_COORD_SYS
 70
0
 62
7
  6
CONTINUOUS
370
-3
390
F
  0
LAYER
  5
201
100
AcDbSymbolTableRecord
100
AcDbLayerTableRecord
  2
03_AXES
 70
0
 62
7
  6
CONTINUOUS
370
-3
390
F
  0
LAYER
  5
202
100
AcDbSymbolTableRecord
100
AcDbLayerTableRecord
  2
04_POINTS
 70
0
 62
7
  6
CONTINUOUS
370
-3
390
F
  0
LAYER
  5
203
100
AcDbSymbolTableRecord
100
AcDbLayerTableRecord
  2
05_CURVES
 70
0
 62
7
  6
CONTINUOUS
370
-3
390
F
  0
LAYER
  5
204
100
AcDbSymbolTableRecord
100
AcDbLayerTableRecord
  2
06_SURFS
 70
0
 62
7
  6
CONTINUOUS
370
-3
390
F
  0
LAYER
  5
205
100
AcDbSymbolTableRecord
100
AcDbLayerTableRecord
  2
07_COSMETICS
 70
0
 62
7
  6
CONTINUOUS
370
-3
390
F
  0
LAYER
  5
206
100
AcDbSymbolTableRecord
100
AcDbLayerTableRecord
  2
10_NOTES
 70
0
 62
7
  6
CONTINUOUS
370
-3
390
F
  0
LAYER
  5
207
100
AcDbSymbolTableRecord
100
AcDbLayerTableRecord
  2
11_NOTES_PUB
 70
0
 62
7
  6
CONTINUOUS
370
-3
390
F
  0
LAYER
  5
208
100
AcDbSymbolTableRecord
100
AcDbLayerTableRecord
  2
13_REF_GTOL
 70
0
 62
7
  6
CONTINUOUS
370
-3
390
F
  0
LAYER
  5
209
100
AcDbSymbolTableRecord
100
AcDbLayerTableRecord
  2
16_MISC
 70
0
 62
7
  6
CONTINUOUS
370
-3
390
F
  0
LAYER
  5
20A
100
AcDbSymbolTableRecord
100
AcDbLayerTableRecord
  2
17_NO_PRINT
 70
0
 62
7
  6
CONTINUOUS
370
-3
390
F
  0
LAYER
  5
20B
100
AcDbSymbolTableRecord
100
AcDbLayerTableRecord
  2
18_DATUM_CAMS_JOINTS
 70
0
 62
7
  6
CONTINUOUS
370
-3
390
F
  0
LAYER
  5
20C
100
AcDbSymbolTableRecord
100
AcDbLayerTableRecord
  2
19_DATUM_FUNCTIONAL
 70
0
 62
7
  6
CONTINUOUS
370
-3
390
F
  0
LAYER
  5
20D
100
AcDbSymbolTableRecord
100
AcDbLayerTableRecord
  2
20_DATUM_KINEMATIC_SCHEME
 70
0
 62
7
  6
CONTINUOUS
370
-3
390
F
  0
LAYER
  5
20E
100
AcDbSymbolTableRecord
100
AcDbLayerTableRecord
  2
3
 70
0
 62
7
  6
CONTINUOUS
370
-3
390
F
  0
LAYER
  5
20F
100
AcDbSymbolTableRecord
100
AcDbLayerTableRecord
  2
4
 70
0
 62
7
  6
CONTINUOUS
370
-3
390
F
  0
ENDTAB
  0
TABLE
  2
STYLE
  5
3
100
AcDbSymbolTable
 70
1
  0
STYLE
  5
11
100
AcDbSymbolTableRecord
100
AcDbTextStyleTableRecord
  2
STANDARD
 70
0
 40
0.0
 41
1.0
 50
0.0
 71
0
 42
0.2
  3
ARIAL.TTF
  4

  0
STYLE
  5
210
100
AcDbSymbolTableRecord
100
AcDbTextStyleTableRecord
  2
TEXTSTYLE_1
 70
0
 40
0.0
 41
0.8
 50
0.0
 71
0
 42
0.2
  3
gdt
  4

  0
ENDTAB
  0
TABLE
  2
VIEW
  5
6
100
AcDbSymbolTable
 70
0
  0
ENDTAB
  0
TABLE
  2
UCS
  5
7
100
AcDbSymbolTable
 70
0
  0
ENDTAB
  0
TABLE
  2
APPID
  5
9
100
AcDbSymbolTable
 70
1
  0
APPID
  5
211
100
AcDbSymbolTableRecord
100
AcDbRegAppTableRecord
  2
ACAD
 70
0
  0
ENDTAB
  0
TABLE
  2
BLOCK_RECORD
  5
1
100
AcDbSymbolTable
 70
0
  0
BLOCK_RECORD
  5
212
100
AcDbSymbolTableRecord
100
AcDbBlockTableRecord
  2
*Model_Space
  0
BLOCK_RECORD
  5
213
100
AcDbSymbolTableRecord
100
AcDbBlockTableRecord
  2
*Paper_Space
  0
BLOCK_RECORD
  5
214
100
AcDbSymbolTableRecord
100
AcDbBlockTableRecord
  2
_FILLED
  0
ENDTAB
  0
TABLE
  2
DIMSTYLE
  5
A
100
AcDbSymbolTable
 70
1
100
AcDbDimStyleTable
 71
0
  0
DIMSTYLE
105
215
100
AcDbSymbolTableRecord
100
AcDbDimStyleTableRecord
  2
STANDARD
 70
0
  3

  4

 40
1.0
 41
9.8655370659
 42
1.0
 43
0.38
 44
1.0
 45
0.0
 46
0.0
 47
0.01
 48
0.01
140
13.8117518923
141
0.09
142
0.0
143
25.4
144
1.0
145
0.0
146
1.0
147
0.625
 71
1
 72
0
 73
0
 74
0
 75
0
 76
0
 77
1
 78
8
 79
2
170
0
171
1
172
0
173
0
174
0
175
0
176
0
177
0
178
0
270
2
179
2
271
2
272
2
273
2
274
2
275
0
280
0
281
0
282
0
283
1
284
8
285
0
286
0
287
3
288
0
340
11
278
46
341
214
342
214
343
214
344
214
  0
ENDTAB
  0
ENDSEC
  0
SECTION
  2
BLOCKS
  0
BLOCK
  5
20
100
AcDbEntity
  8
0
100
AcDbBlockBegin
  2
*Model_Space
 70
0
 10
0.0
 20
0.0
 30
0.0
  3
*Model_Space
  1

  0
ENDBLK
  5
21
100
AcDbEntity
  8
0
100
AcDbBlockEnd
  0
BLOCK
  5
1C
100
AcDbEntity
  8
0
100
AcDbBlockBegin
  2
*Paper_Space
 70
0
 10
0.0
 20
0.0
 30
0.0
  3
*Paper_Space
  1

  0
ENDBLK
  5
1D
100
AcDbEntity
  8
0
100
AcDbBlockEnd
  0
BLOCK
  5
216
100
AcDbEntity
  8
0
100
AcDbBlockBegin
  2
_FILLED
 70
64
 10
0.0
 20
0.0
  3
_FILLED
  1

  0
SOLID
  5
217
100
AcDbEntity
  8
0
  6
BYBLOCK
 62
0
100
AcDbTrace
 10
0.0
 20
0.0
 11
-1.0
 21
0.25
 12
-1.0
 22
-0.25
 13
-1.0
 23
-0.25
  0
ENDBLK
  5
218
100
AcDbEntity
  8
0
  6
BYBLOCK
 62
0
100
AcDbBlockEnd
  0
ENDSEC
  0
SECTION
  2
ENTITIES
  0
LINE
  5
219
100
AcDbEntity
  8
0
100
AcDbLine
 62
7
  6
BYLAYER
 10
470.2498169606
 20
95.3974491167
 11
465.6499936583
 21
95.3974491167
  0
LINE
  5
21A
100
AcDbEntity
  8
0
100
AcDbLine
 62
7
  6
BYLAYER
 10
430.2498050874
 20
95.3974491167
 11
425.6499817851
 21
95.3974491167
  0
LINE
  5
21B
100
AcDbEntity
  8
0
100
AcDbLine
 62
7
  6
BYLAYER
 10
477.4494022699
 20
95.4973389782
 11
470.6226952201
 21
95.4973389782
  0
LINE
  5
21C
100
AcDbEntity
  8
0
100
AcDbLine
 62
7
  6
BYLAYER
 10
424.4494022699
 20
95.4973389782
 11
425.277095025
 21
95.4973389782
  0
LINE
  5
21D
100
AcDbEntity
  8
0
100
AcDbLine
 62
7
  6
BYLAYER
 10
430.622683347
 20
95.4973389782
 11
465.2771068982
 21
95.4973389782
  0
LINE
  5
21E
100
AcDbEntity
  8
0
100
AcDbLine
 62
7
  6
BYLAYER
 10
455.09085045
 20
95.9973389782
 11
446.8089186158
 21
95.9973389782
  0
LINE
  5
21F
100
AcDbEntity
  8
0
100
AcDbLine
 62
7
  6
BYLAYER
 10
471.2499010592
 20
96.3974491167
 11
464.6499010592
 21
96.3974491167
  0
LINE
  5
220
100
AcDbEntity
  8
0
100
AcDbLine
 62
7
  6
BYLAYER
 10
431.249889186
 20
96.3974491167
 11
424.649889186
 21
96.3974491167
  0
LINE
  5
221
100
AcDbEntity
  8
0
100
AcDbLine
 62
7
  6
BYLAYER
 10
478.4494022699
 20
96.4973389782
 11
471.2499010592
 21
96.4973389782
  0
LINE
  5
222
100
AcDbEntity
  8
0
100
AcDbLine
 62
7
  6
BYLAYER
 10
464.6499010592
 20
96.4973389782
 11
454.9494022699
 21
96.4973389849
  0
LINE
  5
223
100
AcDbEntity
  8
0
100
AcDbLine
 62
7
  6
BYLAYER
 10
446.9494022699
 20
96.4973389783
 11
431.249889186
 21
96.4973389782
  0
LINE
  5
224
100
AcDbEntity
  8
0
100
AcDbLine
 62
7
  6
BYLAYER
 10
424.649889186
 20
96.4973389782
 11
423.4494022699
 21
96.4973389782
  0
LINE
  5
225
100
AcDbEntity
  8
0
100
AcDbLine
 62
7
  6
BYLAYER
 10
423.4494022699
 20
97.4973389093
 11
424.649889186
 21
97.4973389782
  0
LINE
  5
226
100
AcDbEntity
  8
0
100
AcDbLine
 62
7
  6
BYLAYER
 10
431.249889186
 20
97.4973389782
 11
432.4494022699
 21
97.4973389092
  0
LINE
  5
227
100
AcDbEntity
  8
0
100
AcDbLine
 62
7
  6
BYLAYER
 10
463.4494022699
 20
97.4973389093
 11
464.6499010592
 21
97.4973389782
  0
LINE
  5
228
100
AcDbEntity
  8
0
100
AcDbLine
 62
7
  6
BYLAYER
 10
471.2499010592
 20
97.4973389782
 11
471.8617174788
 21
97.4973389782
  0
LINE
  5
229
100
AcDbEntity
  8
0
100
AcDbLine
 62
7
  6
BYLAYER
 10
423.9494022699
 20
97.9973389782
 11
430.9494022699
 21
97.9973389782
  0
LINE
  5
22A
100
AcDbEntity
  8
0
100
AcDbLine
 62
7
  6
BYLAYER
 10
464.9494022699
 20
97.9973389782
 11
471.4991557624
 21
97.9973389782
  0
LINE
  5
22B
100
AcDbEntity
  8
0
100
AcDbLine
 62
7
  6
BYLAYER
 10
473.3614839618
 20
98.4973389782
 11
464.9494022699
 21
98.4973389782
  0
LINE
  5
22C
100
AcDbEntity
  8
0
100
AcDbLine
 62
7
  6
BYLAYER
 10
430.9494022699
 20
98.4973389782
 11
423.4494022699
 21
98.4973389782
  0
LINE
  5
22D
100
AcDbEntity
  8
0
100
AcDbLine
 62
7
  6
BYLAYER
 10
423.4494022699
 20
112.9973389782
 11
446.9494022699
 21
112.9973389782
  0
LINE
  5
22E
100
AcDbEntity
  8
0
100
AcDbLine
 62
7
  6
BYLAYER
 10
446.9499010592
 20
112.9973389782
 11
478.4494022699
 21
112.9973389782
  0
LINE
  5
22F
100
AcDbEntity
  8
3
100
AcDbLine
 62
7
  6
BYLAYER
 10
423.4498837443
 20
112.9974619252
 11
478.4499010592
 21
112.9974619252
  0
LINE
  5
230
100
AcDbEntity
  8
3
100
AcDbLine
 62
7
  6
BYLAYER
 10
378.2079821921
 20
140.3456242399
 11
423.2079821921
 21
140.3456242399
  0
LINE
  5
231
100
AcDbEntity
  8
3
100
AcDbLine
 62
7
  6
BYLAYER
 10
418.8712675082
 20
143.9931242399
 11
420.11586677
 21
143.9931242399
  0
LINE
  5
232
100
AcDbEntity
  8
3
100
AcDbLine
 62
7
  6
BYLAYER
 10
423.2079821921
 20
145.3456242399
 11
420.2079821921
 21
145.3456242399
  0
LINE
  5
233
100
AcDbEntity
  8
3
100
AcDbLine
 62
7
  6
BYLAYER
 10
418.7677825743
 20
145.6690870595
 11
415.7677825743
 21
145.6690870595
  0
LINE
  5
234
100
AcDbEntity
  8
3
100
AcDbLine
 62
7
  6
BYLAYER
 10
381.4079821921
 20
147.0956242399
 11
394.9079821921
 21
147.0956242399
  0
LINE
  5
235
100
AcDbEntity
  8
3
100
AcDbLine
 62
7
  6
BYLAYER
 10
411.4973271668
 20
147.3456242399
 11
415.7677825743
 21
147.3456242399
  0
LINE
  5
236
100
AcDbEntity
  8
3
100
AcDbLine
 62
7
  6
BYLAYER
 10
418.7677825743
 20
147.3456242399
 11
418.8712675082
 21
147.3456242399
  0
LINE
  5
237
100
AcDbEntity
  8
3
100
AcDbLine
 62
7
  6
BYLAYER
 10
420.11586677
 20
147.3456242399
 11
420.2079821921
 21
147.3456242399
  0
LINE
  5
238
100
AcDbEntity
  8
3
100
AcDbLine
 62
7
  6
BYLAYER
 10
423.2079821921
 20
147.3456242399
 11
423.4498837443
 21
147.3456242399
  0
LINE
  5
239
100
AcDbEntity
  8
3
100
AcDbLine
 62
7
  6
BYLAYER
 10
418.7677825743
 20
150.3456242399
 11
415.7677825743
 21
150.3456242399
  0
LINE
  5
23A
100
AcDbEntity
  8
3
100
AcDbLine
 62
7
  6
BYLAYER
 10
411.4973271668
 20
153.3456242399
 11
415.7677825743
 21
153.3456242399
  0
LINE
  5
23B
100
AcDbEntity
  8
3
100
AcDbLine
 62
7
  6
BYLAYER
 10
418.7677825743
 20
153.3456242399
 11
418.8712675082
 21
153.3456242399
  0
LINE
  5
23C
100
AcDbEntity
  8
3
100
AcDbLine
 62
7
  6
BYLAYER
 10
420.11586677
 20
153.3456242399
 11
420.2079821921
 21
153.3456242399
  0
LINE
  5
23D
100
AcDbEntity
  8
3
100
AcDbLine
 62
7
  6
BYLAYER
 10
423.2079821921
 20
153.3456242399
 11
423.4498837443
 21
153.3456242399
  0
LINE
  5
23E
100
AcDbEntity
  8
3
100
AcDbLine
 62
7
  6
BYLAYER
 10
394.9079821921
 20
153.5956242399
 11
381.4079821921
 21
153.5956242399
  0
LINE
  5
23F
100
AcDbEntity
  8
3
100
AcDbLine
 62
7
  6
BYLAYER
 10
418.7677825743
 20
155.0221614204
 11
415.7677825743
 21
155.0221614204
  0
LINE
  5
240
100
AcDbEntity
  8
3
100
AcDbLine
 62
7
  6
BYLAYER
 10
420.11586677
 20
156.6981242399
 11
418.8712675082
 21
156.6981242399
  0
LINE
  5
241
100
AcDbEntity
  8
3
100
AcDbLine
 62
7
  6
BYLAYER
 10
418.8712675082
 20
173.9931242399
 11
420.11586677
 21
173.9931242399
  0
LINE
  5
242
100
AcDbEntity
  8
3
100
AcDbLine
 62
7
  6
BYLAYER
 10
418.7677825743
 20
175.6690870595
 11
415.7677825743
 21
175.6690870595
  0
LINE
  5
243
100
AcDbEntity
  8
3
100
AcDbLine
 62
7
  6
BYLAYER
 10
381.4079821921
 20
177.0956242399
 11
394.9079821921
 21
177.0956242399
  0
LINE
  5
244
100
AcDbEntity
  8
3
100
AcDbLine
 62
7
  6
BYLAYER
 10
411.4973271668
 20
177.3456242399
 11
415.7677825743
 21
177.3456242399
  0
LINE
  5
245
100
AcDbEntity
  8
3
100
AcDbLine
 62
7
  6
BYLAYER
 10
418.7677825743
 20
177.3456242399
 11
418.8712675082
 21
177.3456242399
  0
LINE
  5
246
100
AcDbEntity
  8
3
100
AcDbLine
 62
7
  6
BYLAYER
 10
420.11586677
 20
177.3456242399
 11
420.2079821921
 21
177.3456242399
  0
LINE
  5
247
100
AcDbEntity
  8
3
100
AcDbLine
 62
7
  6
BYLAYER
 10
423.2079821921
 20
177.3456242399
 11
423.4498837443
 21
177.3456242399
  0
LINE
  5
248
100
AcDbEntity
  8
3
100
AcDbLine
 62
7
  6
BYLAYER
 10
418.7677825743
 20
180.3456242399
 11
415.7677825743
 21
180.3456242399
  0
LINE
  5
249
100
AcDbEntity
  8
3
100
AcDbLine
 62
7
  6
BYLAYER
 10
411.4973271668
 20
183.3456242399
 11
415.7677825743
 21
183.3456242399
  0
LINE
  5
24A
100
AcDbEntity
  8
3
100
AcDbLine
 62
7
  6
BYLAYER
 10
418.7677825743
 20
183.3456242399
 11
418.8712675082
 21
183.3456242399
  0
LINE
  5
24B
100
AcDbEntity
  8
3
100
AcDbLine
 62
7
  6
BYLAYER
 10
420.11586677
 20
183.3456242399
 11
420.2079821921
 21
183.3456242399
  0
LINE
  5
24C
100
AcDbEntity
  8
3
100
AcDbLine
 62
7
  6
BYLAYER
 10
423.2079821921
 20
183.3456242399
 11
423.4498837443
 21
183.3456242399
  0
LINE
  5
24D
100
AcDbEntity
  8
3
100
AcDbLine
 62
7
  6
BYLAYER
 10
394.9079821921
 20
183.5956242399
 11
381.4079821921
 21
183.5956242399
  0
LINE
  5
24E
100
AcDbEntity
  8
3
100
AcDbLine
 62
7
  6
BYLAYER
 10
418.7677825743
 20
185.0221614204
 11
415.7677825743
 21
185.0221614204
  0
LINE
  5
24F
100
AcDbEntity
  8
3
100
AcDbLine
 62
7
  6
BYLAYER
 10
420.2079821921
 20
185.3456242399
 11
423.2079821921
 21
185.3456242399
  0
LINE
  5
250
100
AcDbEntity
  8
3
100
AcDbLine
 62
7
  6
BYLAYER
 10
420.11586677
 20
186.6981242399
 11
418.8712675082
 21
186.6981242399
  0
LINE
  5
251
100
AcDbEntity
  8
3
100
AcDbLine
 62
7
  6
BYLAYER
 10
378.2079821921
 20
190.3456242399
 11
423.2079821921
 21
190.3456242399
  0
LINE
  5
252
100
AcDbEntity
  8
0
100
AcDbLine
 62
7
  6
BYLAYER
 10
431.1996430071
 20
1074.9974491167
 11
431.6996430071
 21
1075.4974491167
  0
LINE
  5
253
100
AcDbEntity
  8
0
100
AcDbLine
 62
7
  6
BYLAYER
 10
455.4496414592
 20
1078.9974497272
 11
455.9496424429
 21
1079.4974505311
  0
LINE
  5
254
100
AcDbEntity
  8
0
100
AcDbLine
 62
7
  6
BYLAYER
 10
453.6996430071
 20
1074.9974491167
 11
454.1996430071
 21
1075.4974491167
  0
LINE
  5
255
100
AcDbEntity
  8
3
100
AcDbLine
 62
7
  6
BYLAYER
 10
373.2079821921
 20
1021.6805267008
 11
373.2079821921
 21
981.6805267008
  0
LINE
  5
256
100
AcDbEntity
  8
3
100
AcDbLine
 62
7
  6
BYLAYER
 10
373.2079821921
 20
185.3456242399
 11
373.2079821921
 21
145.3456242399
  0
LINE
  5
257
100
AcDbEntity
  8
3
100
AcDbLine
 62
7
  6
BYLAYER
 10
411.4973271668
 20
147.3457472159
 11
411.4973271668
 21
153.345501264
  0
LINE
  5
258
100
AcDbEntity
  8
3
100
AcDbLine
 62
7
  6
BYLAYER
 10
411.4973271668
 20
177.3457472159
 11
411.4973271668
 21
183.345501264
  0
LINE
  5
259
100
AcDbEntity
  8
3
100
AcDbLine
 62
7
  6
BYLAYER
 10
411.4973271668
 20
983.6806496767
 11
411.4973271668
 21
989.6804037248
  0
LINE
  5
25A
100
AcDbEntity
  8
3
100
AcDbLine
 62
7
  6
BYLAYER
 10
411.4973271668
 20
1013.6806496767
 11
411.4973271668
 21
1019.6804037248
  0
LINE
  5
25B
100
AcDbEntity
  8
3
100
AcDbLine
 62
7
  6
BYLAYER
 10
415.7677825743
 20
145.6690870595
 11
415.7677825743
 21
155.0221614204
  0
LINE
  5
25C
100
AcDbEntity
  8
3
100
AcDbLine
 62
7
  6
BYLAYER
 10
415.7677825743
 20
175.6690870595
 11
415.7677825743
 21
185.0221614204
  0
LINE
  5
25D
100
AcDbEntity
  8
3
100
AcDbLine
 62
7
  6
BYLAYER
 10
415.7677825743
 20
982.0039895203
 11
415.7677825743
 21
991.3570638812
  0
LINE
  5
25E
100
AcDbEntity
  8
3
100
AcDbLine
 62
7
  6
BYLAYER
 10
415.7677825743
 20
1012.0039895203
 11
415.7677825743
 21
1021.3570638812
  0
LINE
  5
25F
100
AcDbEntity
  8
3
100
AcDbLine
 62
7
  6
BYLAYER
 10
416.2079821921
 20
1026.6805267008
 11
416.2079821921
 21
1021.3570638812
  0
LINE
  5
260
100
AcDbEntity
  8
3
100
AcDbLine
 62
7
  6
BYLAYER
 10
416.2079821921
 20
1012.0039895203
 11
416.2079821921
 21
991.3570638812
  0
LINE
  5
261
100
AcDbEntity
  8
3
100
AcDbLine
 62
7
  6
BYLAYER
 10
416.2079821921
 20
982.0039895203
 11
416.2079821921
 21
976.6805267008
  0
LINE
  5
262
100
AcDbEntity
  8
3
100
AcDbLine
 62
7
  6
BYLAYER
 10
416.2079821921
 20
190.3456242399
 11
416.2079821921
 21
185.0221614204
  0
LINE
  5
263
100
AcDbEntity
  8
3
100
AcDbLine
 62
7
  6
BYLAYER
 10
416.2079821921
 20
175.6690870595
 11
416.2079821921
 21
155.0221614204
  0
LINE
  5
264
100
AcDbEntity
  8
3
100
AcDbLine
 62
7
  6
BYLAYER
 10
416.2079821921
 20
145.6690870595
 11
416.2079821921
 21
140.3456242399
  0
LINE
  5
265
100
AcDbEntity
  8
3
100
AcDbLine
 62
7
  6
BYLAYER
 10
418.7677825743
 20
1021.3570638812
 11
418.7677825743
 21
1012.0039895203
  0
LINE
  5
266
100
AcDbEntity
  8
3
100
AcDbLine
 62
7
  6
BYLAYER
 10
418.7677825743
 20
991.3570638812
 11
418.7677825743
 21
982.0039895203
  0
LINE
  5
267
100
AcDbEntity
  8
3
100
AcDbLine
 62
7
  6
BYLAYER
 10
418.7677825743
 20
185.0221614204
 11
418.7677825743
 21
175.6690870595
  0
LINE
  5
268
100
AcDbEntity
  8
3
100
AcDbLine
 62
7
  6
BYLAYER
 10
418.7677825743
 20
155.0221614204
 11
418.7677825743
 21
145.6690870595
  0
LINE
  5
269
100
AcDbEntity
  8
3
100
AcDbLine
 62
7
  6
BYLAYER
 10
418.8712675082
 20
143.9931242399
 11
418.8712675082
 21
156.6981242399
  0
LINE
  5
26A
100
AcDbEntity
  8
3
100
AcDbLine
 62
7
  6
BYLAYER
 10
418.8712675082
 20
173.9931242399
 11
418.8712675082
 21
186.6981242399
  0
LINE
  5
26B
100
AcDbEntity
  8
3
100
AcDbLine
 62
7
  6
BYLAYER
 10
418.8712675082
 20
980.3280267008
 11
418.8712675082
 21
993.0330267008
  0
LINE
  5
26C
100
AcDbEntity
  8
3
100
AcDbLine
 62
7
  6
BYLAYER
 10
418.8712675082
 20
1010.3280267008
 11
418.8712675082
 21
1023.0330267008
  0
LINE
  5
26D
100
AcDbEntity
  8
3
100
AcDbLine
 62
7
  6
BYLAYER
 10
420.11586677
 20
1023.0330267008
 11
420.11586677
 21
1010.3280267008
  0
LINE
  5
26E
100
AcDbEntity
  8
3
100
AcDbLine
 62
7
  6
BYLAYER
 10
420.11586677
 20
993.0330267008
 11
420.11586677
 21
980.3280267008
  0
LINE
  5
26F
100
AcDbEntity
  8
3
100
AcDbLine
 62
7
  6
BYLAYER
 10
420.11586677
 20
186.6981242399
 11
420.11586677
 21
173.9931242399
  0
LINE
  5
270
100
AcDbEntity
  8
3
100
AcDbLine
 62
7
  6
BYLAYER
 10
420.11586677
 20
156.6981242399
 11
420.11586677
 21
143.9931242399
  0
LINE
  5
271
100
AcDbEntity
  8
3
100
AcDbLine
 62
7
  6
BYLAYER
 10
420.2079821921
 20
140.3456242399
 11
420.2079821921
 21
190.3456242399
  0
LINE
  5
272
100
AcDbEntity
  8
3
100
AcDbLine
 62
7
  6
BYLAYER
 10
420.2079821921
 20
976.6805267008
 11
420.2079821921
 21
1026.6805267008
  0
LINE
  5
273
100
AcDbEntity
  8
3
100
AcDbLine
 62
7
  6
BYLAYER
 10
423.2079821921
 20
1026.6805267008
 11
423.2079821921
 21
976.6805267008
  0
LINE
  5
274
100
AcDbEntity
  8
3
100
AcDbLine
 62
7
  6
BYLAYER
 10
423.2079821921
 20
190.3456242399
 11
423.2079821921
 21
140.3456242399
  0
LINE
  5
275
100
AcDbEntity
  8
0
100
AcDbLine
 62
7
  6
BYLAYER
 10
423.4494022699
 20
96.4973389782
 11
423.4494022699
 21
112.9973389782
  0
LINE
  5
276
100
AcDbEntity
  8
0
100
AcDbLine
 62
7
  6
BYLAYER
 10
423.4496430071
 20
1065.9974491167
 11
423.4496430071
 21
1051.4974491167
  0
LINE
  5
277
100
AcDbEntity
  8
0
100
AcDbLine
 62
7
  6
BYLAYER
 10
423.4496430071
 20
1067.9974491167
 11
423.4496430071
 21
1066.0094391628
  0
LINE
  5
278
100
AcDbEntity
  8
3
100
AcDbLine
 62
7
  6
BYLAYER
 10
423.4498837443
 20
1051.4974619252
 11
423.4498837443
 21
112.9974619252
  0
LINE
  5
279
100
AcDbEntity
  8
0
100
AcDbLine
 62
7
  6
BYLAYER
 10
424.4494022699
 20
95.4973389782
 11
424.4494022683
 21
97.4973389782
  0
LINE
  5
27A
100
AcDbEntity
  8
0
100
AcDbLine
 62
7
  6
BYLAYER
 10
424.4496430054
 20
1066.9974491167
 11
424.4496430071
 21
1068.9974491167
  0
LINE
  5
27B
100
AcDbEntity
  8
0
100
AcDbLine
 62
7
  6
BYLAYER
 10
424.6496430071
 20
1066.4974491167
 11
424.6496430071
 21
1068.0974491167
  0
LINE
  5
27C
100
AcDbEntity
  8
0
100
AcDbLine
 62
7
  6
BYLAYER
 10
424.649889186
 20
97.9974491167
 11
424.649889186
 21
96.3974491167
  0
LINE
  5
27D
100
AcDbEntity
  8
0
100
AcDbLine
 62
7
  6
BYLAYER
 10
427.4494022699
 20
97.9973389782
 11
427.4494022699
 21
112.9973389782
  0
LINE
  5
27E
100
AcDbEntity
  8
0
100
AcDbLine
 62
7
  6
BYLAYER
 10
427.4496430071
 20
1051.4974491167
 11
427.4496430071
 21
1066.4974491167
  0
LINE
  5
27F
100
AcDbEntity
  8
3
100
AcDbLine
 62
7
  6
BYLAYER
 10
427.4498837443
 20
112.9974619252
 11
427.4498837443
 21
1051.4974619252
  0
LINE
  5
280
100
AcDbEntity
  8
0
100
AcDbLine
 62
7
  6
BYLAYER
 10
430.9494021974
 20
98.4973389782
 11
430.9494021974
 21
97.9973389782
  0
LINE
  5
281
100
AcDbEntity
  8
0
100
AcDbLine
 62
7
  6
BYLAYER
 10
430.9496429343
 20
1066.4974491167
 11
430.9496429343
 21
1065.9974491167
  0
LINE
  5
282
100
AcDbEntity
  8
0
100
AcDbLine
 62
7
  6
BYLAYER
 10
431.1996430071
 20
1068.9974491167
 11
431.1996430071
 21
1074.9974491167
  0
LINE
  5
283
100
AcDbEntity
  8
0
100
AcDbLine
 62
7
  6
BYLAYER
 10
431.2496430071
 20
1066.6016315515
 11
431.2496430071
 21
1068.0974491167
  0
LINE
  5
284
100
AcDbEntity
  8
0
100
AcDbLine
 62
7
  6
BYLAYER
 10
431.249889186
 20
97.8952531855
 11
431.249889186
 21
96.3974491167
  0
LINE
  5
285
100
AcDbEntity
  8
0
100
AcDbLine
 62
7
  6
BYLAYER
 10
431.4494022699
 20
97.4973389782
 11
431.4494022699
 21
96.4973389782
  0
LINE
  5
286
100
AcDbEntity
  8
0
100
AcDbLine
 62
7
  6
BYLAYER
 10
431.4496430071
 20
1067.9974491167
 11
431.4496430071
 21
1066.9974491167
  0
LINE
  5
287
100
AcDbEntity
  8
0
100
AcDbLine
 62
7
  6
BYLAYER
 10
432.4494022699
 20
95.4973389782
 11
432.4494022699
 21
97.4973389782
  0
LINE
  5
288
100
AcDbEntity
  8
0
100
AcDbLine
 62
7
  6
BYLAYER
 10
432.4496430071
 20
1066.9974491167
 11
432.4496430071
 21
1068.9974491167
  0
LINE
  5
289
100
AcDbEntity
  8
0
100
AcDbLine
 62
7
  6
BYLAYER
 10
434.8259030071
 20
1076.6974491167
 11
434.8259030071
 21
1075.4974491167
  0
LINE
  5
28A
100
AcDbEntity
  8
0
100
AcDbLine
 62
7
  6
BYLAYER
 10
443.0759030071
 20
1076.6974491167
 11
443.0759030071
 21
1075.4974491167
  0
LINE
  5
28B
100
AcDbEntity
  8
0
100
AcDbLine
 62
7
  6
BYLAYER
 10
446.4494022699
 20
112.9973389782
 11
446.4494022699
 21
96.4973389782
  0
LINE
  5
28C
100
AcDbEntity
  8
0
100
AcDbLine
 62
7
  6
BYLAYER
 10
446.4496430071
 20
1067.9974491167
 11
446.4496430071
 21
1051.4974491167
  0
LINE
  5
28D
100
AcDbEntity
  8
3
100
AcDbLine
 62
7
  6
BYLAYER
 10
446.4499010592
 20
1051.4974619252
 11
446.4499010592
 21
112.9974619252
  0
LINE
  5
28E
100
AcDbEntity
  8
0
100
AcDbLine
 62
7
  6
BYLAYER
 10
446.6996430071
 20
1068.9974491167
 11
446.6996430071
 21
1074.9974491167
  0
LINE
  5
28F
100
AcDbEntity
  8
0
100
AcDbLine
 62
7
  6
BYLAYER
 10
446.9494022699
 20
96.4973389783
 11
446.9494022699
 21
112.9973389782
  0
LINE
  5
290
100
AcDbEntity
  8
0
100
AcDbLine
 62
7
  6
BYLAYER
 10
446.9496430071
 20
1051.4974491167
 11
446.9496430071
 21
1067.9974491166
  0
LINE
  5
291
100
AcDbEntity
  8
3
100
AcDbLine
 62
7
  6
BYLAYER
 10
446.9499010592
 20
112.9974619252
 11
446.9499010592
 21
1051.4974619252
  0
LINE
  5
292
100
AcDbEntity
  8
0
100
AcDbLine
 62
7
  6
BYLAYER
 10
453.6996430071
 20
1068.9974491167
 11
453.6996430071
 21
1074.9974491167
  0
LINE
  5
293
100
AcDbEntity
  8
0
100
AcDbLine
 62
7
  6
BYLAYER
 10
454.9494022699
 20
112.9973389782
 11
454.9494022699
 21
96.4973389783
  0
LINE
  5
294
100
AcDbEntity
  8
0
100
AcDbLine
 62
7
  6
BYLAYER
 10
454.9496430071
 20
1067.9974491167
 11
454.9496430071
 21
1051.4974491167
  0
LINE
  5
295
100
AcDbEntity
  8
3
100
AcDbLine
 62
7
  6
BYLAYER
 10
454.9499010592
 20
1051.4974619252
 11
454.9499010592
 21
112.9974619252
  0
LINE
  5
296
100
AcDbEntity
  8
0
100
AcDbLine
 62
7
  6
BYLAYER
 10
455.4494022699
 20
96.4973389782
 11
455.4494022699
 21
112.9973389782
  0
LINE
  5
297
100
AcDbEntity
  8
0
100
AcDbLine
 62
7
  6
BYLAYER
 10
455.4496430071
 20
1051.4974491167
 11
455.4496430071
 21
1067.9974491167
  0
LINE
  5
298
100
AcDbEntity
  8
0
100
AcDbLine
 62
7
  6
BYLAYER
 10
455.4496430071
 20
1075.4974491167
 11
455.4496430071
 21
1078.9974481793
  0
LINE
  5
299
100
AcDbEntity
  8
3
100
AcDbLine
 62
7
  6
BYLAYER
 10
455.4499010592
 20
112.9974619252
 11
455.4499010592
 21
1051.4974619252
  0
LINE
  5
29A
100
AcDbEntity
  8
0
100
AcDbLine
 62
7
  6
BYLAYER
 10
457.3252230071
 20
1076.6974491167
 11
457.3252230071
 21
1075.4974491167
  0
LINE
  5
29B
100
AcDbEntity
  8
0
100
AcDbLine
 62
7
  6
BYLAYER
 10
463.4494022699
 20
97.4973389782
 11
463.4494022699
 21
95.4973389782
  0
LINE
  5
29C
100
AcDbEntity
  8
0
100
AcDbLine
 62
7
  6
BYLAYER
 10
463.4496430071
 20
1068.9974491167
 11
463.4496430071
 21
1066.9974491167
  0
LINE
  5
29D
100
AcDbEntity
  8
0
100
AcDbLine
 62
7
  6
BYLAYER
 10
464.4494022699
 20
96.4973389782
 11
464.4494022699
 21
97.4973389782
  0
LINE
  5
29E
100
AcDbEntity
  8
0
100
AcDbLine
 62
7
  6
BYLAYER
 10
464.4496430071
 20
1066.9974491167
 11
464.4496430071
 21
1067.9974491167
  0
LINE
  5
29F
100
AcDbEntity
  8
0
100
AcDbLine
 62
7
  6
BYLAYER
 10
464.6496430071
 20
1066.5990479934
 11
464.6496430071
 21
1068.0974491167
  0
LINE
  5
2A0
100
AcDbEntity
  8
0
100
AcDbLine
 62
7
  6
BYLAYER
 10
464.6499010592
 20
97.8962388908
 11
464.6499010592
 21
96.3974491167
  0
LINE
  5
2A1
100
AcDbEntity
  8
0
100
AcDbLine
 62
7
  6
BYLAYER
 10
464.9494023428
 20
97.9973389782
 11
464.9494023428
 21
98.4973389782
  0
LINE
  5
2A2
100
AcDbEntity
  8
0
100
AcDbLine
 62
7
  6
BYLAYER
 10
464.9496430746
 20
1065.9974491167
 11
464.9496430746
 21
1066.4974491167
  0
LINE
  5
2A3
100
AcDbEntity
  8
0
100
AcDbLine
 62
7
  6
BYLAYER
 10
465.5153952052
 20
1075.4974491167
 11
465.5153952052
 21
1076.6974491167
  0
LINE
  5
2A4
100
AcDbEntity
  8
0
100
AcDbLine
 62
7
  6
BYLAYER
 10
467.4496430071
 20
1075.4974491167
 11
467.4496430071
 21
1078.9974481793
  0
LINE
  5
2A5
100
AcDbEntity
  8
0
100
AcDbLine
 62
7
  6
BYLAYER
 10
469.1996430071
 20
1069.0974491167
 11
469.1996430071
 21
1074.9974491167
  0
LINE
  5
2A6
100
AcDbEntity
  8
0
100
AcDbLine
 62
7
  6
BYLAYER
 10
470.0488528235
 20
112.9973389782
 11
470.0488528235
 21
97.9973389782
  0
LINE
  5
2A7
100
AcDbEntity
  8
0
100
AcDbLine
 62
7
  6
BYLAYER
 10
470.0490935607
 20
1066.4974491167
 11
470.0490935607
 21
1051.4974491167
  0
LINE
  5
2A8
100
AcDbEntity
  8
3
100
AcDbLine
 62
7
  6
BYLAYER
 10
470.0493516128
 20
1051.4974619252
 11
470.0493516128
 21
112.9974619252
  0
LINE
  5
2A9
100
AcDbEntity
  8
0
100
AcDbLine
 62
7
  6
BYLAYER
 10
471.2496430071
 20
1066.5990479934
 11
471.2496430071
 21
1068.0974491167
  0
LINE
  5
2AA
100
AcDbEntity
  8
0
100
AcDbLine
 62
7
  6
BYLAYER
 10
471.2499010592
 20
97.8952413123
 11
471.2499010592
 21
96.3974491167
  0
LINE
  5
2AB
100
AcDbEntity
  8
0
100
AcDbLine
 62
7
  6
BYLAYER
 10
471.4494022699
 20
97.4973389782
 11
471.4494022699
 21
96.4973389782
  0
LINE
  5
2AC
100
AcDbEntity
  8
0
100
AcDbLine
 62
7
  6
BYLAYER
 10
471.4496430071
 20
1067.9974491167
 11
471.4496430071
 21
1066.9974491167
  0
LINE
  5
2AD
100
AcDbEntity
  8
0
100
AcDbLine
 62
7
  6
BYLAYER
 10
472.7960641025
 20
98.4973389782
 11
472.7960641025
 21
112.9973389782
  0
LINE
  5
2AE
100
AcDbEntity
  8
0
100
AcDbLine
 62
7
  6
BYLAYER
 10
472.7963048397
 20
1051.4974491167
 11
472.7963048397
 21
1065.9974491167
  0
LINE
  5
2AF
100
AcDbEntity
  8
3
100
AcDbLine
 62
7
  6
BYLAYER
 10
472.7965628918
 20
112.9974619252
 11
472.7965628918
 21
1051.4974619252
  0
LINE
  5
2B0
100
AcDbEntity
  8
0
100
AcDbLine
 62
7
  6
BYLAYER
 10
473.3614839618
 20
96.4973389782
 11
473.3614839618
 21
98.4973389782
  0
LINE
  5
2B1
100
AcDbEntity
  8
0
100
AcDbLine
 62
7
  6
BYLAYER
 10
473.361724699
 20
1065.9974491167
 11
473.361724699
 21
1067.9974491167
  0
LINE
  5
2B2
100
AcDbEntity
  8
0
100
AcDbLine
 62
7
  6
BYLAYER
 10
476.9988445257
 20
112.9973389782
 11
476.9988445257
 21
96.4973389782
  0
LINE
  5
2B3
100
AcDbEntity
  8
0
100
AcDbLine
 62
7
  6
BYLAYER
 10
476.9990852629
 20
1067.9974491167
 11
476.9990852629
 21
1051.4974491167
  0
LINE
  5
2B4
100
AcDbEntity
  8
3
100
AcDbLine
 62
7
  6
BYLAYER
 10
476.9993433149
 20
1051.4974619252
 11
476.9993433149
 21
112.9974619252
  0
LINE
  5
2B5
100
AcDbEntity
  8
0
100
AcDbLine
 62
7
  6
BYLAYER
 10
478.4494022699
 20
96.4973389782
 11
478.4494022699
 21
112.9973389782
  0
LINE
  5
2B6
100
AcDbEntity
  8
0
100
AcDbLine
 62
7
  6
BYLAYER
 10
478.4496430071
 20
1051.4974491167
 11
478.4496430071
 21
1067.9974491167
  0
LINE
  5
2B7
100
AcDbEntity
  8
3
100
AcDbLine
 62
7
  6
BYLAYER
 10
478.4499010592
 20
1051.4974619252
 11
478.4499010592
 21
112.9974619252
  0
LINE
  5
2B8
100
AcDbEntity
  8
0
100
AcDbLine
 62
7
  6
BYLAYER
 10
446.1996430071
 20
1075.4974491167
 11
446.6996430071
 21
1074.9974491167
  0
LINE
  5
2B9
100
AcDbEntity
  8
3
100
AcDbLine
 62
7
  6
BYLAYER
 10
378.2079821921
 20
976.6805267008
 11
423.2079821921
 21
976.6805267008
  0
LINE
  5
2BA
100
AcDbEntity
  8
3
100
AcDbLine
 62
7
  6
BYLAYER
 10
418.8712675082
 20
980.3280267008
 11
420.11586677
 21
980.3280267008
  0
LINE
  5
2BB
100
AcDbEntity
  8
3
100
AcDbLine
 62
7
  6
BYLAYER
 10
423.2079821921
 20
981.6805267008
 11
420.2079821921
 21
981.6805267008
  0
LINE
  5
2BC
100
AcDbEntity
  8
3
100
AcDbLine
 62
7
  6
BYLAYER
 10
418.7677825743
 20
982.0039895203
 11
415.7677825743
 21
982.0039895203
  0
LINE
  5
2BD
100
AcDbEntity
  8
3
100
AcDbLine
 62
7
  6
BYLAYER
 10
381.4079821921
 20
983.4305267008
 11
394.9079821921
 21
983.4305267008
  0
LINE
  5
2BE
100
AcDbEntity
  8
3
100
AcDbLine
 62
7
  6
BYLAYER
 10
411.4973271668
 20
983.6805267008
 11
415.7677825743
 21
983.6805267008
  0
LINE
  5
2BF
100
AcDbEntity
  8
3
100
AcDbLine
 62
7
  6
BYLAYER
 10
418.7677825743
 20
983.6805267008
 11
418.8712675082
 21
983.6805267008
  0
LINE
  5
2C0
100
AcDbEntity
  8
3
100
AcDbLine
 62
7
  6
BYLAYER
 10
420.11586677
 20
983.6805267008
 11
420.2079821921
 21
983.6805267008
  0
LINE
  5
2C1
100
AcDbEntity
  8
3
100
AcDbLine
 62
7
  6
BYLAYER
 10
423.2079821921
 20
983.6805267008
 11
423.4498837443
 21
983.6805267008
  0
LINE
  5
2C2
100
AcDbEntity
  8
3
100
AcDbLine
 62
7
  6
BYLAYER
 10
418.7677825743
 20
986.6805267008
 11
415.7677825743
 21
986.6805267008
  0
LINE
  5
2C3
100
AcDbEntity
  8
0
100
AcDbLine
 62
7
  6
BYLAYER
 10
468.6996430071
 20
1075.4974491167
 11
469.1996430071
 21
1074.9974491167
  0
LINE
  5
2C4
100
AcDbEntity
  8
0
100
AcDbLine
 62
7
  6
BYLAYER
 10
466.9496435714
 20
1079.4974505311
 11
467.4496445551
 21
1078.9974497272
  0
LINE
  5
2C5
100
AcDbEntity
  8
3
100
AcDbLine
 62
7
  6
BYLAYER
 10
411.4973271668
 20
989.6805267008
 11
415.7677825743
 21
989.6805267008
  0
LINE
  5
2C6
100
AcDbEntity
  8
3
100
AcDbLine
 62
7
  6
BYLAYER
 10
418.7677825743
 20
989.6805267008
 11
418.8712675082
 21
989.6805267008
  0
LINE
  5
2C7
100
AcDbEntity
  8
3
100
AcDbLine
 62
7
  6
BYLAYER
 10
420.11586677
 20
989.6805267008
 11
420.2079821921
 21
989.6805267008
  0
LINE
  5
2C8
100
AcDbEntity
  8
3
100
AcDbLine
 62
7
  6
BYLAYER
 10
423.2079821921
 20
989.6805267008
 11
423.4498837443
 21
989.6805267008
  0
LINE
  5
2C9
100
AcDbEntity
  8
3
100
AcDbLine
 62
7
  6
BYLAYER
 10
394.9079821921
 20
989.9305267008
 11
381.4079821921
 21
989.9305267008
  0
LINE
  5
2CA
100
AcDbEntity
  8
3
100
AcDbLine
 62
7
  6
BYLAYER
 10
418.7677825743
 20
991.3570638812
 11
415.7677825743
 21
991.3570638812
  0
LINE
  5
2CB
100
AcDbEntity
  8
3
100
AcDbLine
 62
7
  6
BYLAYER
 10
420.11586677
 20
993.0330267008
 11
418.8712675082
 21
993.0330267008
  0
LINE
  5
2CC
100
AcDbEntity
  8
3
100
AcDbLine
 62
7
  6
BYLAYER
 10
418.8712675082
 20
1010.3280267008
 11
420.11586677
 21
1010.3280267008
  0
LINE
  5
2CD
100
AcDbEntity
  8
3
100
AcDbLine
 62
7
  6
BYLAYER
 10
418.7677825743
 20
1012.0039895203
 11
415.7677825743
 21
1012.0039895203
  0
LINE
  5
2CE
100
AcDbEntity
  8
3
100
AcDbLine
 62
7
  6
BYLAYER
 10
381.4079821921
 20
1013.4305267008
 11
394.9079821921
 21
1013.4305267008
  0
LINE
  5
2CF
100
AcDbEntity
  8
3
100
AcDbLine
 62
7
  6
BYLAYER
 10
411.4973271668
 20
1013.6805267008
 11
415.7677825743
 21
1013.6805267008
  0
LINE
  5
2D0
100
AcDbEntity
  8
3
100
AcDbLine
 62
7
  6
BYLAYER
 10
418.7677825743
 20
1013.6805267008
 11
418.8712675082
 21
1013.6805267008
  0
LINE
  5
2D1
100
AcDbEntity
  8
3
100
AcDbLine
 62
7
  6
BYLAYER
 10
420.11586677
 20
1013.6805267008
 11
420.2079821921
 21
1013.6805267008
  0
LINE
  5
2D2
100
AcDbEntity
  8
3
100
AcDbLine
 62
7
  6
BYLAYER
 10
423.2079821921
 20
1013.6805267008
 11
423.4498837443
 21
1013.6805267008
  0
LINE
  5
2D3
100
AcDbEntity
  8
3
100
AcDbLine
 62
7
  6
BYLAYER
 10
418.7677825743
 20
1016.6805267008
 11
415.7677825743
 21
1016.6805267008
  0
LINE
  5
2D4
100
AcDbEntity
  8
3
100
AcDbLine
 62
7
  6
BYLAYER
 10
411.4973271668
 20
1019.6805267008
 11
415.7677825743
 21
1019.6805267008
  0
LINE
  5
2D5
100
AcDbEntity
  8
3
100
AcDbLine
 62
7
  6
BYLAYER
 10
418.7677825743
 20
1019.6805267008
 11
418.8712675082
 21
1019.6805267008
  0
LINE
  5
2D6
100
AcDbEntity
  8
3
100
AcDbLine
 62
7
  6
BYLAYER
 10
420.11586677
 20
1019.6805267008
 11
420.2079821921
 21
1019.6805267008
  0
LINE
  5
2D7
100
AcDbEntity
  8
3
100
AcDbLine
 62
7
  6
BYLAYER
 10
423.2079821921
 20
1019.6805267008
 11
423.4498837443
 21
1019.6805267008
  0
LINE
  5
2D8
100
AcDbEntity
  8
3
100
AcDbLine
 62
7
  6
BYLAYER
 10
394.9079821921
 20
1019.9305267008
 11
381.4079821921
 21
1019.9305267008
  0
LINE
  5
2D9
100
AcDbEntity
  8
3
100
AcDbLine
 62
7
  6
BYLAYER
 10
418.7677825743
 20
1021.3570638812
 11
415.7677825743
 21
1021.3570638812
  0
LINE
  5
2DA
100
AcDbEntity
  8
3
100
AcDbLine
 62
7
  6
BYLAYER
 10
420.2079821921
 20
1021.6805267008
 11
423.2079821921
 21
1021.6805267008
  0
LINE
  5
2DB
100
AcDbEntity
  8
3
100
AcDbLine
 62
7
  6
BYLAYER
 10
420.11586677
 20
1023.0330267008
 11
418.8712675082
 21
1023.0330267008
  0
LINE
  5
2DC
100
AcDbEntity
  8
3
100
AcDbLine
 62
7
  6
BYLAYER
 10
378.2079821921
 20
1026.6805267008
 11
423.2079821921
 21
1026.6805267008
  0
LINE
  5
2DD
100
AcDbEntity
  8
0
100
AcDbLine
 62
7
  6
BYLAYER
 10
423.4496430071
 20
1051.4974491167
 11
478.4496430071
 21
1051.4974491167
  0
LINE
  5
2DE
100
AcDbEntity
  8
3
100
AcDbLine
 62
7
  6
BYLAYER
 10
423.4498837443
 20
1051.4974619252
 11
478.4499010592
 21
1051.4974619252
  0
LINE
  5
2DF
100
AcDbEntity
  8
0
100
AcDbLine
 62
7
  6
BYLAYER
 10
461.4660449156
 20
1064.9974491167
 11
453.4496430071
 21
1064.9974491167
  0
LINE
  5
2E0
100
AcDbEntity
  8
0
100
AcDbLine
 62
7
  6
BYLAYER
 10
438.9332410986
 20
1064.9974491167
 11
446.9496430071
 21
1064.9974491167
  0
LINE
  5
2E1
100
AcDbEntity
  8
0
100
AcDbLine
 62
7
  6
BYLAYER
 10
461.465829212
 20
1065.0086433677
 11
453.554852036
 21
1065.0086433677
  0
LINE
  5
2E2
100
AcDbEntity
  8
0
100
AcDbLine
 62
7
  6
BYLAYER
 10
438.9334569815
 20
1065.0086621996
 11
446.8443465225
 21
1065.0086621996
  0
LINE
  5
2E3
100
AcDbEntity
  8
0
100
AcDbLine
 62
7
  6
BYLAYER
 10
438.9330248094
 20
1065.9861933
 11
447.0551376673
 21
1065.9861933
  0
LINE
  5
2E4
100
AcDbEntity
  8
0
100
AcDbLine
 62
7
  6
BYLAYER
 10
461.4662606192
 20
1065.9862548657
 11
453.3444339783
 21
1065.9862548657
  0
LINE
  5
2E5
100
AcDbEntity
  8
0
100
AcDbLine
 62
7
  6
BYLAYER
 10
423.4496430071
 20
1065.9974491167
 11
430.9496430071
 21
1065.9974491167
  0
LINE
  5
2E6
100
AcDbEntity
  8
0
100
AcDbLine
 62
7
  6
BYLAYER
 10
464.9496430071
 20
1065.9974491167
 11
473.361724699
 21
1065.9974491167
  0
LINE
  5
2E7
100
AcDbEntity
  8
0
100
AcDbLine
 62
7
  6
BYLAYER
 10
423.9496430071
 20
1066.4974491167
 11
430.9496430071
 21
1066.4974491167
  0
LINE
  5
2E8
100
AcDbEntity
  8
0
100
AcDbLine
 62
7
  6
BYLAYER
 10
464.9496430071
 20
1066.4974491167
 11
471.4993965007
 21
1066.4974491167
  0
LINE
  5
2E9
100
AcDbEntity
  8
0
100
AcDbLine
 62
7
  6
BYLAYER
 10
471.8619582366
 20
1066.9974491167
 11
471.2496430071
 21
1066.9974491167
  0
LINE
  5
2EA
100
AcDbEntity
  8
0
100
AcDbLine
 62
7
  6
BYLAYER
 10
464.6496430071
 20
1066.9974491167
 11
463.4496430071
 21
1066.9974491738
  0
LINE
  5
2EB
100
AcDbEntity
  8
0
100
AcDbLine
 62
7
  6
BYLAYER
 10
432.4496430071
 20
1066.9974491856
 11
431.2496430071
 21
1066.9974491167
  0
LINE
  5
2EC
100
AcDbEntity
  8
0
100
AcDbLine
 62
7
  6
BYLAYER
 10
424.6496430071
 20
1066.9974491167
 11
423.4496430071
 21
1066.9974491857
  0
LINE
  5
2ED
100
AcDbEntity
  8
0
100
AcDbLine
 62
7
  6
BYLAYER
 10
423.4496430071
 20
1067.9974491167
 11
424.6496430071
 21
1067.9974491167
  0
LINE
  5
2EE
100
AcDbEntity
  8
0
100
AcDbLine
 62
7
  6
BYLAYER
 10
431.2496430071
 20
1067.9974491167
 11
446.9496430071
 21
1067.9974491101
  0
LINE
  5
2EF
100
AcDbEntity
  8
0
100
AcDbLine
 62
7
  6
BYLAYER
 10
454.9496430071
 20
1067.9974491166
 11
464.6496430071
 21
1067.9974491167
  0
LINE
  5
2F0
100
AcDbEntity
  8
0
100
AcDbLine
 62
7
  6
BYLAYER
 10
471.2496430071
 20
1067.9974491167
 11
478.4496430071
 21
1067.9974491167
  0
LINE
  5
2F1
100
AcDbEntity
  8
0
100
AcDbLine
 62
7
  6
BYLAYER
 10
424.6496430071
 20
1068.0974491167
 11
431.2496430071
 21
1068.0974491167
  0
LINE
  5
2F2
100
AcDbEntity
  8
0
100
AcDbLine
 62
7
  6
BYLAYER
 10
464.6496430071
 20
1068.0974491167
 11
471.2496430071
 21
1068.0974491167
  0
LINE
  5
2F3
100
AcDbEntity
  8
0
100
AcDbLine
 62
7
  6
BYLAYER
 10
446.808194827
 20
1068.4974491167
 11
455.0901266613
 21
1068.4974491167
  0
LINE
  5
2F4
100
AcDbEntity
  8
0
100
AcDbLine
 62
7
  6
BYLAYER
 10
425.2764378036
 20
1068.9974491167
 11
424.4496430071
 21
1068.9974491167
  0
LINE
  5
2F5
100
AcDbEntity
  8
0
100
AcDbLine
 62
7
  6
BYLAYER
 10
430.6228482106
 20
1068.9974491167
 11
465.2764378036
 21
1068.9974491167
  0
LINE
  5
2F6
100
AcDbEntity
  8
0
100
AcDbLine
 62
7
  6
BYLAYER
 10
470.6228482106
 20
1068.9974491167
 11
477.4496430071
 21
1068.9974491167
  0
LINE
  5
2F7
100
AcDbEntity
  8
0
100
AcDbLine
 62
7
  6
BYLAYER
 10
425.6497356062
 20
1069.0974491167
 11
430.2495589085
 21
1069.0974491167
  0
LINE
  5
2F8
100
AcDbEntity
  8
0
100
AcDbLine
 62
7
  6
BYLAYER
 10
465.6497356062
 20
1069.0974491167
 11
470.2495589085
 21
1069.0974491167
  0
LINE
  5
2F9
100
AcDbEntity
  8
0
100
AcDbLine
 62
7
  6
BYLAYER
 10
469.1995787103
 20
1070.4974491167
 11
453.699707304
 21
1070.4974491167
  0
LINE
  5
2FA
100
AcDbEntity
  8
0
100
AcDbLine
 62
7
  6
BYLAYER
 10
446.6995787103
 20
1070.4974491167
 11
431.199707304
 21
1070.4974491167
  0
LINE
  5
2FB
100
AcDbEntity
  8
0
100
AcDbLine
 62
7
  6
BYLAYER
 10
469.1996430071
 20
1073.4974491167
 11
453.6996430071
 21
1073.4974491167
  0
LINE
  5
2FC
100
AcDbEntity
  8
0
100
AcDbLine
 62
7
  6
BYLAYER
 10
446.6996430071
 20
1073.4974491167
 11
431.1996430071
 21
1073.4974491167
  0
LINE
  5
2FD
100
AcDbEntity
  8
0
100
AcDbLine
 62
7
  6
BYLAYER
 10
431.1996430071
 20
1074.9974491167
 11
446.6996430071
 21
1074.9974491167
  0
LINE
  5
2FE
100
AcDbEntity
  8
0
100
AcDbLine
 62
7
  6
BYLAYER
 10
453.6996430071
 20
1074.9974491167
 11
469.1996430071
 21
1074.9974491167
  0
LINE
  5
2FF
100
AcDbEntity
  8
0
100
AcDbLine
 62
7
  6
BYLAYER
 10
431.6996430071
 20
1075.4974491167
 11
446.1996430071
 21
1075.4974491167
  0
LINE
  5
300
100
AcDbEntity
  8
0
100
AcDbLine
 62
7
  6
BYLAYER
 10
454.1996430071
 20
1075.4974491167
 11
468.6996430071
 21
1075.4974491167
  0
LINE
  5
301
100
AcDbEntity
  8
0
100
AcDbLine
 62
7
  6
BYLAYER
 10
434.8259030071
 20
1076.6974491167
 11
443.0759030071
 21
1076.6974491167
  0
LINE
  5
302
100
AcDbEntity
  8
0
100
AcDbLine
 62
7
  6
BYLAYER
 10
457.3252230071
 20
1076.6974491167
 11
465.5153952052
 21
1076.6974491167
  0
LINE
  5
303
100
AcDbEntity
  8
0
100
AcDbLine
 62
7
  6
BYLAYER
 10
435.1259904832
 20
1076.9974491167
 11
442.7759216243
 21
1076.9974491167
  0
LINE
  5
304
100
AcDbEntity
  8
0
100
AcDbLine
 62
7
  6
BYLAYER
 10
457.6252316714
 20
1076.9974491167
 11
465.2106176411
 21
1076.9974491167
  0
LINE
  5
305
100
AcDbEntity
  8
0
100
AcDbLine
 62
7
  6
BYLAYER
 10
455.4496430071
 20
1078.9974481793
 11
467.4496430071
 21
1078.9974481793
  0
LINE
  5
306
100
AcDbEntity
  8
0
100
AcDbLine
 62
7
  6
BYLAYER
 10
455.9496424429
 20
1079.4974491167
 11
466.9496435714
 21
1079.4974491167
  0
ARC
  5
307
100
AcDbEntity
  8
3
100
AcDbCircle
 62
7
  6
BYLAYER
 10
378.2079821921
 20
185.3456242399
 40
5.0
100
AcDbArc
 50
90.0
 51
180.0
  0
ARC
  5
308
100
AcDbEntity
  8
3
100
AcDbCircle
 62
7
  6
BYLAYER
 10
378.2079821921
 20
145.3456242399
 40
5.0
100
AcDbArc
 50
180.0
 51
270.0
  0
ARC
  5
309
100
AcDbEntity
  8
3
100
AcDbCircle
 62
7
  6
BYLAYER
 10
381.4079821921
 20
150.3456242399
 40
3.25
100
AcDbArc
 50
90.0
 51
270.0
  0
ARC
  5
30A
100
AcDbEntity
  8
3
100
AcDbCircle
 62
7
  6
BYLAYER
 10
394.9079821921
 20
150.3456242399
 40
3.25
100
AcDbArc
 50
270.0
 51
90.0
  0
ARC
  5
30B
100
AcDbEntity
  8
3
100
AcDbCircle
 62
7
  6
BYLAYER
 10
381.4079821921
 20
180.3456242399
 40
3.25
100
AcDbArc
 50
90.0
 51
270.0
  0
ARC
  5
30C
100
AcDbEntity
  8
3
100
AcDbCircle
 62
7
  6
BYLAYER
 10
394.9079821921
 20
180.3456242399
 40
3.25
100
AcDbArc
 50
270.0
 51
90.0
  0
ARC
  5
30D
100
AcDbEntity
  8
0
100
AcDbCircle
 62
7
  6
BYLAYER
 10
425.649889186
 20
96.3974491167
 40
1.0
100
AcDbArc
 50
180.0
 51
270.0
  0
ARC
  5
30E
100
AcDbEntity
  8
0
100
AcDbCircle
 62
7
  6
BYLAYER
 10
424.4494022699
 20
96.4973389782
 40
1.0
100
AcDbArc
 50
180.0
 51
270.0
  0
ARC
  5
30F
100
AcDbEntity
  8
0
100
AcDbCircle
 62
7
  6
BYLAYER
 10
423.9494022699
 20
98.4973389782
 40
0.5
100
AcDbArc
 50
180.0
 51
270.0
  0
ARC
  5
310
100
AcDbEntity
  8
3
100
AcDbCircle
 62
7
  6
BYLAYER
 10
378.2079821921
 20
1021.6805267008
 40
5.0
100
AcDbArc
 50
90.0
 51
180.0
  0
ARC
  5
311
100
AcDbEntity
  8
3
100
AcDbCircle
 62
7
  6
BYLAYER
 10
378.2079821921
 20
981.6805267008
 40
5.0
100
AcDbArc
 50
180.0
 51
270.0
  0
ARC
  5
312
100
AcDbEntity
  8
3
100
AcDbCircle
 62
7
  6
BYLAYER
 10
381.4079821921
 20
986.6805267008
 40
3.25
100
AcDbArc
 50
90.0
 51
270.0
  0
ARC
  5
313
100
AcDbEntity
  8
3
100
AcDbCircle
 62
7
  6
BYLAYER
 10
394.9079821921
 20
986.6805267008
 40
3.25
100
AcDbArc
 50
270.0
 51
90.0
  0
ARC
  5
314
100
AcDbEntity
  8
3
100
AcDbCircle
 62
7
  6
BYLAYER
 10
381.4079821921
 20
1016.6805267008
 40
3.25
100
AcDbArc
 50
90.0
 51
270.0
  0
ARC
  5
315
100
AcDbEntity
  8
3
100
AcDbCircle
 62
7
  6
BYLAYER
 10
394.9079821921
 20
1016.6805267008
 40
3.25
100
AcDbArc
 50
270.0
 51
90.0
  0
ARC
  5
316
100
AcDbEntity
  8
0
100
AcDbCircle
 62
7
  6
BYLAYER
 10
425.6496430071
 20
1068.0974491167
 40
1.0
100
AcDbArc
 50
90.0
 51
180.0
  0
ARC
  5
317
100
AcDbEntity
  8
0
100
AcDbCircle
 62
7
  6
BYLAYER
 10
424.4496430071
 20
1067.9974491167
 40
1.0
100
AcDbArc
 50
90.0
 51
180.0000000001
  0
ARC
  5
318
100
AcDbEntity
  8
0
100
AcDbCircle
 62
7
  6
BYLAYER
 10
423.9496430071
 20
1065.9974491167
 40
0.5
100
AcDbArc
 50
90.0
 51
180.0
  0
ARC
  5
319
100
AcDbEntity
  8
0
100
AcDbCircle
 62
7
  6
BYLAYER
 10
451.1762048628
 20
83.9228102954
 40
25.9492033488
100
AcDbArc
 50
33.0803197527
 51
33.623639097
  0
ARC
  5
31A
100
AcDbEntity
  8
0
100
AcDbCircle
 62
7
  6
BYLAYER
 10
430.249889186
 20
96.3974491167
 40
1.0
100
AcDbArc
 50
270.0
 51
360.0
  0
ARC
  5
31B
100
AcDbEntity
  8
0
100
AcDbCircle
 62
7
  6
BYLAYER
 10
445.9494022699
 20
96.4973389782
 40
1.0
100
AcDbArc
 50
270.0
 51
360.0
  0
ARC
  5
31C
100
AcDbEntity
  8
0
100
AcDbCircle
 62
7
  6
BYLAYER
 10
432.4494022699
 20
96.4973389782
 40
1.0
100
AcDbArc
 50
180.0
 51
270.0
  0
ARC
  5
31D
100
AcDbEntity
  8
0
100
AcDbCircle
 62
7
  6
BYLAYER
 10
430.9494022699
 20
97.4973389782
 40
0.5
100
AcDbArc
 50
0.0
 51
90.0
  0
ARC
  5
31E
100
AcDbEntity
  8
0
100
AcDbCircle
 62
7
  6
BYLAYER
 10
465.6499010592
 20
96.3974491167
 40
1.0
100
AcDbArc
 50
180.0
 51
270.0
  0
ARC
  5
31F
100
AcDbEntity
  8
0
100
AcDbCircle
 62
7
  6
BYLAYER
 10
470.2499010592
 20
96.3974491167
 40
1.0
100
AcDbArc
 50
270.0
 51
360.0
  0
ARC
  5
320
100
AcDbEntity
  8
0
100
AcDbCircle
 62
7
  6
BYLAYER
 10
455.9494022699
 20
96.4973389782
 40
1.0
100
AcDbArc
 50
179.9999999984
 51
270.0
  0
ARC
  5
321
100
AcDbEntity
  8
0
100
AcDbCircle
 62
7
  6
BYLAYER
 10
463.4494022699
 20
96.4973389782
 40
1.0
100
AcDbArc
 50
270.0
 51
360.0
  0
ARC
  5
322
100
AcDbEntity
  8
0
100
AcDbCircle
 62
7
  6
BYLAYER
 10
472.4494022699
 20
96.4973389782
 40
1.0
100
AcDbArc
 50
180.0
 51
270.0
  0
ARC
  5
323
100
AcDbEntity
  8
0
100
AcDbCircle
 62
7
  6
BYLAYER
 10
477.4494022699
 20
96.4973389782
 40
1.0
100
AcDbArc
 50
270.0000000017
 51
360.0
  0
ARC
  5
324
100
AcDbEntity
  8
0
100
AcDbCircle
 62
7
  6
BYLAYER
 10
464.9494022699
 20
97.4973389782
 40
0.5
100
AcDbArc
 50
90.0
 51
180.0
  0
ARC
  5
325
100
AcDbEntity
  8
0
100
AcDbCircle
 62
7
  6
BYLAYER
 10
470.9494022699
 20
97.4973389782
 40
0.5
100
AcDbArc
 50
0.0
 51
90.0
  0
ARC
  5
326
100
AcDbEntity
  8
0
100
AcDbCircle
 62
7
  6
BYLAYER
 10
430.2496430071
 20
1068.0974491167
 40
1.0
100
AcDbArc
 50
0.0
 51
90.0
  0
ARC
  5
327
100
AcDbEntity
  8
0
100
AcDbCircle
 62
7
  6
BYLAYER
 10
432.4496430071
 20
1067.9974491167
 40
1.0
100
AcDbArc
 50
90.0
 51
180.0
  0
ARC
  5
328
100
AcDbEntity
  8
0
100
AcDbCircle
 62
7
  6
BYLAYER
 10
445.9496430071
 20
1067.9974491167
 40
1.0
100
AcDbArc
 50
0.0
 51
90.0
  0
ARC
  5
329
100
AcDbEntity
  8
0
100
AcDbCircle
 62
7
  6
BYLAYER
 10
430.9496430071
 20
1066.9974491167
 40
0.5
100
AcDbArc
 50
270.0
 51
360.0
  0
ARC
  5
32A
100
AcDbEntity
  8
0
100
AcDbCircle
 62
7
  6
BYLAYER
 10
453.4496430071
 20
1065.4974491167
 40
0.5
100
AcDbArc
 50
102.1468526144
 51
282.1468526144
  0
ARC
  5
32B
100
AcDbEntity
  8
0
100
AcDbCircle
 62
7
  6
BYLAYER
 10
446.9496430071
 20
1065.4974491167
 40
0.5
100
AcDbArc
 50
257.8196647598
 51
77.8196647598
  0
ARC
  5
32C
100
AcDbEntity
  8
0
100
AcDbCircle
 62
7
  6
BYLAYER
 10
449.7226549497
 20
1081.5288288746
 40
27.6896077329
100
AcDbArc
 50
326.3934359329
 51
326.902605216
  0
ARC
  5
32D
100
AcDbEntity
  8
0
100
AcDbCircle
 62
7
  6
BYLAYER
 10
435.1259030071
 20
1076.6974491167
 40
0.3
100
AcDbArc
 50
90.0
 51
180.0
  0
ARC
  5
32E
100
AcDbEntity
  8
0
100
AcDbCircle
 62
7
  6
BYLAYER
 10
442.7759030071
 20
1076.6974491167
 40
0.3
100
AcDbArc
 50
0.0
 51
90.0
  0
ARC
  5
32F
100
AcDbEntity
  8
0
100
AcDbCircle
 62
7
  6
BYLAYER
 10
465.6496430071
 20
1068.0974491167
 40
1.0
100
AcDbArc
 50
90.0
 51
180.0
  0
ARC
  5
330
100
AcDbEntity
  8
0
100
AcDbCircle
 62
7
  6
BYLAYER
 10
470.2496430071
 20
1068.0974491167
 40
1.0
100
AcDbArc
 50
0.0
 51
90.0
  0
ARC
  5
331
100
AcDbEntity
  8
0
100
AcDbCircle
 62
7
  6
BYLAYER
 10
455.9496430071
 20
1067.9974491167
 40
1.0
100
AcDbArc
 50
90.0
 51
180.0000000008
  0
ARC
  5
332
100
AcDbEntity
  8
0
100
AcDbCircle
 62
7
  6
BYLAYER
 10
477.4496430071
 20
1067.9974491167
 40
1.0
100
AcDbArc
 50
0.0000000002
 51
90.0000000009
  0
ARC
  5
333
100
AcDbEntity
  8
0
100
AcDbCircle
 62
7
  6
BYLAYER
 10
463.4496430071
 20
1067.9974491167
 40
1.0
100
AcDbArc
 50
0.0
 51
90.0
  0
ARC
  5
334
100
AcDbEntity
  8
0
100
AcDbCircle
 62
7
  6
BYLAYER
 10
472.4496430071
 20
1067.9974491167
 40
1.0
100
AcDbArc
 50
90.0000000003
 51
179.9999999999
  0
ARC
  5
335
100
AcDbEntity
  8
0
100
AcDbCircle
 62
7
  6
BYLAYER
 10
470.9496430071
 20
1066.9974491167
 40
0.5
100
AcDbArc
 50
270.0
 51
360.0
  0
ARC
  5
336
100
AcDbEntity
  8
0
100
AcDbCircle
 62
7
  6
BYLAYER
 10
464.9496430071
 20
1066.9974491167
 40
0.5
100
AcDbArc
 50
180.0
 51
270.0
  0
ARC
  5
337
100
AcDbEntity
  8
0
100
AcDbCircle
 62
7
  6
BYLAYER
 10
465.2124876219
 20
1076.6926790327
 40
0.3044707676
100
AcDbArc
 50
36.4827958935
 51
54.5150619304
  0
ARC
  5
338
100
AcDbEntity
  8
0
100
AcDbCircle
 62
7
  6
BYLAYER
 10
457.6252230071
 20
1076.6974491167
 40
0.3
100
AcDbArc
 50
90.0
 51
180.0
  0
SPLINE
  5
339
100
AcDbEntity
  8
0
100
AcDbSpline
 62
7
  6
BYLAYER
 70
0
 71
3
 72
8
 73
4
 74
0
 42
0.0000001
 43
0.0000001
 44
0.0000000001
 40
0.0
 40
0.0
 40
0.0
 40
0.0
 40
1.0
 40
1.0
 40
1.0
 40
1.0
 10
465.5153952052
 20
1076.6974491167
 30
0.0
 10
465.5153952052
 20
1076.7593130981
 30
0.0
 10
465.4940094673
 20
1076.8239216612
 30
0.0
 10
465.4572929067
 20
1076.873711684
 30
0.0
  0
SPLINE
  5
33A
100
AcDbEntity
  8
0
100
AcDbSpline
 62
7
  6
BYLAYER
 70
0
 71
3
 72
8
 73
4
 74
0
 42
0.0000001
 43
0.0000001
 44
0.0000000001
 40
0.0
 40
0.0
 40
0.0
 40
0.0
 40
1.0
 40
1.0
 40
1.0
 40
1.0
 10
465.3892295292
 20
1076.94059988
 30
0.0
 10
465.3383308807
 20
1076.9768366718
 30
0.0
 10
465.2730979834
 20
1076.9974506226
 30
0.0
 10
465.2106177665
 20
1076.9974491167
 30
0.0
  0
SPLINE
  5
33B
100
AcDbEntity
  8
0
100
AcDbSpline
 62
7
  6
BYLAYER
 70
0
 71
3
 72
16
 73
12
 74
0
 42
0.0000001
 43
0.0000001
 44
0.0000000001
 40
0.0
 40
0.0
 40
0.0
 40
0.0
 40
0.2636273647
 40
0.4178764038
 40
0.5741876959
 40
0.7240052304
 40
0.8563237188
 40
0.9120390276
 40
0.957262702
 40
0.9883504454
 40
1.0
 40
1.0
 40
1.0
 40
1.0
 10
424.4496430188
 20
1066.9974491167
 30
0.0
 10
424.4496428639
 20
1066.934155102
 30
0.0
 10
424.3800966869
 20
1066.8442295182
 30
0.0
 10
424.2837292395
 20
1066.7499756195
 30
0.0
 10
424.1989441008
 20
1066.6779105224
 30
0.0
 10
424.1170140135
 20
1066.6120942575
 30
0.0
 10
424.0518843796
 20
1066.5636074838
 30
0.0
 10
424.0061523293
 20
1066.5313547357
 30
0.0
 10
423.9788539318
 20
1066.5149426972
 30
0.0
 10
423.9620976953
 20
1066.5024742234
 30
0.0
 10
423.9513810152
 20
1066.499640505
 30
0.0
 10
423.9496430154
 20
1066.4974491196
 30
0.0
  0
SPLINE
  5
33C
100
AcDbEntity
  8
0
100
AcDbSpline
 62
7
  6
BYLAYER
 70
0
 71
3
 72
12
 73
8
 74
0
 42
0.0000001
 43
0.0000001
 44
0.0000000001
 40
0.0
 40
0.0
 40
0.0
 40
0.0
 40
0.3400478061
 40
0.6258992925
 40
0.7417192142
 40
0.8403209917
 40
1.0
 40
1.0
 40
1.0
 40
1.0
 10
446.4496415839
 20
1067.9974491167
 30
0.0
 10
446.4496415835
 20
1068.1340501348
 30
0.0
 10
446.4244023229
 20
1068.3860655728
 30
0.0
 10
446.33036606
 20
1068.6729133961
 30
0.0
 10
446.2215315743
 20
1068.8434776134
 30
0.0
 10
446.1176625396
 20
1068.9523253162
 30
0.0
 10
446.0137849135
 20
1068.9974346234
 30
0.0
 10
445.9496400663
 20
1068.9974491171
 30
0.0
  0
SPLINE
  5
33D
100
AcDbEntity
  8
0
100
AcDbSpline
 62
7
  6
BYLAYER
 70
0
 71
3
 72
12
 73
8
 74
0
 42
0.0000001
 43
0.0000001
 44
0.0000000001
 40
0.0
 40
0.0
 40
0.0
 40
0.0
 40
0.1249607169
 40
0.2501491118
 40
0.4995020359
 40
0.7494105011
 40
1.0
 40
1.0
 40
1.0
 40
1.0
 10
463.4496430071
 20
1066.9974491167
 30
0.0
 10
463.4496431428
 20
1066.9144410344
 30
0.0
 10
463.4817895694
 20
1066.7471788341
 30
0.0
 10
463.6446784638
 20
1066.4539426989
 30
0.0
 10
463.9694594652
 20
1066.1753469991
 30
0.0
 10
464.4478460229
 20
1066.004368894
 30
0.0
 10
464.7831830648
 20
1065.997449109
 30
0.0
 10
464.9496430071
 20
1065.9974491167
 30
0.0
  0
SPLINE
  5
33E
100
AcDbEntity
  8
0
100
AcDbSpline
 62
7
  6
BYLAYER
 70
0
 71
3
 72
12
 73
8
 74
0
 42
0.0000001
 43
0.0000001
 44
0.0000000001
 40
0.0
 40
0.0
 40
0.0
 40
0.0
 40
0.1204115357
 40
0.2167519688
 40
0.3384069038
 40
0.6443218671
 40
1.0
 40
1.0
 40
1.0
 40
1.0
 10
476.724364135
 20
1068.9974491167
 30
0.0
 10
476.7676296884
 20
1068.9974491167
 30
0.0
 10
476.8325161233
 20
1068.928833204
 30
0.0
 10
476.8821086068
 20
1068.8223146286
 30
0.0
 10
476.9413361037
 20
1068.6412494656
 30
0.0
 10
476.9864905833
 20
1068.3633340302
 30
0.0
 10
476.9990852629
 20
1068.1252492577
 30
0.0
 10
476.9990852629
 20
1067.9974491167
 30
0.0
  0
SPLINE
  5
33F
100
AcDbEntity
  8
0
100
AcDbSpline
 62
7
  6
BYLAYER
 70
0
 71
3
 72
9
 73
5
 74
0
 42
0.0000001
 43
0.0000001
 44
0.0000000001
 40
0.0
 40
0.0
 40
0.0
 40
0.0
 40
0.2472785885
 40
1.0
 40
1.0
 40
1.0
 40
1.0
 10
473.361724699
 20
1065.9974491167
 30
0.0
 10
473.314295772
 20
1066.0148834025
 30
0.0
 10
473.1223814662
 20
1066.0850816535
 30
0.0
 10
472.9298051835
 20
1066.1535095349
 30
0.0
 10
472.7841617309
 20
1066.2029918207
 30
0.0
  0
SPLINE
  5
340
100
AcDbEntity
  8
0
100
AcDbSpline
 62
7
  6
BYLAYER
 70
0
 71
3
 72
9
 73
5
 74
0
 42
0.0000001
 43
0.0000001
 44
0.0000000001
 40
0.0
 40
0.0
 40
0.0
 40
0.0
 40
0.7518345395
 40
1.0
 40
1.0
 40
1.0
 40
1.0
 10
472.9194452352
 20
1066.4085346327
 30
0.0
 10
473.0336469018
 20
1066.3092337962
 30
0.0
 10
473.181616287
 20
1066.1726087158
 30
0.0
 10
473.3260573172
 20
1066.0324226444
 30
0.0
 10
473.3617247933
 20
1065.9974492208
 30
0.0
  0
SPLINE
  5
341
100
AcDbEntity
  8
0
100
AcDbSpline
 62
7
  6
BYLAYER
 70
0
 71
3
 72
10
 73
6
 74
0
 42
0.0000001
 43
0.0000001
 44
0.0000000001
 40
0.0
 40
0.0
 40
0.0
 40
0.0
 40
0.2114258548
 40
0.4596612947
 40
1.0
 40
1.0
 40
1.0
 40
1.0
 10
471.8619582366
 20
1066.9974491167
 30
0.0
 10
471.9483592397
 20
1066.9974485302
 30
0.0
 10
472.1336533472
 20
1066.9416941554
 30
0.0
 10
472.4925936029
 20
1066.748312451
 30
0.0
 10
472.7527993969
 20
1066.5534070718
 30
0.0
 10
472.9194451414
 20
1066.4085345247
 30
0.0
  0
SPLINE
  5
342
100
AcDbEntity
  8
0
100
AcDbSpline
 62
7
  6
BYLAYER
 70
0
 71
3
 72
10
 73
6
 74
0
 42
0.0000001
 43
0.0000001
 44
0.0000000001
 40
0.0
 40
0.0
 40
0.0
 40
0.0
 40
0.5192781373
 40
0.7706703291
 40
1.0
 40
1.0
 40
1.0
 40
1.0
 10
472.7841617903
 20
1066.2029920264
 30
0.0
 10
472.5684475105
 20
1066.2794952147
 30
0.0
 10
472.2426438751
 20
1066.3785382024
 30
0.0
 10
471.8120519947
 20
1066.4724341079
 30
0.0
 10
471.6004766039
 20
1066.4974488792
 30
0.0
 10
471.4993965899
 20
1066.4974491167
 30
0.0
  0
SPLINE
  5
343
100
AcDbEntity
  8
0
100
AcDbSpline
 62
7
  6
BYLAYER
 70
0
 71
3
 72
9
 73
5
 74
0
 42
0.0000001
 43
0.0000001
 44
0.0000000001
 40
0.0
 40
0.0
 40
0.0
 40
0.0
 40
0.2566268573
 40
1.0
 40
1.0
 40
1.0
 40
1.0
 10
472.7963048397
 20
1065.9974491167
 30
0.0
 10
472.7963048397
 20
1066.0150683724
 30
0.0
 10
472.7953000793
 20
1066.0837179229
 30
0.0
 10
472.7904366228
 20
1066.1523411816
 30
0.0
 10
472.7841617309
 20
1066.2029918207
 30
0.0
  0
SPLINE
  5
344
100
AcDbEntity
  8
0
100
AcDbSpline
 62
7
  6
BYLAYER
 70
0
 71
3
 72
12
 73
8
 74
0
 42
0.0000001
 43
0.0000001
 44
0.0000000001
 40
0.0
 40
0.0
 40
0.0
 40
0.0
 40
0.3555601317
 40
0.6614267398
 40
0.7831217149
 40
0.8795320322
 40
1.0
 40
1.0
 40
1.0
 40
1.0
 10
473.361724699
 20
1067.9974491167
 30
0.0
 10
473.361724699
 20
1068.125206398
 30
0.0
 10
473.3491381693
 20
1068.3632308965
 30
0.0
 10
473.3040052532
 20
1068.6411005199
 30
0.0
 10
473.2447961353
 20
1068.8221956947
 30
0.0
 10
473.1951996566
 20
1068.9287709986
 30
0.0
 10
473.1302892454
 20
1068.9974491167
 30
0.0
 10
473.0870035711
 20
1068.9974491167
 30
0.0
  0
SPLINE
  5
345
100
AcDbEntity
  8
0
100
AcDbSpline
 62
7
  6
BYLAYER
 70
0
 71
3
 72
11
 73
7
 74
0
 42
0.0000001
 43
0.0000001
 44
0.0000000001
 40
0.0
 40
0.0
 40
0.0
 40
0.0
 40
0.2742864213
 40
0.5514542927
 40
0.7962818329
 40
1.0
 40
1.0
 40
1.0
 40
1.0
 10
471.8619582376
 20
1066.9974491167
 30
0.0
 10
471.8619582309
 20
1066.9355159633
 30
0.0
 10
471.8452645517
 20
1066.8103142
 30
0.0
 10
471.7695067795
 20
1066.6437298055
 30
0.0
 10
471.6478794234
 20
1066.5260891517
 30
0.0
 10
471.5453956209
 20
1066.4974491163
 30
0.0
 10
471.499396594
 20
1066.4974491167
 30
0.0
  0
SPLINE
  5
346
100
AcDbEntity
  8
0
100
AcDbSpline
 62
7
  6
BYLAYER
 70
0
 71
3
 72
12
 73
8
 74
0
 42
0.0000001
 43
0.0000001
 44
0.0000000001
 40
0.0
 40
0.0
 40
0.0
 40
0.0
 40
0.1596770904
 40
0.2582781683
 40
0.3740954473
 40
0.6599411656
 40
1.0
 40
1.0
 40
1.0
 40
1.0
 10
455.9496450414
 20
1068.997449117
 30
0.0
 10
455.8855009603
 20
1068.9974359858
 30
0.0
 10
455.7816242797
 20
1068.9523260249
 30
0.0
 10
455.677756142
 20
1068.8434807904
 30
0.0
 10
455.5689224678
 20
1068.6729203155
 30
0.0
 10
455.4748833809
 20
1068.3860723114
 30
0.0
 10
455.4496441929
 20
1068.1340545738
 30
0.0
 10
455.449643548
 20
1067.9974491167
 30
0.0
  0
SPLINE
  5
347
100
AcDbEntity
  8
0
100
AcDbSpline
 62
7
  6
BYLAYER
 70
0
 71
3
 72
12
 73
8
 74
0
 42
0.0000001
 43
0.0000001
 44
0.0000000001
 40
0.0
 40
0.0
 40
0.0
 40
0.0
 40
0.1249612752
 40
0.2501494132
 40
0.4995021241
 40
0.7494103699
 40
1.0
 40
1.0
 40
1.0
 40
1.0
 10
432.4496430071
 20
1066.9974491167
 30
0.0
 10
432.4496427869
 20
1066.914440663
 30
0.0
 10
432.4174963036
 20
1066.7471782504
 30
0.0
 10
432.2546070536
 20
1066.4539422442
 30
0.0
 10
431.9298263722
 20
1066.1753469712
 30
0.0
 10
431.4514400327
 20
1066.0043688804
 30
0.0
 10
431.1161030379
 20
1065.9974490753
 30
0.0
 10
430.9496430071
 20
1065.9974491167
 30
0.0
  0
SPLINE
  5
348
100
AcDbEntity
  8
0
100
AcDbSpline
 62
7
  6
BYLAYER
 70
0
 71
3
 72
12
 73
8
 74
0
 42
0.0000001
 43
0.0000001
 44
0.0000000001
 40
0.0
 40
0.0
 40
0.0
 40
0.0
 40
0.3400478225
 40
0.6258993054
 40
0.7417193051
 40
0.8403210036
 40
1.0
 40
1.0
 40
1.0
 40
1.0
 10
455.4494035777
 20
96.4973389782
 30
0.0
 10
455.4494035781
 20
96.3607379494
 30
0.0
 10
455.4746428058
 20
96.1087224721
 30
0.0
 10
455.5686792031
 20
95.8218746909
 30
0.0
 10
455.6775135261
 20
95.6513103454
 30
0.0
 10
455.7813827113
 20
95.5424627866
 30
0.0
 10
455.8852602685
 20
95.497353465
 30
0.0
 10
455.9494051128
 20
95.4973389778
 30
0.0
  0
SPLINE
  5
349
100
AcDbEntity
  8
0
100
AcDbSpline
 62
7
  6
BYLAYER
 70
0
 71
3
 72
12
 73
8
 74
0
 42
0.0000001
 43
0.0000001
 44
0.0000000001
 40
0.0
 40
0.0
 40
0.0
 40
0.0
 40
0.1204115357
 40
0.2167519688
 40
0.3384069038
 40
0.6443218671
 40
1.0
 40
1.0
 40
1.0
 40
1.0
 10
473.0867628339
 20
95.4973389782
 30
0.0
 10
473.1300283873
 20
95.4973389782
 30
0.0
 10
473.1949148222
 20
95.5659548909
 30
0.0
 10
473.2445073057
 20
95.6724734663
 30
0.0
 10
473.3037348026
 20
95.8535386293
 30
0.0
 10
473.3488892822
 20
96.1314540647
 30
0.0
 10
473.3614839618
 20
96.3695388372
 30
0.0
 10
473.3614839618
 20
96.4973389782
 30
0.0
  0
SPLINE
  5
34A
100
AcDbEntity
  8
0
100
AcDbSpline
 62
7
  6
BYLAYER
 70
0
 71
3
 72
16
 73
12
 74
0
 42
0.0000001
 43
0.0000001
 44
0.0000000001
 40
0.0
 40
0.0
 40
0.0
 40
0.0
 40
0.0116495546
 40
0.042737298
 40
0.0879609725
 40
0.1436762813
 40
0.2759947698
 40
0.4258123044
 40
0.5821235967
 40
0.7363726357
 40
1.0
 40
1.0
 40
1.0
 40
1.0
 10
423.9494022774
 20
97.9973389754
 30
0.0
 10
423.951138375
 20
97.9951460827
 30
0.0
 10
423.9618593811
 20
97.9923157923
 30
0.0
 10
423.9786118821
 20
97.9798443583
 30
0.0
 10
424.0059120879
 20
97.9634337528
 30
0.0
 10
424.0516432688
 20
97.9311803157
 30
0.0
 10
424.1167734262
 20
97.8826939568
 30
0.0
 10
424.1987033178
 20
97.8168775368
 30
0.0
 10
424.2834885128
 20
97.7448124844
 30
0.0
 10
424.3798559422
 20
97.6505585716
 30
0.0
 10
424.449402125
 20
97.5606329928
 30
0.0
 10
424.4494022799
 20
97.4973389782
 30
0.0
  0
SPLINE
  5
34B
100
AcDbEntity
  8
0
100
AcDbSpline
 62
7
  6
BYLAYER
 70
0
 71
3
 72
12
 73
8
 74
0
 42
0.0000001
 43
0.0000001
 44
0.0000000001
 40
0.0
 40
0.0
 40
0.0
 40
0.0
 40
0.1249608927
 40
0.2501492077
 40
0.4995019733
 40
0.7494104792
 40
1.0
 40
1.0
 40
1.0
 40
1.0
 10
432.4494022699
 20
97.4973389782
 30
0.0
 10
432.4494020496
 20
97.5803471775
 30
0.0
 10
432.4172556917
 20
97.7476094454
 30
0.0
 10
432.254366677
 20
98.04084549
 30
0.0
 10
431.9295858093
 20
98.3194410796
 30
0.0
 10
431.4511993119
 20
98.490419191
 30
0.0
 10
431.1158622274
 20
98.4973390196
 30
0.0
 10
430.9494022699
 20
98.4973389782
 30
0.0
  0
SPLINE
  5
34C
100
AcDbEntity
  8
0
100
AcDbSpline
 62
7
  6
BYLAYER
 70
0
 71
3
 72
12
 73
8
 74
0
 42
0.0000001
 43
0.0000001
 44
0.0000000001
 40
0.0
 40
0.0
 40
0.0
 40
0.0
 40
0.1596770812
 40
0.2582781532
 40
0.3740954272
 40
0.6599411459
 40
1.0
 40
1.0
 40
1.0
 40
1.0
 10
445.9494003281
 20
95.4973389779
 30
0.0
 10
446.0135444065
 20
95.4973521021
 30
0.0
 10
446.1174210876
 20
95.5424620528
 30
0.0
 10
446.221289227
 20
95.6513072779
 30
0.0
 10
446.330122907
 20
95.8218677481
 30
0.0
 10
446.4241620019
 20
96.1087157615
 30
0.0
 10
446.449401193
 20
96.3607335111
 30
0.0
 10
446.449401838
 20
96.4973389782
 30
0.0
  0
SPLINE
  5
34D
100
AcDbEntity
  8
0
100
AcDbSpline
 62
7
  6
BYLAYER
 70
0
 71
3
 72
12
 73
8
 74
0
 42
0.0000001
 43
0.0000001
 44
0.0000000001
 40
0.0
 40
0.0
 40
0.0
 40
0.0
 40
0.1249612752
 40
0.2501494132
 40
0.4995021241
 40
0.7494103699
 40
1.0
 40
1.0
 40
1.0
 40
1.0
 10
463.4494022699
 20
97.4973389782
 30
0.0
 10
463.4494024903
 20
97.5803474319
 30
0.0
 10
463.4815489735
 20
97.7476098445
 30
0.0
 10
463.6444382235
 20
98.0408458507
 30
0.0
 10
463.9692189048
 20
98.3194411237
 30
0.0
 10
464.4476052444
 20
98.4904192145
 30
0.0
 10
464.7829422391
 20
98.4973390196
 30
0.0
 10
464.9494022699
 20
98.4973389782
 30
0.0
  0
SPLINE
  5
34E
100
AcDbEntity
  8
0
100
AcDbSpline
 62
7
  6
BYLAYER
 70
0
 71
3
 72
9
 73
5
 74
0
 42
0.0000001
 43
0.0000001
 44
0.0000000001
 40
0.0
 40
0.0
 40
0.0
 40
0.0
 40
0.2481650378
 40
1.0
 40
1.0
 40
1.0
 40
1.0
 10
473.361484094
 20
98.4973388324
 30
0.0
 10
473.3258166691
 20
98.462365478
 30
0.0
 10
473.1813756152
 20
98.3221794314
 30
0.0
 10
473.0334062656
 20
98.1855543124
 30
0.0
 10
472.9192045357
 20
98.0862534189
 30
0.0
  0
SPLINE
  5
34F
100
AcDbEntity
  8
0
100
AcDbSpline
 62
7
  6
BYLAYER
 70
0
 71
3
 72
9
 73
5
 74
0
 42
0.0000001
 43
0.0000001
 44
0.0000000001
 40
0.0
 40
0.0
 40
0.0
 40
0.0
 40
0.2472783313
 40
1.0
 40
1.0
 40
1.0
 40
1.0
 10
473.3614839618
 20
98.4973389782
 30
0.0
 10
473.3140550824
 20
98.479904723
 30
0.0
 10
473.1221381986
 20
98.4097135719
 30
0.0
 10
472.9295644912
 20
98.3412785665
 30
0.0
 10
472.7839209937
 20
98.2917962742
 30
0.0
  0
SPLINE
  5
350
100
AcDbEntity
  8
0
100
AcDbSpline
 62
7
  6
BYLAYER
 70
0
 71
3
 72
10
 73
6
 74
0
 42
0.0000001
 43
0.0000001
 44
0.0000000001
 40
0.0
 40
0.0
 40
0.0
 40
0.0
 40
0.2114262679
 40
0.4596614222
 40
1.0
 40
1.0
 40
1.0
 40
1.0
 10
471.8617174788
 20
97.4973389782
 30
0.0
 10
471.9481186515
 20
97.4973395606
 30
0.0
 10
472.1334128005
 20
97.5530940522
 30
0.0
 10
472.4923530245
 20
97.7464757833
 30
0.0
 10
472.7525587107
 20
97.9413810408
 30
0.0
 10
472.9192044042
 20
98.0862535702
 30
0.0
  0
SPLINE
  5
351
100
AcDbEntity
  8
0
100
AcDbSpline
 62
7
  6
BYLAYER
 70
0
 71
3
 72
11
 73
7
 74
0
 42
0.0000001
 43
0.0000001
 44
0.0000000001
 40
0.0
 40
0.0
 40
0.0
 40
0.0
 40
0.2037181708
 40
0.4485457117
 40
0.7257135813
 40
1.0
 40
1.0
 40
1.0
 40
1.0
 10
471.4991558387
 20
97.9973389782
 30
0.0
 10
471.5451548666
 20
97.9973389786
 30
0.0
 10
471.6476386703
 20
97.9686989434
 30
0.0
 10
471.7692660271
 20
97.8510582888
 30
0.0
 10
471.8450237975
 20
97.684473894
 30
0.0
 10
471.8617174744
 20
97.5592721311
 30
0.0
 10
471.8617174799
 20
97.4973389782
 30
0.0
  0
SPLINE
  5
352
100
AcDbEntity
  8
0
100
AcDbSpline
 62
7
  6
BYLAYER
 70
0
 71
3
 72
9
 73
5
 74
0
 42
0.0000001
 43
0.0000001
 44
0.0000000001
 40
0.0
 40
0.0
 40
0.0
 40
0.0
 40
0.2408658181
 40
1.0
 40
1.0
 40
1.0
 40
1.0
 10
472.7839209937
 20
98.2917962742
 30
0.0
 10
472.7859541978
 20
98.3082082042
 30
0.0
 10
472.79319318
 20
98.3764912807
 30
0.0
 10
472.7960641025
 20
98.4452182567
 30
0.0
 10
472.7960641025
 20
98.4973389782
 30
0.0
  0
SPLINE
  5
353
100
AcDbEntity
  8
0
100
AcDbSpline
 62
7
  6
BYLAYER
 70
0
 71
3
 72
10
 73
6
 74
0
 42
0.0000001
 43
0.0000001
 44
0.0000000001
 40
0.0
 40
0.0
 40
0.0
 40
0.0
 40
0.2293296864
 40
0.4807218845
 40
1.0
 40
1.0
 40
1.0
 40
1.0
 10
471.4991558593
 20
97.9973389782
 30
0.0
 10
471.6002358797
 20
97.9973392147
 30
0.0
 10
471.8118112795
 20
98.0223539858
 30
0.0
 10
472.2424031579
 20
98.1162498911
 30
0.0
 10
472.5682067875
 20
98.2152928703
 30
0.0
 10
472.7839210563
 20
98.2917960578
 30
0.0
  0
SPLINE
  5
354
100
AcDbEntity
  8
0
100
AcDbSpline
 62
7
  6
BYLAYER
 70
0
 71
3
 72
12
 73
8
 74
0
 42
0.0000001
 43
0.0000001
 44
0.0000000001
 40
0.0
 40
0.0
 40
0.0
 40
0.0
 40
0.3555601317
 40
0.6614267398
 40
0.7831217149
 40
0.8795320322
 40
1.0
 40
1.0
 40
1.0
 40
1.0
 10
476.9988445257
 20
96.4973389782
 30
0.0
 10
476.9988445257
 20
96.3695816969
 30
0.0
 10
476.986257996
 20
96.1315571984
 30
0.0
 10
476.94112508
 20
95.853687575
 30
0.0
 10
476.8819159621
 20
95.6725924002
 30
0.0
 10
476.8323194834
 20
95.5660170963
 30
0.0
 10
476.7674090722
 20
95.4973389782
 30
0.0
 10
476.7241233978
 20
95.4973389782
 30
0.0
  0
SPLINE
  5
355
100
AcDbEntity
  8
0
100
AcDbSpline
 62
7
  6
BYLAYER
 70
0
 71
3
 72
16
 73
12
 74
0
 42
0.0000001
 43
0.0000001
 44
0.0000000001
 40
0.0
 40
0.0
 40
0.0
 40
0.0
 40
0.0660819509
 40
0.1837076052
 40
0.3386899351
 40
0.5123359223
 40
0.6837013925
 40
0.8321172397
 40
0.9396824817
 40
0.9934236715
 40
1.0
 40
1.0
 40
1.0
 40
1.0
 10
461.433025395
 20
1065.9862548657
 30
0.0
 10
461.4328175484
 20
1065.9644348451
 30
0.0
 10
461.4326426966
 20
1065.9037815441
 30
0.0
 10
461.4323757048
 20
1065.7918640465
 30
0.0
 10
461.4322571456
 20
1065.6449366354
 30
0.0
 10
461.4321464691
 20
1065.4779673391
 30
0.0
 10
461.4324366009
 20
1065.3217324361
 30
0.0
 10
461.4319503644
 20
1065.1607906591
 30
0.0
 10
461.4336753513
 20
1065.103631177
 30
0.0
 10
461.4317713856
 20
1064.9829527442
 30
0.0
 10
461.4334361178
 20
1065.0064718879
 30
0.0
 10
461.4334568022
 20
1065.0086433677
 30
0.0
  0
SPLINE
  5
356
100
AcDbEntity
  8
0
100
AcDbSpline
 62
7
  6
BYLAYER
 70
0
 71
3
 72
16
 73
12
 74
0
 42
0.0000001
 43
0.0000001
 44
0.0000000001
 40
0.0
 40
0.0
 40
0.0
 40
0.0
 40
0.0660819509
 40
0.1837076052
 40
0.3386899351
 40
0.5123359223
 40
0.6837013925
 40
0.8321172397
 40
0.9396824817
 40
0.9934236715
 40
1.0
 40
1.0
 40
1.0
 40
1.0
 10
461.4662606192
 20
1065.9862548657
 30
0.0
 10
461.4664684658
 20
1065.9644348451
 30
0.0
 10
461.4666433177
 20
1065.9037815441
 30
0.0
 10
461.4669103095
 20
1065.7918640465
 30
0.0
 10
461.4670288686
 20
1065.6449366354
 30
0.0
 10
461.4671395452
 20
1065.4779673391
 30
0.0
 10
461.4668494133
 20
1065.3217324361
 30
0.0
 10
461.4673356499
 20
1065.1607906591
 30
0.0
 10
461.4656106629
 20
1065.103631177
 30
0.0
 10
461.4675146287
 20
1064.9829527442
 30
0.0
 10
461.4658498965
 20
1065.0064718879
 30
0.0
 10
461.465829212
 20
1065.0086433677
 30
0.0
  0
SPLINE
  5
357
100
AcDbEntity
  8
0
100
AcDbSpline
 62
7
  6
BYLAYER
 70
0
 71
3
 72
16
 73
12
 74
0
 42
0.0000001
 43
0.0000001
 44
0.0000000001
 40
0.0
 40
0.0
 40
0.0
 40
0.0
 40
0.0660819509
 40
0.1837076052
 40
0.3386899351
 40
0.5123359223
 40
0.6837013925
 40
0.8321172397
 40
0.9396824817
 40
0.9934236715
 40
1.0
 40
1.0
 40
1.0
 40
1.0
 10
461.433025395
 20
1065.9862548657
 30
0.0
 10
461.4328175484
 20
1065.9644348451
 30
0.0
 10
461.4326426966
 20
1065.9037815441
 30
0.0
 10
461.4323757048
 20
1065.7918640465
 30
0.0
 10
461.4322571456
 20
1065.6449366354
 30
0.0
 10
461.4321464691
 20
1065.4779673391
 30
0.0
 10
461.4324366009
 20
1065.3217324361
 30
0.0
 10
461.4319503644
 20
1065.1607906591
 30
0.0
 10
461.4336753513
 20
1065.103631177
 30
0.0
 10
461.4317713856
 20
1064.9829527442
 30
0.0
 10
461.4334361178
 20
1065.0064718879
 30
0.0
 10
461.4334568022
 20
1065.0086433677
 30
0.0
  0
SPLINE
  5
358
100
AcDbEntity
  8
0
100
AcDbSpline
 62
7
  6
BYLAYER
 70
0
 71
3
 72
16
 73
12
 74
0
 42
0.0000001
 43
0.0000001
 44
0.0000000001
 40
0.0
 40
0.0
 40
0.0
 40
0.0
 40
0.0660819509
 40
0.1837076052
 40
0.3386899351
 40
0.5123359223
 40
0.6837013925
 40
0.8321172397
 40
0.9396824817
 40
0.9934236715
 40
1.0
 40
1.0
 40
1.0
 40
1.0
 10
461.4662606192
 20
1065.9862548657
 30
0.0
 10
461.4664684658
 20
1065.9644348451
 30
0.0
 10
461.4666433177
 20
1065.9037815441
 30
0.0
 10
461.4669103095
 20
1065.7918640465
 30
0.0
 10
461.4670288686
 20
1065.6449366354
 30
0.0
 10
461.4671395452
 20
1065.4779673391
 30
0.0
 10
461.4668494133
 20
1065.3217324361
 30
0.0
 10
461.4673356499
 20
1065.1607906591
 30
0.0
 10
461.4656106629
 20
1065.103631177
 30
0.0
 10
461.4675146287
 20
1064.9829527442
 30
0.0
 10
461.4658498965
 20
1065.0064718879
 30
0.0
 10
461.465829212
 20
1065.0086433677
 30
0.0
  0
SPLINE
  5
359
100
AcDbEntity
  8
0
100
AcDbSpline
 62
7
  6
BYLAYER
 70
0
 71
3
 72
16
 73
12
 74
0
 42
0.0000001
 43
0.0000001
 44
0.0000000001
 40
0.0
 40
0.0
 40
0.0
 40
0.0
 40
0.066109371
 40
0.1837553808
 40
0.338748546
 40
0.5123945412
 40
0.6837491914
 40
0.8321446955
 40
0.9396825251
 40
0.9933925399
 40
1.0
 40
1.0
 40
1.0
 40
1.0
 10
438.9662607986
 20
1065.9862360338
 30
0.0
 10
438.9664685558
 20
1065.9644064201
 30
0.0
 10
438.966643499
 20
1065.9037358536
 30
0.0
 10
438.9669103698
 20
1065.7917962468
 30
0.0
 10
438.9670290019
 20
1065.6448548428
 30
0.0
 10
438.9671392247
 20
1065.4778819423
 30
0.0
 10
438.9668504442
 20
1065.321651009
 30
0.0
 10
438.9673324087
 20
1065.1607341014
 30
0.0
 10
438.9656172713
 20
1065.1035699023
 30
0.0
 10
438.9675068167
 20
1064.9829426905
 30
0.0
 10
438.9658497975
 20
1065.0064803864
 30
0.0
 10
438.9658290327
 20
1065.0086621996
 30
0.0
  0
SPLINE
  5
35A
100
AcDbEntity
  8
0
100
AcDbSpline
 62
7
  6
BYLAYER
 70
0
 71
3
 72
16
 73
12
 74
0
 42
0.0000001
 43
0.0000001
 44
0.0000000001
 40
0.0
 40
0.0
 40
0.0
 40
0.0
 40
0.066109371
 40
0.1837553808
 40
0.338748546
 40
0.5123945412
 40
0.6837491914
 40
0.8321446955
 40
0.9396825251
 40
0.9933925399
 40
1.0
 40
1.0
 40
1.0
 40
1.0
 10
438.9330252157
 20
1065.9862360338
 30
0.0
 10
438.9328174585
 20
1065.9644064201
 30
0.0
 10
438.9326425153
 20
1065.9037358536
 30
0.0
 10
438.9323756444
 20
1065.7917962468
 30
0.0
 10
438.9322570123
 20
1065.6448548428
 30
0.0
 10
438.9321467895
 20
1065.4778819423
 30
0.0
 10
438.9324355701
 20
1065.321651009
 30
0.0
 10
438.9319536056
 20
1065.1607341014
 30
0.0
 10
438.933668743
 20
1065.1035699023
 30
0.0
 10
438.9317791976
 20
1064.9829426905
 30
0.0
 10
438.9334362167
 20
1065.0064803864
 30
0.0
 10
438.9334569815
 20
1065.0086621996
 30
0.0
  0
SPLINE
  5
35B
100
AcDbEntity
  8
0
100
AcDbSpline
 62
7
  6
BYLAYER
 70
0
 71
3
 72
16
 73
12
 74
0
 42
0.0000001
 43
0.0000001
 44
0.0000000001
 40
0.0
 40
0.0
 40
0.0
 40
0.0
 40
0.0661715043
 40
0.1838636386
 40
0.3388813558
 40
0.5125273691
 40
0.6838575011
 40
0.8322069082
 40
0.9396826219
 40
0.9933219952
 40
1.0
 40
1.0
 40
1.0
 40
1.0
 10
438.9662612049
 20
1065.9861933
 30
0.0
 10
438.9664687601
 20
1065.9643419495
 30
0.0
 10
438.9666439093
 20
1065.9036322638
 30
0.0
 10
438.9669105072
 20
1065.7916425679
 30
0.0
 10
438.9670293014
 20
1065.6446694704
 30
0.0
 10
438.9671385092
 20
1065.4776884243
 30
0.0
 10
438.9668527427
 20
1065.3214664991
 30
0.0
 10
438.9673251719
 20
1065.1606059817
 30
0.0
 10
438.9656320113
 20
1065.103431091
 30
0.0
 10
438.967489379
 20
1064.982919979
 30
0.0
 10
438.9658495728
 20
1065.0064997029
 30
0.0
 10
438.9658286264
 20
1065.0087049334
 30
0.0
  0
SPLINE
  5
35C
100
AcDbEntity
  8
0
100
AcDbSpline
 62
7
  6
BYLAYER
 70
0
 71
3
 72
16
 73
12
 74
0
 42
0.0000001
 43
0.0000001
 44
0.0000000001
 40
0.0
 40
0.0
 40
0.0
 40
0.0
 40
0.0661715043
 40
0.1838636386
 40
0.3388813558
 40
0.5125273691
 40
0.6838575011
 40
0.8322069082
 40
0.9396826219
 40
0.9933219952
 40
1.0
 40
1.0
 40
1.0
 40
1.0
 10
438.9330248094
 20
1065.9861933
 30
0.0
 10
438.9328172541
 20
1065.9643419495
 30
0.0
 10
438.9326421049
 20
1065.9036322638
 30
0.0
 10
438.9323755071
 20
1065.7916425679
 30
0.0
 10
438.9322567129
 20
1065.6446694704
 30
0.0
 10
438.9321475051
 20
1065.4776884243
 30
0.0
 10
438.9324332716
 20
1065.3214664991
 30
0.0
 10
438.9319608424
 20
1065.1606059817
 30
0.0
 10
438.9336540029
 20
1065.103431091
 30
0.0
 10
438.9317966353
 20
1064.982919979
 30
0.0
 10
438.9334364414
 20
1065.0064997029
 30
0.0
 10
438.9334573878
 20
1065.0087049334
 30
0.0
  0
SPLINE
  5
35D
100
AcDbEntity
  8
0
100
AcDbSpline
 62
7
  6
BYLAYER
 70
0
 71
3
 72
16
 73
12
 74
0
 42
0.0000001
 43
0.0000001
 44
0.0000000001
 40
0.0
 40
0.0
 40
0.0
 40
0.0
 40
0.0660819509
 40
0.1837076052
 40
0.3386899351
 40
0.5123359223
 40
0.6837013925
 40
0.8321172397
 40
0.9396824817
 40
0.9934236715
 40
1.0
 40
1.0
 40
1.0
 40
1.0
 10
461.433025395
 20
1065.9862548657
 30
0.0
 10
461.4328175484
 20
1065.9644348451
 30
0.0
 10
461.4326426966
 20
1065.9037815441
 30
0.0
 10
461.4323757048
 20
1065.7918640465
 30
0.0
 10
461.4322571456
 20
1065.6449366354
 30
0.0
 10
461.4321464691
 20
1065.4779673391
 30
0.0
 10
461.4324366009
 20
1065.3217324361
 30
0.0
 10
461.4319503644
 20
1065.1607906591
 30
0.0
 10
461.4336753513
 20
1065.103631177
 30
0.0
 10
461.4317713856
 20
1064.9829527442
 30
0.0
 10
461.4334361178
 20
1065.0064718879
 30
0.0
 10
461.4334568022
 20
1065.0086433677
 30
0.0
  0
SPLINE
  5
35E
100
AcDbEntity
  8
0
100
AcDbSpline
 62
7
  6
BYLAYER
 70
0
 71
3
 72
16
 73
12
 74
0
 42
0.0000001
 43
0.0000001
 44
0.0000000001
 40
0.0
 40
0.0
 40
0.0
 40
0.0
 40
0.0660819509
 40
0.1837076052
 40
0.3386899351
 40
0.5123359223
 40
0.6837013925
 40
0.8321172397
 40
0.9396824817
 40
0.9934236715
 40
1.0
 40
1.0
 40
1.0
 40
1.0
 10
461.4662606192
 20
1065.9862548657
 30
0.0
 10
461.4664684658
 20
1065.9644348451
 30
0.0
 10
461.4666433177
 20
1065.9037815441
 30
0.0
 10
461.4669103095
 20
1065.7918640465
 30
0.0
 10
461.4670288686
 20
1065.6449366354
 30
0.0
 10
461.4671395452
 20
1065.4779673391
 30
0.0
 10
461.4668494133
 20
1065.3217324361
 30
0.0
 10
461.4673356499
 20
1065.1607906591
 30
0.0
 10
461.4656106629
 20
1065.103631177
 30
0.0
 10
461.4675146287
 20
1064.9829527442
 30
0.0
 10
461.4658498965
 20
1065.0064718879
 30
0.0
 10
461.465829212
 20
1065.0086433677
 30
0.0
  0
SPLINE
  5
35F
100
AcDbEntity
  8
0
100
AcDbSpline
 62
7
  6
BYLAYER
 70
0
 71
3
 72
16
 73
12
 74
0
 42
0.0000001
 43
0.0000001
 44
0.0000000001
 40
0.0
 40
0.0
 40
0.0
 40
0.0
 40
0.0660819509
 40
0.1837076052
 40
0.3386899351
 40
0.5123359223
 40
0.6837013925
 40
0.8321172397
 40
0.9396824817
 40
0.9934236715
 40
1.0
 40
1.0
 40
1.0
 40
1.0
 10
461.433025395
 20
1065.9862548657
 30
0.0
 10
461.4328175484
 20
1065.9644348451
 30
0.0
 10
461.4326426966
 20
1065.9037815441
 30
0.0
 10
461.4323757048
 20
1065.7918640465
 30
0.0
 10
461.4322571456
 20
1065.6449366354
 30
0.0
 10
461.4321464691
 20
1065.4779673391
 30
0.0
 10
461.4324366009
 20
1065.3217324361
 30
0.0
 10
461.4319503644
 20
1065.1607906591
 30
0.0
 10
461.4336753513
 20
1065.103631177
 30
0.0
 10
461.4317713856
 20
1064.9829527442
 30
0.0
 10
461.4334361178
 20
1065.0064718879
 30
0.0
 10
461.4334568022
 20
1065.0086433677
 30
0.0
  0
SPLINE
  5
360
100
AcDbEntity
  8
0
100
AcDbSpline
 62
7
  6
BYLAYER
 70
0
 71
3
 72
16
 73
12
 74
0
 42
0.0000001
 43
0.0000001
 44
0.0000000001
 40
0.0
 40
0.0
 40
0.0
 40
0.0
 40
0.0660819509
 40
0.1837076052
 40
0.3386899351
 40
0.5123359223
 40
0.6837013925
 40
0.8321172397
 40
0.9396824817
 40
0.9934236715
 40
1.0
 40
1.0
 40
1.0
 40
1.0
 10
461.4662606192
 20
1065.9862548657
 30
0.0
 10
461.4664684658
 20
1065.9644348451
 30
0.0
 10
461.4666433177
 20
1065.9037815441
 30
0.0
 10
461.4669103095
 20
1065.7918640465
 30
0.0
 10
461.4670288686
 20
1065.6449366354
 30
0.0
 10
461.4671395452
 20
1065.4779673391
 30
0.0
 10
461.4668494133
 20
1065.3217324361
 30
0.0
 10
461.4673356499
 20
1065.1607906591
 30
0.0
 10
461.4656106629
 20
1065.103631177
 30
0.0
 10
461.4675146287
 20
1064.9829527442
 30
0.0
 10
461.4658498965
 20
1065.0064718879
 30
0.0
 10
461.465829212
 20
1065.0086433677
 30
0.0
  0
SPLINE
  5
361
100
AcDbEntity
  8
0
100
AcDbSpline
 62
7
  6
BYLAYER
 70
0
 71
3
 72
16
 73
12
 74
0
 42
0.0000001
 43
0.0000001
 44
0.0000000001
 40
0.0
 40
0.0
 40
0.0
 40
0.0
 40
0.066109371
 40
0.1837553808
 40
0.338748546
 40
0.5123945412
 40
0.6837491914
 40
0.8321446955
 40
0.9396825251
 40
0.9933925399
 40
1.0
 40
1.0
 40
1.0
 40
1.0
 10
438.9662607986
 20
1065.9862360338
 30
0.0
 10
438.9664685558
 20
1065.9644064201
 30
0.0
 10
438.966643499
 20
1065.9037358536
 30
0.0
 10
438.9669103698
 20
1065.7917962468
 30
0.0
 10
438.9670290019
 20
1065.6448548428
 30
0.0
 10
438.9671392247
 20
1065.4778819423
 30
0.0
 10
438.9668504442
 20
1065.321651009
 30
0.0
 10
438.9673324087
 20
1065.1607341014
 30
0.0
 10
438.9656172713
 20
1065.1035699023
 30
0.0
 10
438.9675068167
 20
1064.9829426905
 30
0.0
 10
438.9658497975
 20
1065.0064803864
 30
0.0
 10
438.9658290327
 20
1065.0086621996
 30
0.0
  0
SPLINE
  5
362
100
AcDbEntity
  8
0
100
AcDbSpline
 62
7
  6
BYLAYER
 70
0
 71
3
 72
16
 73
12
 74
0
 42
0.0000001
 43
0.0000001
 44
0.0000000001
 40
0.0
 40
0.0
 40
0.0
 40
0.0
 40
0.066109371
 40
0.1837553808
 40
0.338748546
 40
0.5123945412
 40
0.6837491914
 40
0.8321446955
 40
0.9396825251
 40
0.9933925399
 40
1.0
 40
1.0
 40
1.0
 40
1.0
 10
438.9330252157
 20
1065.9862360338
 30
0.0
 10
438.9328174585
 20
1065.9644064201
 30
0.0
 10
438.9326425153
 20
1065.9037358536
 30
0.0
 10
438.9323756444
 20
1065.7917962468
 30
0.0
 10
438.9322570123
 20
1065.6448548428
 30
0.0
 10
438.9321467895
 20
1065.4778819423
 30
0.0
 10
438.9324355701
 20
1065.321651009
 30
0.0
 10
438.9319536056
 20
1065.1607341014
 30
0.0
 10
438.933668743
 20
1065.1035699023
 30
0.0
 10
438.9317791976
 20
1064.9829426905
 30
0.0
 10
438.9334362167
 20
1065.0064803864
 30
0.0
 10
438.9334569815
 20
1065.0086621996
 30
0.0
  0
SPLINE
  5
363
100
AcDbEntity
  8
0
100
AcDbSpline
 62
7
  6
BYLAYER
 70
0
 71
3
 72
16
 73
12
 74
0
 42
0.0000001
 43
0.0000001
 44
0.0000000001
 40
0.0
 40
0.0
 40
0.0
 40
0.0
 40
0.0661715043
 40
0.1838636386
 40
0.3388813558
 40
0.5125273691
 40
0.6838575011
 40
0.8322069082
 40
0.9396826219
 40
0.9933219952
 40
1.0
 40
1.0
 40
1.0
 40
1.0
 10
438.9662612049
 20
1065.9861933
 30
0.0
 10
438.9664687601
 20
1065.9643419495
 30
0.0
 10
438.9666439093
 20
1065.9036322638
 30
0.0
 10
438.9669105072
 20
1065.7916425679
 30
0.0
 10
438.9670293014
 20
1065.6446694704
 30
0.0
 10
438.9671385092
 20
1065.4776884243
 30
0.0
 10
438.9668527427
 20
1065.3214664991
 30
0.0
 10
438.9673251719
 20
1065.1606059817
 30
0.0
 10
438.9656320113
 20
1065.103431091
 30
0.0
 10
438.967489379
 20
1064.982919979
 30
0.0
 10
438.9658495728
 20
1065.0064997029
 30
0.0
 10
438.9658286264
 20
1065.0087049334
 30
0.0
  0
SPLINE
  5
364
100
AcDbEntity
  8
0
100
AcDbSpline
 62
7
  6
BYLAYER
 70
0
 71
3
 72
16
 73
12
 74
0
 42
0.0000001
 43
0.0000001
 44
0.0000000001
 40
0.0
 40
0.0
 40
0.0
 40
0.0
 40
0.0661715043
 40
0.1838636386
 40
0.3388813558
 40
0.5125273691
 40
0.6838575011
 40
0.8322069082
 40
0.9396826219
 40
0.9933219952
 40
1.0
 40
1.0
 40
1.0
 40
1.0
 10
438.9330248094
 20
1065.9861933
 30
0.0
 10
438.9328172541
 20
1065.9643419495
 30
0.0
 10
438.9326421049
 20
1065.9036322638
 30
0.0
 10
438.9323755071
 20
1065.7916425679
 30
0.0
 10
438.9322567129
 20
1065.6446694704
 30
0.0
 10
438.9321475051
 20
1065.4776884243
 30
0.0
 10
438.9324332716
 20
1065.3214664991
 30
0.0
 10
438.9319608424
 20
1065.1606059817
 30
0.0
 10
438.9336540029
 20
1065.103431091
 30
0.0
 10
438.9317966353
 20
1064.982919979
 30
0.0
 10
438.9334364414
 20
1065.0064997029
 30
0.0
 10
438.9334573878
 20
1065.0087049334
 30
0.0
  0
ENDSEC
  0
SECTION
  2
OBJECTS
  0
DICTIONARY
  5
C
100
AcDbDictionary
280
0
281
1
  3
ACAD_GROUP
350
D
  3
ACAD_MLINESTYLE
350
17
  3
ACAD_LAYOUT
350
1A
  3
ACAD_PLOTSETTINGS
350
19
  3
ACAD_PLOTSTYLENAME
350
E
  0
DICTIONARY
  5
D
102
{ACAD_REACTORS
330
C
102
}
100
AcDbDictionary
280
0
281
1
  0
ACDBDICTIONARYWDFLT
  5
E
102
{ACAD_REACTORS
330
C
102
}
100
AcDbDictionary
281
1
  3
Normal
350
F
100
AcDbDictionaryWithDefault
340
F
  0
DICTIONARY
  5
17
102
{ACAD_REACTORS
330
C
102
}
100
AcDbDictionary
280
0
281
1
  3
Standard
350
18
  0
DICTIONARY
  5
19
102
{ACAD_REACTORS
330
C
102
}
100
AcDbDictionary
281
1
  0
DICTIONARY
  5
1A
102
{ACAD_REACTORS
330
C
102
}
100
AcDbDictionary
281
1
  3
Model
350
365
  3
Layout1
350
366
  0
ACDBPLACEHOLDER
  5
F
102
{ACAD_REACTORS
330
E
102
}
  0
MLINESTYLE
  5
18
102
{ACAD_REACTORS
330
17
102
}
100
AcDbMlineStyle
  2
STANDARD
 70
0
  3

 62
256
 51
90.0
 52
90.0
 71
2
 49
0.5
 62
256
  6
BYLAYER
 49
-0.5
 62
256
  6
BYLAYER
  0
LAYOUT
  5
365
102
{ACAD_REACTORS
330
1A
102
}
100
AcDbPlotSettings
  1

  2
none_device
  4

  6

 40
0.0
 41
0.0
 42
0.0
 43
0.0
 44
210.0
 45
297.0
 46
0.0
 47
0.0
 48
0.0
 49
0.0
140
0.0
141
0.0
142
1.0
143
1.0
 70
1024
 72
1
 73
0
 74
0
  7

 75
0
147
1.0
148
0.0
149
0.0
100
AcDbLayout
  1
Model
 70
0
 71
0
 10
0.0
 20
0.0
 11
210.0
 21
297.0
 12
0.0
 22
0.0
 32
0.0
 14
0.0
 24
0.0
 34
0.0
 15
0.0
 25
0.0
 35
0.0
146
0.0
 13
0.0
 23
0.0
 33
0.0
 16
1.0
 26
0.0
 36
0.0
 17
0.0
 27
1.0
 37
0.0
 76
0
330
212
345
0
346
0
  0
LAYOUT
  5
366
102
{ACAD_REACTORS
330
1A
102
}
100
AcDbPlotSettings
  1

  2
none_device
  4

  6

 40
0.0
 41
0.0
 42
0.0
 43
0.0
 44
210.0
 45
297.0
 46
0.0
 47
0.0
 48
0.0
 49
0.0
140
0.0
141
0.0
142
1.0
143
1.0
 70
0
 72
1
 73
0
 74
0
  7

 75
0
147
1.0
148
0.0
149
0.0
100
AcDbLayout
  1
Layout1
 70
0
 71
1
 10
0.0
 20
0.0
 11
210.0
 21
297.0
 12
0.0
 22
0.0
 32
0.0
 14
0.0
 24
0.0
 34
0.0
 15
0.0
 25
0.0
 35
0.0
146
0.0
 13
0.0
 23
0.0
 33
0.0
 16
1.0
 26
0.0
 36
0.0
 17
0.0
 27
1.0
 37
0.0
 76
0
330
213
345
0
346
0
  0
ENDSEC
  0
EOF
